ISO-10303-21;
HEADER;
FILE_DESCRIPTION (( 'STEP AP214' ),
    '1' );
FILE_NAME ('FO-00D-WF-M12-020 FORMAT Øàéáà Ì12 óñèëåí. óâåëè÷åí. DIN7349 (20øò_óïàê) IEK.STEP',
    '2024-07-03T11:21:25',
    ( '' ),
    ( '' ),
    'SwSTEP 2.0',
    'SolidWorks 2022',
    '' );
FILE_SCHEMA (( 'AUTOMOTIVE_DESIGN' ));
ENDSEC;

DATA;
#1 = DIRECTION ( 'NONE',  ( 0.000000000000000000, 0.000000000000000000, 1.000000000000000000 ) ) ;
#2 = ORIENTED_EDGE ( 'NONE', *, *, #129, .T. ) ;
#3 = EDGE_CURVE ( 'NONE', #49, #85, #41, .T. ) ;
#4 = LINE ( 'NONE', #72, #130 ) ;
#5 = ORIENTED_EDGE ( 'NONE', *, *, #64, .F. ) ;
#6 =( NAMED_UNIT ( * ) SI_UNIT ( $, .STERADIAN. ) SOLID_ANGLE_UNIT ( ) );
#7 = AXIS2_PLACEMENT_3D ( 'NONE', #213, #112, #195 ) ;
#8 = CARTESIAN_POINT ( 'NONE',  ( -15.00000000000000000, 0.000000000000000000, 0.000000000000000000 ) ) ;
#9 = CARTESIAN_POINT ( 'NONE',  ( 0.000000000000000000, 0.000000000000000000, 6.000000000000000000 ) ) ;
#10 = AXIS2_PLACEMENT_3D ( 'NONE', #59, #152, #98 ) ;
#11 = DIRECTION ( 'NONE',  ( -1.000000000000000000, 0.000000000000000000, 0.000000000000000000 ) ) ;
#12 = ADVANCED_FACE ( 'NONE', ( #122 ), #157, .F. ) ;
#13 = SURFACE_STYLE_USAGE ( .BOTH. , #196 ) ;
#14 = UNCERTAINTY_MEASURE_WITH_UNIT (LENGTH_MEASURE( 1.000000000000000082E-05 ), #124, 'distance_accuracy_value', 'NONE');
#15 = VECTOR ( 'NONE', #67, 1000.000000000000000 ) ;
#16 = DIRECTION ( 'NONE',  ( 1.000000000000000000, 0.000000000000000000, 0.000000000000000000 ) ) ;
#17 = VERTEX_POINT ( 'NONE', #25 ) ;
#18 = EDGE_LOOP ( 'NONE', ( #167, #189, #171, #118 ) ) ;
#19 = DIRECTION ( 'NONE',  ( -0.000000000000000000, -0.000000000000000000, -1.000000000000000000 ) ) ;
#20 = AXIS2_PLACEMENT_3D ( 'NONE', #99, #119, #166 ) ;
#21 = SHAPE_DEFINITION_REPRESENTATION ( #79, #128 ) ;
#22 = ORIENTED_EDGE ( 'NONE', *, *, #3, .F. ) ;
#23 = ADVANCED_FACE ( 'NONE', ( #160, #40 ), #62, .F. ) ;
#24 = ADVANCED_FACE ( 'NONE', ( #182 ), #95, .T. ) ;
#25 = CARTESIAN_POINT ( 'NONE',  ( 6.500000000000000888, 7.960204194457796463E-16, 6.000000000000000000 ) ) ;
#26 = SURFACE_STYLE_FILL_AREA ( #144 ) ;
#27 = EDGE_CURVE ( 'NONE', #170, #68, #75, .T. ) ;
#28 = DIRECTION ( 'NONE',  ( 1.000000000000000000, 0.000000000000000000, 0.000000000000000000 ) ) ;
#29 = ORIENTED_EDGE ( 'NONE', *, *, #36, .T. ) ;
#30 = CARTESIAN_POINT ( 'NONE',  ( 6.500000000000000888, 7.960204194457796463E-16, 0.000000000000000000 ) ) ;
#31 = ORIENTED_EDGE ( 'NONE', *, *, #158, .F. ) ;
#32 = CARTESIAN_POINT ( 'NONE',  ( 15.00000000000000000, 1.836970198721029589E-15, 6.000000000000000000 ) ) ;
#33 = ORIENTED_EDGE ( 'NONE', *, *, #45, .T. ) ;
#34 = CIRCLE ( 'NONE', #161, 6.500000000000000888 ) ;
#35 = EDGE_LOOP ( 'NONE', ( #22, #204 ) ) ;
#36 = EDGE_CURVE ( 'NONE', #17, #185, #117, .T. ) ;
#37 = AXIS2_PLACEMENT_3D ( 'NONE', #101, #1, #65 ) ;
#38 =( GEOMETRIC_REPRESENTATION_CONTEXT ( 3 ) GLOBAL_UNCERTAINTY_ASSIGNED_CONTEXT ( ( #14 ) ) GLOBAL_UNIT_ASSIGNED_CONTEXT ( ( #124, #91, #6 ) ) REPRESENTATION_CONTEXT ( 'NONE', 'WORKASPACE' ) );
#39 = CARTESIAN_POINT ( 'NONE',  ( 0.000000000000000000, 0.000000000000000000, 6.000000000000000000 ) ) ;
#40 = FACE_BOUND ( 'NONE', #89, .T. ) ;
#41 = CIRCLE ( 'NONE', #164, 15.00000000000000000 ) ;
#42 = DIRECTION ( 'NONE',  ( 0.000000000000000000, 0.000000000000000000, 1.000000000000000000 ) ) ;
#43 = MANIFOLD_SOLID_BREP ( 'Áîáûøêà-Âûòÿíóòü1', #210 ) ;
#44 = CARTESIAN_POINT ( 'NONE',  ( -15.00000000000000000, 0.000000000000000000, 6.000000000000000000 ) ) ;
#45 = EDGE_CURVE ( 'NONE', #132, #153, #177, .T. ) ;
#46 = CARTESIAN_POINT ( 'NONE',  ( 6.500000000000000888, 7.960204194457796463E-16, 6.000000000000000000 ) ) ;
#47 = ORIENTED_EDGE ( 'NONE', *, *, #154, .T. ) ;
#48 = LINE ( 'NONE', #187, #15 ) ;
#49 = VERTEX_POINT ( 'NONE', #8 ) ;
#50 = CARTESIAN_POINT ( 'NONE',  ( -6.500000000000000888, 0.000000000000000000, 0.000000000000000000 ) ) ;
#51 = ORIENTED_EDGE ( 'NONE', *, *, #158, .T. ) ;
#52 = SURFACE_STYLE_USAGE ( .BOTH. , #137 ) ;
#53 = DIRECTION ( 'NONE',  ( 1.000000000000000000, 0.000000000000000000, 0.000000000000000000 ) ) ;
#54 = FILL_AREA_STYLE ('',( #207 ) ) ;
#55 = COLOUR_RGB ( '',1.000000000000000000, 1.000000000000000000, 1.000000000000000000 ) ;
#56 =( LENGTH_UNIT ( ) NAMED_UNIT ( * ) SI_UNIT ( .MILLI., .METRE. ) );
#57 = ADVANCED_FACE ( 'NONE', ( #184, #141 ), #192, .T. ) ;
#58 = UNCERTAINTY_MEASURE_WITH_UNIT (LENGTH_MEASURE( 1.000000000000000082E-05 ), #162, 'distance_accuracy_value', 'NONE');
#59 = CARTESIAN_POINT ( 'NONE',  ( 0.000000000000000000, 0.000000000000000000, 6.000000000000000000 ) ) ;
#60 = ADVANCED_FACE ( 'NONE', ( #80 ), #211, .F. ) ;
#61 = DIRECTION ( 'NONE',  ( 0.000000000000000000, 0.000000000000000000, 1.000000000000000000 ) ) ;
#62 = PLANE ( 'NONE',  #90 ) ;
#63 = VECTOR ( 'NONE', #116, 1000.000000000000000 ) ;
#64 = EDGE_CURVE ( 'NONE', #68, #49, #4, .T. ) ;
#65 = DIRECTION ( 'NONE',  ( 1.000000000000000000, 0.000000000000000000, 0.000000000000000000 ) ) ;
#66 = EDGE_LOOP ( 'NONE', ( #200, #102 ) ) ;
#67 = DIRECTION ( 'NONE',  ( -0.000000000000000000, -0.000000000000000000, -1.000000000000000000 ) ) ;
#68 = VERTEX_POINT ( 'NONE', #44 ) ;
#69 = AXIS2_PLACEMENT_3D ( 'NONE', #87, #203, #148 ) ;
#70 = EDGE_LOOP ( 'NONE', ( #104, #73, #47, #5 ) ) ;
#71 = EDGE_CURVE ( 'NONE', #153, #132, #34, .T. ) ;
#72 = CARTESIAN_POINT ( 'NONE',  ( -15.00000000000000000, 0.000000000000000000, 6.000000000000000000 ) ) ;
#73 = ORIENTED_EDGE ( 'NONE', *, *, #172, .T. ) ;
#74 = ORIENTED_EDGE ( 'NONE', *, *, #36, .F. ) ;
#75 = CIRCLE ( 'NONE', #7, 15.00000000000000000 ) ;
#76 = CARTESIAN_POINT ( 'NONE',  ( -6.500000000000000888, 0.000000000000000000, 6.000000000000000000 ) ) ;
#77 = DIRECTION ( 'NONE',  ( -0.000000000000000000, -0.000000000000000000, -1.000000000000000000 ) ) ;
#78 = PRODUCT_DEFINITION ( 'UNKNOWN', '', #83, #212 ) ;
#79 = PRODUCT_DEFINITION_SHAPE ( 'NONE', 'NONE',  #78 ) ;
#80 = FACE_OUTER_BOUND ( 'NONE', #149, .T. ) ;
#81 = DIRECTION ( 'NONE',  ( 1.000000000000000000, 0.000000000000000000, 0.000000000000000000 ) ) ;
#82 = STYLED_ITEM ( 'NONE', ( #180 ), #43 ) ;
#83 = PRODUCT_DEFINITION_FORMATION_WITH_SPECIFIED_SOURCE ( 'ANY', '', #142, .NOT_KNOWN. ) ;
#84 = CARTESIAN_POINT ( 'NONE',  ( 15.00000000000000000, 1.836970198721029589E-15, 0.000000000000000000 ) ) ;
#85 = VERTEX_POINT ( 'NONE', #84 ) ;
#86 = UNCERTAINTY_MEASURE_WITH_UNIT (LENGTH_MEASURE( 1.000000000000000082E-05 ), #56, 'distance_accuracy_value', 'NONE');
#87 = CARTESIAN_POINT ( 'NONE',  ( 0.000000000000000000, 0.000000000000000000, 0.000000000000000000 ) ) ;
#88 = FACE_OUTER_BOUND ( 'NONE', #70, .T. ) ;
#89 = EDGE_LOOP ( 'NONE', ( #120, #33 ) ) ;
#90 = AXIS2_PLACEMENT_3D ( 'NONE', #126, #61, #113 ) ;
#91 =( NAMED_UNIT ( * ) PLANE_ANGLE_UNIT ( ) SI_UNIT ( $, .RADIAN. ) );
#92 = DIRECTION ( 'NONE',  ( -1.000000000000000000, 0.000000000000000000, 0.000000000000000000 ) ) ;
#93 = AXIS2_PLACEMENT_3D ( 'NONE', #198, #209, #11 ) ;
#94 = DIRECTION ( 'NONE',  ( 1.000000000000000000, 0.000000000000000000, 0.000000000000000000 ) ) ;
#95 = CYLINDRICAL_SURFACE ( 'NONE', #93, 15.00000000000000000 ) ;
#96 =( NAMED_UNIT ( * ) PLANE_ANGLE_UNIT ( ) SI_UNIT ( $, .RADIAN. ) );
#97 =( NAMED_UNIT ( * ) SI_UNIT ( $, .STERADIAN. ) SOLID_ANGLE_UNIT ( ) );
#98 = DIRECTION ( 'NONE',  ( -1.000000000000000000, 0.000000000000000000, 0.000000000000000000 ) ) ;
#99 = CARTESIAN_POINT ( 'NONE',  ( 0.000000000000000000, 0.000000000000000000, 6.000000000000000000 ) ) ;
#100 = APPLICATION_PROTOCOL_DEFINITION ( 'draft international standard', 'automotive_design', 1998, #168 ) ;
#101 = CARTESIAN_POINT ( 'NONE',  ( 0.000000000000000000, 0.000000000000000000, 6.000000000000000000 ) ) ;
#102 = ORIENTED_EDGE ( 'NONE', *, *, #27, .T. ) ;
#103 = CYLINDRICAL_SURFACE ( 'NONE', #190, 15.00000000000000000 ) ;
#104 = ORIENTED_EDGE ( 'NONE', *, *, #27, .F. ) ;
#105 = APPLICATION_PROTOCOL_DEFINITION ( 'draft international standard', 'automotive_design', 1998, #174 ) ;
#106 = AXIS2_PLACEMENT_3D ( 'NONE', #9, #42, #110 ) ;
#107 = DIRECTION ( 'NONE',  ( -1.000000000000000000, 0.000000000000000000, 0.000000000000000000 ) ) ;
#108 = CARTESIAN_POINT ( 'NONE',  ( 0.000000000000000000, 0.000000000000000000, 0.000000000000000000 ) ) ;
#109 = CARTESIAN_POINT ( 'NONE',  ( 0.000000000000000000, 0.000000000000000000, 0.000000000000000000 ) ) ;
#110 = DIRECTION ( 'NONE',  ( 1.000000000000000000, 0.000000000000000000, -0.000000000000000000 ) ) ;
#111 = STYLED_ITEM ( 'NONE', ( #123 ), #128 ) ;
#112 = DIRECTION ( 'NONE',  ( 0.000000000000000000, 0.000000000000000000, 1.000000000000000000 ) ) ;
#113 = DIRECTION ( 'NONE',  ( 1.000000000000000000, 0.000000000000000000, -0.000000000000000000 ) ) ;
#114 = EDGE_CURVE ( 'NONE', #68, #170, #133, .T. ) ;
#115 = CARTESIAN_POINT ( 'NONE',  ( 0.000000000000000000, 0.000000000000000000, 0.000000000000000000 ) ) ;
#116 = DIRECTION ( 'NONE',  ( -0.000000000000000000, -0.000000000000000000, -1.000000000000000000 ) ) ;
#117 = CIRCLE ( 'NONE', #193, 6.500000000000000888 ) ;
#118 = ORIENTED_EDGE ( 'NONE', *, *, #3, .T. ) ;
#119 = DIRECTION ( 'NONE',  ( 0.000000000000000000, 0.000000000000000000, 1.000000000000000000 ) ) ;
#120 = ORIENTED_EDGE ( 'NONE', *, *, #71, .T. ) ;
#121 = PRESENTATION_LAYER_ASSIGNMENT (  '', '', ( #82 ) ) ;
#122 = FACE_OUTER_BOUND ( 'NONE', #205, .T. ) ;
#123 = PRESENTATION_STYLE_ASSIGNMENT (( #52 ) ) ;
#124 =( LENGTH_UNIT ( ) NAMED_UNIT ( * ) SI_UNIT ( .MILLI., .METRE. ) );
#125 =( NAMED_UNIT ( * ) PLANE_ANGLE_UNIT ( ) SI_UNIT ( $, .RADIAN. ) );
#126 = CARTESIAN_POINT ( 'NONE',  ( 0.000000000000000000, 0.000000000000000000, 0.000000000000000000 ) ) ;
#127 = DIRECTION ( 'NONE',  ( 0.000000000000000000, 0.000000000000000000, 1.000000000000000000 ) ) ;
#128 = ADVANCED_BREP_SHAPE_REPRESENTATION ( 'FO-00D-WF-M12-020 FORMAT \X2\04280430043904310430\X0\ \X2\041c\X0\12 \X2\044304410438043b0435043d\X0\. \X2\044304320435043b043804470435043d\X0\. DIN7349 (20\X2\04480442\X0\_\X2\0443043f0430043a\X0\) IEK', ( #43, #194 ), #138 ) ;
#129 = EDGE_CURVE ( 'NONE', #17, #132, #131, .T. ) ;
#130 = VECTOR ( 'NONE', #214, 1000.000000000000000 ) ;
#131 = LINE ( 'NONE', #46, #63 ) ;
#132 = VERTEX_POINT ( 'NONE', #30 ) ;
#133 = CIRCLE ( 'NONE', #37, 15.00000000000000000 ) ;
#134 = ORIENTED_EDGE ( 'NONE', *, *, #129, .F. ) ;
#135 = ORIENTED_EDGE ( 'NONE', *, *, #71, .F. ) ;
#136 = CARTESIAN_POINT ( 'NONE',  ( 0.000000000000000000, 0.000000000000000000, 6.000000000000000000 ) ) ;
#137 = SURFACE_SIDE_STYLE ('',( #159 ) ) ;
#138 =( GEOMETRIC_REPRESENTATION_CONTEXT ( 3 ) GLOBAL_UNCERTAINTY_ASSIGNED_CONTEXT ( ( #86 ) ) GLOBAL_UNIT_ASSIGNED_CONTEXT ( ( #56, #125, #155 ) ) REPRESENTATION_CONTEXT ( 'NONE', 'WORKASPACE' ) );
#139 = EDGE_CURVE ( 'NONE', #185, #17, #183, .T. ) ;
#140 = PRESENTATION_LAYER_ASSIGNMENT (  '', '', ( #111 ) ) ;
#141 = FACE_BOUND ( 'NONE', #186, .T. ) ;
#142 = PRODUCT ( 'FO-00D-WF-M12-020 FORMAT \X2\04280430043904310430\X0\ \X2\041c\X0\12 \X2\044304410438043b0435043d\X0\. \X2\044304320435043b043804470435043d\X0\. DIN7349 (20\X2\04480442\X0\_\X2\0443043f0430043a\X0\) IEK', 'FO-00D-WF-M12-020 FORMAT \X2\04280430043904310430\X0\ \X2\041c\X0\12 \X2\044304410438043b0435043d\X0\. \X2\044304320435043b043804470435043d\X0\. DIN7349 (20\X2\04480442\X0\_\X2\0443043f0430043a\X0\) IEK', '', ( #151 ) ) ;
#143 = CARTESIAN_POINT ( 'NONE',  ( 0.000000000000000000, 0.000000000000000000, 6.000000000000000000 ) ) ;
#144 = FILL_AREA_STYLE ('',( #178 ) ) ;
#145 = DIRECTION ( 'NONE',  ( 0.000000000000000000, 0.000000000000000000, 1.000000000000000000 ) ) ;
#146 = VECTOR ( 'NONE', #19, 1000.000000000000000 ) ;
#147 = ORIENTED_EDGE ( 'NONE', *, *, #139, .F. ) ;
#148 = DIRECTION ( 'NONE',  ( 1.000000000000000000, 0.000000000000000000, 0.000000000000000000 ) ) ;
#149 = EDGE_LOOP ( 'NONE', ( #134, #29, #51, #188 ) ) ;
#150 = AXIS2_PLACEMENT_3D ( 'NONE', #109, #145, #28 ) ;
#151 = PRODUCT_CONTEXT ( 'NONE', #174, 'mechanical' ) ;
#152 = DIRECTION ( 'NONE',  ( -0.000000000000000000, -0.000000000000000000, -1.000000000000000000 ) ) ;
#153 = VERTEX_POINT ( 'NONE', #50 ) ;
#154 = EDGE_CURVE ( 'NONE', #85, #49, #163, .T. ) ;
#155 =( NAMED_UNIT ( * ) SI_UNIT ( $, .STERADIAN. ) SOLID_ANGLE_UNIT ( ) );
#156 = ORIENTED_EDGE ( 'NONE', *, *, #139, .T. ) ;
#157 = CYLINDRICAL_SURFACE ( 'NONE', #197, 6.500000000000000888 ) ;
#158 = EDGE_CURVE ( 'NONE', #185, #153, #48, .T. ) ;
#159 = SURFACE_STYLE_FILL_AREA ( #54 ) ;
#160 = FACE_OUTER_BOUND ( 'NONE', #35, .T. ) ;
#161 = AXIS2_PLACEMENT_3D ( 'NONE', #115, #165, #16 ) ;
#162 =( LENGTH_UNIT ( ) NAMED_UNIT ( * ) SI_UNIT ( .MILLI., .METRE. ) );
#163 = CIRCLE ( 'NONE', #69, 15.00000000000000000 ) ;
#164 = AXIS2_PLACEMENT_3D ( 'NONE', #191, #206, #53 ) ;
#165 = DIRECTION ( 'NONE',  ( 0.000000000000000000, 0.000000000000000000, 1.000000000000000000 ) ) ;
#166 = DIRECTION ( 'NONE',  ( 1.000000000000000000, 0.000000000000000000, 0.000000000000000000 ) ) ;
#167 = ORIENTED_EDGE ( 'NONE', *, *, #172, .F. ) ;
#168 = APPLICATION_CONTEXT ( 'automotive_design' ) ;
#169 = LINE ( 'NONE', #32, #146 ) ;
#170 = VERTEX_POINT ( 'NONE', #202 ) ;
#171 = ORIENTED_EDGE ( 'NONE', *, *, #64, .T. ) ;
#172 = EDGE_CURVE ( 'NONE', #170, #85, #169, .T. ) ;
#173 =( GEOMETRIC_REPRESENTATION_CONTEXT ( 3 ) GLOBAL_UNCERTAINTY_ASSIGNED_CONTEXT ( ( #58 ) ) GLOBAL_UNIT_ASSIGNED_CONTEXT ( ( #162, #96, #97 ) ) REPRESENTATION_CONTEXT ( 'NONE', 'WORKASPACE' ) );
#174 = APPLICATION_CONTEXT ( 'automotive_design' ) ;
#175 = DIRECTION ( 'NONE',  ( -0.000000000000000000, -0.000000000000000000, -1.000000000000000000 ) ) ;
#176 = MECHANICAL_DESIGN_GEOMETRIC_PRESENTATION_REPRESENTATION (  '', ( #111 ), #38 ) ;
#177 = CIRCLE ( 'NONE', #150, 6.500000000000000888 ) ;
#178 = FILL_AREA_STYLE_COLOUR ( '', #55 ) ;
#179 = DIRECTION ( 'NONE',  ( 0.000000000000000000, 0.000000000000000000, 1.000000000000000000 ) ) ;
#180 = PRESENTATION_STYLE_ASSIGNMENT (( #13 ) ) ;
#181 = ADVANCED_FACE ( 'NONE', ( #88 ), #103, .T. ) ;
#182 = FACE_OUTER_BOUND ( 'NONE', #18, .T. ) ;
#183 = CIRCLE ( 'NONE', #20, 6.500000000000000888 ) ;
#184 = FACE_OUTER_BOUND ( 'NONE', #66, .T. ) ;
#185 = VERTEX_POINT ( 'NONE', #76 ) ;
#186 = EDGE_LOOP ( 'NONE', ( #147, #74 ) ) ;
#187 = CARTESIAN_POINT ( 'NONE',  ( -6.500000000000000888, 0.000000000000000000, 6.000000000000000000 ) ) ;
#188 = ORIENTED_EDGE ( 'NONE', *, *, #45, .F. ) ;
#189 = ORIENTED_EDGE ( 'NONE', *, *, #114, .F. ) ;
#190 = AXIS2_PLACEMENT_3D ( 'NONE', #136, #175, #92 ) ;
#191 = CARTESIAN_POINT ( 'NONE',  ( 0.000000000000000000, 0.000000000000000000, 0.000000000000000000 ) ) ;
#192 = PLANE ( 'NONE',  #106 ) ;
#193 = AXIS2_PLACEMENT_3D ( 'NONE', #143, #127, #94 ) ;
#194 = AXIS2_PLACEMENT_3D ( 'NONE', #108, #179, #81 ) ;
#195 = DIRECTION ( 'NONE',  ( 1.000000000000000000, 0.000000000000000000, 0.000000000000000000 ) ) ;
#196 = SURFACE_SIDE_STYLE ('',( #26 ) ) ;
#197 = AXIS2_PLACEMENT_3D ( 'NONE', #39, #77, #107 ) ;
#198 = CARTESIAN_POINT ( 'NONE',  ( 0.000000000000000000, 0.000000000000000000, 6.000000000000000000 ) ) ;
#199 = PRODUCT_RELATED_PRODUCT_CATEGORY ( 'part', '', ( #142 ) ) ;
#200 = ORIENTED_EDGE ( 'NONE', *, *, #114, .T. ) ;
#201 = MECHANICAL_DESIGN_GEOMETRIC_PRESENTATION_REPRESENTATION (  '', ( #82 ), #173 ) ;
#202 = CARTESIAN_POINT ( 'NONE',  ( 15.00000000000000000, 1.836970198721029589E-15, 6.000000000000000000 ) ) ;
#203 = DIRECTION ( 'NONE',  ( 0.000000000000000000, 0.000000000000000000, 1.000000000000000000 ) ) ;
#204 = ORIENTED_EDGE ( 'NONE', *, *, #154, .F. ) ;
#205 = EDGE_LOOP ( 'NONE', ( #156, #2, #135, #31 ) ) ;
#206 = DIRECTION ( 'NONE',  ( 0.000000000000000000, 0.000000000000000000, 1.000000000000000000 ) ) ;
#207 = FILL_AREA_STYLE_COLOUR ( '', #208 ) ;
#208 = COLOUR_RGB ( '',1.000000000000000000, 1.000000000000000000, 1.000000000000000000 ) ;
#209 = DIRECTION ( 'NONE',  ( -0.000000000000000000, -0.000000000000000000, -1.000000000000000000 ) ) ;
#210 = CLOSED_SHELL ( 'NONE', ( #12, #181, #57, #23, #24, #60 ) ) ;
#211 = CYLINDRICAL_SURFACE ( 'NONE', #10, 6.500000000000000888 ) ;
#212 = PRODUCT_DEFINITION_CONTEXT ( 'detailed design', #168, 'design' ) ;
#213 = CARTESIAN_POINT ( 'NONE',  ( 0.000000000000000000, 0.000000000000000000, 6.000000000000000000 ) ) ;
#214 = DIRECTION ( 'NONE',  ( -0.000000000000000000, -0.000000000000000000, -1.000000000000000000 ) ) ;
ENDSEC;
END-ISO-10303-21;
