  0
SECTION
  2
HEADER
  9
$ACADVER
  1
AC1015
  9
$ACADMAINTVER
 70
     6
  9
$DWGCODEPAGE
  3
ANSI_1251
  9
$INSBASE
 10
0.0
 20
0.0
 30
0.0
  9
$EXTMIN
 10
0.0
 20
0.0
 30
0.0
  9
$EXTMAX
 10
420.0
 20
297.0
 30
0.0
  9
$LIMMIN
 10
0.0
 20
0.0
  9
$LIMMAX
 10
420.0
 20
297.0
  9
$ORTHOMODE
 70
     0
  9
$REGENMODE
 70
     1
  9
$FILLMODE
 70
     1
  9
$QTEXTMODE
 70
     0
  9
$MIRRTEXT
 70
     1
  9
$LTSCALE
 40
1.0
  9
$ATTMODE
 70
     1
  9
$TEXTSIZE
 40
5.0
  9
$TRACEWID
 40
1.0
  9
$TEXTSTYLE
  7
Standard
  9
$CLAYER
  8
0
  9
$CELTYPE
  6
ByLayer
  9
$CECOLOR
 62
   256
  9
$CELTSCALE
 40
1.0
  9
$DISPSILH
 70
     0
  9
$DIMSCALE
 40
1.0
  9
$DIMASZ
 40
5.0
  9
$DIMEXO
 40
0.0
  9
$DIMDLI
 40
3.75
  9
$DIMRND
 40
0.0
  9
$DIMDLE
 40
0.0
  9
$DIMEXE
 40
1.0
  9
$DIMTP
 40
0.0
  9
$DIMTM
 40
0.0
  9
$DIMTXT
 40
3.5
  9
$DIMCEN
 40
2.5
  9
$DIMTSZ
 40
0.0
  9
$DIMTOL
 70
     0
  9
$DIMLIM
 70
     0
  9
$DIMTIH
 70
     1
  9
$DIMTOH
 70
     1
  9
$DIMSE1
 70
     0
  9
$DIMSE2
 70
     0
  9
$DIMTAD
 70
     1
  9
$DIMZIN
 70
     0
  9
$DIMBLK
  1

  9
$DIMASO
 70
     1
  9
$DIMSHO
 70
     1
  9
$DIMPOST
  1

  9
$DIMAPOST
  1

  9
$DIMALT
 70
     0
  9
$DIMALTD
 70
     3
  9
$DIMALTF
 40
0.0393700787
  9
$DIMLFAC
 40
1.0
  9
$DIMTOFL
 70
     1
  9
$DIMTVP
 40
0.0
  9
$DIMTIX
 70
     0
  9
$DIMSOXD
 70
     0
  9
$DIMSAH
 70
     0
  9
$DIMBLK1
  1

  9
$DIMBLK2
  1

  9
$DIMSTYLE
  2
ISO-25
  9
$DIMCLRD
 70
     0
  9
$DIMCLRE
 70
     0
  9
$DIMCLRT
 70
     0
  9
$DIMTFAC
 40
1.0
  9
$DIMGAP
 40
1.5
  9
$DIMJUST
 70
     0
  9
$DIMSD1
 70
     0
  9
$DIMSD2
 70
     0
  9
$DIMTOLJ
 70
     0
  9
$DIMTZIN
 70
     0
  9
$DIMALTZ
 70
     0
  9
$DIMALTTZ
 70
     0
  9
$DIMUPT
 70
     0
  9
$DIMDEC
 70
     1
  9
$DIMTDEC
 70
     1
  9
$DIMALTU
 70
     2
  9
$DIMALTTD
 70
     3
  9
$DIMTXSTY
  7
Standard
  9
$DIMAUNIT
 70
     0
  9
$DIMADEC
 70
     2
  9
$DIMALTRND
 40
0.0
  9
$DIMAZIN
 70
     0
  9
$DIMDSEP
 70
    44
  9
$DIMATFIT
 70
     3
  9
$DIMFRAC
 70
     0
  9
$DIMLDRBLK
  1

  9
$DIMLUNIT
 70
     2
  9
$DIMLWD
 70
    -2
  9
$DIMLWE
 70
    -2
  9
$DIMTMOVE
 70
     0
  9
$LUNITS
 70
     2
  9
$LUPREC
 70
     1
  9
$SKETCHINC
 40
1.0
  9
$FILLETRAD
 40
0.0
  9
$AUNITS
 70
     0
  9
$AUPREC
 70
     2
  9
$MENU
  1
.
  9
$ELEVATION
 40
0.0
  9
$PELEVATION
 40
0.0
  9
$THICKNESS
 40
0.0
  9
$LIMCHECK
 70
     0
  9
$CHAMFERA
 40
0.0
  9
$CHAMFERB
 40
0.0
  9
$CHAMFERC
 40
0.0
  9
$CHAMFERD
 40
0.0
  9
$SKPOLY
 70
     0
  9
$TDCREATE
 40
2460697.680329606
  9
$TDUCREATE
 40
2460697.555329606
  9
$TDUPDATE
 40
2460697.680330139
  9
$TDUUPDATE
 40
2460697.555330139
  9
$TDINDWG
 40
0.0000000116
  9
$TDUSRTIMER
 40
0.0000000116
  9
$USRTIMER
 70
     1
  9
$ANGBASE
 50
0.0
  9
$ANGDIR
 70
     0
  9
$PDMODE
 70
     0
  9
$PDSIZE
 40
-1.0
  9
$PLINEWID
 40
0.0
  9
$SPLFRAME
 70
     0
  9
$SPLINETYPE
 70
     6
  9
$SPLINESEGS
 70
     8
  9
$HANDSEED
  5
70D
  9
$SURFTAB1
 70
     6
  9
$SURFTAB2
 70
     6
  9
$SURFTYPE
 70
     6
  9
$SURFU
 70
     6
  9
$SURFV
 70
     6
  9
$UCSBASE
  2

  9
$UCSNAME
  2

  9
$UCSORG
 10
0.0
 20
0.0
 30
0.0
  9
$UCSXDIR
 10
1.0
 20
0.0
 30
0.0
  9
$UCSYDIR
 10
0.0
 20
1.0
 30
0.0
  9
$UCSORTHOREF
  2

  9
$UCSORTHOVIEW
 70
     0
  9
$UCSORGTOP
 10
0.0
 20
0.0
 30
0.0
  9
$UCSORGBOTTOM
 10
0.0
 20
0.0
 30
0.0
  9
$UCSORGLEFT
 10
0.0
 20
0.0
 30
0.0
  9
$UCSORGRIGHT
 10
0.0
 20
0.0
 30
0.0
  9
$UCSORGFRONT
 10
0.0
 20
0.0
 30
0.0
  9
$UCSORGBACK
 10
0.0
 20
0.0
 30
0.0
  9
$PUCSBASE
  2

  9
$PUCSNAME
  2

  9
$PUCSORG
 10
0.0
 20
0.0
 30
0.0
  9
$PUCSXDIR
 10
1.0
 20
0.0
 30
0.0
  9
$PUCSYDIR
 10
0.0
 20
1.0
 30
0.0
  9
$PUCSORTHOREF
  2

  9
$PUCSORTHOVIEW
 70
     0
  9
$PUCSORGTOP
 10
0.0
 20
0.0
 30
0.0
  9
$PUCSORGBOTTOM
 10
0.0
 20
0.0
 30
0.0
  9
$PUCSORGLEFT
 10
0.0
 20
0.0
 30
0.0
  9
$PUCSORGRIGHT
 10
0.0
 20
0.0
 30
0.0
  9
$PUCSORGFRONT
 10
0.0
 20
0.0
 30
0.0
  9
$PUCSORGBACK
 10
0.0
 20
0.0
 30
0.0
  9
$USERI1
 70
     0
  9
$USERI2
 70
     0
  9
$USERI3
 70
     0
  9
$USERI4
 70
     0
  9
$USERI5
 70
     0
  9
$USERR1
 40
0.0
  9
$USERR2
 40
0.0
  9
$USERR3
 40
0.0
  9
$USERR4
 40
0.0
  9
$USERR5
 40
0.0
  9
$WORLDVIEW
 70
     1
  9
$SHADEDGE
 70
     3
  9
$SHADEDIF
 70
    70
  9
$TILEMODE
 70
     1
  9
$MAXACTVP
 70
    64
  9
$PINSBASE
 10
0.0
 20
0.0
 30
0.0
  9
$PLIMCHECK
 70
     0
  9
$PEXTMIN
 10
1.0000000000E+20
 20
1.0000000000E+20
 30
1.0000000000E+20
  9
$PEXTMAX
 10
-1.0000000000E+20
 20
-1.0000000000E+20
 30
-1.0000000000E+20
  9
$PLIMMIN
 10
0.0
 20
0.0
  9
$PLIMMAX
 10
420.0
 20
297.0
  9
$UNITMODE
 70
     0
  9
$VISRETAIN
 70
     1
  9
$PLINEGEN
 70
     0
  9
$PSLTSCALE
 70
     1
  9
$TREEDEPTH
 70
  3020
  9
$CMLSTYLE
  2
Standard
  9
$CMLJUST
 70
     0
  9
$CMLSCALE
 40
20.0
  9
$PROXYGRAPHICS
 70
     1
  9
$MEASUREMENT
 70
     1
  9
$CELWEIGHT
370
    -1
  9
$ENDCAPS
280
     0
  9
$JOINSTYLE
280
     0
  9
$LWDISPLAY
290
     1
  9
$INSUNITS
 70
     4
  9
$HYPERLINKBASE
  1

  9
$STYLESHEET
  1

  9
$XEDIT
290
     1
  9
$CEPSNTYPE
380
     0
  9
$PSTYLEMODE
290
     1
  9
$FINGERPRINTGUID
  2
{dfce4a7f-f713-4d36-82dc-6fe9dc9ec2f7}
  9
$VERSIONGUID
  2
{FAEB1C32-E019-11D5-929B-00C0DF256EC4}
  9
$EXTNAMES
290
     1
  9
$PSVPSCALE
 40
0.0
  9
$OLESTARTUP
290
     0
  0
ENDSEC
  0
SECTION
  2
CLASSES
  0
CLASS
  1
ACDBDICTIONARYWDFLT
  2
AcDbDictionaryWithDefault
  3
ObjectDBX Classes
 90
        0
280
     0
281
     0
  0
CLASS
  1
VISUALSTYLE
  2
AcDbVisualStyle
  3
ObjectDBX Classes
 90
     4095
280
     0
281
     0
  0
CLASS
  1
MATERIAL
  2
AcDbMaterial
  3
ObjectDBX Classes
 90
     1153
280
     0
281
     0
  0
CLASS
  1
SCALE
  2
AcDbScale
  3
ObjectDBX Classes
 90
     1153
280
     0
281
     0
  0
CLASS
  1
TABLESTYLE
  2
AcDbTableStyle
  3
ObjectDBX Classes
 90
     4095
280
     0
281
     0
  0
CLASS
  1
MLEADERSTYLE
  2
AcDbMLeaderStyle
  3
ACDB_MLEADERSTYLE_CLASS
 90
     4095
280
     0
281
     0
  0
CLASS
  1
SUN
  2
AcDbSun
  3
SCENEOE
 90
     1153
280
     0
281
     0
  0
CLASS
  1
ACDBPLACEHOLDER
  2
AcDbPlaceHolder
  3
ObjectDBX Classes
 90
        0
280
     0
281
     0
  0
CLASS
  1
LAYOUT
  2
AcDbLayout
  3
ObjectDBX Classes
 90
        0
280
     0
281
     0
  0
ENDSEC
  0
SECTION
  2
TABLES
  0
TABLE
  2
VPORT
  5
8
330
0
100
AcDbSymbolTable
 70
     1
  0
VPORT
  5
29
330
8
100
AcDbSymbolTableRecord
100
AcDbViewportTableRecord
  2
*Active
 70
     0
 10
0.0
 20
0.0
 11
1.0
 21
1.0
 12
210.0
 22
148.5
 13
0.0
 23
0.0
 14
10.0
 24
10.0
 15
10.0
 25
10.0
 16
0.0
 26
0.0
 36
1.0
 17
0.0
 27
0.0
 37
0.0
 40
297.0
 41
1.4141414141
 42
50.0
 43
0.0
 44
0.0
 50
0.0
 51
0.0
 71
     0
 72
  2000
 73
     1
 74
     3
 75
     0
 76
     0
 77
     0
 78
     0
281
     0
 65
     1
110
0.0
120
0.0
130
0.0
111
1.0
121
0.0
131
0.0
112
0.0
122
1.0
132
0.0
 79
     0
146
0.0
  0
ENDTAB
  0
TABLE
  2
LTYPE
  5
5
330
0
100
AcDbSymbolTable
 70
     6
  0
LTYPE
  5
14
330
5
100
AcDbSymbolTableRecord
100
AcDbLinetypeTableRecord
  2
ByBlock
 70
     0
  3

 72
    65
 73
     0
 40
0.0
  0
LTYPE
  5
15
330
5
100
AcDbSymbolTableRecord
100
AcDbLinetypeTableRecord
  2
ByLayer
 70
     0
  3

 72
    65
 73
     0
 40
0.0
  0
LTYPE
  5
16
330
5
100
AcDbSymbolTableRecord
100
AcDbLinetypeTableRecord
  2
Continuous
 70
     0
  3
Solid line
 72
    65
 73
     0
 40
0.0
  0
LTYPE
  5
5E
330
5
100
AcDbSymbolTableRecord
100
AcDbLinetypeTableRecord
  2
HIDDEN
 70
     0
  3
Hidden __ __ __ __ __ __ __ __ __ __ __ __ __ __
 72
    65
 73
     2
 40
1.905
 49
1.27
 74
     0
 49
-0.635
 74
     0
  0
LTYPE
  5
5F
330
5
100
AcDbSymbolTableRecord
100
AcDbLinetypeTableRecord
  2
PHANTOM
 70
     0
  3
Phantom ______  __  __  ______  __  __  ______
 72
    65
 73
     6
 40
12.7
 49
6.35
 74
     0
 49
-1.27
 74
     0
 49
1.27
 74
     0
 49
-1.27
 74
     0
 49
1.27
 74
     0
 49
-1.27
 74
     0
  0
LTYPE
  5
60
330
5
100
AcDbSymbolTableRecord
100
AcDbLinetypeTableRecord
  2
CENTER
 70
     0
  3
Center ____ _ ____ _ ____ _ ____ _ ____ _ ____
 72
    65
 73
     4
 40
10.16
 49
6.35
 74
     0
 49
-1.27
 74
     0
 49
1.27
 74
     0
 49
-1.27
 74
     0
  0
LTYPE
  5
61
330
5
100
AcDbSymbolTableRecord
100
AcDbLinetypeTableRecord
  2
CENTERX2
 70
     0
  3
Center (2x) ________  __  ________  __  _____
 72
    65
 73
     4
 40
20.32
 49
12.7
 74
     0
 49
-2.54
 74
     0
 49
2.54
 74
     0
 49
-2.54
 74
     0
  0
LTYPE
  5
62
330
5
100
AcDbSymbolTableRecord
100
AcDbLinetypeTableRecord
  2
DOT2
 70
     0
  3
Dot (.5x) ........................................
 72
    65
 73
     2
 40
0.635
 49
0.0
 74
     0
 49
-0.635
 74
     0
  0
ENDTAB
  0
TABLE
  2
LAYER
  5
2
330
0
100
AcDbSymbolTable
 70
     3
  0
LAYER
  5
10
330
2
100
AcDbSymbolTableRecord
100
AcDbLayerTableRecord
  2
0
 70
     0
 62
     7
  6
Continuous
370
    -3
390
F
  0
LAYER
  5
63
330
2
100
AcDbSymbolTableRecord
100
AcDbLayerTableRecord
  2
ВОДЯНОЙ_ЗНАК
 70
     0
 62
    11
  6
Continuous
370
    -3
390
F
  0
LAYER
  5
64
330
2
100
AcDbSymbolTableRecord
100
AcDbLayerTableRecord
  2
ОСНОВНОЙ
 70
     0
 62
     7
  6
Continuous
370
    -3
390
F
  0
ENDTAB
  0
TABLE
  2
STYLE
  5
3
330
0
100
AcDbSymbolTable
 70
     1
  0
STYLE
  5
11
330
3
100
AcDbSymbolTableRecord
100
AcDbTextStyleTableRecord
  2
Standard
 70
     0
 40
0.0
 41
1.0
 50
0.0
 71
     0
 42
5.0
  3
txt
  4

  0
ENDTAB
  0
TABLE
  2
VIEW
  5
6
330
0
100
AcDbSymbolTable
 70
     0
  0
ENDTAB
  0
TABLE
  2
UCS
  5
7
330
0
100
AcDbSymbolTable
 70
     0
  0
ENDTAB
  0
TABLE
  2
APPID
  5
9
330
0
100
AcDbSymbolTable
 70
     1
  0
APPID
  5
12
330
9
100
AcDbSymbolTableRecord
100
AcDbRegAppTableRecord
  2
ACAD
 70
     0
  0
ENDTAB
  0
TABLE
  2
DIMSTYLE
  5
A
330
0
100
AcDbSymbolTable
 70
     1
100
AcDbDimStyleTable
  0
DIMSTYLE
105
27
330
A
100
AcDbSymbolTableRecord
100
AcDbDimStyleTableRecord
  2
ISO-25
 70
     0
 41
2.5
 42
0.625
 43
3.75
 44
1.25
 73
     0
 74
     0
 77
     1
 78
     8
140
2.5
141
2.5
143
0.0393700787
147
0.625
171
     3
172
     1
178
     0
271
     2
272
     2
274
     3
278
    44
283
     0
284
     8
340
11
  0
ENDTAB
  0
TABLE
  2
BLOCK_RECORD
  5
1
330
0
100
AcDbSymbolTable
 70
     1
  0
BLOCK_RECORD
  5
1F
330
1
100
AcDbSymbolTableRecord
100
AcDbBlockTableRecord
  2
*Model_Space
340
22
  0
BLOCK_RECORD
  5
1B
330
1
100
AcDbSymbolTableRecord
100
AcDbBlockTableRecord
  2
*Paper_Space
340
1E
  0
BLOCK_RECORD
  5
23
330
1
100
AcDbSymbolTableRecord
100
AcDbBlockTableRecord
  2
*Paper_Space0
340
26
  0
ENDTAB
  0
ENDSEC
  0
SECTION
  2
BLOCKS
  0
BLOCK
  5
20
330
1F
100
AcDbEntity
  8
0
100
AcDbBlockBegin
  2
*Model_Space
 70
     0
 10
0.0
 20
0.0
 30
0.0
  3
*Model_Space
  1

  0
ENDBLK
  5
21
330
1F
100
AcDbEntity
  8
0
100
AcDbBlockEnd
  0
BLOCK
  5
1C
330
1B
100
AcDbEntity
 67
     1
  8
0
100
AcDbBlockBegin
  2
*Paper_Space
 70
     0
 10
0.0
 20
0.0
 30
0.0
  3
*Paper_Space
  1

  0
ENDBLK
  5
1D
330
1B
100
AcDbEntity
 67
     1
  8
0
100
AcDbBlockEnd
  0
BLOCK
  5
24
330
23
100
AcDbEntity
  8
0
100
AcDbBlockBegin
  2
*Paper_Space0
 70
     0
 10
0.0
 20
0.0
 30
0.0
  3
*Paper_Space0
  1

  0
ENDBLK
  5
25
330
23
100
AcDbEntity
  8
0
100
AcDbBlockEnd
  0
ENDSEC
  0
SECTION
  2
ENTITIES
  0
LINE
  5
65
330
1F
100
AcDbEntity
  8
0
  6
Continuous
 62
     7
100
AcDbLine
 10
1402.1030151139
 20
136.5746147556
 30
0.0
 11
1402.1030151139
 21
125.2504003915
 31
0.0
  0
ARC
  5
66
330
1F
100
AcDbEntity
  8
0
  6
Continuous
 62
     7
100
AcDbCircle
 10
1402.1030151139
 20
125.2504003915
 30
0.0
 40
11.32421436405753
100
AcDbArc
 50
0.0
 51
90.0
  0
LINE
  5
67
330
1F
100
AcDbEntity
  8
0
  6
Continuous
 62
     7
100
AcDbLine
 10
1413.427229478
 20
125.2504003915
 30
0.0
 11
1402.1030151139
 21
125.2504003915
 31
0.0
  0
LINE
  5
68
330
1F
100
AcDbEntity
  8
0
  6
Continuous
 62
     7
100
AcDbLine
 10
1363.1030151139
 20
125.2504003915
 30
0.0
 11
1363.1030151139
 21
136.5746147556
 31
0.0
  0
LINE
  5
69
330
1F
100
AcDbEntity
  8
0
  6
Continuous
 62
     7
100
AcDbLine
 10
1402.1030151139
 20
136.5746147556
 30
0.0
 11
1363.1030151139
 21
136.5746147556
 31
0.0
  0
LINE
  5
6A
330
1F
100
AcDbEntity
  8
0
  6
Continuous
 62
     7
100
AcDbLine
 10
1363.1030151139
 20
125.2504003915
 30
0.0
 11
1402.1030151139
 21
125.2504003915
 31
0.0
  0
LINE
  5
6B
330
1F
100
AcDbEntity
  8
0
  6
Continuous
 62
     7
100
AcDbLine
 10
1402.1030151139
 20
156.5746147556
 30
0.0
 11
1402.1030151139
 21
145.2504003915
 31
0.0
  0
ARC
  5
6C
330
1F
100
AcDbEntity
  8
0
  6
Continuous
 62
     7
100
AcDbCircle
 10
1402.1030151139
 20
145.2504003915
 30
0.0
 40
11.32421436405753
100
AcDbArc
 50
0.0
 51
90.0
  0
LINE
  5
6D
330
1F
100
AcDbEntity
  8
0
  6
Continuous
 62
     7
100
AcDbLine
 10
1413.427229478
 20
145.2504003915
 30
0.0
 11
1402.1030151139
 21
145.2504003915
 31
0.0
  0
LINE
  5
6E
330
1F
100
AcDbEntity
  8
0
  6
Continuous
 62
     7
100
AcDbLine
 10
1363.1030151139
 20
145.2504003915
 30
0.0
 11
1363.1030151139
 21
156.5746147556
 31
0.0
  0
LINE
  5
6F
330
1F
100
AcDbEntity
  8
0
  6
Continuous
 62
     7
100
AcDbLine
 10
1402.1030151139
 20
156.5746147556
 30
0.0
 11
1363.1030151139
 21
156.5746147556
 31
0.0
  0
LINE
  5
70
330
1F
100
AcDbEntity
  8
0
  6
Continuous
 62
     7
100
AcDbLine
 10
1363.1030151139
 20
145.2504003915
 30
0.0
 11
1402.1030151139
 21
145.2504003915
 31
0.0
  0
LINE
  5
71
330
1F
100
AcDbEntity
  8
0
  6
Continuous
 62
     7
100
AcDbLine
 10
1363.1030151139
 20
165.2504003915
 30
0.0
 11
1363.1030151139
 21
176.5746147556
 31
0.0
  0
LINE
  5
72
330
1F
100
AcDbEntity
  8
0
  6
Continuous
 62
     7
100
AcDbLine
 10
1402.1030151139
 20
176.5746147556
 30
0.0
 11
1363.1030151139
 21
176.5746147556
 31
0.0
  0
LINE
  5
73
330
1F
100
AcDbEntity
  8
0
  6
Continuous
 62
     7
100
AcDbLine
 10
1402.1030151139
 20
176.5746147556
 30
0.0
 11
1402.1030151139
 21
165.2504003915
 31
0.0
  0
LINE
  5
74
330
1F
100
AcDbEntity
  8
0
  6
Continuous
 62
     7
100
AcDbLine
 10
1363.1030151139
 20
165.2504003915
 30
0.0
 11
1402.1030151139
 21
165.2504003915
 31
0.0
  0
ARC
  5
75
330
1F
100
AcDbEntity
  8
0
  6
Continuous
 62
     7
100
AcDbCircle
 10
1402.1030151139
 20
165.2504003915
 30
0.0
 40
11.32421436405753
100
AcDbArc
 50
0.0
 51
90.0
  0
LINE
  5
76
330
1F
100
AcDbEntity
  8
0
  6
Continuous
 62
     7
100
AcDbLine
 10
1413.427229478
 20
165.2504003915
 30
0.0
 11
1402.1030151139
 21
165.2504003915
 31
0.0
  0
ARC
  5
77
330
1F
100
AcDbEntity
  8
0
  6
Continuous
 62
     7
100
AcDbCircle
 10
1363.1030151139
 20
125.2504003915
 30
0.0
 40
11.32421436405708
100
AcDbArc
 50
90.0
 51
180.0
  0
LINE
  5
78
330
1F
100
AcDbEntity
  8
0
  6
Continuous
 62
     7
100
AcDbLine
 10
1363.1030151139
 20
125.2504003915
 30
0.0
 11
1351.7788007499
 21
125.2504003915
 31
0.0
  0
ARC
  5
79
330
1F
100
AcDbEntity
  8
0
  6
Continuous
 62
     7
100
AcDbCircle
 10
1363.1030151139
 20
145.2504003915
 30
0.0
 40
11.3242143640571
100
AcDbArc
 50
90.0
 51
180.0
  0
LINE
  5
7A
330
1F
100
AcDbEntity
  8
0
  6
Continuous
 62
     7
100
AcDbLine
 10
1363.1030151139
 20
145.2504003915
 30
0.0
 11
1351.7788007499
 21
145.2504003915
 31
0.0
  0
ARC
  5
7B
330
1F
100
AcDbEntity
  8
0
  6
Continuous
 62
     7
100
AcDbCircle
 10
1363.1030151139
 20
165.2504003915
 30
0.0
 40
11.32421436405713
100
AcDbArc
 50
90.0
 51
180.0
  0
LINE
  5
7C
330
1F
100
AcDbEntity
  8
0
  6
Continuous
 62
     7
100
AcDbLine
 10
1363.1030151139
 20
165.2504003915
 30
0.0
 11
1351.7788007499
 21
165.2504003915
 31
0.0
  0
LINE
  5
7D
330
1F
100
AcDbEntity
  8
0
  6
Continuous
 62
     7
100
AcDbLine
 10
1322.1030151139
 20
136.5746147556
 30
0.0
 11
1322.1030151139
 21
125.2504003915
 31
0.0
  0
ARC
  5
7E
330
1F
100
AcDbEntity
  8
0
  6
Continuous
 62
     7
100
AcDbCircle
 10
1322.1030151139
 20
125.2504003915
 30
0.0
 40
11.32421436405708
100
AcDbArc
 50
0.0
 51
90.0
  0
LINE
  5
7F
330
1F
100
AcDbEntity
  8
0
  6
Continuous
 62
     7
100
AcDbLine
 10
1333.427229478
 20
125.2504003915
 30
0.0
 11
1322.1030151139
 21
125.2504003915
 31
0.0
  0
LINE
  5
80
330
1F
100
AcDbEntity
  8
0
  6
Continuous
 62
     7
100
AcDbLine
 10
1283.1030151139
 20
125.2504003915
 30
0.0
 11
1283.1030151139
 21
136.5746147556
 31
0.0
  0
LINE
  5
81
330
1F
100
AcDbEntity
  8
0
  6
Continuous
 62
     7
100
AcDbLine
 10
1322.1030151139
 20
136.5746147556
 30
0.0
 11
1283.1030151139
 21
136.5746147556
 31
0.0
  0
LINE
  5
82
330
1F
100
AcDbEntity
  8
0
  6
Continuous
 62
     7
100
AcDbLine
 10
1283.1030151139
 20
125.2504003915
 30
0.0
 11
1322.1030151139
 21
125.2504003915
 31
0.0
  0
LINE
  5
83
330
1F
100
AcDbEntity
  8
0
  6
Continuous
 62
     7
100
AcDbLine
 10
1322.1030151139
 20
156.5746147556
 30
0.0
 11
1322.1030151139
 21
145.2504003915
 31
0.0
  0
ARC
  5
84
330
1F
100
AcDbEntity
  8
0
  6
Continuous
 62
     7
100
AcDbCircle
 10
1322.1030151139
 20
145.2504003915
 30
0.0
 40
11.3242143640571
100
AcDbArc
 50
0.0
 51
90.0
  0
LINE
  5
85
330
1F
100
AcDbEntity
  8
0
  6
Continuous
 62
     7
100
AcDbLine
 10
1333.427229478
 20
145.2504003915
 30
0.0
 11
1322.1030151139
 21
145.2504003915
 31
0.0
  0
LINE
  5
86
330
1F
100
AcDbEntity
  8
0
  6
Continuous
 62
     7
100
AcDbLine
 10
1283.1030151139
 20
145.2504003915
 30
0.0
 11
1322.1030151139
 21
145.2504003915
 31
0.0
  0
LINE
  5
87
330
1F
100
AcDbEntity
  8
0
  6
Continuous
 62
     7
100
AcDbLine
 10
1283.1030151139
 20
145.2504003915
 30
0.0
 11
1283.1030151139
 21
156.5746147556
 31
0.0
  0
LINE
  5
88
330
1F
100
AcDbEntity
  8
0
  6
Continuous
 62
     7
100
AcDbLine
 10
1322.1030151139
 20
156.5746147556
 30
0.0
 11
1283.1030151139
 21
156.5746147556
 31
0.0
  0
LINE
  5
89
330
1F
100
AcDbEntity
  8
0
  6
Continuous
 62
     7
100
AcDbLine
 10
1322.1030151139
 20
176.5746147556
 30
0.0
 11
1322.1030151139
 21
165.2504003915
 31
0.0
  0
ARC
  5
8A
330
1F
100
AcDbEntity
  8
0
  6
Continuous
 62
     7
100
AcDbCircle
 10
1322.1030151139
 20
165.2504003915
 30
0.0
 40
11.32421436405713
100
AcDbArc
 50
0.0
 51
90.0
  0
LINE
  5
8B
330
1F
100
AcDbEntity
  8
0
  6
Continuous
 62
     7
100
AcDbLine
 10
1333.427229478
 20
165.2504003915
 30
0.0
 11
1322.1030151139
 21
165.2504003915
 31
0.0
  0
LINE
  5
8C
330
1F
100
AcDbEntity
  8
0
  6
Continuous
 62
     7
100
AcDbLine
 10
1283.1030151139
 20
165.2504003915
 30
0.0
 11
1283.1030151139
 21
176.5746147556
 31
0.0
  0
LINE
  5
8D
330
1F
100
AcDbEntity
  8
0
  6
Continuous
 62
     7
100
AcDbLine
 10
1322.1030151139
 20
176.5746147556
 30
0.0
 11
1283.1030151139
 21
176.5746147556
 31
0.0
  0
LINE
  5
8E
330
1F
100
AcDbEntity
  8
0
  6
Continuous
 62
     7
100
AcDbLine
 10
1283.1030151139
 20
165.2504003915
 30
0.0
 11
1322.1030151139
 21
165.2504003915
 31
0.0
  0
ARC
  5
8F
330
1F
100
AcDbEntity
  8
0
  6
Continuous
 62
     7
100
AcDbCircle
 10
1283.1030151139
 20
125.2504003915
 30
0.0
 40
11.32421436405708
100
AcDbArc
 50
90.0
 51
180.0
  0
LINE
  5
90
330
1F
100
AcDbEntity
  8
0
  6
Continuous
 62
     7
100
AcDbLine
 10
1283.1030151139
 20
125.2504003915
 30
0.0
 11
1271.7788007499
 21
125.2504003915
 31
0.0
  0
ARC
  5
91
330
1F
100
AcDbEntity
  8
0
  6
Continuous
 62
     7
100
AcDbCircle
 10
1283.1030151139
 20
145.2504003915
 30
0.0
 40
11.32421436405707
100
AcDbArc
 50
90.0
 51
180.0
  0
LINE
  5
92
330
1F
100
AcDbEntity
  8
0
  6
Continuous
 62
     7
100
AcDbLine
 10
1283.1030151139
 20
145.2504003915
 30
0.0
 11
1271.7788007499
 21
145.2504003915
 31
0.0
  0
ARC
  5
93
330
1F
100
AcDbEntity
  8
0
  6
Continuous
 62
     7
100
AcDbCircle
 10
1283.1030151139
 20
165.2504003915
 30
0.0
 40
11.32421436405707
100
AcDbArc
 50
90.0
 51
180.0
  0
LINE
  5
94
330
1F
100
AcDbEntity
  8
0
  6
Continuous
 62
     7
100
AcDbLine
 10
1283.1030151139
 20
165.2504003915
 30
0.0
 11
1271.7788007499
 21
165.2504003915
 31
0.0
  0
LINE
  5
95
330
1F
100
AcDbEntity
  8
0
  6
Continuous
 62
     7
100
AcDbLine
 10
1242.1030151139
 20
136.5746147556
 30
0.0
 11
1242.1030151139
 21
125.2504003915
 31
0.0
  0
ARC
  5
96
330
1F
100
AcDbEntity
  8
0
  6
Continuous
 62
     7
100
AcDbCircle
 10
1242.1030151139
 20
125.2504003915
 30
0.0
 40
11.32421436405708
100
AcDbArc
 50
0.0
 51
90.0
  0
LINE
  5
97
330
1F
100
AcDbEntity
  8
0
  6
Continuous
 62
     7
100
AcDbLine
 10
1253.427229478
 20
125.2504003915
 30
0.0
 11
1242.1030151139
 21
125.2504003915
 31
0.0
  0
LINE
  5
98
330
1F
100
AcDbEntity
  8
0
  6
Continuous
 62
     7
100
AcDbLine
 10
1203.1030151139
 20
125.2504003915
 30
0.0
 11
1203.1030151139
 21
136.5746147556
 31
0.0
  0
LINE
  5
99
330
1F
100
AcDbEntity
  8
0
  6
Continuous
 62
     7
100
AcDbLine
 10
1242.1030151139
 20
136.5746147556
 30
0.0
 11
1203.1030151139
 21
136.5746147556
 31
0.0
  0
LINE
  5
9A
330
1F
100
AcDbEntity
  8
0
  6
Continuous
 62
     7
100
AcDbLine
 10
1203.1030151139
 20
125.2504003915
 30
0.0
 11
1242.1030151139
 21
125.2504003915
 31
0.0
  0
LINE
  5
9B
330
1F
100
AcDbEntity
  8
0
  6
Continuous
 62
     7
100
AcDbLine
 10
1203.1030151139
 20
145.2504003915
 30
0.0
 11
1242.1030151139
 21
145.2504003915
 31
0.0
  0
LINE
  5
9C
330
1F
100
AcDbEntity
  8
0
  6
Continuous
 62
     7
100
AcDbLine
 10
1203.1030151139
 20
145.2504003915
 30
0.0
 11
1203.1030151139
 21
156.5746147556
 31
0.0
  0
LINE
  5
9D
330
1F
100
AcDbEntity
  8
0
  6
Continuous
 62
     7
100
AcDbLine
 10
1242.1030151139
 20
156.5746147556
 30
0.0
 11
1203.1030151139
 21
156.5746147556
 31
0.0
  0
LINE
  5
9E
330
1F
100
AcDbEntity
  8
0
  6
Continuous
 62
     7
100
AcDbLine
 10
1242.1030151139
 20
156.5746147556
 30
0.0
 11
1242.1030151139
 21
145.2504003915
 31
0.0
  0
ARC
  5
9F
330
1F
100
AcDbEntity
  8
0
  6
Continuous
 62
     7
100
AcDbCircle
 10
1242.1030151139
 20
145.2504003915
 30
0.0
 40
11.32421436405707
100
AcDbArc
 50
0.0
 51
90.0
  0
LINE
  5
A0
330
1F
100
AcDbEntity
  8
0
  6
Continuous
 62
     7
100
AcDbLine
 10
1253.427229478
 20
145.2504003915
 30
0.0
 11
1242.1030151139
 21
145.2504003915
 31
0.0
  0
LINE
  5
A1
330
1F
100
AcDbEntity
  8
0
  6
Continuous
 62
     7
100
AcDbLine
 10
1242.1030151139
 20
176.5746147556
 30
0.0
 11
1242.1030151139
 21
165.2504003915
 31
0.0
  0
ARC
  5
A2
330
1F
100
AcDbEntity
  8
0
  6
Continuous
 62
     7
100
AcDbCircle
 10
1242.1030151139
 20
165.2504003915
 30
0.0
 40
11.32421436405707
100
AcDbArc
 50
0.0
 51
90.0
  0
LINE
  5
A3
330
1F
100
AcDbEntity
  8
0
  6
Continuous
 62
     7
100
AcDbLine
 10
1253.427229478
 20
165.2504003915
 30
0.0
 11
1242.1030151139
 21
165.2504003915
 31
0.0
  0
LINE
  5
A4
330
1F
100
AcDbEntity
  8
0
  6
Continuous
 62
     7
100
AcDbLine
 10
1203.1030151139
 20
165.2504003915
 30
0.0
 11
1242.1030151139
 21
165.2504003915
 31
0.0
  0
LINE
  5
A5
330
1F
100
AcDbEntity
  8
0
  6
Continuous
 62
     7
100
AcDbLine
 10
1203.1030151139
 20
165.2504003915
 30
0.0
 11
1203.1030151139
 21
176.5746147556
 31
0.0
  0
LINE
  5
A6
330
1F
100
AcDbEntity
  8
0
  6
Continuous
 62
     7
100
AcDbLine
 10
1242.1030151139
 20
176.5746147556
 30
0.0
 11
1203.1030151139
 21
176.5746147556
 31
0.0
  0
ARC
  5
A7
330
1F
100
AcDbEntity
  8
0
  6
Continuous
 62
     7
100
AcDbCircle
 10
1203.1030151139
 20
125.2504003915
 30
0.0
 40
11.32421436405707
100
AcDbArc
 50
90.0
 51
180.0
  0
LINE
  5
A8
330
1F
100
AcDbEntity
  8
0
  6
Continuous
 62
     7
100
AcDbLine
 10
1203.1030151139
 20
125.2504003915
 30
0.0
 11
1191.7788007499
 21
125.2504003915
 31
0.0
  0
ARC
  5
A9
330
1F
100
AcDbEntity
  8
0
  6
Continuous
 62
     7
100
AcDbCircle
 10
1203.1030151139
 20
145.2504003915
 30
0.0
 40
11.32421436405707
100
AcDbArc
 50
90.0
 51
180.0
  0
LINE
  5
AA
330
1F
100
AcDbEntity
  8
0
  6
Continuous
 62
     7
100
AcDbLine
 10
1203.1030151139
 20
145.2504003915
 30
0.0
 11
1191.7788007499
 21
145.2504003915
 31
0.0
  0
ARC
  5
AB
330
1F
100
AcDbEntity
  8
0
  6
Continuous
 62
     7
100
AcDbCircle
 10
1203.1030151139
 20
165.2504003915
 30
0.0
 40
11.32421436405707
100
AcDbArc
 50
90.0
 51
180.0
  0
LINE
  5
AC
330
1F
100
AcDbEntity
  8
0
  6
Continuous
 62
     7
100
AcDbLine
 10
1203.1030151139
 20
165.2504003915
 30
0.0
 11
1191.7788007499
 21
165.2504003915
 31
0.0
  0
LINE
  5
AD
330
1F
100
AcDbEntity
  8
0
  6
Continuous
 62
     7
100
AcDbLine
 10
1162.1030151139
 20
136.5746147556
 30
0.0
 11
1162.1030151139
 21
125.2504003915
 31
0.0
  0
ARC
  5
AE
330
1F
100
AcDbEntity
  8
0
  6
Continuous
 62
     7
100
AcDbCircle
 10
1162.1030151139
 20
125.2504003915
 30
0.0
 40
11.32421436405697
100
AcDbArc
 50
0.0
 51
90.0
  0
LINE
  5
AF
330
1F
100
AcDbEntity
  8
0
  6
Continuous
 62
     7
100
AcDbLine
 10
1173.427229478
 20
125.2504003915
 30
0.0
 11
1162.1030151139
 21
125.2504003915
 31
0.0
  0
LINE
  5
B0
330
1F
100
AcDbEntity
  8
0
  6
Continuous
 62
     7
100
AcDbLine
 10
1123.1030151139
 20
125.2504003915
 30
0.0
 11
1123.1030151139
 21
136.5746147556
 31
0.0
  0
LINE
  5
B1
330
1F
100
AcDbEntity
  8
0
  6
Continuous
 62
     7
100
AcDbLine
 10
1162.1030151139
 20
136.5746147556
 30
0.0
 11
1123.1030151139
 21
136.5746147556
 31
0.0
  0
LINE
  5
B2
330
1F
100
AcDbEntity
  8
0
  6
Continuous
 62
     7
100
AcDbLine
 10
1123.1030151139
 20
125.2504003915
 30
0.0
 11
1162.1030151139
 21
125.2504003915
 31
0.0
  0
LINE
  5
B3
330
1F
100
AcDbEntity
  8
0
  6
Continuous
 62
     7
100
AcDbLine
 10
1162.1030151139
 20
156.5746147556
 30
0.0
 11
1162.1030151139
 21
145.2504003915
 31
0.0
  0
ARC
  5
B4
330
1F
100
AcDbEntity
  8
0
  6
Continuous
 62
     7
100
AcDbCircle
 10
1162.1030151139
 20
145.2504003915
 30
0.0
 40
11.32421436405704
100
AcDbArc
 50
0.0
 51
90.0
  0
LINE
  5
B5
330
1F
100
AcDbEntity
  8
0
  6
Continuous
 62
     7
100
AcDbLine
 10
1173.427229478
 20
145.2504003915
 30
0.0
 11
1162.1030151139
 21
145.2504003915
 31
0.0
  0
LINE
  5
B6
330
1F
100
AcDbEntity
  8
0
  6
Continuous
 62
     7
100
AcDbLine
 10
1123.1030151139
 20
145.2504003915
 30
0.0
 11
1123.1030151139
 21
156.5746147556
 31
0.0
  0
LINE
  5
B7
330
1F
100
AcDbEntity
  8
0
  6
Continuous
 62
     7
100
AcDbLine
 10
1162.1030151139
 20
156.5746147556
 30
0.0
 11
1123.1030151139
 21
156.5746147556
 31
0.0
  0
LINE
  5
B8
330
1F
100
AcDbEntity
  8
0
  6
Continuous
 62
     7
100
AcDbLine
 10
1123.1030151139
 20
145.2504003915
 30
0.0
 11
1162.1030151139
 21
145.2504003915
 31
0.0
  0
LINE
  5
B9
330
1F
100
AcDbEntity
  8
0
  6
Continuous
 62
     7
100
AcDbLine
 10
1123.1030151139
 20
165.2504003915
 30
0.0
 11
1123.1030151139
 21
176.5746147556
 31
0.0
  0
LINE
  5
BA
330
1F
100
AcDbEntity
  8
0
  6
Continuous
 62
     7
100
AcDbLine
 10
1162.1030151139
 20
176.5746147556
 30
0.0
 11
1123.1030151139
 21
176.5746147556
 31
0.0
  0
LINE
  5
BB
330
1F
100
AcDbEntity
  8
0
  6
Continuous
 62
     7
100
AcDbLine
 10
1162.1030151139
 20
176.5746147556
 30
0.0
 11
1162.1030151139
 21
165.2504003915
 31
0.0
  0
LINE
  5
BC
330
1F
100
AcDbEntity
  8
0
  6
Continuous
 62
     7
100
AcDbLine
 10
1123.1030151139
 20
165.2504003915
 30
0.0
 11
1162.1030151139
 21
165.2504003915
 31
0.0
  0
ARC
  5
BD
330
1F
100
AcDbEntity
  8
0
  6
Continuous
 62
     7
100
AcDbCircle
 10
1162.1030151139
 20
165.2504003915
 30
0.0
 40
11.32421436405707
100
AcDbArc
 50
0.0
 51
90.0
  0
LINE
  5
BE
330
1F
100
AcDbEntity
  8
0
  6
Continuous
 62
     7
100
AcDbLine
 10
1173.427229478
 20
165.2504003915
 30
0.0
 11
1162.1030151139
 21
165.2504003915
 31
0.0
  0
ARC
  5
BF
330
1F
100
AcDbEntity
  8
0
  6
Continuous
 62
     7
100
AcDbCircle
 10
1123.1030151139
 20
125.2504003915
 30
0.0
 40
11.32421436405697
100
AcDbArc
 50
90.0
 51
180.0
  0
LINE
  5
C0
330
1F
100
AcDbEntity
  8
0
  6
Continuous
 62
     7
100
AcDbLine
 10
1123.1030151139
 20
125.2504003915
 30
0.0
 11
1111.7788007499
 21
125.2504003915
 31
0.0
  0
ARC
  5
C1
330
1F
100
AcDbEntity
  8
0
  6
Continuous
 62
     7
100
AcDbCircle
 10
1123.1030151139
 20
145.2504003915
 30
0.0
 40
11.32421436405701
100
AcDbArc
 50
90.0
 51
180.0
  0
LINE
  5
C2
330
1F
100
AcDbEntity
  8
0
  6
Continuous
 62
     7
100
AcDbLine
 10
1123.1030151139
 20
145.2504003915
 30
0.0
 11
1111.7788007499
 21
145.2504003915
 31
0.0
  0
ARC
  5
C3
330
1F
100
AcDbEntity
  8
0
  6
Continuous
 62
     7
100
AcDbCircle
 10
1123.1030151139
 20
165.2504003915
 30
0.0
 40
11.32421436405701
100
AcDbArc
 50
90.0
 51
180.0
  0
LINE
  5
C4
330
1F
100
AcDbEntity
  8
0
  6
Continuous
 62
     7
100
AcDbLine
 10
1123.1030151139
 20
165.2504003915
 30
0.0
 11
1111.7788007499
 21
165.2504003915
 31
0.0
  0
LINE
  5
C5
330
1F
100
AcDbEntity
  8
0
  6
Continuous
 62
     7
100
AcDbLine
 10
1043.1030151139
 20
125.2504003915
 30
0.0
 11
1082.1030151139
 21
125.2504003915
 31
0.0
  0
LINE
  5
C6
330
1F
100
AcDbEntity
  8
0
  6
Continuous
 62
     7
100
AcDbLine
 10
1043.1030151139
 20
125.2504003915
 30
0.0
 11
1043.1030151139
 21
136.5746147556
 31
0.0
  0
LINE
  5
C7
330
1F
100
AcDbEntity
  8
0
  6
Continuous
 62
     7
100
AcDbLine
 10
1082.1030151139
 20
136.5746147556
 30
0.0
 11
1043.1030151139
 21
136.5746147556
 31
0.0
  0
LINE
  5
C8
330
1F
100
AcDbEntity
  8
0
  6
Continuous
 62
     7
100
AcDbLine
 10
1082.1030151139
 20
136.5746147556
 30
0.0
 11
1082.1030151139
 21
125.2504003915
 31
0.0
  0
ARC
  5
C9
330
1F
100
AcDbEntity
  8
0
  6
Continuous
 62
     7
100
AcDbCircle
 10
1082.1030151139
 20
125.2504003915
 30
0.0
 40
11.32421436405697
100
AcDbArc
 50
0.0
 51
90.0
  0
LINE
  5
CA
330
1F
100
AcDbEntity
  8
0
  6
Continuous
 62
     7
100
AcDbLine
 10
1093.427229478
 20
125.2504003915
 30
0.0
 11
1082.1030151139
 21
125.2504003915
 31
0.0
  0
LINE
  5
CB
330
1F
100
AcDbEntity
  8
0
  6
Continuous
 62
     7
100
AcDbLine
 10
1082.1030151139
 20
156.5746147556
 30
0.0
 11
1082.1030151139
 21
145.2504003915
 31
0.0
  0
ARC
  5
CC
330
1F
100
AcDbEntity
  8
0
  6
Continuous
 62
     7
100
AcDbCircle
 10
1082.1030151139
 20
145.2504003915
 30
0.0
 40
11.32421436405701
100
AcDbArc
 50
0.0
 51
90.0
  0
LINE
  5
CD
330
1F
100
AcDbEntity
  8
0
  6
Continuous
 62
     7
100
AcDbLine
 10
1093.427229478
 20
145.2504003915
 30
0.0
 11
1082.1030151139
 21
145.2504003915
 31
0.0
  0
LINE
  5
CE
330
1F
100
AcDbEntity
  8
0
  6
Continuous
 62
     7
100
AcDbLine
 10
1043.1030151139
 20
145.2504003915
 30
0.0
 11
1043.1030151139
 21
156.5746147556
 31
0.0
  0
LINE
  5
CF
330
1F
100
AcDbEntity
  8
0
  6
Continuous
 62
     7
100
AcDbLine
 10
1082.1030151139
 20
156.5746147556
 30
0.0
 11
1043.1030151139
 21
156.5746147556
 31
0.0
  0
LINE
  5
D0
330
1F
100
AcDbEntity
  8
0
  6
Continuous
 62
     7
100
AcDbLine
 10
1043.1030151139
 20
145.2504003915
 30
0.0
 11
1082.1030151139
 21
145.2504003915
 31
0.0
  0
LINE
  5
D1
330
1F
100
AcDbEntity
  8
0
  6
Continuous
 62
     7
100
AcDbLine
 10
1082.1030151139
 20
176.5746147556
 30
0.0
 11
1082.1030151139
 21
165.2504003915
 31
0.0
  0
ARC
  5
D2
330
1F
100
AcDbEntity
  8
0
  6
Continuous
 62
     7
100
AcDbCircle
 10
1082.1030151139
 20
165.2504003915
 30
0.0
 40
11.32421436405701
100
AcDbArc
 50
0.0
 51
90.0
  0
LINE
  5
D3
330
1F
100
AcDbEntity
  8
0
  6
Continuous
 62
     7
100
AcDbLine
 10
1093.427229478
 20
165.2504003915
 30
0.0
 11
1082.1030151139
 21
165.2504003915
 31
0.0
  0
LINE
  5
D4
330
1F
100
AcDbEntity
  8
0
  6
Continuous
 62
     7
100
AcDbLine
 10
1043.1030151139
 20
165.2504003915
 30
0.0
 11
1043.1030151139
 21
176.5746147556
 31
0.0
  0
LINE
  5
D5
330
1F
100
AcDbEntity
  8
0
  6
Continuous
 62
     7
100
AcDbLine
 10
1082.1030151139
 20
176.5746147556
 30
0.0
 11
1043.1030151139
 21
176.5746147556
 31
0.0
  0
LINE
  5
D6
330
1F
100
AcDbEntity
  8
0
  6
Continuous
 62
     7
100
AcDbLine
 10
1043.1030151139
 20
165.2504003915
 30
0.0
 11
1082.1030151139
 21
165.2504003915
 31
0.0
  0
ARC
  5
D7
330
1F
100
AcDbEntity
  8
0
  6
Continuous
 62
     7
100
AcDbCircle
 10
1043.1030151139
 20
125.2504003915
 30
0.0
 40
11.32421436405697
100
AcDbArc
 50
90.0
 51
180.0
  0
LINE
  5
D8
330
1F
100
AcDbEntity
  8
0
  6
Continuous
 62
     7
100
AcDbLine
 10
1043.1030151139
 20
125.2504003915
 30
0.0
 11
1031.7788007499
 21
125.2504003915
 31
0.0
  0
ARC
  5
D9
330
1F
100
AcDbEntity
  8
0
  6
Continuous
 62
     7
100
AcDbCircle
 10
1043.1030151139
 20
145.2504003915
 30
0.0
 40
11.32421436405701
100
AcDbArc
 50
90.0
 51
180.0
  0
LINE
  5
DA
330
1F
100
AcDbEntity
  8
0
  6
Continuous
 62
     7
100
AcDbLine
 10
1043.1030151139
 20
145.2504003915
 30
0.0
 11
1031.7788007499
 21
145.2504003915
 31
0.0
  0
ARC
  5
DB
330
1F
100
AcDbEntity
  8
0
  6
Continuous
 62
     7
100
AcDbCircle
 10
1043.1030151139
 20
165.2504003915
 30
0.0
 40
11.32421436405701
100
AcDbArc
 50
90.0
 51
180.0
  0
LINE
  5
DC
330
1F
100
AcDbEntity
  8
0
  6
Continuous
 62
     7
100
AcDbLine
 10
1043.1030151139
 20
165.2504003915
 30
0.0
 11
1031.7788007499
 21
165.2504003915
 31
0.0
  0
LINE
  5
DD
330
1F
100
AcDbEntity
  8
0
  6
Continuous
 62
     7
100
AcDbLine
 10
963.1030151139
 20
125.2504003915
 30
0.0
 11
1002.1030151139
 21
125.2504003915
 31
0.0
  0
LINE
  5
DE
330
1F
100
AcDbEntity
  8
0
  6
Continuous
 62
     7
100
AcDbLine
 10
963.1030151139
 20
125.2504003915
 30
0.0
 11
963.1030151139
 21
136.5746147556
 31
0.0
  0
LINE
  5
DF
330
1F
100
AcDbEntity
  8
0
  6
Continuous
 62
     7
100
AcDbLine
 10
1002.1030151139
 20
136.5746147556
 30
0.0
 11
963.1030151139
 21
136.5746147556
 31
0.0
  0
LINE
  5
E0
330
1F
100
AcDbEntity
  8
0
  6
Continuous
 62
     7
100
AcDbLine
 10
1002.1030151139
 20
136.5746147556
 30
0.0
 11
1002.1030151139
 21
125.2504003915
 31
0.0
  0
ARC
  5
E1
330
1F
100
AcDbEntity
  8
0
  6
Continuous
 62
     7
100
AcDbCircle
 10
1002.1030151139
 20
125.2504003915
 30
0.0
 40
11.32421436405707
100
AcDbArc
 50
0.0
 51
90.0
  0
LINE
  5
E2
330
1F
100
AcDbEntity
  8
0
  6
Continuous
 62
     7
100
AcDbLine
 10
1013.427229478
 20
125.2504003915
 30
0.0
 11
1002.1030151139
 21
125.2504003915
 31
0.0
  0
LINE
  5
E3
330
1F
100
AcDbEntity
  8
0
  6
Continuous
 62
     7
100
AcDbLine
 10
963.1030151139
 20
145.2504003915
 30
0.0
 11
1002.1030151139
 21
145.2504003915
 31
0.0
  0
LINE
  5
E4
330
1F
100
AcDbEntity
  8
0
  6
Continuous
 62
     7
100
AcDbLine
 10
963.1030151139
 20
145.2504003915
 30
0.0
 11
963.1030151139
 21
156.5746147556
 31
0.0
  0
LINE
  5
E5
330
1F
100
AcDbEntity
  8
0
  6
Continuous
 62
     7
100
AcDbLine
 10
1002.1030151139
 20
156.5746147556
 30
0.0
 11
963.1030151139
 21
156.5746147556
 31
0.0
  0
LINE
  5
E6
330
1F
100
AcDbEntity
  8
0
  6
Continuous
 62
     7
100
AcDbLine
 10
1002.1030151139
 20
156.5746147556
 30
0.0
 11
1002.1030151139
 21
145.2504003915
 31
0.0
  0
ARC
  5
E7
330
1F
100
AcDbEntity
  8
0
  6
Continuous
 62
     7
100
AcDbCircle
 10
1002.1030151139
 20
145.2504003915
 30
0.0
 40
11.32421436405707
100
AcDbArc
 50
0.0
 51
90.0
  0
LINE
  5
E8
330
1F
100
AcDbEntity
  8
0
  6
Continuous
 62
     7
100
AcDbLine
 10
1013.427229478
 20
145.2504003915
 30
0.0
 11
1002.1030151139
 21
145.2504003915
 31
0.0
  0
LINE
  5
E9
330
1F
100
AcDbEntity
  8
0
  6
Continuous
 62
     7
100
AcDbLine
 10
963.1030151139
 20
165.2504003915
 30
0.0
 11
1002.1030151139
 21
165.2504003915
 31
0.0
  0
LINE
  5
EA
330
1F
100
AcDbEntity
  8
0
  6
Continuous
 62
     7
100
AcDbLine
 10
963.1030151139
 20
165.2504003915
 30
0.0
 11
963.1030151139
 21
176.5746147556
 31
0.0
  0
LINE
  5
EB
330
1F
100
AcDbEntity
  8
0
  6
Continuous
 62
     7
100
AcDbLine
 10
1002.1030151139
 20
176.5746147556
 30
0.0
 11
963.1030151139
 21
176.5746147556
 31
0.0
  0
LINE
  5
EC
330
1F
100
AcDbEntity
  8
0
  6
Continuous
 62
     7
100
AcDbLine
 10
1002.1030151139
 20
176.5746147556
 30
0.0
 11
1002.1030151139
 21
165.2504003915
 31
0.0
  0
ARC
  5
ED
330
1F
100
AcDbEntity
  8
0
  6
Continuous
 62
     7
100
AcDbCircle
 10
1002.1030151139
 20
165.2504003915
 30
0.0
 40
11.32421436405707
100
AcDbArc
 50
0.0
 51
90.0
  0
LINE
  5
EE
330
1F
100
AcDbEntity
  8
0
  6
Continuous
 62
     7
100
AcDbLine
 10
1013.427229478
 20
165.2504003915
 30
0.0
 11
1002.1030151139
 21
165.2504003915
 31
0.0
  0
ARC
  5
EF
330
1F
100
AcDbEntity
  8
0
  6
Continuous
 62
     7
100
AcDbCircle
 10
963.1030151139
 20
125.2504003915
 30
0.0
 40
11.32421436405707
100
AcDbArc
 50
90.0
 51
180.0
  0
LINE
  5
F0
330
1F
100
AcDbEntity
  8
0
  6
Continuous
 62
     7
100
AcDbLine
 10
963.1030151139
 20
125.2504003915
 30
0.0
 11
951.7788007499
 21
125.2504003915
 31
0.0
  0
ARC
  5
F1
330
1F
100
AcDbEntity
  8
0
  6
Continuous
 62
     7
100
AcDbCircle
 10
963.1030151139
 20
145.2504003915
 30
0.0
 40
11.32421436405707
100
AcDbArc
 50
90.0
 51
180.0
  0
LINE
  5
F2
330
1F
100
AcDbEntity
  8
0
  6
Continuous
 62
     7
100
AcDbLine
 10
963.1030151139
 20
145.2504003915
 30
0.0
 11
951.7788007499
 21
145.2504003915
 31
0.0
  0
ARC
  5
F3
330
1F
100
AcDbEntity
  8
0
  6
Continuous
 62
     7
100
AcDbCircle
 10
963.1030151139
 20
165.2504003915
 30
0.0
 40
11.32421436405707
100
AcDbArc
 50
90.0
 51
180.0
  0
LINE
  5
F4
330
1F
100
AcDbEntity
  8
0
  6
Continuous
 62
     7
100
AcDbLine
 10
963.1030151139
 20
165.2504003915
 30
0.0
 11
951.7788007499
 21
165.2504003915
 31
0.0
  0
LINE
  5
F5
330
1F
100
AcDbEntity
  8
0
  6
Continuous
 62
     7
100
AcDbLine
 10
922.1030151139
 20
136.5746147556
 30
0.0
 11
922.1030151139
 21
125.2504003915
 31
0.0
  0
ARC
  5
F6
330
1F
100
AcDbEntity
  8
0
  6
Continuous
 62
     7
100
AcDbCircle
 10
922.1030151139
 20
125.2504003915
 30
0.0
 40
11.32421436405707
100
AcDbArc
 50
0.0
 51
90.0
  0
LINE
  5
F7
330
1F
100
AcDbEntity
  8
0
  6
Continuous
 62
     7
100
AcDbLine
 10
933.427229478
 20
125.2504003915
 30
0.0
 11
922.1030151139
 21
125.2504003915
 31
0.0
  0
LINE
  5
F8
330
1F
100
AcDbEntity
  8
0
  6
Continuous
 62
     7
100
AcDbLine
 10
883.1030151139
 20
125.2504003915
 30
0.0
 11
883.1030151139
 21
136.5746147556
 31
0.0
  0
LINE
  5
F9
330
1F
100
AcDbEntity
  8
0
  6
Continuous
 62
     7
100
AcDbLine
 10
922.1030151139
 20
136.5746147556
 30
0.0
 11
883.1030151139
 21
136.5746147556
 31
0.0
  0
LINE
  5
FA
330
1F
100
AcDbEntity
  8
0
  6
Continuous
 62
     7
100
AcDbLine
 10
883.1030151139
 20
125.2504003915
 30
0.0
 11
922.1030151139
 21
125.2504003915
 31
0.0
  0
LINE
  5
FB
330
1F
100
AcDbEntity
  8
0
  6
Continuous
 62
     7
100
AcDbLine
 10
883.1030151139
 20
145.2504003915
 30
0.0
 11
922.1030151139
 21
145.2504003915
 31
0.0
  0
LINE
  5
FC
330
1F
100
AcDbEntity
  8
0
  6
Continuous
 62
     7
100
AcDbLine
 10
883.1030151139
 20
145.2504003915
 30
0.0
 11
883.1030151139
 21
156.5746147556
 31
0.0
  0
LINE
  5
FD
330
1F
100
AcDbEntity
  8
0
  6
Continuous
 62
     7
100
AcDbLine
 10
922.1030151139
 20
156.5746147556
 30
0.0
 11
883.1030151139
 21
156.5746147556
 31
0.0
  0
LINE
  5
FE
330
1F
100
AcDbEntity
  8
0
  6
Continuous
 62
     7
100
AcDbLine
 10
922.1030151139
 20
156.5746147556
 30
0.0
 11
922.1030151139
 21
145.2504003915
 31
0.0
  0
ARC
  5
FF
330
1F
100
AcDbEntity
  8
0
  6
Continuous
 62
     7
100
AcDbCircle
 10
922.1030151139
 20
145.2504003915
 30
0.0
 40
11.32421436405707
100
AcDbArc
 50
0.0
 51
90.0
  0
LINE
  5
100
330
1F
100
AcDbEntity
  8
0
  6
Continuous
 62
     7
100
AcDbLine
 10
933.427229478
 20
145.2504003915
 30
0.0
 11
922.1030151139
 21
145.2504003915
 31
0.0
  0
LINE
  5
101
330
1F
100
AcDbEntity
  8
0
  6
Continuous
 62
     7
100
AcDbLine
 10
922.1030151139
 20
176.5746147556
 30
0.0
 11
922.1030151139
 21
165.2504003915
 31
0.0
  0
ARC
  5
102
330
1F
100
AcDbEntity
  8
0
  6
Continuous
 62
     7
100
AcDbCircle
 10
922.1030151139
 20
165.2504003915
 30
0.0
 40
11.32421436405707
100
AcDbArc
 50
0.0
 51
90.0
  0
LINE
  5
103
330
1F
100
AcDbEntity
  8
0
  6
Continuous
 62
     7
100
AcDbLine
 10
933.427229478
 20
165.2504003915
 30
0.0
 11
922.1030151139
 21
165.2504003915
 31
0.0
  0
LINE
  5
104
330
1F
100
AcDbEntity
  8
0
  6
Continuous
 62
     7
100
AcDbLine
 10
883.1030151139
 20
165.2504003915
 30
0.0
 11
883.1030151139
 21
176.5746147556
 31
0.0
  0
LINE
  5
105
330
1F
100
AcDbEntity
  8
0
  6
Continuous
 62
     7
100
AcDbLine
 10
922.1030151139
 20
176.5746147556
 30
0.0
 11
883.1030151139
 21
176.5746147556
 31
0.0
  0
LINE
  5
106
330
1F
100
AcDbEntity
  8
0
  6
Continuous
 62
     7
100
AcDbLine
 10
883.1030151139
 20
165.2504003915
 30
0.0
 11
922.1030151139
 21
165.2504003915
 31
0.0
  0
ARC
  5
107
330
1F
100
AcDbEntity
  8
0
  6
Continuous
 62
     7
100
AcDbCircle
 10
883.1030151139
 20
125.2504003915
 30
0.0
 40
11.32421436405696
100
AcDbArc
 50
90.0
 51
180.0
  0
LINE
  5
108
330
1F
100
AcDbEntity
  8
0
  6
Continuous
 62
     7
100
AcDbLine
 10
883.1030151139
 20
125.2504003915
 30
0.0
 11
871.7788007499
 21
125.2504003915
 31
0.0
  0
ARC
  5
109
330
1F
100
AcDbEntity
  8
0
  6
Continuous
 62
     7
100
AcDbCircle
 10
883.1030151139
 20
145.2504003915
 30
0.0
 40
11.32421436405696
100
AcDbArc
 50
90.0
 51
180.0
  0
LINE
  5
10A
330
1F
100
AcDbEntity
  8
0
  6
Continuous
 62
     7
100
AcDbLine
 10
883.1030151139
 20
145.2504003915
 30
0.0
 11
871.7788007499
 21
145.2504003915
 31
0.0
  0
ARC
  5
10B
330
1F
100
AcDbEntity
  8
0
  6
Continuous
 62
     7
100
AcDbCircle
 10
883.1030151139
 20
165.2504003915
 30
0.0
 40
11.32421436405696
100
AcDbArc
 50
90.0
 51
180.0
  0
LINE
  5
10C
330
1F
100
AcDbEntity
  8
0
  6
Continuous
 62
     7
100
AcDbLine
 10
883.1030151139
 20
165.2504003915
 30
0.0
 11
871.7788007499
 21
165.2504003915
 31
0.0
  0
LINE
  5
10D
330
1F
100
AcDbEntity
  8
0
  6
Continuous
 62
     7
100
AcDbLine
 10
842.1030151139
 20
136.5746147556
 30
0.0
 11
842.1030151139
 21
125.2504003915
 31
0.0
  0
ARC
  5
10E
330
1F
100
AcDbEntity
  8
0
  6
Continuous
 62
     7
100
AcDbCircle
 10
842.1030151139
 20
125.2504003915
 30
0.0
 40
11.32421436405696
100
AcDbArc
 50
0.0
 51
90.0
  0
LINE
  5
10F
330
1F
100
AcDbEntity
  8
0
  6
Continuous
 62
     7
100
AcDbLine
 10
853.427229478
 20
125.2504003915
 30
0.0
 11
842.1030151139
 21
125.2504003915
 31
0.0
  0
LINE
  5
110
330
1F
100
AcDbEntity
  8
0
  6
Continuous
 62
     7
100
AcDbLine
 10
803.1030151139
 20
125.2504003915
 30
0.0
 11
842.1030151139
 21
125.2504003915
 31
0.0
  0
LINE
  5
111
330
1F
100
AcDbEntity
  8
0
  6
Continuous
 62
     7
100
AcDbLine
 10
803.1030151139
 20
125.2504003915
 30
0.0
 11
803.1030151139
 21
136.5746147556
 31
0.0
  0
LINE
  5
112
330
1F
100
AcDbEntity
  8
0
  6
Continuous
 62
     7
100
AcDbLine
 10
842.1030151139
 20
136.5746147556
 30
0.0
 11
803.1030151139
 21
136.5746147556
 31
0.0
  0
LINE
  5
113
330
1F
100
AcDbEntity
  8
0
  6
Continuous
 62
     7
100
AcDbLine
 10
842.1030151139
 20
156.5746147556
 30
0.0
 11
842.1030151139
 21
145.2504003915
 31
0.0
  0
ARC
  5
114
330
1F
100
AcDbEntity
  8
0
  6
Continuous
 62
     7
100
AcDbCircle
 10
842.1030151139
 20
145.2504003915
 30
0.0
 40
11.32421436405696
100
AcDbArc
 50
0.0
 51
90.0
  0
LINE
  5
115
330
1F
100
AcDbEntity
  8
0
  6
Continuous
 62
     7
100
AcDbLine
 10
853.427229478
 20
145.2504003915
 30
0.0
 11
842.1030151139
 21
145.2504003915
 31
0.0
  0
LINE
  5
116
330
1F
100
AcDbEntity
  8
0
  6
Continuous
 62
     7
100
AcDbLine
 10
803.1030151139
 20
145.2504003915
 30
0.0
 11
842.1030151139
 21
145.2504003915
 31
0.0
  0
LINE
  5
117
330
1F
100
AcDbEntity
  8
0
  6
Continuous
 62
     7
100
AcDbLine
 10
803.1030151139
 20
145.2504003915
 30
0.0
 11
803.1030151139
 21
156.5746147556
 31
0.0
  0
LINE
  5
118
330
1F
100
AcDbEntity
  8
0
  6
Continuous
 62
     7
100
AcDbLine
 10
842.1030151139
 20
156.5746147556
 30
0.0
 11
803.1030151139
 21
156.5746147556
 31
0.0
  0
LINE
  5
119
330
1F
100
AcDbEntity
  8
0
  6
Continuous
 62
     7
100
AcDbLine
 10
803.1030151139
 20
165.2504003915
 30
0.0
 11
842.1030151139
 21
165.2504003915
 31
0.0
  0
LINE
  5
11A
330
1F
100
AcDbEntity
  8
0
  6
Continuous
 62
     7
100
AcDbLine
 10
803.1030151139
 20
165.2504003915
 30
0.0
 11
803.1030151139
 21
176.5746147556
 31
0.0
  0
LINE
  5
11B
330
1F
100
AcDbEntity
  8
0
  6
Continuous
 62
     7
100
AcDbLine
 10
842.1030151139
 20
176.5746147556
 30
0.0
 11
803.1030151139
 21
176.5746147556
 31
0.0
  0
LINE
  5
11C
330
1F
100
AcDbEntity
  8
0
  6
Continuous
 62
     7
100
AcDbLine
 10
842.1030151139
 20
176.5746147556
 30
0.0
 11
842.1030151139
 21
165.2504003915
 31
0.0
  0
ARC
  5
11D
330
1F
100
AcDbEntity
  8
0
  6
Continuous
 62
     7
100
AcDbCircle
 10
842.1030151139
 20
165.2504003915
 30
0.0
 40
11.32421436405696
100
AcDbArc
 50
0.0
 51
90.0
  0
LINE
  5
11E
330
1F
100
AcDbEntity
  8
0
  6
Continuous
 62
     7
100
AcDbLine
 10
853.427229478
 20
165.2504003915
 30
0.0
 11
842.1030151139
 21
165.2504003915
 31
0.0
  0
ARC
  5
11F
330
1F
100
AcDbEntity
  8
0
  6
Continuous
 62
     7
100
AcDbCircle
 10
803.1030151139
 20
125.2504003915
 30
0.0
 40
11.32421436405707
100
AcDbArc
 50
90.0
 51
180.0
  0
LINE
  5
120
330
1F
100
AcDbEntity
  8
0
  6
Continuous
 62
     7
100
AcDbLine
 10
803.1030151139
 20
125.2504003915
 30
0.0
 11
791.7788007499
 21
125.2504003915
 31
0.0
  0
ARC
  5
121
330
1F
100
AcDbEntity
  8
0
  6
Continuous
 62
     7
100
AcDbCircle
 10
803.1030151139
 20
145.2504003915
 30
0.0
 40
11.32421436405707
100
AcDbArc
 50
90.0
 51
180.0
  0
LINE
  5
122
330
1F
100
AcDbEntity
  8
0
  6
Continuous
 62
     7
100
AcDbLine
 10
803.1030151139
 20
145.2504003915
 30
0.0
 11
791.7788007499
 21
145.2504003915
 31
0.0
  0
ARC
  5
123
330
1F
100
AcDbEntity
  8
0
  6
Continuous
 62
     7
100
AcDbCircle
 10
803.1030151139
 20
165.2504003915
 30
0.0
 40
11.32421436405707
100
AcDbArc
 50
90.0
 51
180.0
  0
LINE
  5
124
330
1F
100
AcDbEntity
  8
0
  6
Continuous
 62
     7
100
AcDbLine
 10
803.1030151139
 20
165.2504003915
 30
0.0
 11
791.7788007499
 21
165.2504003915
 31
0.0
  0
LINE
  5
125
330
1F
100
AcDbEntity
  8
0
  6
Continuous
 62
     7
100
AcDbLine
 10
723.1030151139
 20
125.2504003915
 30
0.0
 11
762.1030151139
 21
125.2504003915
 31
0.0
  0
LINE
  5
126
330
1F
100
AcDbEntity
  8
0
  6
Continuous
 62
     7
100
AcDbLine
 10
723.1030151139
 20
125.2504003915
 30
0.0
 11
723.1030151139
 21
136.5746147556
 31
0.0
  0
LINE
  5
127
330
1F
100
AcDbEntity
  8
0
  6
Continuous
 62
     7
100
AcDbLine
 10
762.1030151139
 20
136.5746147556
 30
0.0
 11
723.1030151139
 21
136.5746147556
 31
0.0
  0
LINE
  5
128
330
1F
100
AcDbEntity
  8
0
  6
Continuous
 62
     7
100
AcDbLine
 10
762.1030151139
 20
136.5746147556
 30
0.0
 11
762.1030151139
 21
125.2504003915
 31
0.0
  0
ARC
  5
129
330
1F
100
AcDbEntity
  8
0
  6
Continuous
 62
     7
100
AcDbCircle
 10
762.1030151139
 20
125.2504003915
 30
0.0
 40
11.32421436405707
100
AcDbArc
 50
0.0
 51
90.0
  0
LINE
  5
12A
330
1F
100
AcDbEntity
  8
0
  6
Continuous
 62
     7
100
AcDbLine
 10
773.427229478
 20
125.2504003915
 30
0.0
 11
762.1030151139
 21
125.2504003915
 31
0.0
  0
LINE
  5
12B
330
1F
100
AcDbEntity
  8
0
  6
Continuous
 62
     7
100
AcDbLine
 10
762.1030151139
 20
156.5746147556
 30
0.0
 11
762.1030151139
 21
145.2504003915
 31
0.0
  0
ARC
  5
12C
330
1F
100
AcDbEntity
  8
0
  6
Continuous
 62
     7
100
AcDbCircle
 10
762.1030151139
 20
145.2504003915
 30
0.0
 40
11.32421436405707
100
AcDbArc
 50
0.0
 51
90.0
  0
LINE
  5
12D
330
1F
100
AcDbEntity
  8
0
  6
Continuous
 62
     7
100
AcDbLine
 10
773.427229478
 20
145.2504003915
 30
0.0
 11
762.1030151139
 21
145.2504003915
 31
0.0
  0
LINE
  5
12E
330
1F
100
AcDbEntity
  8
0
  6
Continuous
 62
     7
100
AcDbLine
 10
723.1030151139
 20
145.2504003915
 30
0.0
 11
723.1030151139
 21
156.5746147556
 31
0.0
  0
LINE
  5
12F
330
1F
100
AcDbEntity
  8
0
  6
Continuous
 62
     7
100
AcDbLine
 10
762.1030151139
 20
156.5746147556
 30
0.0
 11
723.1030151139
 21
156.5746147556
 31
0.0
  0
LINE
  5
130
330
1F
100
AcDbEntity
  8
0
  6
Continuous
 62
     7
100
AcDbLine
 10
723.1030151139
 20
145.2504003915
 30
0.0
 11
762.1030151139
 21
145.2504003915
 31
0.0
  0
LINE
  5
131
330
1F
100
AcDbEntity
  8
0
  6
Continuous
 62
     7
100
AcDbLine
 10
723.1030151139
 20
165.2504003915
 30
0.0
 11
723.1030151139
 21
176.5746147556
 31
0.0
  0
LINE
  5
132
330
1F
100
AcDbEntity
  8
0
  6
Continuous
 62
     7
100
AcDbLine
 10
762.1030151139
 20
176.5746147556
 30
0.0
 11
723.1030151139
 21
176.5746147556
 31
0.0
  0
LINE
  5
133
330
1F
100
AcDbEntity
  8
0
  6
Continuous
 62
     7
100
AcDbLine
 10
762.1030151139
 20
176.5746147556
 30
0.0
 11
762.1030151139
 21
165.2504003915
 31
0.0
  0
LINE
  5
134
330
1F
100
AcDbEntity
  8
0
  6
Continuous
 62
     7
100
AcDbLine
 10
723.1030151139
 20
165.2504003915
 30
0.0
 11
762.1030151139
 21
165.2504003915
 31
0.0
  0
ARC
  5
135
330
1F
100
AcDbEntity
  8
0
  6
Continuous
 62
     7
100
AcDbCircle
 10
762.1030151139
 20
165.2504003915
 30
0.0
 40
11.32421436405707
100
AcDbArc
 50
0.0
 51
90.0
  0
LINE
  5
136
330
1F
100
AcDbEntity
  8
0
  6
Continuous
 62
     7
100
AcDbLine
 10
773.427229478
 20
165.2504003915
 30
0.0
 11
762.1030151139
 21
165.2504003915
 31
0.0
  0
ARC
  5
137
330
1F
100
AcDbEntity
  8
0
  6
Continuous
 62
     7
100
AcDbCircle
 10
723.1030151139
 20
125.2504003915
 30
0.0
 40
11.32421436405696
100
AcDbArc
 50
90.0
 51
180.0
  0
LINE
  5
138
330
1F
100
AcDbEntity
  8
0
  6
Continuous
 62
     7
100
AcDbLine
 10
723.1030151139
 20
125.2504003915
 30
0.0
 11
711.7788007499
 21
125.2504003915
 31
0.0
  0
ARC
  5
139
330
1F
100
AcDbEntity
  8
0
  6
Continuous
 62
     7
100
AcDbCircle
 10
723.1030151139
 20
145.2504003915
 30
0.0
 40
11.32421436405696
100
AcDbArc
 50
90.0
 51
180.0
  0
LINE
  5
13A
330
1F
100
AcDbEntity
  8
0
  6
Continuous
 62
     7
100
AcDbLine
 10
723.1030151139
 20
145.2504003915
 30
0.0
 11
711.7788007499
 21
145.2504003915
 31
0.0
  0
ARC
  5
13B
330
1F
100
AcDbEntity
  8
0
  6
Continuous
 62
     7
100
AcDbCircle
 10
723.1030151139
 20
165.2504003915
 30
0.0
 40
11.32421436405696
100
AcDbArc
 50
90.0
 51
180.0
  0
LINE
  5
13C
330
1F
100
AcDbEntity
  8
0
  6
Continuous
 62
     7
100
AcDbLine
 10
723.1030151139
 20
165.2504003915
 30
0.0
 11
711.7788007499
 21
165.2504003915
 31
0.0
  0
LINE
  5
13D
330
1F
100
AcDbEntity
  8
0
  6
Continuous
 62
     7
100
AcDbLine
 10
1402.1030151139
 20
136.5746147556
 30
0.0
 11
1402.1030151139
 21
137.938977932
 31
0.0
  0
ARC
  5
13E
330
1F
100
AcDbEntity
  8
0
  6
Continuous
 62
     7
100
AcDbCircle
 10
1402.1030151139
 20
125.2504003915
 30
0.0
 40
12.68857754044961
100
AcDbArc
 50
0.0
 51
90.0
  0
LINE
  5
13F
330
1F
100
AcDbEntity
  8
0
  6
Continuous
 62
     7
100
AcDbLine
 10
1414.7915926544
 20
125.2504003915
 30
0.0
 11
1413.427229478
 21
125.2504003915
 31
0.0
  0
LINE
  5
140
330
1F
100
AcDbEntity
  8
0
  6
Continuous
 62
     7
100
AcDbLine
 10
1402.1030151139
 20
156.5746147556
 30
0.0
 11
1402.1030151139
 21
157.938977932
 31
0.0
  0
ARC
  5
141
330
1F
100
AcDbEntity
  8
0
  6
Continuous
 62
     7
100
AcDbCircle
 10
1402.1030151139
 20
145.2504003915
 30
0.0
 40
12.68857754044961
100
AcDbArc
 50
0.0
 51
90.0
  0
LINE
  5
142
330
1F
100
AcDbEntity
  8
0
  6
Continuous
 62
     7
100
AcDbLine
 10
1414.7915926544
 20
145.2504003915
 30
0.0
 11
1413.427229478
 21
145.2504003915
 31
0.0
  0
LINE
  5
143
330
1F
100
AcDbEntity
  8
0
  6
Continuous
 62
     7
100
AcDbLine
 10
1363.1030151139
 20
136.5746147556
 30
0.0
 11
1363.1030151139
 21
137.938977932
 31
0.0
  0
LINE
  5
144
330
1F
100
AcDbEntity
  8
0
  6
Continuous
 62
     7
100
AcDbLine
 10
1363.1030151139
 20
137.938977932
 30
0.0
 11
1402.1030151139
 21
137.938977932
 31
0.0
  0
LINE
  5
145
330
1F
100
AcDbEntity
  8
0
  6
Continuous
 62
     7
100
AcDbLine
 10
1402.1030151139
 20
176.5746147556
 30
0.0
 11
1402.1030151139
 21
177.938977932
 31
0.0
  0
ARC
  5
146
330
1F
100
AcDbEntity
  8
0
  6
Continuous
 62
     7
100
AcDbCircle
 10
1402.1030151139
 20
165.2504003915
 30
0.0
 40
12.68857754044961
100
AcDbArc
 50
0.0
 51
90.0
  0
LINE
  5
147
330
1F
100
AcDbEntity
  8
0
  6
Continuous
 62
     7
100
AcDbLine
 10
1414.7915926544
 20
165.2504003915
 30
0.0
 11
1413.427229478
 21
165.2504003915
 31
0.0
  0
LINE
  5
148
330
1F
100
AcDbEntity
  8
0
  6
Continuous
 62
     7
100
AcDbLine
 10
1363.1030151139
 20
156.5746147556
 30
0.0
 11
1363.1030151139
 21
157.938977932
 31
0.0
  0
LINE
  5
149
330
1F
100
AcDbEntity
  8
0
  6
Continuous
 62
     7
100
AcDbLine
 10
1363.1030151139
 20
157.938977932
 30
0.0
 11
1402.1030151139
 21
157.938977932
 31
0.0
  0
LINE
  5
14A
330
1F
100
AcDbEntity
  8
0
  6
Continuous
 62
     7
100
AcDbLine
 10
1363.1030151139
 20
176.5746147556
 30
0.0
 11
1363.1030151139
 21
177.938977932
 31
0.0
  0
LINE
  5
14B
330
1F
100
AcDbEntity
  8
0
  6
Continuous
 62
     7
100
AcDbLine
 10
1363.1030151139
 20
177.938977932
 30
0.0
 11
1402.1030151139
 21
177.938977932
 31
0.0
  0
ARC
  5
14C
330
1F
100
AcDbEntity
  8
0
  6
Continuous
 62
     7
100
AcDbCircle
 10
1363.1030151139
 20
125.2504003915
 30
0.0
 40
12.68857754044951
100
AcDbArc
 50
90.0
 51
180.0
  0
LINE
  5
14D
330
1F
100
AcDbEntity
  8
0
  6
Continuous
 62
     7
100
AcDbLine
 10
1351.7788007499
 20
125.2504003915
 30
0.0
 11
1350.4144375735
 21
125.2504003915
 31
0.0
  0
ARC
  5
14E
330
1F
100
AcDbEntity
  8
0
  6
Continuous
 62
     7
100
AcDbCircle
 10
1363.1030151139
 20
145.2504003915
 30
0.0
 40
12.6885775404495
100
AcDbArc
 50
90.0
 51
180.0
  0
LINE
  5
14F
330
1F
100
AcDbEntity
  8
0
  6
Continuous
 62
     7
100
AcDbLine
 10
1351.7788007499
 20
145.2504003915
 30
0.0
 11
1350.4144375735
 21
145.2504003915
 31
0.0
  0
LINE
  5
150
330
1F
100
AcDbEntity
  8
0
  6
Continuous
 62
     7
100
AcDbLine
 10
1322.1030151139
 20
136.5746147556
 30
0.0
 11
1322.1030151139
 21
137.938977932
 31
0.0
  0
ARC
  5
151
330
1F
100
AcDbEntity
  8
0
  6
Continuous
 62
     7
100
AcDbCircle
 10
1322.1030151139
 20
125.2504003915
 30
0.0
 40
12.68857754044951
100
AcDbArc
 50
0.0
 51
90.0
  0
LINE
  5
152
330
1F
100
AcDbEntity
  8
0
  6
Continuous
 62
     7
100
AcDbLine
 10
1334.7915926544
 20
125.2504003915
 30
0.0
 11
1333.427229478
 21
125.2504003915
 31
0.0
  0
ARC
  5
153
330
1F
100
AcDbEntity
  8
0
  6
Continuous
 62
     7
100
AcDbCircle
 10
1363.1030151139
 20
165.2504003915
 30
0.0
 40
12.6885775404495
100
AcDbArc
 50
90.0
 51
180.0
  0
LINE
  5
154
330
1F
100
AcDbEntity
  8
0
  6
Continuous
 62
     7
100
AcDbLine
 10
1351.7788007499
 20
165.2504003915
 30
0.0
 11
1350.4144375735
 21
165.2504003915
 31
0.0
  0
LINE
  5
155
330
1F
100
AcDbEntity
  8
0
  6
Continuous
 62
     7
100
AcDbLine
 10
1322.1030151139
 20
156.5746147556
 30
0.0
 11
1322.1030151139
 21
157.938977932
 31
0.0
  0
ARC
  5
156
330
1F
100
AcDbEntity
  8
0
  6
Continuous
 62
     7
100
AcDbCircle
 10
1322.1030151139
 20
145.2504003915
 30
0.0
 40
12.6885775404495
100
AcDbArc
 50
0.0
 51
90.0
  0
LINE
  5
157
330
1F
100
AcDbEntity
  8
0
  6
Continuous
 62
     7
100
AcDbLine
 10
1334.7915926544
 20
145.2504003915
 30
0.0
 11
1333.427229478
 21
145.2504003915
 31
0.0
  0
LINE
  5
158
330
1F
100
AcDbEntity
  8
0
  6
Continuous
 62
     7
100
AcDbLine
 10
1283.1030151139
 20
136.5746147556
 30
0.0
 11
1283.1030151139
 21
137.938977932
 31
0.0
  0
LINE
  5
159
330
1F
100
AcDbEntity
  8
0
  6
Continuous
 62
     7
100
AcDbLine
 10
1283.1030151139
 20
137.938977932
 30
0.0
 11
1322.1030151139
 21
137.938977932
 31
0.0
  0
LINE
  5
15A
330
1F
100
AcDbEntity
  8
0
  6
Continuous
 62
     7
100
AcDbLine
 10
1322.1030151139
 20
176.5746147556
 30
0.0
 11
1322.1030151139
 21
177.938977932
 31
0.0
  0
ARC
  5
15B
330
1F
100
AcDbEntity
  8
0
  6
Continuous
 62
     7
100
AcDbCircle
 10
1322.1030151139
 20
165.2504003915
 30
0.0
 40
12.6885775404495
100
AcDbArc
 50
0.0
 51
90.0
  0
LINE
  5
15C
330
1F
100
AcDbEntity
  8
0
  6
Continuous
 62
     7
100
AcDbLine
 10
1334.7915926544
 20
165.2504003915
 30
0.0
 11
1333.427229478
 21
165.2504003915
 31
0.0
  0
LINE
  5
15D
330
1F
100
AcDbEntity
  8
0
  6
Continuous
 62
     7
100
AcDbLine
 10
1283.1030151139
 20
156.5746147556
 30
0.0
 11
1283.1030151139
 21
157.938977932
 31
0.0
  0
LINE
  5
15E
330
1F
100
AcDbEntity
  8
0
  6
Continuous
 62
     7
100
AcDbLine
 10
1283.1030151139
 20
157.938977932
 30
0.0
 11
1322.1030151139
 21
157.938977932
 31
0.0
  0
LINE
  5
15F
330
1F
100
AcDbEntity
  8
0
  6
Continuous
 62
     7
100
AcDbLine
 10
1283.1030151139
 20
176.5746147556
 30
0.0
 11
1283.1030151139
 21
177.938977932
 31
0.0
  0
LINE
  5
160
330
1F
100
AcDbEntity
  8
0
  6
Continuous
 62
     7
100
AcDbLine
 10
1283.1030151139
 20
177.938977932
 30
0.0
 11
1322.1030151139
 21
177.938977932
 31
0.0
  0
ARC
  5
161
330
1F
100
AcDbEntity
  8
0
  6
Continuous
 62
     7
100
AcDbCircle
 10
1283.1030151139
 20
125.2504003915
 30
0.0
 40
12.68857754044961
100
AcDbArc
 50
90.0
 51
180.0
  0
LINE
  5
162
330
1F
100
AcDbEntity
  8
0
  6
Continuous
 62
     7
100
AcDbLine
 10
1271.7788007499
 20
125.2504003915
 30
0.0
 11
1270.4144375735
 21
125.2504003915
 31
0.0
  0
ARC
  5
163
330
1F
100
AcDbEntity
  8
0
  6
Continuous
 62
     7
100
AcDbCircle
 10
1283.1030151139
 20
145.2504003915
 30
0.0
 40
12.68857754044961
100
AcDbArc
 50
90.0
 51
180.0
  0
LINE
  5
164
330
1F
100
AcDbEntity
  8
0
  6
Continuous
 62
     7
100
AcDbLine
 10
1271.7788007499
 20
145.2504003915
 30
0.0
 11
1270.4144375735
 21
145.2504003915
 31
0.0
  0
LINE
  5
165
330
1F
100
AcDbEntity
  8
0
  6
Continuous
 62
     7
100
AcDbLine
 10
1242.1030151139
 20
136.5746147556
 30
0.0
 11
1242.1030151139
 21
137.938977932
 31
0.0
  0
ARC
  5
166
330
1F
100
AcDbEntity
  8
0
  6
Continuous
 62
     7
100
AcDbCircle
 10
1242.1030151139
 20
125.2504003915
 30
0.0
 40
12.68857754044961
100
AcDbArc
 50
0.0
 51
90.0
  0
LINE
  5
167
330
1F
100
AcDbEntity
  8
0
  6
Continuous
 62
     7
100
AcDbLine
 10
1254.7915926544
 20
125.2504003915
 30
0.0
 11
1253.427229478
 21
125.2504003915
 31
0.0
  0
ARC
  5
168
330
1F
100
AcDbEntity
  8
0
  6
Continuous
 62
     7
100
AcDbCircle
 10
1283.1030151139
 20
165.2504003915
 30
0.0
 40
12.68857754044961
100
AcDbArc
 50
90.0
 51
180.0
  0
LINE
  5
169
330
1F
100
AcDbEntity
  8
0
  6
Continuous
 62
     7
100
AcDbLine
 10
1271.7788007499
 20
165.2504003915
 30
0.0
 11
1270.4144375735
 21
165.2504003915
 31
0.0
  0
LINE
  5
16A
330
1F
100
AcDbEntity
  8
0
  6
Continuous
 62
     7
100
AcDbLine
 10
1242.1030151139
 20
156.5746147556
 30
0.0
 11
1242.1030151139
 21
157.938977932
 31
0.0
  0
ARC
  5
16B
330
1F
100
AcDbEntity
  8
0
  6
Continuous
 62
     7
100
AcDbCircle
 10
1242.1030151139
 20
145.2504003915
 30
0.0
 40
12.68857754044961
100
AcDbArc
 50
0.0
 51
90.0
  0
LINE
  5
16C
330
1F
100
AcDbEntity
  8
0
  6
Continuous
 62
     7
100
AcDbLine
 10
1254.7915926544
 20
145.2504003915
 30
0.0
 11
1253.427229478
 21
145.2504003915
 31
0.0
  0
LINE
  5
16D
330
1F
100
AcDbEntity
  8
0
  6
Continuous
 62
     7
100
AcDbLine
 10
1203.1030151139
 20
136.5746147556
 30
0.0
 11
1203.1030151139
 21
137.938977932
 31
0.0
  0
LINE
  5
16E
330
1F
100
AcDbEntity
  8
0
  6
Continuous
 62
     7
100
AcDbLine
 10
1203.1030151139
 20
137.938977932
 30
0.0
 11
1242.1030151139
 21
137.938977932
 31
0.0
  0
LINE
  5
16F
330
1F
100
AcDbEntity
  8
0
  6
Continuous
 62
     7
100
AcDbLine
 10
1242.1030151139
 20
176.5746147556
 30
0.0
 11
1242.1030151139
 21
177.938977932
 31
0.0
  0
ARC
  5
170
330
1F
100
AcDbEntity
  8
0
  6
Continuous
 62
     7
100
AcDbCircle
 10
1242.1030151139
 20
165.2504003915
 30
0.0
 40
12.68857754044961
100
AcDbArc
 50
0.0
 51
90.0
  0
LINE
  5
171
330
1F
100
AcDbEntity
  8
0
  6
Continuous
 62
     7
100
AcDbLine
 10
1254.7915926544
 20
165.2504003915
 30
0.0
 11
1253.427229478
 21
165.2504003915
 31
0.0
  0
LINE
  5
172
330
1F
100
AcDbEntity
  8
0
  6
Continuous
 62
     7
100
AcDbLine
 10
1203.1030151139
 20
156.5746147556
 30
0.0
 11
1203.1030151139
 21
157.938977932
 31
0.0
  0
LINE
  5
173
330
1F
100
AcDbEntity
  8
0
  6
Continuous
 62
     7
100
AcDbLine
 10
1203.1030151139
 20
157.938977932
 30
0.0
 11
1242.1030151139
 21
157.938977932
 31
0.0
  0
LINE
  5
174
330
1F
100
AcDbEntity
  8
0
  6
Continuous
 62
     7
100
AcDbLine
 10
1203.1030151139
 20
176.5746147556
 30
0.0
 11
1203.1030151139
 21
177.938977932
 31
0.0
  0
LINE
  5
175
330
1F
100
AcDbEntity
  8
0
  6
Continuous
 62
     7
100
AcDbLine
 10
1203.1030151139
 20
177.938977932
 30
0.0
 11
1242.1030151139
 21
177.938977932
 31
0.0
  0
ARC
  5
176
330
1F
100
AcDbEntity
  8
0
  6
Continuous
 62
     7
100
AcDbCircle
 10
1203.1030151139
 20
125.2504003915
 30
0.0
 40
12.68857754044961
100
AcDbArc
 50
90.0
 51
180.0
  0
LINE
  5
177
330
1F
100
AcDbEntity
  8
0
  6
Continuous
 62
     7
100
AcDbLine
 10
1191.7788007499
 20
125.2504003915
 30
0.0
 11
1190.4144375735
 21
125.2504003915
 31
0.0
  0
ARC
  5
178
330
1F
100
AcDbEntity
  8
0
  6
Continuous
 62
     7
100
AcDbCircle
 10
1203.1030151139
 20
145.2504003915
 30
0.0
 40
12.68857754044961
100
AcDbArc
 50
90.0
 51
180.0
  0
LINE
  5
179
330
1F
100
AcDbEntity
  8
0
  6
Continuous
 62
     7
100
AcDbLine
 10
1191.7788007499
 20
145.2504003915
 30
0.0
 11
1190.4144375735
 21
145.2504003915
 31
0.0
  0
LINE
  5
17A
330
1F
100
AcDbEntity
  8
0
  6
Continuous
 62
     7
100
AcDbLine
 10
1162.1030151139
 20
136.5746147556
 30
0.0
 11
1162.1030151139
 21
137.938977932
 31
0.0
  0
ARC
  5
17B
330
1F
100
AcDbEntity
  8
0
  6
Continuous
 62
     7
100
AcDbCircle
 10
1162.1030151139
 20
125.2504003915
 30
0.0
 40
12.68857754044951
100
AcDbArc
 50
0.0
 51
90.0
  0
LINE
  5
17C
330
1F
100
AcDbEntity
  8
0
  6
Continuous
 62
     7
100
AcDbLine
 10
1174.7915926544
 20
125.2504003915
 30
0.0
 11
1173.427229478
 21
125.2504003915
 31
0.0
  0
ARC
  5
17D
330
1F
100
AcDbEntity
  8
0
  6
Continuous
 62
     7
100
AcDbCircle
 10
1203.1030151139
 20
165.2504003915
 30
0.0
 40
12.68857754044961
100
AcDbArc
 50
90.0
 51
180.0
  0
LINE
  5
17E
330
1F
100
AcDbEntity
  8
0
  6
Continuous
 62
     7
100
AcDbLine
 10
1191.7788007499
 20
165.2504003915
 30
0.0
 11
1190.4144375735
 21
165.2504003915
 31
0.0
  0
LINE
  5
17F
330
1F
100
AcDbEntity
  8
0
  6
Continuous
 62
     7
100
AcDbLine
 10
1162.1030151139
 20
156.5746147556
 30
0.0
 11
1162.1030151139
 21
157.938977932
 31
0.0
  0
ARC
  5
180
330
1F
100
AcDbEntity
  8
0
  6
Continuous
 62
     7
100
AcDbCircle
 10
1162.1030151139
 20
145.2504003915
 30
0.0
 40
12.68857754044944
100
AcDbArc
 50
0.0
 51
90.0
  0
LINE
  5
181
330
1F
100
AcDbEntity
  8
0
  6
Continuous
 62
     7
100
AcDbLine
 10
1174.7915926544
 20
145.2504003915
 30
0.0
 11
1173.427229478
 21
145.2504003915
 31
0.0
  0
LINE
  5
182
330
1F
100
AcDbEntity
  8
0
  6
Continuous
 62
     7
100
AcDbLine
 10
1123.1030151139
 20
136.5746147556
 30
0.0
 11
1123.1030151139
 21
137.938977932
 31
0.0
  0
LINE
  5
183
330
1F
100
AcDbEntity
  8
0
  6
Continuous
 62
     7
100
AcDbLine
 10
1123.1030151139
 20
137.938977932
 30
0.0
 11
1162.1030151139
 21
137.938977932
 31
0.0
  0
LINE
  5
184
330
1F
100
AcDbEntity
  8
0
  6
Continuous
 62
     7
100
AcDbLine
 10
1162.1030151139
 20
176.5746147556
 30
0.0
 11
1162.1030151139
 21
177.938977932
 31
0.0
  0
ARC
  5
185
330
1F
100
AcDbEntity
  8
0
  6
Continuous
 62
     7
100
AcDbCircle
 10
1162.1030151139
 20
165.2504003915
 30
0.0
 40
12.68857754044947
100
AcDbArc
 50
0.0
 51
90.0
  0
LINE
  5
186
330
1F
100
AcDbEntity
  8
0
  6
Continuous
 62
     7
100
AcDbLine
 10
1174.7915926544
 20
165.2504003915
 30
0.0
 11
1173.427229478
 21
165.2504003915
 31
0.0
  0
LINE
  5
187
330
1F
100
AcDbEntity
  8
0
  6
Continuous
 62
     7
100
AcDbLine
 10
1123.1030151139
 20
156.5746147556
 30
0.0
 11
1123.1030151139
 21
157.938977932
 31
0.0
  0
LINE
  5
188
330
1F
100
AcDbEntity
  8
0
  6
Continuous
 62
     7
100
AcDbLine
 10
1123.1030151139
 20
157.938977932
 30
0.0
 11
1162.1030151139
 21
157.938977932
 31
0.0
  0
LINE
  5
189
330
1F
100
AcDbEntity
  8
0
  6
Continuous
 62
     7
100
AcDbLine
 10
1123.1030151139
 20
176.5746147556
 30
0.0
 11
1123.1030151139
 21
177.938977932
 31
0.0
  0
LINE
  5
18A
330
1F
100
AcDbEntity
  8
0
  6
Continuous
 62
     7
100
AcDbLine
 10
1123.1030151139
 20
177.938977932
 30
0.0
 11
1162.1030151139
 21
177.938977932
 31
0.0
  0
ARC
  5
18B
330
1F
100
AcDbEntity
  8
0
  6
Continuous
 62
     7
100
AcDbCircle
 10
1123.1030151139
 20
125.2504003915
 30
0.0
 40
12.6885775404494
100
AcDbArc
 50
90.0
 51
180.0
  0
LINE
  5
18C
330
1F
100
AcDbEntity
  8
0
  6
Continuous
 62
     7
100
AcDbLine
 10
1111.7788007499
 20
125.2504003915
 30
0.0
 11
1110.4144375735
 21
125.2504003915
 31
0.0
  0
ARC
  5
18D
330
1F
100
AcDbEntity
  8
0
  6
Continuous
 62
     7
100
AcDbCircle
 10
1123.1030151139
 20
145.2504003915
 30
0.0
 40
12.68857754044944
100
AcDbArc
 50
90.0
 51
180.0
  0
LINE
  5
18E
330
1F
100
AcDbEntity
  8
0
  6
Continuous
 62
     7
100
AcDbLine
 10
1111.7788007499
 20
145.2504003915
 30
0.0
 11
1110.4144375735
 21
145.2504003915
 31
0.0
  0
LINE
  5
18F
330
1F
100
AcDbEntity
  8
0
  6
Continuous
 62
     7
100
AcDbLine
 10
1082.1030151139
 20
136.5746147556
 30
0.0
 11
1082.1030151139
 21
137.938977932
 31
0.0
  0
ARC
  5
190
330
1F
100
AcDbEntity
  8
0
  6
Continuous
 62
     7
100
AcDbCircle
 10
1082.1030151139
 20
125.2504003915
 30
0.0
 40
12.6885775404494
100
AcDbArc
 50
0.0
 51
90.0
  0
LINE
  5
191
330
1F
100
AcDbEntity
  8
0
  6
Continuous
 62
     7
100
AcDbLine
 10
1094.7915926544
 20
125.2504003915
 30
0.0
 11
1093.427229478
 21
125.2504003915
 31
0.0
  0
ARC
  5
192
330
1F
100
AcDbEntity
  8
0
  6
Continuous
 62
     7
100
AcDbCircle
 10
1123.1030151139
 20
165.2504003915
 30
0.0
 40
12.68857754044947
100
AcDbArc
 50
90.0
 51
180.0
  0
LINE
  5
193
330
1F
100
AcDbEntity
  8
0
  6
Continuous
 62
     7
100
AcDbLine
 10
1111.7788007499
 20
165.2504003915
 30
0.0
 11
1110.4144375735
 21
165.2504003915
 31
0.0
  0
LINE
  5
194
330
1F
100
AcDbEntity
  8
0
  6
Continuous
 62
     7
100
AcDbLine
 10
1082.1030151139
 20
156.5746147556
 30
0.0
 11
1082.1030151139
 21
157.938977932
 31
0.0
  0
ARC
  5
195
330
1F
100
AcDbEntity
  8
0
  6
Continuous
 62
     7
100
AcDbCircle
 10
1082.1030151139
 20
145.2504003915
 30
0.0
 40
12.68857754044944
100
AcDbArc
 50
0.0
 51
90.0
  0
LINE
  5
196
330
1F
100
AcDbEntity
  8
0
  6
Continuous
 62
     7
100
AcDbLine
 10
1094.7915926544
 20
145.2504003915
 30
0.0
 11
1093.427229478
 21
145.2504003915
 31
0.0
  0
LINE
  5
197
330
1F
100
AcDbEntity
  8
0
  6
Continuous
 62
     7
100
AcDbLine
 10
1043.1030151139
 20
136.5746147556
 30
0.0
 11
1043.1030151139
 21
137.938977932
 31
0.0
  0
LINE
  5
198
330
1F
100
AcDbEntity
  8
0
  6
Continuous
 62
     7
100
AcDbLine
 10
1043.1030151139
 20
137.938977932
 30
0.0
 11
1082.1030151139
 21
137.938977932
 31
0.0
  0
LINE
  5
199
330
1F
100
AcDbEntity
  8
0
  6
Continuous
 62
     7
100
AcDbLine
 10
1082.1030151139
 20
176.5746147556
 30
0.0
 11
1082.1030151139
 21
177.938977932
 31
0.0
  0
ARC
  5
19A
330
1F
100
AcDbEntity
  8
0
  6
Continuous
 62
     7
100
AcDbCircle
 10
1082.1030151139
 20
165.2504003915
 30
0.0
 40
12.68857754044947
100
AcDbArc
 50
0.0
 51
90.0
  0
LINE
  5
19B
330
1F
100
AcDbEntity
  8
0
  6
Continuous
 62
     7
100
AcDbLine
 10
1094.7915926544
 20
165.2504003915
 30
0.0
 11
1093.427229478
 21
165.2504003915
 31
0.0
  0
LINE
  5
19C
330
1F
100
AcDbEntity
  8
0
  6
Continuous
 62
     7
100
AcDbLine
 10
1043.1030151139
 20
156.5746147556
 30
0.0
 11
1043.1030151139
 21
157.938977932
 31
0.0
  0
LINE
  5
19D
330
1F
100
AcDbEntity
  8
0
  6
Continuous
 62
     7
100
AcDbLine
 10
1043.1030151139
 20
157.938977932
 30
0.0
 11
1082.1030151139
 21
157.938977932
 31
0.0
  0
LINE
  5
19E
330
1F
100
AcDbEntity
  8
0
  6
Continuous
 62
     7
100
AcDbLine
 10
1043.1030151139
 20
176.5746147556
 30
0.0
 11
1043.1030151139
 21
177.938977932
 31
0.0
  0
LINE
  5
19F
330
1F
100
AcDbEntity
  8
0
  6
Continuous
 62
     7
100
AcDbLine
 10
1043.1030151139
 20
177.938977932
 30
0.0
 11
1082.1030151139
 21
177.938977932
 31
0.0
  0
ARC
  5
1A0
330
1F
100
AcDbEntity
  8
0
  6
Continuous
 62
     7
100
AcDbCircle
 10
1043.1030151139
 20
125.2504003915
 30
0.0
 40
12.6885775404494
100
AcDbArc
 50
90.0
 51
180.0
  0
LINE
  5
1A1
330
1F
100
AcDbEntity
  8
0
  6
Continuous
 62
     7
100
AcDbLine
 10
1031.7788007499
 20
125.2504003915
 30
0.0
 11
1030.4144375735
 21
125.2504003915
 31
0.0
  0
ARC
  5
1A2
330
1F
100
AcDbEntity
  8
0
  6
Continuous
 62
     7
100
AcDbCircle
 10
1043.1030151139
 20
145.2504003915
 30
0.0
 40
12.68857754044939
100
AcDbArc
 50
90.0
 51
180.0
  0
LINE
  5
1A3
330
1F
100
AcDbEntity
  8
0
  6
Continuous
 62
     7
100
AcDbLine
 10
1031.7788007499
 20
145.2504003915
 30
0.0
 11
1030.4144375735
 21
145.2504003915
 31
0.0
  0
LINE
  5
1A4
330
1F
100
AcDbEntity
  8
0
  6
Continuous
 62
     7
100
AcDbLine
 10
1002.1030151139
 20
136.5746147556
 30
0.0
 11
1002.1030151139
 21
137.938977932
 31
0.0
  0
ARC
  5
1A5
330
1F
100
AcDbEntity
  8
0
  6
Continuous
 62
     7
100
AcDbCircle
 10
1002.1030151139
 20
125.2504003915
 30
0.0
 40
12.68857754044996
100
AcDbArc
 50
0.0
 51
90.0
  0
LINE
  5
1A6
330
1F
100
AcDbEntity
  8
0
  6
Continuous
 62
     7
100
AcDbLine
 10
1014.7915926544
 20
125.2504003915
 30
0.0
 11
1013.427229478
 21
125.2504003915
 31
0.0
  0
ARC
  5
1A7
330
1F
100
AcDbEntity
  8
0
  6
Continuous
 62
     7
100
AcDbCircle
 10
1043.1030151139
 20
165.2504003915
 30
0.0
 40
12.68857754044942
100
AcDbArc
 50
90.0
 51
180.0
  0
LINE
  5
1A8
330
1F
100
AcDbEntity
  8
0
  6
Continuous
 62
     7
100
AcDbLine
 10
1031.7788007499
 20
165.2504003915
 30
0.0
 11
1030.4144375735
 21
165.2504003915
 31
0.0
  0
LINE
  5
1A9
330
1F
100
AcDbEntity
  8
0
  6
Continuous
 62
     7
100
AcDbLine
 10
1002.1030151139
 20
156.5746147556
 30
0.0
 11
1002.1030151139
 21
157.938977932
 31
0.0
  0
ARC
  5
1AA
330
1F
100
AcDbEntity
  8
0
  6
Continuous
 62
     7
100
AcDbCircle
 10
1002.1030151139
 20
145.2504003915
 30
0.0
 40
12.68857754044996
100
AcDbArc
 50
0.0
 51
90.0
  0
LINE
  5
1AB
330
1F
100
AcDbEntity
  8
0
  6
Continuous
 62
     7
100
AcDbLine
 10
1014.7915926544
 20
145.2504003915
 30
0.0
 11
1013.427229478
 21
145.2504003915
 31
0.0
  0
LINE
  5
1AC
330
1F
100
AcDbEntity
  8
0
  6
Continuous
 62
     7
100
AcDbLine
 10
963.1030151139
 20
136.5746147556
 30
0.0
 11
963.1030151139
 21
137.938977932
 31
0.0
  0
LINE
  5
1AD
330
1F
100
AcDbEntity
  8
0
  6
Continuous
 62
     7
100
AcDbLine
 10
963.1030151139
 20
137.938977932
 30
0.0
 11
1002.1030151139
 21
137.938977932
 31
0.0
  0
LINE
  5
1AE
330
1F
100
AcDbEntity
  8
0
  6
Continuous
 62
     7
100
AcDbLine
 10
1002.1030151139
 20
176.5746147556
 30
0.0
 11
1002.1030151139
 21
177.938977932
 31
0.0
  0
ARC
  5
1AF
330
1F
100
AcDbEntity
  8
0
  6
Continuous
 62
     7
100
AcDbCircle
 10
1002.1030151139
 20
165.2504003915
 30
0.0
 40
12.68857754044996
100
AcDbArc
 50
0.0
 51
90.0
  0
LINE
  5
1B0
330
1F
100
AcDbEntity
  8
0
  6
Continuous
 62
     7
100
AcDbLine
 10
1014.7915926544
 20
165.2504003915
 30
0.0
 11
1013.427229478
 21
165.2504003915
 31
0.0
  0
LINE
  5
1B1
330
1F
100
AcDbEntity
  8
0
  6
Continuous
 62
     7
100
AcDbLine
 10
963.1030151139
 20
156.5746147556
 30
0.0
 11
963.1030151139
 21
157.938977932
 31
0.0
  0
LINE
  5
1B2
330
1F
100
AcDbEntity
  8
0
  6
Continuous
 62
     7
100
AcDbLine
 10
963.1030151139
 20
157.938977932
 30
0.0
 11
1002.1030151139
 21
157.938977932
 31
0.0
  0
LINE
  5
1B3
330
1F
100
AcDbEntity
  8
0
  6
Continuous
 62
     7
100
AcDbLine
 10
963.1030151139
 20
176.5746147556
 30
0.0
 11
963.1030151139
 21
177.938977932
 31
0.0
  0
LINE
  5
1B4
330
1F
100
AcDbEntity
  8
0
  6
Continuous
 62
     7
100
AcDbLine
 10
963.1030151139
 20
177.938977932
 30
0.0
 11
1002.1030151139
 21
177.938977932
 31
0.0
  0
ARC
  5
1B5
330
1F
100
AcDbEntity
  8
0
  6
Continuous
 62
     7
100
AcDbCircle
 10
963.1030151139
 20
125.2504003915
 30
0.0
 40
12.6885775404494
100
AcDbArc
 50
90.0
 51
180.0
  0
LINE
  5
1B6
330
1F
100
AcDbEntity
  8
0
  6
Continuous
 62
     7
100
AcDbLine
 10
951.7788007499
 20
125.2504003915
 30
0.0
 11
950.4144375735
 21
125.2504003915
 31
0.0
  0
ARC
  5
1B7
330
1F
100
AcDbEntity
  8
0
  6
Continuous
 62
     7
100
AcDbCircle
 10
963.1030151139
 20
145.2504003915
 30
0.0
 40
12.68857754044939
100
AcDbArc
 50
90.0
 51
180.0
  0
LINE
  5
1B8
330
1F
100
AcDbEntity
  8
0
  6
Continuous
 62
     7
100
AcDbLine
 10
951.7788007499
 20
145.2504003915
 30
0.0
 11
950.4144375735
 21
145.2504003915
 31
0.0
  0
LINE
  5
1B9
330
1F
100
AcDbEntity
  8
0
  6
Continuous
 62
     7
100
AcDbLine
 10
922.1030151139
 20
136.5746147556
 30
0.0
 11
922.1030151139
 21
137.938977932
 31
0.0
  0
ARC
  5
1BA
330
1F
100
AcDbEntity
  8
0
  6
Continuous
 62
     7
100
AcDbCircle
 10
922.1030151139
 20
125.2504003915
 30
0.0
 40
12.68857754045007
100
AcDbArc
 50
0.0
 51
90.0
  0
LINE
  5
1BB
330
1F
100
AcDbEntity
  8
0
  6
Continuous
 62
     7
100
AcDbLine
 10
934.7915926544
 20
125.2504003915
 30
0.0
 11
933.427229478
 21
125.2504003915
 31
0.0
  0
ARC
  5
1BC
330
1F
100
AcDbEntity
  8
0
  6
Continuous
 62
     7
100
AcDbCircle
 10
963.1030151139
 20
165.2504003915
 30
0.0
 40
12.68857754044942
100
AcDbArc
 50
90.0
 51
180.0
  0
LINE
  5
1BD
330
1F
100
AcDbEntity
  8
0
  6
Continuous
 62
     7
100
AcDbLine
 10
951.7788007499
 20
165.2504003915
 30
0.0
 11
950.4144375735
 21
165.2504003915
 31
0.0
  0
LINE
  5
1BE
330
1F
100
AcDbEntity
  8
0
  6
Continuous
 62
     7
100
AcDbLine
 10
922.1030151139
 20
156.5746147556
 30
0.0
 11
922.1030151139
 21
157.938977932
 31
0.0
  0
ARC
  5
1BF
330
1F
100
AcDbEntity
  8
0
  6
Continuous
 62
     7
100
AcDbCircle
 10
922.1030151139
 20
145.2504003915
 30
0.0
 40
12.68857754045007
100
AcDbArc
 50
0.0
 51
90.0
  0
LINE
  5
1C0
330
1F
100
AcDbEntity
  8
0
  6
Continuous
 62
     7
100
AcDbLine
 10
934.7915926544
 20
145.2504003915
 30
0.0
 11
933.427229478
 21
145.2504003915
 31
0.0
  0
LINE
  5
1C1
330
1F
100
AcDbEntity
  8
0
  6
Continuous
 62
     7
100
AcDbLine
 10
883.1030151139
 20
136.5746147556
 30
0.0
 11
883.1030151139
 21
137.938977932
 31
0.0
  0
LINE
  5
1C2
330
1F
100
AcDbEntity
  8
0
  6
Continuous
 62
     7
100
AcDbLine
 10
883.1030151139
 20
137.938977932
 30
0.0
 11
922.1030151139
 21
137.938977932
 31
0.0
  0
LINE
  5
1C3
330
1F
100
AcDbEntity
  8
0
  6
Continuous
 62
     7
100
AcDbLine
 10
922.1030151139
 20
176.5746147556
 30
0.0
 11
922.1030151139
 21
177.938977932
 31
0.0
  0
ARC
  5
1C4
330
1F
100
AcDbEntity
  8
0
  6
Continuous
 62
     7
100
AcDbCircle
 10
922.1030151139
 20
165.2504003915
 30
0.0
 40
12.68857754045007
100
AcDbArc
 50
0.0
 51
90.0
  0
LINE
  5
1C5
330
1F
100
AcDbEntity
  8
0
  6
Continuous
 62
     7
100
AcDbLine
 10
934.7915926544
 20
165.2504003915
 30
0.0
 11
933.427229478
 21
165.2504003915
 31
0.0
  0
LINE
  5
1C6
330
1F
100
AcDbEntity
  8
0
  6
Continuous
 62
     7
100
AcDbLine
 10
883.1030151139
 20
156.5746147556
 30
0.0
 11
883.1030151139
 21
157.938977932
 31
0.0
  0
LINE
  5
1C7
330
1F
100
AcDbEntity
  8
0
  6
Continuous
 62
     7
100
AcDbLine
 10
883.1030151139
 20
157.938977932
 30
0.0
 11
922.1030151139
 21
157.938977932
 31
0.0
  0
LINE
  5
1C8
330
1F
100
AcDbEntity
  8
0
  6
Continuous
 62
     7
100
AcDbLine
 10
883.1030151139
 20
176.5746147556
 30
0.0
 11
883.1030151139
 21
177.938977932
 31
0.0
  0
LINE
  5
1C9
330
1F
100
AcDbEntity
  8
0
  6
Continuous
 62
     7
100
AcDbLine
 10
883.1030151139
 20
177.938977932
 30
0.0
 11
922.1030151139
 21
177.938977932
 31
0.0
  0
ARC
  5
1CA
330
1F
100
AcDbEntity
  8
0
  6
Continuous
 62
     7
100
AcDbCircle
 10
883.1030151139
 20
125.2504003915
 30
0.0
 40
12.6885775404494
100
AcDbArc
 50
90.0
 51
180.0
  0
LINE
  5
1CB
330
1F
100
AcDbEntity
  8
0
  6
Continuous
 62
     7
100
AcDbLine
 10
871.7788007499
 20
125.2504003915
 30
0.0
 11
870.4144375735
 21
125.2504003915
 31
0.0
  0
ARC
  5
1CC
330
1F
100
AcDbEntity
  8
0
  6
Continuous
 62
     7
100
AcDbCircle
 10
883.1030151139
 20
145.2504003915
 30
0.0
 40
12.68857754044936
100
AcDbArc
 50
90.0
 51
180.0
  0
LINE
  5
1CD
330
1F
100
AcDbEntity
  8
0
  6
Continuous
 62
     7
100
AcDbLine
 10
871.7788007499
 20
145.2504003915
 30
0.0
 11
870.4144375735
 21
145.2504003915
 31
0.0
  0
LINE
  5
1CE
330
1F
100
AcDbEntity
  8
0
  6
Continuous
 62
     7
100
AcDbLine
 10
842.1030151139
 20
136.5746147556
 30
0.0
 11
842.1030151139
 21
137.938977932
 31
0.0
  0
ARC
  5
1CF
330
1F
100
AcDbEntity
  8
0
  6
Continuous
 62
     7
100
AcDbCircle
 10
842.1030151139
 20
125.2504003915
 30
0.0
 40
12.68857754044996
100
AcDbArc
 50
0.0
 51
90.0
  0
LINE
  5
1D0
330
1F
100
AcDbEntity
  8
0
  6
Continuous
 62
     7
100
AcDbLine
 10
854.7915926544
 20
125.2504003915
 30
0.0
 11
853.427229478
 21
125.2504003915
 31
0.0
  0
ARC
  5
1D1
330
1F
100
AcDbEntity
  8
0
  6
Continuous
 62
     7
100
AcDbCircle
 10
883.1030151139
 20
165.2504003915
 30
0.0
 40
12.68857754044936
100
AcDbArc
 50
90.0
 51
180.0
  0
LINE
  5
1D2
330
1F
100
AcDbEntity
  8
0
  6
Continuous
 62
     7
100
AcDbLine
 10
871.7788007499
 20
165.2504003915
 30
0.0
 11
870.4144375735
 21
165.2504003915
 31
0.0
  0
LINE
  5
1D3
330
1F
100
AcDbEntity
  8
0
  6
Continuous
 62
     7
100
AcDbLine
 10
842.1030151139
 20
156.5746147556
 30
0.0
 11
842.1030151139
 21
157.938977932
 31
0.0
  0
ARC
  5
1D4
330
1F
100
AcDbEntity
  8
0
  6
Continuous
 62
     7
100
AcDbCircle
 10
842.1030151139
 20
145.2504003915
 30
0.0
 40
12.68857754044996
100
AcDbArc
 50
0.0
 51
90.0
  0
LINE
  5
1D5
330
1F
100
AcDbEntity
  8
0
  6
Continuous
 62
     7
100
AcDbLine
 10
854.7915926544
 20
145.2504003915
 30
0.0
 11
853.427229478
 21
145.2504003915
 31
0.0
  0
LINE
  5
1D6
330
1F
100
AcDbEntity
  8
0
  6
Continuous
 62
     7
100
AcDbLine
 10
803.1030151139
 20
136.5746147556
 30
0.0
 11
803.1030151139
 21
137.938977932
 31
0.0
  0
LINE
  5
1D7
330
1F
100
AcDbEntity
  8
0
  6
Continuous
 62
     7
100
AcDbLine
 10
803.1030151139
 20
137.938977932
 30
0.0
 11
842.1030151139
 21
137.938977932
 31
0.0
  0
LINE
  5
1D8
330
1F
100
AcDbEntity
  8
0
  6
Continuous
 62
     7
100
AcDbLine
 10
842.1030151139
 20
176.5746147556
 30
0.0
 11
842.1030151139
 21
177.938977932
 31
0.0
  0
ARC
  5
1D9
330
1F
100
AcDbEntity
  8
0
  6
Continuous
 62
     7
100
AcDbCircle
 10
842.1030151139
 20
165.2504003915
 30
0.0
 40
12.68857754044996
100
AcDbArc
 50
0.0
 51
90.0
  0
LINE
  5
1DA
330
1F
100
AcDbEntity
  8
0
  6
Continuous
 62
     7
100
AcDbLine
 10
854.7915926544
 20
165.2504003915
 30
0.0
 11
853.427229478
 21
165.2504003915
 31
0.0
  0
LINE
  5
1DB
330
1F
100
AcDbEntity
  8
0
  6
Continuous
 62
     7
100
AcDbLine
 10
803.1030151139
 20
156.5746147556
 30
0.0
 11
803.1030151139
 21
157.938977932
 31
0.0
  0
LINE
  5
1DC
330
1F
100
AcDbEntity
  8
0
  6
Continuous
 62
     7
100
AcDbLine
 10
803.1030151139
 20
157.938977932
 30
0.0
 11
842.1030151139
 21
157.938977932
 31
0.0
  0
LINE
  5
1DD
330
1F
100
AcDbEntity
  8
0
  6
Continuous
 62
     7
100
AcDbLine
 10
803.1030151139
 20
176.5746147556
 30
0.0
 11
803.1030151139
 21
177.938977932
 31
0.0
  0
LINE
  5
1DE
330
1F
100
AcDbEntity
  8
0
  6
Continuous
 62
     7
100
AcDbLine
 10
803.1030151139
 20
177.938977932
 30
0.0
 11
842.1030151139
 21
177.938977932
 31
0.0
  0
ARC
  5
1DF
330
1F
100
AcDbEntity
  8
0
  6
Continuous
 62
     7
100
AcDbCircle
 10
803.1030151139
 20
125.2504003915
 30
0.0
 40
12.68857754044929
100
AcDbArc
 50
90.0
 51
180.0
  0
LINE
  5
1E0
330
1F
100
AcDbEntity
  8
0
  6
Continuous
 62
     7
100
AcDbLine
 10
791.7788007499
 20
125.2504003915
 30
0.0
 11
790.4144375735
 21
125.2504003915
 31
0.0
  0
ARC
  5
1E1
330
1F
100
AcDbEntity
  8
0
  6
Continuous
 62
     7
100
AcDbCircle
 10
803.1030151139
 20
145.2504003915
 30
0.0
 40
12.68857754044936
100
AcDbArc
 50
90.0
 51
180.0
  0
LINE
  5
1E2
330
1F
100
AcDbEntity
  8
0
  6
Continuous
 62
     7
100
AcDbLine
 10
791.7788007499
 20
145.2504003915
 30
0.0
 11
790.4144375735
 21
145.2504003915
 31
0.0
  0
LINE
  5
1E3
330
1F
100
AcDbEntity
  8
0
  6
Continuous
 62
     7
100
AcDbLine
 10
762.1030151139
 20
136.5746147556
 30
0.0
 11
762.1030151139
 21
137.938977932
 31
0.0
  0
ARC
  5
1E4
330
1F
100
AcDbEntity
  8
0
  6
Continuous
 62
     7
100
AcDbCircle
 10
762.1030151139
 20
125.2504003915
 30
0.0
 40
12.68857754045007
100
AcDbArc
 50
0.0
 51
90.0
  0
LINE
  5
1E5
330
1F
100
AcDbEntity
  8
0
  6
Continuous
 62
     7
100
AcDbLine
 10
774.7915926544
 20
125.2504003915
 30
0.0
 11
773.427229478
 21
125.2504003915
 31
0.0
  0
ARC
  5
1E6
330
1F
100
AcDbEntity
  8
0
  6
Continuous
 62
     7
100
AcDbCircle
 10
803.1030151139
 20
165.2504003915
 30
0.0
 40
12.68857754044936
100
AcDbArc
 50
90.0
 51
180.0
  0
LINE
  5
1E7
330
1F
100
AcDbEntity
  8
0
  6
Continuous
 62
     7
100
AcDbLine
 10
791.7788007499
 20
165.2504003915
 30
0.0
 11
790.4144375735
 21
165.2504003915
 31
0.0
  0
LINE
  5
1E8
330
1F
100
AcDbEntity
  8
0
  6
Continuous
 62
     7
100
AcDbLine
 10
762.1030151139
 20
156.5746147556
 30
0.0
 11
762.1030151139
 21
157.938977932
 31
0.0
  0
ARC
  5
1E9
330
1F
100
AcDbEntity
  8
0
  6
Continuous
 62
     7
100
AcDbCircle
 10
762.1030151139
 20
145.2504003915
 30
0.0
 40
12.68857754045007
100
AcDbArc
 50
0.0
 51
90.0
  0
LINE
  5
1EA
330
1F
100
AcDbEntity
  8
0
  6
Continuous
 62
     7
100
AcDbLine
 10
774.7915926544
 20
145.2504003915
 30
0.0
 11
773.427229478
 21
145.2504003915
 31
0.0
  0
LINE
  5
1EB
330
1F
100
AcDbEntity
  8
0
  6
Continuous
 62
     7
100
AcDbLine
 10
723.1030151139
 20
136.5746147556
 30
0.0
 11
723.1030151139
 21
137.938977932
 31
0.0
  0
LINE
  5
1EC
330
1F
100
AcDbEntity
  8
0
  6
Continuous
 62
     7
100
AcDbLine
 10
723.1030151139
 20
137.938977932
 30
0.0
 11
762.1030151139
 21
137.938977932
 31
0.0
  0
LINE
  5
1ED
330
1F
100
AcDbEntity
  8
0
  6
Continuous
 62
     7
100
AcDbLine
 10
762.1030151139
 20
176.5746147556
 30
0.0
 11
762.1030151139
 21
177.938977932
 31
0.0
  0
ARC
  5
1EE
330
1F
100
AcDbEntity
  8
0
  6
Continuous
 62
     7
100
AcDbCircle
 10
762.1030151139
 20
165.2504003915
 30
0.0
 40
12.68857754045007
100
AcDbArc
 50
0.0
 51
90.0
  0
LINE
  5
1EF
330
1F
100
AcDbEntity
  8
0
  6
Continuous
 62
     7
100
AcDbLine
 10
774.7915926544
 20
165.2504003915
 30
0.0
 11
773.427229478
 21
165.2504003915
 31
0.0
  0
LINE
  5
1F0
330
1F
100
AcDbEntity
  8
0
  6
Continuous
 62
     7
100
AcDbLine
 10
723.1030151139
 20
156.5746147556
 30
0.0
 11
723.1030151139
 21
157.938977932
 31
0.0
  0
LINE
  5
1F1
330
1F
100
AcDbEntity
  8
0
  6
Continuous
 62
     7
100
AcDbLine
 10
723.1030151139
 20
157.938977932
 30
0.0
 11
762.1030151139
 21
157.938977932
 31
0.0
  0
LINE
  5
1F2
330
1F
100
AcDbEntity
  8
0
  6
Continuous
 62
     7
100
AcDbLine
 10
723.1030151139
 20
176.5746147556
 30
0.0
 11
723.1030151139
 21
177.938977932
 31
0.0
  0
LINE
  5
1F3
330
1F
100
AcDbEntity
  8
0
  6
Continuous
 62
     7
100
AcDbLine
 10
723.1030151139
 20
177.938977932
 30
0.0
 11
762.1030151139
 21
177.938977932
 31
0.0
  0
ARC
  5
1F4
330
1F
100
AcDbEntity
  8
0
  6
Continuous
 62
     7
100
AcDbCircle
 10
723.1030151139
 20
125.2504003915
 30
0.0
 40
12.68857754044929
100
AcDbArc
 50
90.0
 51
180.0
  0
LINE
  5
1F5
330
1F
100
AcDbEntity
  8
0
  6
Continuous
 62
     7
100
AcDbLine
 10
711.7788007499
 20
125.2504003915
 30
0.0
 11
710.4144375735
 21
125.2504003915
 31
0.0
  0
ARC
  5
1F6
330
1F
100
AcDbEntity
  8
0
  6
Continuous
 62
     7
100
AcDbCircle
 10
723.1030151139
 20
145.2504003915
 30
0.0
 40
12.6885775404493
100
AcDbArc
 50
90.0
 51
180.0
  0
LINE
  5
1F7
330
1F
100
AcDbEntity
  8
0
  6
Continuous
 62
     7
100
AcDbLine
 10
711.7788007499
 20
145.2504003915
 30
0.0
 11
710.4144375735
 21
145.2504003915
 31
0.0
  0
ARC
  5
1F8
330
1F
100
AcDbEntity
  8
0
  6
Continuous
 62
     7
100
AcDbCircle
 10
723.1030151139
 20
165.2504003915
 30
0.0
 40
12.6885775404493
100
AcDbArc
 50
90.0
 51
180.0
  0
LINE
  5
1F9
330
1F
100
AcDbEntity
  8
0
  6
Continuous
 62
     7
100
AcDbLine
 10
711.7788007499
 20
165.2504003915
 30
0.0
 11
710.4144375735
 21
165.2504003915
 31
0.0
  0
ARC
  5
1FA
330
1F
100
AcDbEntity
  8
0
  6
Continuous
 62
     7
100
AcDbCircle
 10
1499.8053333197
 20
151.6504003915
 30
0.0
 40
8.242640687119291
100
AcDbArc
 50
90.0
 51
270.0
  0
ARC
  5
1FB
330
1F
100
AcDbEntity
  8
0
  6
Continuous
 62
     7
100
AcDbCircle
 10
1499.8053333197
 20
151.6504003915
 30
0.0
 40
8.242640687119291
100
AcDbArc
 50
270.0
 51
90.0
  0
ARC
  5
1FC
330
1F
100
AcDbEntity
  8
0
  6
Continuous
 62
     7
100
AcDbCircle
 10
616.8053333197
 20
151.6504003915
 30
0.0
 40
8.242640687119604
100
AcDbArc
 50
90.0
 51
270.0
  0
ARC
  5
1FD
330
1F
100
AcDbEntity
  8
0
  6
Continuous
 62
     7
100
AcDbCircle
 10
616.8053333197
 20
151.6504003915
 30
0.0
 40
8.242640687119604
100
AcDbArc
 50
270.0
 51
90.0
  0
LINE
  5
1FE
330
1F
100
AcDbEntity
  8
0
  6
Continuous
 62
     7
100
AcDbLine
 10
1555.8053333197
 20
199.6504003915
 30
0.0
 11
1555.8053333197
 21
103.6504003915
 31
0.0
  0
LINE
  5
1FF
330
1F
100
AcDbEntity
  8
0
  6
Continuous
 62
     7
100
AcDbLine
 10
560.8053333197
 20
103.6504003915
 30
0.0
 11
560.8053333197
 21
199.6504003915
 31
0.0
  0
LINE
  5
200
330
1F
100
AcDbEntity
  8
0
  6
Continuous
 62
     7
100
AcDbLine
 10
560.8053333197
 20
199.6504003915
 30
0.0
 11
1555.8053333197
 21
199.6504003915
 31
0.0
  0
LINE
  5
201
330
1F
100
AcDbEntity
  8
0
  6
Continuous
 62
     7
100
AcDbLine
 10
1555.8053333197
 20
103.6504003915
 30
0.0
 11
560.8053333197
 21
103.6504003915
 31
0.0
  0
LINE
  5
202
330
1F
100
AcDbEntity
  8
0
  6
Continuous
 62
     7
100
AcDbLine
 10
1499.8053333197
 20
145.529080048
 30
0.0
 11
1499.8053333197
 21
143.4077597044
 31
0.0
  0
ARC
  5
203
330
1F
100
AcDbEntity
  8
0
  6
Continuous
 62
     7
100
AcDbCircle
 10
1499.8053333197
 20
151.6504003915
 30
0.0
 40
6.121320343559688
100
AcDbArc
 50
270.0
 51
0.0
  0
ARC
  5
204
330
1F
100
AcDbEntity
  8
0
  6
Continuous
 62
     7
100
AcDbCircle
 10
1499.8053333197
 20
151.6504003915
 30
0.0
 40
6.121320343559603
100
AcDbArc
 50
0.0
 51
90.0
  0
LINE
  5
205
330
1F
100
AcDbEntity
  8
0
  6
Continuous
 62
     7
100
AcDbLine
 10
1499.8053333197
 20
157.7717207351
 30
0.0
 11
1499.8053333197
 21
159.8930410786
 31
0.0
  0
ARC
  5
206
330
1F
100
AcDbEntity
  8
0
  6
Continuous
 62
     7
100
AcDbCircle
 10
1499.8053333197
 20
151.6504003915
 30
0.0
 40
6.121320343559773
100
AcDbArc
 50
180.0
 51
270.0
  0
ARC
  5
207
330
1F
100
AcDbEntity
  8
0
  6
Continuous
 62
     7
100
AcDbCircle
 10
1499.8053333197
 20
151.6504003915
 30
0.0
 40
6.121320343559773
100
AcDbArc
 50
90.0
 51
180.0
  0
ARC
  5
208
330
1F
100
AcDbEntity
  8
0
  6
Continuous
 62
     7
100
AcDbCircle
 10
616.8053333197
 20
151.6504003915
 30
0.0
 40
6.121320343560001
100
AcDbArc
 50
180.0
 51
270.0
  0
LINE
  5
209
330
1F
100
AcDbEntity
  8
0
  6
Continuous
 62
     7
100
AcDbLine
 10
616.8053333197
 20
145.529080048
 30
0.0
 11
616.8053333197
 21
143.4077597044
 31
0.0
  0
LINE
  5
20A
330
1F
100
AcDbEntity
  8
0
  6
Continuous
 62
     7
100
AcDbLine
 10
616.8053333197
 20
157.7717207351
 30
0.0
 11
616.8053333197
 21
159.8930410786
 31
0.0
  0
ARC
  5
20B
330
1F
100
AcDbEntity
  8
0
  6
Continuous
 62
     7
100
AcDbCircle
 10
616.8053333197
 20
151.6504003915
 30
0.0
 40
6.121320343560001
100
AcDbArc
 50
90.0
 51
180.0
  0
ARC
  5
20C
330
1F
100
AcDbEntity
  8
0
  6
Continuous
 62
     7
100
AcDbCircle
 10
616.8053333197
 20
151.6504003915
 30
0.0
 40
6.121320343560001
100
AcDbArc
 50
270.0
 51
0.0
  0
ARC
  5
20D
330
1F
100
AcDbEntity
  8
0
  6
Continuous
 62
     7
100
AcDbCircle
 10
616.8053333197
 20
151.6504003915
 30
0.0
 40
6.121320343560001
100
AcDbArc
 50
0.0
 51
90.0
  0
ARC
  5
20E
330
1F
100
AcDbEntity
  8
0
  6
Continuous
 62
     7
100
AcDbCircle
 10
612.634282962
 20
156.5100440495
 30
0.0
 40
4.154201555956358
100
AcDbArc
 50
310.6396160529
 51
326.6028955147
  0
ARC
  5
20F
330
1F
100
AcDbEntity
  8
0
  6
Continuous
 62
     7
100
AcDbCircle
 10
612.634282962
 20
156.5100440495
 30
0.0
 40
4.154201555956358
100
AcDbArc
 50
294.6763365912
 51
310.6396160529
  0
ARC
  5
210
330
1F
100
AcDbEntity
  8
0
  6
Continuous
 62
     7
100
AcDbCircle
 10
614.4938756776
 20
152.4625971465
 30
0.0
 40
0.3000000000006458
100
AcDbArc
 50
114.6763365912
 51
206.6028955147
  0
ARC
  5
211
330
1F
100
AcDbEntity
  8
0
  6
Continuous
 62
     7
100
AcDbCircle
 10
610.5112332796
 20
150.4679866503
 30
0.0
 40
4.154201555956121
100
AcDbArc
 50
354.6763365912
 51
26.6028955147
  0
ARC
  5
212
330
1F
100
AcDbEntity
  8
0
  6
Continuous
 62
     7
100
AcDbCircle
 10
614.946221476
 20
150.0547177311
 30
0.0
 40
0.3000000000014386
100
AcDbArc
 50
174.6763365912
 51
266.6028955146
  0
ARC
  5
213
330
1F
100
AcDbEntity
  8
0
  6
Continuous
 62
     7
100
AcDbCircle
 10
614.6822836373
 20
145.6083429923
 30
0.0
 40
4.15420155595617
100
AcDbArc
 50
54.6763365912
 51
86.6028955147
  0
ARC
  5
214
330
1F
100
AcDbEntity
  8
0
  6
Continuous
 62
     7
100
AcDbCircle
 10
617.2576791181
 20
149.2425209762
 30
0.0
 40
0.3000000000009447
100
AcDbArc
 50
234.6763365912
 51
310.639616053
  0
ARC
  5
215
330
1F
100
AcDbEntity
  8
0
  6
Continuous
 62
     7
100
AcDbCircle
 10
617.2576791181
 20
149.2425209762
 30
0.0
 40
0.3000000000009447
100
AcDbArc
 50
310.639616053
 51
326.6028955147
  0
ARC
  5
216
330
1F
100
AcDbEntity
  8
0
  6
Continuous
 62
     7
100
AcDbCircle
 10
620.9763836774
 20
146.7907567335
 30
0.0
 40
4.154201555956459
100
AcDbArc
 50
114.6763365912
 51
146.6028955147
  0
ARC
  5
217
330
1F
100
AcDbEntity
  8
0
  6
Continuous
 62
     7
100
AcDbCircle
 10
619.1167909618
 20
150.8382036366
 30
0.0
 40
0.3000000000004386
100
AcDbArc
 50
310.6396160529
 51
26.6028955147
  0
ARC
  5
218
330
1F
100
AcDbEntity
  8
0
  6
Continuous
 62
     7
100
AcDbCircle
 10
618.928383002
 20
157.6924577908
 30
0.0
 40
4.154201555956375
100
AcDbArc
 50
234.6763365912
 51
266.6028955147
  0
ARC
  5
219
330
1F
100
AcDbEntity
  8
0
  6
Continuous
 62
     7
100
AcDbCircle
 10
616.3529875213
 20
154.0582798068
 30
0.0
 40
0.3000000000008013
100
AcDbArc
 50
54.6763365912
 51
146.6028955147
  0
ARC
  5
21A
330
1F
100
AcDbEntity
  8
0
  6
Continuous
 62
     7
100
AcDbCircle
 10
616.8053333197
 20
151.6504003915
 30
0.0
 40
5.400000000000639
100
AcDbArc
 50
130.6396160529
 51
310.6396160529
  0
ARC
  5
21B
330
1F
100
AcDbEntity
  8
0
  6
Continuous
 62
     7
100
AcDbCircle
 10
616.8053333197
 20
151.6504003915
 30
0.0
 40
5.400000000000639
100
AcDbArc
 50
310.6396160529
 51
130.6396160529
  0
ARC
  5
21C
330
1F
100
AcDbEntity
  8
0
  6
Continuous
 62
     7
100
AcDbCircle
 10
618.6644451634
 20
153.2460830519
 30
0.0
 40
0.3000000000003908
100
AcDbArc
 50
354.6763365912
 51
86.6028955146
  0
ARC
  5
21D
330
1F
100
AcDbEntity
  8
0
  6
Continuous
 62
     7
100
AcDbCircle
 10
623.0994333597
 20
152.8328141327
 30
0.0
 40
4.154201555956571
100
AcDbArc
 50
174.6763365912
 51
206.6028955147
  0
ARC
  5
21E
330
1F
100
AcDbEntity
  8
0
  6
Continuous
 62
     7
100
AcDbCircle
 10
619.1167909618
 20
150.8382036366
 30
0.0
 40
0.3000000000007233
100
AcDbArc
 50
294.6763365912
 51
310.6396160529
  0
ARC
  5
21F
330
1F
100
AcDbEntity
  8
0
  6
Continuous
 62
     7
100
AcDbCircle
 10
1495.634282962
 20
146.7907567335
 30
0.0
 40
4.154201555956212
100
AcDbArc
 50
49.3603839471
 51
65.3236634088
  0
ARC
  5
220
330
1F
100
AcDbEntity
  8
0
  6
Continuous
 62
     7
100
AcDbCircle
 10
1495.634282962
 20
146.7907567335
 30
0.0
 40
4.154201555956157
100
AcDbArc
 50
33.3971044853
 51
49.3603839471
  0
ARC
  5
221
330
1F
100
AcDbEntity
  8
0
  6
Continuous
 62
     7
100
AcDbCircle
 10
1499.3529875213
 20
149.2425209762
 30
0.0
 40
0.3000000000005646
100
AcDbArc
 50
213.3971044853
 51
305.3236634088
  0
ARC
  5
222
330
1F
100
AcDbEntity
  8
0
  6
Continuous
 62
     7
100
AcDbCircle
 10
1501.928383002
 20
145.6083429923
 30
0.0
 40
4.154201555956115
100
AcDbArc
 50
93.3971044853
 51
125.3236634088
  0
ARC
  5
223
330
1F
100
AcDbEntity
  8
0
  6
Continuous
 62
     7
100
AcDbCircle
 10
1501.6644451634
 20
150.0547177311
 30
0.0
 40
0.3000000000005409
100
AcDbArc
 50
273.3971044854
 51
5.3236634089
  0
ARC
  5
224
330
1F
100
AcDbEntity
  8
0
  6
Continuous
 62
     7
100
AcDbCircle
 10
1506.0994333597
 20
150.4679866503
 30
0.0
 40
4.154201555956313
100
AcDbArc
 50
153.3971044853
 51
185.3236634088
  0
ARC
  5
225
330
1F
100
AcDbEntity
  8
0
  6
Continuous
 62
     7
100
AcDbCircle
 10
1502.1167909618
 20
152.4625971465
 30
0.0
 40
0.3000000000006475
100
AcDbArc
 50
333.3971044854
 51
49.3603839471
  0
ARC
  5
226
330
1F
100
AcDbEntity
  8
0
  6
Continuous
 62
     7
100
AcDbCircle
 10
1502.1167909618
 20
152.4625971465
 30
0.0
 40
0.3000000000006284
100
AcDbArc
 50
49.3603839471
 51
65.3236634088
  0
ARC
  5
227
330
1F
100
AcDbEntity
  8
0
  6
Continuous
 62
     7
100
AcDbCircle
 10
1503.9763836774
 20
156.5100440495
 30
0.0
 40
4.154201555956328
100
AcDbArc
 50
213.3971044853
 51
245.3236634088
  0
ARC
  5
228
330
1F
100
AcDbEntity
  8
0
  6
Continuous
 62
     7
100
AcDbCircle
 10
1500.2576791181
 20
154.0582798068
 30
0.0
 40
0.3000000000007133
100
AcDbArc
 50
33.3971044853
 51
49.3603839471
  0
ARC
  5
229
330
1F
100
AcDbEntity
  8
0
  6
Continuous
 62
     7
100
AcDbCircle
 10
1500.2576791181
 20
154.0582798068
 30
0.0
 40
0.3000000000007133
100
AcDbArc
 50
49.3603839471
 51
125.3236634088
  0
ARC
  5
22A
330
1F
100
AcDbEntity
  8
0
  6
Continuous
 62
     7
100
AcDbCircle
 10
1497.6822836373
 20
157.6924577908
 30
0.0
 40
4.154201555956096
100
AcDbArc
 50
273.3971044853
 51
305.3236634088
  0
ARC
  5
22B
330
1F
100
AcDbEntity
  8
0
  6
Continuous
 62
     7
100
AcDbCircle
 10
1497.946221476
 20
153.2460830519
 30
0.0
 40
0.3000000000000803
100
AcDbArc
 50
93.3971044853
 51
185.3236634088
  0
ARC
  5
22C
330
1F
100
AcDbEntity
  8
0
  6
Continuous
 62
     7
100
AcDbCircle
 10
1493.5112332796
 20
152.8328141327
 30
0.0
 40
4.154201555956121
100
AcDbArc
 50
333.3971044853
 51
5.3236634088
  0
ARC
  5
22D
330
1F
100
AcDbEntity
  8
0
  6
Continuous
 62
     7
100
AcDbCircle
 10
1497.4938756776
 20
150.8382036366
 30
0.0
 40
0.3000000000006284
100
AcDbArc
 50
153.3971044853
 51
245.3236634088
  0
ARC
  5
22E
330
1F
100
AcDbEntity
  8
0
  6
Continuous
 62
     7
100
AcDbCircle
 10
1499.8053333197
 20
151.6504003915
 30
0.0
 40
5.400000000000167
100
AcDbArc
 50
229.3603839471
 51
49.3603839471
  0
ARC
  5
22F
330
1F
100
AcDbEntity
  8
0
  6
Continuous
 62
     7
100
AcDbCircle
 10
1499.8053333197
 20
151.6504003915
 30
0.0
 40
5.400000000000167
100
AcDbArc
 50
49.3603839471
 51
229.3603839471
  0
LINE
  5
230
330
1F
100
AcDbEntity
  8
0
  6
Continuous
 62
     7
100
AcDbLine
 10
1505.2053333197
 20
151.6504003915
 30
0.0
 11
1505.9266536632
 21
151.6504003915
 31
0.0
  0
LINE
  5
231
330
1F
100
AcDbEntity
  8
0
  6
Continuous
 62
     7
100
AcDbLine
 10
1494.4053333197
 20
151.6504003915
 30
0.0
 11
1493.6840129761
 21
151.6504003915
 31
0.0
  0
LINE
  5
232
330
1F
100
AcDbEntity
  8
0
  6
Continuous
 62
     7
100
AcDbLine
 10
622.2053333197
 20
151.6504003915
 30
0.0
 11
622.9266536632
 21
151.6504003915
 31
0.0
  0
LINE
  5
233
330
1F
100
AcDbEntity
  8
0
  6
Continuous
 62
     7
100
AcDbLine
 10
611.4053333197
 20
151.6504003915
 30
0.0
 11
610.6840129761
 21
151.6504003915
 31
0.0
  0
LINE
  5
234
330
1F
100
AcDbEntity
  8
0
  6
Continuous
 62
     7
100
AcDbLine
 10
513.2122761293
 20
172.6504003915
 30
0.0
 11
507.7122761293
 21
172.6504003915
 31
0.0
  0
LINE
  5
235
330
1F
100
AcDbEntity
  8
0
  6
Continuous
 62
     7
100
AcDbLine
 10
513.7122761293
 20
172.1504003915
 30
0.0
 11
513.2122761293
 21
172.6504003915
 31
0.0
  0
LINE
  5
236
330
1F
100
AcDbEntity
  8
0
  6
Continuous
 62
     7
100
AcDbLine
 10
507.7122761293
 20
166.6504003915
 30
0.0
 11
513.2122761293
 21
166.6504003915
 31
0.0
  0
LINE
  5
237
330
1F
100
AcDbEntity
  8
0
  6
Continuous
 62
     7
100
AcDbLine
 10
513.2122761293
 20
166.6504003915
 30
0.0
 11
513.7122761293
 21
167.1504003915
 31
0.0
  0
LINE
  5
238
330
1F
100
AcDbEntity
  8
0
  6
Continuous
 62
     7
100
AcDbLine
 10
495.2122761293
 20
199.6504003915
 30
0.0
 11
495.2122761293
 21
103.6504003915
 31
0.0
  0
LINE
  5
239
330
1F
100
AcDbEntity
  8
0
  6
Continuous
 62
     7
100
AcDbLine
 10
507.7122761293
 20
103.6504003915
 30
0.0
 11
507.7122761293
 21
199.6504003915
 31
0.0
  0
LINE
  5
23A
330
1F
100
AcDbEntity
  8
0
  6
Continuous
 62
     7
100
AcDbLine
 10
495.2122761293
 20
103.6504003915
 30
0.0
 11
507.7122761293
 21
103.6504003915
 31
0.0
  0
LINE
  5
23B
330
1F
100
AcDbEntity
  8
0
  6
Continuous
 62
     7
100
AcDbLine
 10
495.2122761293
 20
199.6504003915
 30
0.0
 11
507.7122761293
 21
199.6504003915
 31
0.0
  0
ARC
  5
23C
330
1F
100
AcDbEntity
  8
0
  6
Continuous
 62
     7
100
AcDbCircle
 10
525.8122761293
 20
151.6504003915
 30
0.0
 40
2.500000000000111
100
AcDbArc
 50
188.8147129304
 51
8.8147129304
  0
ARC
  5
23D
330
1F
100
AcDbEntity
  8
0
  6
Continuous
 62
     7
100
AcDbCircle
 10
525.8122761293
 20
151.6504003915
 30
0.0
 40
2.500000000000111
100
AcDbArc
 50
8.8147129304
 51
188.8147129304
  0
LINE
  5
23E
330
1F
100
AcDbEntity
  8
0
  6
Continuous
 62
     7
100
AcDbLine
 10
528.2827487887
 20
152.0334993852
 30
0.0
 11
528.7768433206
 21
152.110119184
 31
0.0
  0
ARC
  5
23F
330
1F
100
AcDbEntity
  8
0
  6
Continuous
 62
     7
100
AcDbCircle
 10
525.8122761293
 20
151.6504003915
 30
0.0
 40
2.999999999999973
100
AcDbArc
 50
188.8147129304
 51
8.8147129304
  0
LINE
  5
240
330
1F
100
AcDbEntity
  8
0
  6
Continuous
 62
     7
100
AcDbLine
 10
523.3418034698
 20
151.2673013978
 30
0.0
 11
522.847708938
 21
151.190681599
 31
0.0
  0
ARC
  5
241
330
1F
100
AcDbEntity
  8
0
  6
Continuous
 62
     7
100
AcDbCircle
 10
525.8122761293
 20
151.6504003915
 30
0.0
 40
2.999999999999973
100
AcDbArc
 50
8.8147129304
 51
188.8147129304
  0
LINE
  5
242
330
1F
100
AcDbEntity
  8
0
  6
Continuous
 62
     7
100
AcDbLine
 10
517.7122761293
 20
143.9847072289
 30
0.0
 11
517.7122761293
 21
144.1504003915
 31
0.0
  0
LINE
  5
243
330
1F
100
AcDbEntity
  8
0
  6
Continuous
 62
     7
100
AcDbLine
 10
517.7122761293
 20
144.1504003915
 30
0.0
 11
533.7122761293
 21
144.1504003915
 31
0.0
  0
LINE
  5
244
330
1F
100
AcDbEntity
  8
0
  6
Continuous
 62
     7
100
AcDbLine
 10
533.7122761293
 20
143.9847072289
 30
0.0
 11
533.7122761293
 21
144.1504003915
 31
0.0
  0
LINE
  5
245
330
1F
100
AcDbEntity
  8
0
  6
Continuous
 62
     7
100
AcDbLine
 10
533.7122761293
 20
143.9847072289
 30
0.0
 11
533.7122761293
 21
138.843630992
 31
0.0
  0
ARC
  5
246
330
1F
100
AcDbEntity
  8
0
  6
Continuous
 62
     7
100
AcDbCircle
 10
531.7707650185
 20
138.9058735679
 30
0.0
 40
1.942508566655476
100
AcDbArc
 50
268.2745645851
 51
358.1637932023
  0
LINE
  5
247
330
1F
100
AcDbEntity
  8
0
  6
Continuous
 62
     7
100
AcDbLine
 10
531.7122761293
 20
136.9642457505
 30
0.0
 11
519.7122761293
 21
136.9642457505
 31
0.0
  0
ARC
  5
248
330
1F
100
AcDbEntity
  8
0
  6
Continuous
 62
     7
100
AcDbCircle
 10
519.6537872401
 20
138.9058735679
 30
0.0
 40
1.94250856665519
100
AcDbArc
 50
181.8362067977
 51
271.7254354149
  0
LINE
  5
249
330
1F
100
AcDbEntity
  8
0
  6
Continuous
 62
     7
100
AcDbLine
 10
517.7122761293
 20
138.843630992
 30
0.0
 11
517.7122761293
 21
143.9847072289
 31
0.0
  0
LINE
  5
24A
330
1F
100
AcDbEntity
  8
0
  6
Continuous
 62
     7
100
AcDbLine
 10
531.7122761293
 20
136.2802054638
 30
0.0
 11
531.7122761293
 21
136.9642457505
 31
0.0
  0
LINE
  5
24B
330
1F
100
AcDbEntity
  8
0
  6
Continuous
 62
     7
100
AcDbLine
 10
533.7122761293
 20
138.843630992
 30
0.0
 11
533.7122761293
 21
138.1595907054
 31
0.0
  0
ARC
  5
24C
330
1F
100
AcDbEntity
  8
0
  6
Continuous
 62
     7
100
AcDbCircle
 10
531.7707650185
 20
138.2218332812
 30
0.0
 40
1.942508566655591
100
AcDbArc
 50
268.2745645851
 51
358.1637932023
  0
LINE
  5
24D
330
1F
100
AcDbEntity
  8
0
  6
Continuous
 62
     7
100
AcDbLine
 10
531.7122761293
 20
136.2802054638
 30
0.0
 11
519.7122761293
 21
136.2802054638
 31
0.0
  0
LINE
  5
24E
330
1F
100
AcDbEntity
  8
0
  6
Continuous
 62
     7
100
AcDbLine
 10
519.7122761293
 20
136.9642457505
 30
0.0
 11
519.7122761293
 21
136.2802054638
 31
0.0
  0
LINE
  5
24F
330
1F
100
AcDbEntity
  8
0
  6
Continuous
 62
     7
100
AcDbLine
 10
517.7122761293
 20
138.1595907054
 30
0.0
 11
517.7122761293
 21
138.843630992
 31
0.0
  0
ARC
  5
250
330
1F
100
AcDbEntity
  8
0
  6
Continuous
 62
     7
100
AcDbCircle
 10
519.6537872401
 20
138.2218332812
 30
0.0
 40
1.94250856665524
100
AcDbArc
 50
181.8362067977
 51
271.7254354149
  0
ARC
  5
251
330
1F
100
AcDbEntity
  8
0
  6
Continuous
 62
     7
100
AcDbCircle
 10
525.8122761293
 20
151.6504003915
 30
0.0
 40
3.5
100
AcDbArc
 50
0.0
 51
180.0
  0
ARC
  5
252
330
1F
100
AcDbEntity
  8
0
  6
Continuous
 62
     7
100
AcDbCircle
 10
525.8122761293
 20
151.6504003915
 30
0.0
 40
3.5
100
AcDbArc
 50
180.0
 51
0.0
  0
LINE
  5
253
330
1F
100
AcDbEntity
  8
0
  6
Continuous
 62
     7
100
AcDbLine
 10
531.7122761293
 20
159.1504003915
 30
0.0
 11
507.7122761293
 21
159.1504003915
 31
0.0
  0
ARC
  5
254
330
1F
100
AcDbEntity
  8
0
  6
Continuous
 62
     7
100
AcDbCircle
 10
531.7122761293
 20
157.1504003915
 30
0.0
 40
2.0
100
AcDbArc
 50
0.0
 51
90.0
  0
LINE
  5
255
330
1F
100
AcDbEntity
  8
0
  6
Continuous
 62
     7
100
AcDbLine
 10
533.7122761293
 20
144.3267273722
 30
0.0
 11
533.7122761293
 21
157.1504003915
 31
0.0
  0
LINE
  5
256
330
1F
100
AcDbEntity
  8
0
  6
Continuous
 62
     7
100
AcDbLine
 10
507.7122761293
 20
144.1504003915
 30
0.0
 11
517.7122761293
 21
144.1504003915
 31
0.0
  0
LINE
  5
257
330
1F
100
AcDbEntity
  8
0
  6
Continuous
 62
     7
100
AcDbLine
 10
533.7122761293
 20
144.3267273722
 30
0.0
 11
533.7122761293
 21
144.1504003915
 31
0.0
  0
LINE
  5
258
330
1F
100
AcDbEntity
  8
0
  6
Continuous
 62
     7
100
AcDbLine
 10
494.6746417207
 20
165.2504003915
 30
0.0
 11
494.6746417207
 21
176.5746147556
 31
0.0
  0
ARC
  5
259
330
1F
100
AcDbEntity
  8
0
  6
Continuous
 62
     7
100
AcDbCircle
 10
493.2122761293
 20
177.938977932
 30
0.0
 40
2.0
100
AcDbArc
 50
316.9856438472
 51
360.0
  0
LINE
  5
25A
330
1F
100
AcDbEntity
  8
0
  6
Continuous
 62
     7
100
AcDbLine
 10
495.2122761293
 20
165.2504003915
 30
0.0
 11
494.6746417207
 21
165.2504003915
 31
0.0
  0
LINE
  5
25B
330
1F
100
AcDbEntity
  8
0
  6
Continuous
 62
     7
100
AcDbLine
 10
494.6746417207
 20
125.2504003915
 30
0.0
 11
494.6746417207
 21
136.5746147556
 31
0.0
  0
ARC
  5
25C
330
1F
100
AcDbEntity
  8
0
  6
Continuous
 62
     7
100
AcDbCircle
 10
493.2122761293
 20
137.938977932
 30
0.0
 40
2.0
100
AcDbArc
 50
316.9856438472
 51
0.0
  0
LINE
  5
25D
330
1F
100
AcDbEntity
  8
0
  6
Continuous
 62
     7
100
AcDbLine
 10
495.2122761293
 20
125.2504003915
 30
0.0
 11
494.6746417207
 21
125.2504003915
 31
0.0
  0
LINE
  5
25E
330
1F
100
AcDbEntity
  8
0
  6
Continuous
 62
     7
100
AcDbLine
 10
494.6746417207
 20
145.2504003915
 30
0.0
 11
494.6746417207
 21
156.5746147556
 31
0.0
  0
ARC
  5
25F
330
1F
100
AcDbEntity
  8
0
  6
Continuous
 62
     7
100
AcDbCircle
 10
493.2122761293
 20
157.938977932
 30
0.0
 40
2.000000000000051
100
AcDbArc
 50
316.9856438472
 51
0.0
  0
LINE
  5
260
330
1F
100
AcDbEntity
  8
0
  6
Continuous
 62
     7
100
AcDbLine
 10
495.2122761293
 20
145.2504003915
 30
0.0
 11
494.6746417207
 21
145.2504003915
 31
0.0
  0
ARC
  5
261
330
1F
100
AcDbEntity
  8
0
  6
Continuous
 62
     7
100
AcDbCircle
 10
506.8122761293
 20
165.2504003915
 30
0.0
 40
16.60000000000002
100
AcDbArc
 50
136.9856438472
 51
180.0
  0
LINE
  5
262
330
1F
100
AcDbEntity
  8
0
  6
Continuous
 62
     7
100
AcDbLine
 10
494.6746417207
 20
165.2504003915
 30
0.0
 11
490.2122761293
 21
165.2504003915
 31
0.0
  0
ARC
  5
263
330
1F
100
AcDbEntity
  8
0
  6
Continuous
 62
     7
100
AcDbCircle
 10
506.8122761293
 20
145.2504003915
 30
0.0
 40
16.59999999999997
100
AcDbArc
 50
136.9856438472
 51
180.0
  0
LINE
  5
264
330
1F
100
AcDbEntity
  8
0
  6
Continuous
 62
     7
100
AcDbLine
 10
494.6746417207
 20
145.2504003915
 30
0.0
 11
490.2122761293
 21
145.2504003915
 31
0.0
  0
ARC
  5
265
330
1F
100
AcDbEntity
  8
0
  6
Continuous
 62
     7
100
AcDbCircle
 10
506.8122761293
 20
125.2504003915
 30
0.0
 40
16.60000000000008
100
AcDbArc
 50
136.9856438472
 51
180.0
  0
LINE
  5
266
330
1F
100
AcDbEntity
  8
0
  6
Continuous
 62
     7
100
AcDbLine
 10
494.6746417207
 20
125.2504003915
 30
0.0
 11
490.2122761293
 21
125.2504003915
 31
0.0
  0
LINE
  5
267
330
1F
100
AcDbEntity
  8
0
  6
Continuous
 62
     7
100
AcDbLine
 10
513.2122761293
 20
166.6916611524
 30
0.0
 11
513.2122761293
 21
172.6504003915
 31
0.0
  0
LINE
  5
268
330
1F
100
AcDbEntity
  8
0
  6
Continuous
 62
     7
100
AcDbLine
 10
513.7122761293
 20
172.1504003915
 30
0.0
 11
513.7122761293
 21
167.1847843589
 31
0.0
  0
LINE
  5
269
330
1F
100
AcDbEntity
  8
0
  6
Continuous
 62
     7
100
AcDbLine
 10
513.7122761293
 20
167.1847843589
 30
0.0
 11
513.2122761293
 21
166.6916611524
 31
0.0
  0
LINE
  5
26A
330
1F
100
AcDbEntity
  8
0
  6
Continuous
 62
     7
100
AcDbLine
 10
513.2122761293
 20
166.6504003915
 30
0.0
 11
513.2122761293
 21
166.6916611524
 31
0.0
  0
LINE
  5
26B
330
1F
100
AcDbEntity
  8
0
  6
Continuous
 62
     7
100
AcDbLine
 10
513.7122761293
 20
167.1847843589
 30
0.0
 11
513.7122761293
 21
167.1504003915
 31
0.0
  0
LINE
  5
26C
330
1F
100
AcDbEntity
  8
0
  6
Continuous
 62
     7
100
AcDbLine
 10
513.2122761293
 20
166.6916611524
 30
0.0
 11
507.7122761293
 21
166.6916611524
 31
0.0
  0
LINE
  5
26D
330
1F
100
AcDbEntity
  8
0
  6
Continuous
 62
     7
100
AcDbLine
 10
1609.7512167564
 20
166.6504003915
 30
0.0
 11
1615.2512167564
 21
166.6504003915
 31
0.0
  0
LINE
  5
26E
330
1F
100
AcDbEntity
  8
0
  6
Continuous
 62
     7
100
AcDbLine
 10
1609.2512167564
 20
167.1504003915
 30
0.0
 11
1609.7512167564
 21
166.6504003915
 31
0.0
  0
LINE
  5
26F
330
1F
100
AcDbEntity
  8
0
  6
Continuous
 62
     7
100
AcDbLine
 10
1615.2512167564
 20
172.6504003915
 30
0.0
 11
1609.7512167564
 21
172.6504003915
 31
0.0
  0
LINE
  5
270
330
1F
100
AcDbEntity
  8
0
  6
Continuous
 62
     7
100
AcDbLine
 10
1609.7512167564
 20
172.6504003915
 30
0.0
 11
1609.2512167564
 21
172.1504003915
 31
0.0
  0
LINE
  5
271
330
1F
100
AcDbEntity
  8
0
  6
Continuous
 62
     7
100
AcDbLine
 10
1615.2512167564
 20
199.6504003915
 30
0.0
 11
1615.2512167564
 21
103.6504003915
 31
0.0
  0
LINE
  5
272
330
1F
100
AcDbEntity
  8
0
  6
Continuous
 62
     7
100
AcDbLine
 10
1627.7512167564
 20
103.6504003915
 30
0.0
 11
1627.7512167564
 21
199.6504003915
 31
0.0
  0
LINE
  5
273
330
1F
100
AcDbEntity
  8
0
  6
Continuous
 62
     7
100
AcDbLine
 10
1627.7512167564
 20
103.6504003915
 30
0.0
 11
1615.2512167564
 21
103.6504003915
 31
0.0
  0
LINE
  5
274
330
1F
100
AcDbEntity
  8
0
  6
Continuous
 62
     7
100
AcDbLine
 10
1627.7512167564
 20
199.6504003915
 30
0.0
 11
1615.2512167564
 21
199.6504003915
 31
0.0
  0
ARC
  5
275
330
1F
100
AcDbEntity
  8
0
  6
Continuous
 62
     7
100
AcDbCircle
 10
1597.1512167565
 20
151.6504003915
 30
0.0
 40
2.999999999999956
100
AcDbArc
 50
357.1910593367
 51
177.1910593368
  0
LINE
  5
276
330
1F
100
AcDbEntity
  8
0
  6
Continuous
 62
     7
100
AcDbLine
 10
1599.6482130126
 20
151.5278863242
 30
0.0
 11
1600.1476122639
 21
151.5033835108
 31
0.0
  0
ARC
  5
277
330
1F
100
AcDbEntity
  8
0
  6
Continuous
 62
     7
100
AcDbCircle
 10
1597.1512167565
 20
151.6504003915
 30
0.0
 40
2.500000000000108
100
AcDbArc
 50
357.1910593367
 51
177.1910593368
  0
LINE
  5
278
330
1F
100
AcDbEntity
  8
0
  6
Continuous
 62
     7
100
AcDbLine
 10
1594.6542205003
 20
151.7729144588
 30
0.0
 11
1594.1548212491
 21
151.7974172723
 31
0.0
  0
ARC
  5
279
330
1F
100
AcDbEntity
  8
0
  6
Continuous
 62
     7
100
AcDbCircle
 10
1597.1512167565
 20
151.6504003915
 30
0.0
 40
2.500000000000108
100
AcDbArc
 50
177.1910593368
 51
357.1910593367
  0
ARC
  5
27A
330
1F
100
AcDbEntity
  8
0
  6
Continuous
 62
     7
100
AcDbCircle
 10
1597.1512167565
 20
151.6504003915
 30
0.0
 40
2.999999999999956
100
AcDbArc
 50
177.1910593368
 51
357.1910593367
  0
ARC
  5
27B
330
1F
100
AcDbEntity
  8
0
  6
Continuous
 62
     7
100
AcDbCircle
 10
1591.1927278672
 20
138.9058735679
 30
0.0
 40
1.942508566655592
100
AcDbArc
 50
181.8362067977
 51
271.7254354149
  0
LINE
  5
27C
330
1F
100
AcDbEntity
  8
0
  6
Continuous
 62
     7
100
AcDbLine
 10
1589.2512167564
 20
138.843630992
 30
0.0
 11
1589.2512167564
 21
143.9847072289
 31
0.0
  0
LINE
  5
27D
330
1F
100
AcDbEntity
  8
0
  6
Continuous
 62
     7
100
AcDbLine
 10
1589.2512167564
 20
143.9847072289
 30
0.0
 11
1589.2512167564
 21
144.1504003915
 31
0.0
  0
LINE
  5
27E
330
1F
100
AcDbEntity
  8
0
  6
Continuous
 62
     7
100
AcDbLine
 10
1589.2512167564
 20
144.1504003915
 30
0.0
 11
1605.2512167564
 21
144.1504003915
 31
0.0
  0
LINE
  5
27F
330
1F
100
AcDbEntity
  8
0
  6
Continuous
 62
     7
100
AcDbLine
 10
1605.2512167564
 20
143.9847072289
 30
0.0
 11
1605.2512167564
 21
144.1504003915
 31
0.0
  0
LINE
  5
280
330
1F
100
AcDbEntity
  8
0
  6
Continuous
 62
     7
100
AcDbLine
 10
1605.2512167564
 20
143.9847072289
 30
0.0
 11
1605.2512167564
 21
138.843630992
 31
0.0
  0
ARC
  5
281
330
1F
100
AcDbEntity
  8
0
  6
Continuous
 62
     7
100
AcDbCircle
 10
1603.3097056457
 20
138.9058735679
 30
0.0
 40
1.942508566655121
100
AcDbArc
 50
268.2745645851
 51
358.1637932024
  0
LINE
  5
282
330
1F
100
AcDbEntity
  8
0
  6
Continuous
 62
     7
100
AcDbLine
 10
1603.2512167564
 20
136.9642457505
 30
0.0
 11
1591.2512167564
 21
136.9642457505
 31
0.0
  0
LINE
  5
283
330
1F
100
AcDbEntity
  8
0
  6
Continuous
 62
     7
100
AcDbLine
 10
1603.2512167564
 20
136.2802054638
 30
0.0
 11
1603.2512167564
 21
136.9642457505
 31
0.0
  0
LINE
  5
284
330
1F
100
AcDbEntity
  8
0
  6
Continuous
 62
     7
100
AcDbLine
 10
1605.2512167564
 20
138.843630992
 30
0.0
 11
1605.2512167564
 21
138.1595907054
 31
0.0
  0
ARC
  5
285
330
1F
100
AcDbEntity
  8
0
  6
Continuous
 62
     7
100
AcDbCircle
 10
1603.3097056457
 20
138.2218332812
 30
0.0
 40
1.942508566654891
100
AcDbArc
 50
268.2745645851
 51
358.1637932024
  0
LINE
  5
286
330
1F
100
AcDbEntity
  8
0
  6
Continuous
 62
     7
100
AcDbLine
 10
1589.2512167564
 20
138.1595907054
 30
0.0
 11
1589.2512167564
 21
138.843630992
 31
0.0
  0
LINE
  5
287
330
1F
100
AcDbEntity
  8
0
  6
Continuous
 62
     7
100
AcDbLine
 10
1591.2512167564
 20
136.9642457505
 30
0.0
 11
1591.2512167564
 21
136.2802054638
 31
0.0
  0
ARC
  5
288
330
1F
100
AcDbEntity
  8
0
  6
Continuous
 62
     7
100
AcDbCircle
 10
1591.1927278672
 20
138.2218332812
 30
0.0
 40
1.94250856665606
100
AcDbArc
 50
181.8362067977
 51
271.7254354149
  0
LINE
  5
289
330
1F
100
AcDbEntity
  8
0
  6
Continuous
 62
     7
100
AcDbLine
 10
1603.2512167564
 20
136.2802054638
 30
0.0
 11
1591.2512167564
 21
136.2802054638
 31
0.0
  0
ARC
  5
28A
330
1F
100
AcDbEntity
  8
0
  6
Continuous
 62
     7
100
AcDbCircle
 10
1597.1512167564
 20
151.6504003915
 30
0.0
 40
3.5
100
AcDbArc
 50
180.0
 51
0.0
  0
ARC
  5
28B
330
1F
100
AcDbEntity
  8
0
  6
Continuous
 62
     7
100
AcDbCircle
 10
1591.2512167564
 20
157.1504003915
 30
0.0
 40
2.0
100
AcDbArc
 50
90.0
 51
180.0
  0
LINE
  5
28C
330
1F
100
AcDbEntity
  8
0
  6
Continuous
 62
     7
100
AcDbLine
 10
1605.2512167564
 20
144.1504003915
 30
0.0
 11
1615.2512167564
 21
144.1504003915
 31
0.0
  0
LINE
  5
28D
330
1F
100
AcDbEntity
  8
0
  6
Continuous
 62
     7
100
AcDbLine
 10
1615.2512167564
 20
159.1504003915
 30
0.0
 11
1591.2512167564
 21
159.1504003915
 31
0.0
  0
LINE
  5
28E
330
1F
100
AcDbEntity
  8
0
  6
Continuous
 62
     7
100
AcDbLine
 10
1589.2512167564
 20
157.1504003915
 30
0.0
 11
1589.2512167564
 21
144.3267273722
 31
0.0
  0
ARC
  5
28F
330
1F
100
AcDbEntity
  8
0
  6
Continuous
 62
     7
100
AcDbCircle
 10
1597.1512167564
 20
151.6504003915
 30
0.0
 40
3.5
100
AcDbArc
 50
0.0
 51
180.0
  0
LINE
  5
290
330
1F
100
AcDbEntity
  8
0
  6
Continuous
 62
     7
100
AcDbLine
 10
1589.2512167564
 20
144.3267273722
 30
0.0
 11
1589.2512167564
 21
144.1504003915
 31
0.0
  0
LINE
  5
291
330
1F
100
AcDbEntity
  8
0
  6
Continuous
 62
     7
100
AcDbLine
 10
1609.7512167564
 20
172.6091396307
 30
0.0
 11
1609.7512167564
 21
166.6504003915
 31
0.0
  0
LINE
  5
292
330
1F
100
AcDbEntity
  8
0
  6
Continuous
 62
     7
100
AcDbLine
 10
1609.2512167564
 20
172.1160164241
 30
0.0
 11
1609.7512167564
 21
172.6091396307
 31
0.0
  0
LINE
  5
293
330
1F
100
AcDbEntity
  8
0
  6
Continuous
 62
     7
100
AcDbLine
 10
1609.2512167564
 20
167.1504003915
 30
0.0
 11
1609.2512167564
 21
172.1160164241
 31
0.0
  0
LINE
  5
294
330
1F
100
AcDbEntity
  8
0
  6
Continuous
 62
     7
100
AcDbLine
 10
1609.7512167564
 20
172.6504003915
 30
0.0
 11
1609.7512167564
 21
172.6091396307
 31
0.0
  0
LINE
  5
295
330
1F
100
AcDbEntity
  8
0
  6
Continuous
 62
     7
100
AcDbLine
 10
1609.2512167564
 20
172.1160164241
 30
0.0
 11
1609.2512167564
 21
172.1504003915
 31
0.0
  0
ARC
  5
296
330
1F
100
AcDbEntity
  8
0
  6
Continuous
 62
     7
100
AcDbCircle
 10
1629.7512167564
 20
157.938977932
 30
0.0
 40
2.0
100
AcDbArc
 50
180.0
 51
223.0143561528
  0
LINE
  5
297
330
1F
100
AcDbEntity
  8
0
  6
Continuous
 62
     7
100
AcDbLine
 10
1628.288851165
 20
156.5746147556
 30
0.0
 11
1628.288851165
 21
145.2504003915
 31
0.0
  0
LINE
  5
298
330
1F
100
AcDbEntity
  8
0
  6
Continuous
 62
     7
100
AcDbLine
 10
1628.288851165
 20
145.2504003915
 30
0.0
 11
1627.7512167564
 21
145.2504003915
 31
0.0
  0
ARC
  5
299
330
1F
100
AcDbEntity
  8
0
  6
Continuous
 62
     7
100
AcDbCircle
 10
1629.7512167564
 20
177.938977932
 30
0.0
 40
2.000000000000051
100
AcDbArc
 50
180.0
 51
223.0143561528
  0
LINE
  5
29A
330
1F
100
AcDbEntity
  8
0
  6
Continuous
 62
     7
100
AcDbLine
 10
1628.288851165
 20
176.5746147556
 30
0.0
 11
1628.288851165
 21
165.2504003915
 31
0.0
  0
LINE
  5
29B
330
1F
100
AcDbEntity
  8
0
  6
Continuous
 62
     7
100
AcDbLine
 10
1628.288851165
 20
165.2504003915
 30
0.0
 11
1627.7512167564
 21
165.2504003915
 31
0.0
  0
ARC
  5
29C
330
1F
100
AcDbEntity
  8
0
  6
Continuous
 62
     7
100
AcDbCircle
 10
1629.7512167564
 20
137.938977932
 30
0.0
 40
2.0
100
AcDbArc
 50
180.0
 51
223.0143561528
  0
LINE
  5
29D
330
1F
100
AcDbEntity
  8
0
  6
Continuous
 62
     7
100
AcDbLine
 10
1628.288851165
 20
136.5746147556
 30
0.0
 11
1628.288851165
 21
125.2504003915
 31
0.0
  0
LINE
  5
29E
330
1F
100
AcDbEntity
  8
0
  6
Continuous
 62
     7
100
AcDbLine
 10
1628.288851165
 20
125.2504003915
 30
0.0
 11
1627.7512167564
 21
125.2504003915
 31
0.0
  0
ARC
  5
29F
330
1F
100
AcDbEntity
  8
0
  6
Continuous
 62
     7
100
AcDbCircle
 10
1616.1512167564
 20
165.2504003915
 30
0.0
 40
16.60000000000014
100
AcDbArc
 50
0.0
 51
43.0143561528
  0
LINE
  5
2A0
330
1F
100
AcDbEntity
  8
0
  6
Continuous
 62
     7
100
AcDbLine
 10
1632.7512167564
 20
165.2504003915
 30
0.0
 11
1628.288851165
 21
165.2504003915
 31
0.0
  0
ARC
  5
2A1
330
1F
100
AcDbEntity
  8
0
  6
Continuous
 62
     7
100
AcDbCircle
 10
1616.1512167564
 20
125.2504003915
 30
0.0
 40
16.59999999999995
100
AcDbArc
 50
0.0
 51
43.0143561528
  0
LINE
  5
2A2
330
1F
100
AcDbEntity
  8
0
  6
Continuous
 62
     7
100
AcDbLine
 10
1632.7512167564
 20
125.2504003915
 30
0.0
 11
1628.288851165
 21
125.2504003915
 31
0.0
  0
ARC
  5
2A3
330
1F
100
AcDbEntity
  8
0
  6
Continuous
 62
     7
100
AcDbCircle
 10
1616.1512167564
 20
145.2504003915
 30
0.0
 40
16.59999999999994
100
AcDbArc
 50
0.0
 51
43.0143561528
  0
LINE
  5
2A4
330
1F
100
AcDbEntity
  8
0
  6
Continuous
 62
     7
100
AcDbLine
 10
1632.7512167564
 20
145.2504003915
 30
0.0
 11
1628.288851165
 21
145.2504003915
 31
0.0
  0
LINE
  5
2A5
330
1F
100
AcDbEntity
  8
0
  6
Continuous
 62
     7
100
AcDbLine
 10
1609.7512167564
 20
172.6091396307
 30
0.0
 11
1615.2512167564
 21
172.6091396307
 31
0.0
  0
LINE
  5
2A6
330
1F
100
AcDbEntity
  8
0
  6
Continuous
 62
     7
100
AcDbLine
 10
605.8053333197
 20
266.0161367379
 30
0.0
 11
606.3053333197
 21
266.0161367379
 31
0.0
  0
LINE
  5
2A7
330
1F
100
AcDbEntity
  8
0
  6
Continuous
 62
     7
100
AcDbLine
 10
1510.3053333197
 20
266.0161367379
 30
0.0
 11
1510.8053333197
 21
266.0161367379
 31
0.0
  0
LINE
  5
2A8
330
1F
100
AcDbEntity
  8
0
  6
Continuous
 62
     7
100
AcDbLine
 10
597.8053333197
 20
266.0161367379
 30
0.0
 11
605.8053333197
 21
266.0161367379
 31
0.0
  0
LINE
  5
2A9
330
1F
100
AcDbEntity
  8
0
  6
Continuous
 62
     7
100
AcDbLine
 10
1510.8053333197
 20
266.0161367379
 30
0.0
 11
1518.8053333197
 21
266.0161367379
 31
0.0
  0
LINE
  5
2AA
330
1F
100
AcDbEntity
  8
0
  6
Continuous
 62
     7
100
AcDbLine
 10
1507.4653407106
 20
237.5161367379
 30
0.0
 11
1510.3053333197
 21
237.5161367379
 31
0.0
  0
ARC
  5
2AB
330
1F
100
AcDbEntity
  8
0
  6
Continuous
 62
     7
100
AcDbCircle
 10
1507.4653407106
 20
239.0161367379
 30
0.0
 40
1.5
100
AcDbArc
 50
207.5120026239
 51
270.0
  0
LINE
  5
2AC
330
1F
100
AcDbEntity
  8
0
  6
Continuous
 62
     7
100
AcDbLine
 10
606.3053333197
 20
237.5161367379
 30
0.0
 11
609.1453259287
 21
237.5161367379
 31
0.0
  0
ARC
  5
2AD
330
1F
100
AcDbEntity
  8
0
  6
Continuous
 62
     7
100
AcDbCircle
 10
609.1453259287
 20
239.0161367379
 30
0.0
 40
1.500000000000024
100
AcDbArc
 50
270.0
 51
332.4879973761
  0
LINE
  5
2AE
330
1F
100
AcDbEntity
  8
0
  6
Continuous
 62
     7
100
AcDbLine
 10
1505.4749621934
 20
239.5904493003
 30
0.0
 11
1506.1349695844
 21
238.3232351097
 31
0.0
  0
LINE
  5
2AF
330
1F
100
AcDbEntity
  8
0
  6
Continuous
 62
     7
100
AcDbLine
 10
610.4756970549
 20
238.3232351097
 30
0.0
 11
611.1357044459
 21
239.5904493003
 31
0.0
  0
ARC
  5
2B0
330
1F
100
AcDbEntity
  8
0
  6
Continuous
 62
     7
100
AcDbCircle
 10
1506.8053333197
 20
240.2833509286
 30
0.0
 40
1.499999999999958
100
AcDbArc
 50
180.0
 51
207.5120026239
  0
ARC
  5
2B1
330
1F
100
AcDbEntity
  8
0
  6
Continuous
 62
     7
100
AcDbCircle
 10
609.8053333197
 20
240.2833509286
 30
0.0
 40
1.500000000000024
100
AcDbArc
 50
332.4879973761
 51
360.0
  0
LINE
  5
2B2
330
1F
100
AcDbEntity
  8
0
  6
Continuous
 62
     7
100
AcDbLine
 10
1519.0053333197
 20
240.4161367379
 30
0.0
 11
1519.5053333197
 21
240.9161367379
 31
0.0
  0
LINE
  5
2B3
330
1F
100
AcDbEntity
  8
0
  6
Continuous
 62
     7
100
AcDbLine
 10
1514.9208797078
 20
240.4161367379
 30
0.0
 11
1519.0053333197
 21
240.4161367379
 31
0.0
  0
LINE
  5
2B4
330
1F
100
AcDbEntity
  8
0
  6
Continuous
 62
     7
100
AcDbLine
 10
613.8053333197
 20
261.5161367379
 30
0.0
 11
614.3053333197
 21
261.0161367379
 31
0.0
  0
LINE
  5
2B5
330
1F
100
AcDbEntity
  8
0
  6
Continuous
 62
     7
100
AcDbLine
 10
1502.3053333197
 20
261.0161367379
 30
0.0
 11
1502.8053333197
 21
261.5161367379
 31
0.0
  0
LINE
  5
2B6
330
1F
100
AcDbEntity
  8
0
  6
Continuous
 62
     7
100
AcDbLine
 10
597.1053333197
 20
240.9161367379
 30
0.0
 11
597.6053333197
 21
240.4161367379
 31
0.0
  0
LINE
  5
2B7
330
1F
100
AcDbEntity
  8
0
  6
Continuous
 62
     7
100
AcDbLine
 10
597.6053333197
 20
240.4161367379
 30
0.0
 11
601.6897869315
 21
240.4161367379
 31
0.0
  0
LINE
  5
2B8
330
1F
100
AcDbEntity
  8
0
  6
Continuous
 62
     7
100
AcDbLine
 10
1496.8053333197
 20
261.5161367379
 30
0.0
 11
1497.3053333197
 21
261.0161367379
 31
0.0
  0
LINE
  5
2B9
330
1F
100
AcDbEntity
  8
0
  6
Continuous
 62
     7
100
AcDbLine
 10
619.3053333197
 20
261.0161367379
 30
0.0
 11
619.8053333197
 21
261.5161367379
 31
0.0
  0
LINE
  5
2BA
330
1F
100
AcDbEntity
  8
0
  6
Continuous
 62
     7
100
AcDbLine
 10
1510.3053333197
 20
249.3161367379
 30
0.0
 11
1507.4653407106
 21
249.3161367379
 31
0.0
  0
ARC
  5
2BB
330
1F
100
AcDbEntity
  8
0
  6
Continuous
 62
     7
100
AcDbCircle
 10
1507.4653407106
 20
247.8161367379
 30
0.0
 40
1.5
100
AcDbArc
 50
90.0
 51
152.4879973761
  0
LINE
  5
2BC
330
1F
100
AcDbEntity
  8
0
  6
Continuous
 62
     7
100
AcDbLine
 10
1506.1349695844
 20
248.5090383662
 30
0.0
 11
1505.4749621934
 21
247.2418241755
 31
0.0
  0
ARC
  5
2BD
330
1F
100
AcDbEntity
  8
0
  6
Continuous
 62
     7
100
AcDbCircle
 10
1506.8053333197
 20
246.5489225473
 30
0.0
 40
1.499999999999958
100
AcDbArc
 50
152.4879973761
 51
180.0
  0
LINE
  5
2BE
330
1F
100
AcDbEntity
  8
0
  6
Continuous
 62
     7
100
AcDbLine
 10
1519.5053333197
 20
245.9161367379
 30
0.0
 11
1519.0053333197
 21
246.4161367379
 31
0.0
  0
LINE
  5
2BF
330
1F
100
AcDbEntity
  8
0
  6
Continuous
 62
     7
100
AcDbLine
 10
1519.0053333197
 20
246.4161367379
 30
0.0
 11
1514.9208797078
 21
246.4161367379
 31
0.0
  0
ARC
  5
2C0
330
1F
100
AcDbEntity
  8
0
  6
Continuous
 62
     7
100
AcDbCircle
 10
609.1453259287
 20
247.8161367379
 30
0.0
 40
1.500000000000011
100
AcDbArc
 50
27.5120026239
 51
90.0
  0
LINE
  5
2C1
330
1F
100
AcDbEntity
  8
0
  6
Continuous
 62
     7
100
AcDbLine
 10
609.1453259287
 20
249.3161367379
 30
0.0
 11
606.3053333197
 21
249.3161367379
 31
0.0
  0
LINE
  5
2C2
330
1F
100
AcDbEntity
  8
0
  6
Continuous
 62
     7
100
AcDbLine
 10
611.1357044459
 20
247.2418241755
 30
0.0
 11
610.4756970549
 21
248.5090383662
 31
0.0
  0
ARC
  5
2C3
330
1F
100
AcDbEntity
  8
0
  6
Continuous
 62
     7
100
AcDbCircle
 10
609.8053333197
 20
246.5489225473
 30
0.0
 40
1.500000000000011
100
AcDbArc
 50
0.0
 51
27.5120026239
  0
LINE
  5
2C4
330
1F
100
AcDbEntity
  8
0
  6
Continuous
 62
     7
100
AcDbLine
 10
597.6053333197
 20
246.4161367379
 30
0.0
 11
597.1053333197
 21
245.9161367379
 31
0.0
  0
LINE
  5
2C5
330
1F
100
AcDbEntity
  8
0
  6
Continuous
 62
     7
100
AcDbLine
 10
601.6897869315
 20
246.4161367379
 30
0.0
 11
597.6053333197
 21
246.4161367379
 31
0.0
  0
LINE
  5
2C6
330
1F
100
AcDbEntity
  8
0
  6
Continuous
 62
     7
100
AcDbLine
 10
657.8053333197
 20
261.5161367379
 30
0.0
 11
657.8053333197
 21
256.0161367379
 31
0.0
  0
LINE
  5
2C7
330
1F
100
AcDbEntity
  8
0
  6
Continuous
 62
     7
100
AcDbLine
 10
657.8053333197
 20
256.0161367379
 30
0.0
 11
658.3053333197
 21
255.5161367379
 31
0.0
  0
LINE
  5
2C8
330
1F
100
AcDbEntity
  8
0
  6
Continuous
 62
     7
100
AcDbLine
 10
663.3053333197
 20
255.5161367379
 30
0.0
 11
663.8053333197
 21
256.0161367379
 31
0.0
  0
LINE
  5
2C9
330
1F
100
AcDbEntity
  8
0
  6
Continuous
 62
     7
100
AcDbLine
 10
663.8053333197
 20
256.0161367379
 30
0.0
 11
663.8053333197
 21
261.5161367379
 31
0.0
  0
LINE
  5
2CA
330
1F
100
AcDbEntity
  8
0
  6
Continuous
 62
     7
100
AcDbLine
 10
1532.3053333197
 20
261.5161367379
 30
0.0
 11
1555.8053333197
 21
261.5161367379
 31
0.0
  0
ARC
  5
2CB
330
1F
100
AcDbEntity
  8
0
  6
Continuous
 62
     7
100
AcDbCircle
 10
1532.3053333197
 20
264.5161367379
 30
0.0
 40
3.000000000000227
100
AcDbArc
 50
180.0
 51
270.0
  0
LINE
  5
2CC
330
1F
100
AcDbEntity
  8
0
  6
Continuous
 62
     7
100
AcDbLine
 10
1529.3053333197
 20
266.0161367379
 30
0.0
 11
1529.3053333197
 21
264.5161367379
 31
0.0
  0
ARC
  5
2CD
330
1F
100
AcDbEntity
  8
0
  6
Continuous
 62
     7
100
AcDbCircle
 10
1526.3053333197
 20
266.0161367379
 30
0.0
 40
3.0
100
AcDbArc
 50
0.0
 51
90.0
  0
LINE
  5
2CE
330
1F
100
AcDbEntity
  8
0
  6
Continuous
 62
     7
100
AcDbLine
 10
1513.3053333197
 20
269.0161367379
 30
0.0
 11
1526.3053333197
 21
269.0161367379
 31
0.0
  0
ARC
  5
2CF
330
1F
100
AcDbEntity
  8
0
  6
Continuous
 62
     7
100
AcDbCircle
 10
1513.3053333197
 20
266.0161367379
 30
0.0
 40
3.0
100
AcDbArc
 50
90.0
 51
180.0
  0
LINE
  5
2D0
330
1F
100
AcDbEntity
  8
0
  6
Continuous
 62
     7
100
AcDbLine
 10
1510.3053333197
 20
264.5161367379
 30
0.0
 11
1510.3053333197
 21
266.0161367379
 31
0.0
  0
LINE
  5
2D1
330
1F
100
AcDbEntity
  8
0
  6
Continuous
 62
     7
100
AcDbLine
 10
609.3053333197
 20
261.5161367379
 30
0.0
 11
1507.3053333197
 21
261.5161367379
 31
0.0
  0
ARC
  5
2D2
330
1F
100
AcDbEntity
  8
0
  6
Continuous
 62
     7
100
AcDbCircle
 10
609.3053333197
 20
264.5161367379
 30
0.0
 40
3.0
100
AcDbArc
 50
180.0
 51
270.0
  0
LINE
  5
2D3
330
1F
100
AcDbEntity
  8
0
  6
Continuous
 62
     7
100
AcDbLine
 10
606.3053333197
 20
266.0161367379
 30
0.0
 11
606.3053333197
 21
264.5161367379
 31
0.0
  0
ARC
  5
2D4
330
1F
100
AcDbEntity
  8
0
  6
Continuous
 62
     7
100
AcDbCircle
 10
603.3053333197
 20
266.0161367379
 30
0.0
 40
3.0
100
AcDbArc
 50
0.0
 51
90.0
  0
LINE
  5
2D5
330
1F
100
AcDbEntity
  8
0
  6
Continuous
 62
     7
100
AcDbLine
 10
590.3053333197
 20
269.0161367379
 30
0.0
 11
603.3053333197
 21
269.0161367379
 31
0.0
  0
ARC
  5
2D6
330
1F
100
AcDbEntity
  8
0
  6
Continuous
 62
     7
100
AcDbCircle
 10
590.3053333197
 20
266.0161367379
 30
0.0
 40
3.0
100
AcDbArc
 50
90.0
 51
180.0
  0
LINE
  5
2D7
330
1F
100
AcDbEntity
  8
0
  6
Continuous
 62
     7
100
AcDbLine
 10
587.3053333197
 20
264.5161367379
 30
0.0
 11
587.3053333197
 21
266.0161367379
 31
0.0
  0
ARC
  5
2D8
330
1F
100
AcDbEntity
  8
0
  6
Continuous
 62
     7
100
AcDbCircle
 10
584.3053333197
 20
264.5161367379
 30
0.0
 40
3.000000000000057
100
AcDbArc
 50
270.0
 51
0.0
  0
LINE
  5
2D9
330
1F
100
AcDbEntity
  8
0
  6
Continuous
 62
     7
100
AcDbLine
 10
560.8053333197
 20
261.5161367379
 30
0.0
 11
584.3053333197
 21
261.5161367379
 31
0.0
  0
LINE
  5
2DA
330
1F
100
AcDbEntity
  8
0
  6
Continuous
 62
     7
100
AcDbLine
 10
560.8053333197
 20
274.0161367379
 30
0.0
 11
560.8053333197
 21
261.5161367379
 31
0.0
  0
LINE
  5
2DB
330
1F
100
AcDbEntity
  8
0
  6
Continuous
 62
     7
100
AcDbLine
 10
1555.8053333197
 20
274.0161367379
 30
0.0
 11
560.8053333197
 21
274.0161367379
 31
0.0
  0
LINE
  5
2DC
330
1F
100
AcDbEntity
  8
0
  6
Continuous
 62
     7
100
AcDbLine
 10
1555.8053333197
 20
274.0161367379
 30
0.0
 11
1555.8053333197
 21
261.5161367379
 31
0.0
  0
ARC
  5
2DD
330
1F
100
AcDbEntity
  8
0
  6
Continuous
 62
     7
100
AcDbCircle
 10
1507.3053333197
 20
264.5161367379
 30
0.0
 40
3.000000000000227
100
AcDbArc
 50
270.0
 51
0.0
  0
ARC
  5
2DE
330
1F
100
AcDbEntity
  8
0
  6
Continuous
 62
     7
100
AcDbCircle
 10
597.8053333197
 20
272.0161367379
 30
0.0
 40
6.000000000000057
100
AcDbArc
 50
210.0
 51
270.0
  0
ARC
  5
2DF
330
1F
100
AcDbEntity
  8
0
  6
Continuous
 62
     7
100
AcDbCircle
 10
1518.8053333197
 20
272.0161367379
 30
0.0
 40
6.000000000000032
100
AcDbArc
 50
270.0
 51
330.0
  0
ARC
  5
2E0
330
1F
100
AcDbEntity
  8
0
  6
Continuous
 62
     7
100
AcDbCircle
 10
762.1030151139
 20
262.4161367379
 30
0.0
 40
14.60000000000024
100
AcDbArc
 50
52.6099936242
 51
90.0
  0
ARC
  5
2E1
330
1F
100
AcDbEntity
  8
0
  6
Continuous
 62
     7
100
AcDbCircle
 10
723.1030151139
 20
262.4161367379
 30
0.0
 40
16.59999999999997
100
AcDbArc
 50
90.0
 51
133.0143561528
  0
LINE
  5
2E2
330
1F
100
AcDbEntity
  8
0
  6
Continuous
 62
     7
100
AcDbLine
 10
723.1030151139
 20
277.0161367379
 30
0.0
 11
762.1030151139
 21
277.0161367379
 31
0.0
  0
ARC
  5
2E3
330
1F
100
AcDbEntity
  8
0
  6
Continuous
 62
     7
100
AcDbCircle
 10
723.1030151139
 20
262.4161367379
 30
0.0
 40
14.59999999999997
100
AcDbArc
 50
90.0
 51
127.3900063757
  0
ARC
  5
2E4
330
1F
100
AcDbEntity
  8
0
  6
Continuous
 62
     7
100
AcDbCircle
 10
710.4144375735
 20
276.0161367379
 30
0.0
 40
2.0
100
AcDbArc
 50
270.0
 51
313.0143561528
  0
LINE
  5
2E5
330
1F
100
AcDbEntity
  8
0
  6
Continuous
 62
     7
100
AcDbLine
 10
723.1030151139
 20
279.0161367379
 30
0.0
 11
762.1030151139
 21
279.0161367379
 31
0.0
  0
ARC
  5
2E6
330
1F
100
AcDbEntity
  8
0
  6
Continuous
 62
     7
100
AcDbCircle
 10
762.1030151139
 20
262.4161367379
 30
0.0
 40
16.60000000000001
100
AcDbArc
 50
46.9856438472
 51
90.0
  0
ARC
  5
2E7
330
1F
100
AcDbEntity
  8
0
  6
Continuous
 62
     7
100
AcDbCircle
 10
774.7915926544
 20
276.0161367379
 30
0.0
 40
2.000000000000377
100
AcDbArc
 50
226.9856438472
 51
270.0
  0
ARC
  5
2E8
330
1F
100
AcDbEntity
  8
0
  6
Continuous
 62
     7
100
AcDbCircle
 10
1002.1030151139
 20
262.4161367379
 30
0.0
 40
14.60000000000029
100
AcDbArc
 50
52.6099936242
 51
90.0
  0
ARC
  5
2E9
330
1F
100
AcDbEntity
  8
0
  6
Continuous
 62
     7
100
AcDbCircle
 10
1082.1030151139
 20
262.4161367379
 30
0.0
 40
14.60000000000015
100
AcDbArc
 50
52.6099936242
 51
90.0
  0
ARC
  5
2EA
330
1F
100
AcDbEntity
  8
0
  6
Continuous
 62
     7
100
AcDbCircle
 10
963.1030151139
 20
262.4161367379
 30
0.0
 40
14.60000000000002
100
AcDbArc
 50
90.0
 51
127.3900063757
  0
ARC
  5
2EB
330
1F
100
AcDbEntity
  8
0
  6
Continuous
 62
     7
100
AcDbCircle
 10
1162.1030151139
 20
262.4161367379
 30
0.0
 40
14.60000000000024
100
AcDbArc
 50
52.6099936242
 51
90.0
  0
ARC
  5
2EC
330
1F
100
AcDbEntity
  8
0
  6
Continuous
 62
     7
100
AcDbCircle
 10
1174.7915926544
 20
276.0161367379
 30
0.0
 40
2.0
100
AcDbArc
 50
226.9856438472
 51
270.0
  0
ARC
  5
2ED
330
1F
100
AcDbEntity
  8
0
  6
Continuous
 62
     7
100
AcDbCircle
 10
870.4144375735
 20
276.0161367379
 30
0.0
 40
2.0
100
AcDbArc
 50
270.0
 51
313.0143561528
  0
ARC
  5
2EE
330
1F
100
AcDbEntity
  8
0
  6
Continuous
 62
     7
100
AcDbCircle
 10
922.1030151139
 20
262.4161367379
 30
0.0
 40
14.60000000000029
100
AcDbArc
 50
52.6099936242
 51
90.0
  0
LINE
  5
2EF
330
1F
100
AcDbEntity
  8
0
  6
Continuous
 62
     7
100
AcDbLine
 10
1123.1030151139
 20
277.0161367379
 30
0.0
 11
1162.1030151139
 21
277.0161367379
 31
0.0
  0
ARC
  5
2F0
330
1F
100
AcDbEntity
  8
0
  6
Continuous
 62
     7
100
AcDbCircle
 10
1123.1030151139
 20
262.4161367379
 30
0.0
 40
14.60000000000002
100
AcDbArc
 50
90.0
 51
127.3900063758
  0
ARC
  5
2F1
330
1F
100
AcDbEntity
  8
0
  6
Continuous
 62
     7
100
AcDbCircle
 10
1110.4144375735
 20
276.0161367379
 30
0.0
 40
2.0
100
AcDbArc
 50
270.0
 51
313.0143561528
  0
ARC
  5
2F2
330
1F
100
AcDbEntity
  8
0
  6
Continuous
 62
     7
100
AcDbCircle
 10
1123.1030151139
 20
262.4161367379
 30
0.0
 40
16.60000000000002
100
AcDbArc
 50
90.0
 51
133.0143561528
  0
LINE
  5
2F3
330
1F
100
AcDbEntity
  8
0
  6
Continuous
 62
     7
100
AcDbLine
 10
1123.1030151139
 20
279.0161367379
 30
0.0
 11
1162.1030151139
 21
279.0161367379
 31
0.0
  0
ARC
  5
2F4
330
1F
100
AcDbEntity
  8
0
  6
Continuous
 62
     7
100
AcDbCircle
 10
1162.1030151139
 20
262.4161367379
 30
0.0
 40
16.60000000000002
100
AcDbArc
 50
46.9856438472
 51
90.0
  0
ARC
  5
2F5
330
1F
100
AcDbEntity
  8
0
  6
Continuous
 62
     7
100
AcDbCircle
 10
1350.4144375735
 20
276.0161367379
 30
0.0
 40
2.000000000000067
100
AcDbArc
 50
270.0
 51
313.0143561528
  0
LINE
  5
2F6
330
1F
100
AcDbEntity
  8
0
  6
Continuous
 62
     7
100
AcDbLine
 10
883.1030151139
 20
279.0161367379
 30
0.0
 11
922.1030151139
 21
279.0161367379
 31
0.0
  0
ARC
  5
2F7
330
1F
100
AcDbEntity
  8
0
  6
Continuous
 62
     7
100
AcDbCircle
 10
1414.7915926544
 20
276.0161367379
 30
0.0
 40
2.0
100
AcDbArc
 50
226.9856438472
 51
270.0
  0
ARC
  5
2F8
330
1F
100
AcDbEntity
  8
0
  6
Continuous
 62
     7
100
AcDbCircle
 10
1363.1030151139
 20
262.4161367379
 30
0.0
 40
16.60000000000002
100
AcDbArc
 50
90.0
 51
133.0143561528
  0
LINE
  5
2F9
330
1F
100
AcDbEntity
  8
0
  6
Continuous
 62
     7
100
AcDbLine
 10
1363.1030151139
 20
279.0161367379
 30
0.0
 11
1402.1030151139
 21
279.0161367379
 31
0.0
  0
ARC
  5
2FA
330
1F
100
AcDbEntity
  8
0
  6
Continuous
 62
     7
100
AcDbCircle
 10
1283.1030151139
 20
262.4161367379
 30
0.0
 40
14.60000000000015
100
AcDbArc
 50
90.0
 51
127.3900063758
  0
LINE
  5
2FB
330
1F
100
AcDbEntity
  8
0
  6
Continuous
 62
     7
100
AcDbLine
 10
963.1030151139
 20
277.0161367379
 30
0.0
 11
1002.1030151139
 21
277.0161367379
 31
0.0
  0
ARC
  5
2FC
330
1F
100
AcDbEntity
  8
0
  6
Continuous
 62
     7
100
AcDbCircle
 10
1334.7915926544
 20
276.0161367379
 30
0.0
 40
2.000000000000067
100
AcDbArc
 50
226.9856438472
 51
270.0
  0
ARC
  5
2FD
330
1F
100
AcDbEntity
  8
0
  6
Continuous
 62
     7
100
AcDbCircle
 10
1322.1030151139
 20
262.4161367379
 30
0.0
 40
16.59999999999997
100
AcDbArc
 50
46.9856438472
 51
90.0
  0
ARC
  5
2FE
330
1F
100
AcDbEntity
  8
0
  6
Continuous
 62
     7
100
AcDbCircle
 10
1283.1030151139
 20
262.4161367379
 30
0.0
 40
16.60000000000024
100
AcDbArc
 50
90.0
 51
133.0143561528
  0
ARC
  5
2FF
330
1F
100
AcDbEntity
  8
0
  6
Continuous
 62
     7
100
AcDbCircle
 10
1402.1030151139
 20
262.4161367379
 30
0.0
 40
16.60000000000021
100
AcDbArc
 50
46.9856438472
 51
90.0
  0
LINE
  5
300
330
1F
100
AcDbEntity
  8
0
  6
Continuous
 62
     7
100
AcDbLine
 10
1043.1030151139
 20
277.0161367379
 30
0.0
 11
1082.1030151139
 21
277.0161367379
 31
0.0
  0
ARC
  5
301
330
1F
100
AcDbEntity
  8
0
  6
Continuous
 62
     7
100
AcDbCircle
 10
1043.1030151139
 20
262.4161367379
 30
0.0
 40
14.6000000000002
100
AcDbArc
 50
90.0
 51
127.3900063758
  0
ARC
  5
302
330
1F
100
AcDbEntity
  8
0
  6
Continuous
 62
     7
100
AcDbCircle
 10
1030.4144375735
 20
276.0161367379
 30
0.0
 40
2.0
100
AcDbArc
 50
270.0
 51
313.0143561528
  0
ARC
  5
303
330
1F
100
AcDbEntity
  8
0
  6
Continuous
 62
     7
100
AcDbCircle
 10
1043.1030151139
 20
262.4161367379
 30
0.0
 40
16.60000000000013
100
AcDbArc
 50
90.0
 51
133.0143561528
  0
LINE
  5
304
330
1F
100
AcDbEntity
  8
0
  6
Continuous
 62
     7
100
AcDbLine
 10
1043.1030151139
 20
279.0161367379
 30
0.0
 11
1082.1030151139
 21
279.0161367379
 31
0.0
  0
ARC
  5
305
330
1F
100
AcDbEntity
  8
0
  6
Continuous
 62
     7
100
AcDbCircle
 10
1082.1030151139
 20
262.4161367379
 30
0.0
 40
16.60000000000008
100
AcDbArc
 50
46.9856438472
 51
90.0
  0
ARC
  5
306
330
1F
100
AcDbEntity
  8
0
  6
Continuous
 62
     7
100
AcDbCircle
 10
1094.7915926544
 20
276.0161367379
 30
0.0
 40
2.0
100
AcDbArc
 50
226.9856438472
 51
270.0
  0
ARC
  5
307
330
1F
100
AcDbEntity
  8
0
  6
Continuous
 62
     7
100
AcDbCircle
 10
1242.1030151139
 20
262.4161367379
 30
0.0
 40
14.60000000000006
100
AcDbArc
 50
52.6099936242
 51
90.0
  0
ARC
  5
308
330
1F
100
AcDbEntity
  8
0
  6
Continuous
 62
     7
100
AcDbCircle
 10
1322.1030151139
 20
262.4161367379
 30
0.0
 40
14.59999999999997
100
AcDbArc
 50
52.6099936242
 51
90.0
  0
ARC
  5
309
330
1F
100
AcDbEntity
  8
0
  6
Continuous
 62
     7
100
AcDbCircle
 10
883.1030151139
 20
262.4161367379
 30
0.0
 40
14.60000000000027
100
AcDbArc
 50
90.0
 51
127.3900063758
  0
ARC
  5
30A
330
1F
100
AcDbEntity
  8
0
  6
Continuous
 62
     7
100
AcDbCircle
 10
1254.7915926544
 20
276.0161367379
 30
0.0
 40
2.000000000000109
100
AcDbArc
 50
226.9856438472
 51
270.0
  0
ARC
  5
30B
330
1F
100
AcDbEntity
  8
0
  6
Continuous
 62
     7
100
AcDbCircle
 10
1242.1030151139
 20
262.4161367379
 30
0.0
 40
16.59999999999997
100
AcDbArc
 50
46.9856438472
 51
90.0
  0
ARC
  5
30C
330
1F
100
AcDbEntity
  8
0
  6
Continuous
 62
     7
100
AcDbCircle
 10
1402.1030151139
 20
262.4161367379
 30
0.0
 40
14.60000000000008
100
AcDbArc
 50
52.6099936242
 51
90.0
  0
LINE
  5
30D
330
1F
100
AcDbEntity
  8
0
  6
Continuous
 62
     7
100
AcDbLine
 10
1363.1030151139
 20
277.0161367379
 30
0.0
 11
1402.1030151139
 21
277.0161367379
 31
0.0
  0
ARC
  5
30E
330
1F
100
AcDbEntity
  8
0
  6
Continuous
 62
     7
100
AcDbCircle
 10
1363.1030151139
 20
262.4161367379
 30
0.0
 40
14.60000000000002
100
AcDbArc
 50
90.0
 51
127.3900063758
  0
LINE
  5
30F
330
1F
100
AcDbEntity
  8
0
  6
Continuous
 62
     7
100
AcDbLine
 10
1203.1030151139
 20
279.0161367379
 30
0.0
 11
1242.1030151139
 21
279.0161367379
 31
0.0
  0
LINE
  5
310
330
1F
100
AcDbEntity
  8
0
  6
Continuous
 62
     7
100
AcDbLine
 10
883.1030151139
 20
277.0161367379
 30
0.0
 11
922.1030151139
 21
277.0161367379
 31
0.0
  0
ARC
  5
311
330
1F
100
AcDbEntity
  8
0
  6
Continuous
 62
     7
100
AcDbCircle
 10
883.1030151139
 20
262.4161367379
 30
0.0
 40
16.60000000000002
100
AcDbArc
 50
90.0
 51
133.0143561528
  0
ARC
  5
312
330
1F
100
AcDbEntity
  8
0
  6
Continuous
 62
     7
100
AcDbCircle
 10
922.1030151139
 20
262.4161367379
 30
0.0
 40
16.60000000000005
100
AcDbArc
 50
46.9856438472
 51
90.0
  0
ARC
  5
313
330
1F
100
AcDbEntity
  8
0
  6
Continuous
 62
     7
100
AcDbCircle
 10
934.7915926544
 20
276.0161367379
 30
0.0
 40
2.000000000000419
100
AcDbArc
 50
226.9856438472
 51
270.0
  0
ARC
  5
314
330
1F
100
AcDbEntity
  8
0
  6
Continuous
 62
     7
100
AcDbCircle
 10
1014.7915926544
 20
276.0161367379
 30
0.0
 40
2.000000000000455
100
AcDbArc
 50
226.9856438472
 51
270.0
  0
LINE
  5
315
330
1F
100
AcDbEntity
  8
0
  6
Continuous
 62
     7
100
AcDbLine
 10
1283.1030151139
 20
277.0161367379
 30
0.0
 11
1322.1030151139
 21
277.0161367379
 31
0.0
  0
ARC
  5
316
330
1F
100
AcDbEntity
  8
0
  6
Continuous
 62
     7
100
AcDbCircle
 10
790.4144375735
 20
276.0161367379
 30
0.0
 40
2.0
100
AcDbArc
 50
270.0
 51
313.0143561528
  0
LINE
  5
317
330
1F
100
AcDbEntity
  8
0
  6
Continuous
 62
     7
100
AcDbLine
 10
1203.1030151139
 20
277.0161367379
 30
0.0
 11
1242.1030151139
 21
277.0161367379
 31
0.0
  0
ARC
  5
318
330
1F
100
AcDbEntity
  8
0
  6
Continuous
 62
     7
100
AcDbCircle
 10
1203.1030151139
 20
262.4161367379
 30
0.0
 40
14.60000000000002
100
AcDbArc
 50
90.0
 51
127.3900063758
  0
ARC
  5
319
330
1F
100
AcDbEntity
  8
0
  6
Continuous
 62
     7
100
AcDbCircle
 10
1190.4144375735
 20
276.0161367379
 30
0.0
 40
2.000000000000067
100
AcDbArc
 50
270.0
 51
313.0143561528
  0
ARC
  5
31A
330
1F
100
AcDbEntity
  8
0
  6
Continuous
 62
     7
100
AcDbCircle
 10
1203.1030151139
 20
262.4161367379
 30
0.0
 40
16.59999999999997
100
AcDbArc
 50
90.0
 51
133.0143561528
  0
ARC
  5
31B
330
1F
100
AcDbEntity
  8
0
  6
Continuous
 62
     7
100
AcDbCircle
 10
950.4144375735
 20
276.0161367379
 30
0.0
 40
2.0
100
AcDbArc
 50
270.0
 51
313.0143561528
  0
ARC
  5
31C
330
1F
100
AcDbEntity
  8
0
  6
Continuous
 62
     7
100
AcDbCircle
 10
963.1030151139
 20
262.4161367379
 30
0.0
 40
16.60000000000002
100
AcDbArc
 50
90.0
 51
133.0143561528
  0
LINE
  5
31D
330
1F
100
AcDbEntity
  8
0
  6
Continuous
 62
     7
100
AcDbLine
 10
963.1030151139
 20
279.0161367379
 30
0.0
 11
1002.1030151139
 21
279.0161367379
 31
0.0
  0
ARC
  5
31E
330
1F
100
AcDbEntity
  8
0
  6
Continuous
 62
     7
100
AcDbCircle
 10
1002.1030151139
 20
262.4161367379
 30
0.0
 40
16.60000000000005
100
AcDbArc
 50
46.9856438472
 51
90.0
  0
LINE
  5
31F
330
1F
100
AcDbEntity
  8
0
  6
Continuous
 62
     7
100
AcDbLine
 10
1283.1030151139
 20
279.0161367379
 30
0.0
 11
1322.1030151139
 21
279.0161367379
 31
0.0
  0
ARC
  5
320
330
1F
100
AcDbEntity
  8
0
  6
Continuous
 62
     7
100
AcDbCircle
 10
842.1030151139
 20
262.4161367379
 30
0.0
 40
14.60000000000031
100
AcDbArc
 50
52.6099936242
 51
90.0
  0
LINE
  5
321
330
1F
100
AcDbEntity
  8
0
  6
Continuous
 62
     7
100
AcDbLine
 10
803.1030151139
 20
277.0161367379
 30
0.0
 11
842.1030151139
 21
277.0161367379
 31
0.0
  0
ARC
  5
322
330
1F
100
AcDbEntity
  8
0
  6
Continuous
 62
     7
100
AcDbCircle
 10
803.1030151139
 20
262.4161367379
 30
0.0
 40
14.6000000000002
100
AcDbArc
 50
90.0
 51
127.3900063758
  0
ARC
  5
323
330
1F
100
AcDbEntity
  8
0
  6
Continuous
 62
     7
100
AcDbCircle
 10
803.1030151139
 20
262.4161367379
 30
0.0
 40
16.59999999999997
100
AcDbArc
 50
90.0
 51
133.0143561528
  0
LINE
  5
324
330
1F
100
AcDbEntity
  8
0
  6
Continuous
 62
     7
100
AcDbLine
 10
803.1030151139
 20
279.0161367379
 30
0.0
 11
842.1030151139
 21
279.0161367379
 31
0.0
  0
ARC
  5
325
330
1F
100
AcDbEntity
  8
0
  6
Continuous
 62
     7
100
AcDbCircle
 10
842.1030151139
 20
262.4161367379
 30
0.0
 40
16.59999999999997
100
AcDbArc
 50
46.9856438472
 51
90.0
  0
ARC
  5
326
330
1F
100
AcDbEntity
  8
0
  6
Continuous
 62
     7
100
AcDbCircle
 10
854.7915926544
 20
276.0161367379
 30
0.0
 40
2.000000000000377
100
AcDbArc
 50
226.9856438472
 51
270.0
  0
ARC
  5
327
330
1F
100
AcDbEntity
  8
0
  6
Continuous
 62
     7
100
AcDbCircle
 10
1270.4144375735
 20
276.0161367379
 30
0.0
 40
2.000000000000222
100
AcDbArc
 50
270.0
 51
313.0143561528
  0
LINE
  5
328
330
1F
100
AcDbEntity
  8
0
  6
Continuous
 62
     7
100
AcDbLine
 10
604.2532124597
 20
235.5161367379
 30
0.0
 11
602.3738272181
 21
235.5161367379
 31
0.0
  0
LWPOLYLINE
  5
329
330
1F
100
AcDbEntity
  8
0
  6
Continuous
 62
     7
100
AcDbPolyline
 90
        9
 70
   128
 43
0.0
 10
602.3738272181
 20
235.5161367379
 10
602.2403775783
 20
235.5545661771
 10
602.1120563334
 20
235.6683776729
 10
601.9937947967
 20
235.8531975133
 10
601.8901376928
 20
236.1019231755
 10
601.8050685062
 20
236.4049962719
 10
601.7418563979
 20
236.7507698732
 10
601.7029305738
 20
237.1259560939
 10
601.6897869315
 20
237.5161367379
  0
LINE
  5
32A
330
1F
100
AcDbEntity
  8
0
  6
Continuous
 62
     7
100
AcDbLine
 10
601.6897869315
 20
237.5161367379
 30
0.0
 11
603.5691721731
 21
237.5161367379
 31
0.0
  0
LWPOLYLINE
  5
32B
330
1F
100
AcDbEntity
  8
0
  6
Continuous
 62
     7
100
AcDbPolyline
 90
        9
 70
   128
 43
0.0
 10
603.5691721731
 20
237.5161367379
 10
603.5823158154
 20
237.1259560939
 10
603.6212416395
 20
236.7507698732
 10
603.6844537478
 20
236.4049962719
 10
603.7695229344
 20
236.1019231755
 10
603.8731800383
 20
235.8531975133
 10
603.9914415749
 20
235.6683776729
 10
604.1197628199
 20
235.5545661771
 10
604.2532124597
 20
235.5161367379
  0
LINE
  5
32C
330
1F
100
AcDbEntity
  8
0
  6
Continuous
 62
     7
100
AcDbLine
 10
606.124411182
 20
251.5161367379
 30
0.0
 11
606.124411182
 21
235.5161367379
 31
0.0
  0
LINE
  5
32D
330
1F
100
AcDbEntity
  8
0
  6
Continuous
 62
     7
100
AcDbLine
 10
604.2532124597
 20
235.5161367379
 30
0.0
 11
606.124411182
 21
235.5161367379
 31
0.0
  0
LINE
  5
32E
330
1F
100
AcDbEntity
  8
0
  6
Continuous
 62
     7
100
AcDbLine
 10
603.5691721731
 20
249.5161367379
 30
0.0
 11
603.5691721731
 21
237.5161367379
 31
0.0
  0
LWPOLYLINE
  5
32F
330
1F
100
AcDbEntity
  8
0
  6
Continuous
 62
     7
100
AcDbPolyline
 90
        9
 70
   128
 43
0.0
 10
604.2532124597
 20
251.5161367379
 10
604.1197628199
 20
251.4777072987
 10
603.9914415749
 20
251.3638958029
 10
603.8731800383
 20
251.1790759625
 10
603.7695229344
 20
250.9303503003
 10
603.6844537478
 20
250.627277204
 10
603.6212416395
 20
250.2815036026
 10
603.5823158154
 20
249.9063173819
 10
603.5691721731
 20
249.5161367379
  0
LINE
  5
330
330
1F
100
AcDbEntity
  8
0
  6
Continuous
 62
     7
100
AcDbLine
 10
606.124411182
 20
251.5161367379
 30
0.0
 11
604.2532124597
 21
251.5161367379
 31
0.0
  0
LINE
  5
331
330
1F
100
AcDbEntity
  8
0
  6
Continuous
 62
     7
100
AcDbLine
 10
601.6897869315
 20
249.5161367379
 30
0.0
 11
601.6897869315
 21
237.5161367379
 31
0.0
  0
LINE
  5
332
330
1F
100
AcDbEntity
  8
0
  6
Continuous
 62
     7
100
AcDbLine
 10
603.5691721731
 20
249.5161367379
 30
0.0
 11
601.6897869315
 21
249.5161367379
 31
0.0
  0
LWPOLYLINE
  5
333
330
1F
100
AcDbEntity
  8
0
  6
Continuous
 62
     7
100
AcDbPolyline
 90
        9
 70
   128
 43
0.0
 10
601.6897869315
 20
249.5161367379
 10
601.7029305738
 20
249.9063173819
 10
601.7418563979
 20
250.2815036026
 10
601.8050685062
 20
250.627277204
 10
601.8901376928
 20
250.9303503003
 10
601.9937947967
 20
251.1790759625
 10
602.1120563334
 20
251.3638958029
 10
602.2403775783
 20
251.4777072987
 10
602.3738272181
 20
251.5161367379
  0
LINE
  5
334
330
1F
100
AcDbEntity
  8
0
  6
Continuous
 62
     7
100
AcDbLine
 10
602.3738272181
 20
251.5161367379
 30
0.0
 11
604.2532124597
 21
251.5161367379
 31
0.0
  0
LWPOLYLINE
  5
335
330
1F
100
AcDbEntity
  8
0
  6
Continuous
 62
     7
100
AcDbPolyline
 90
        9
 70
   128
 43
0.0
 10
1512.3574541796
 20
235.5161367379
 10
1512.4909038194
 20
235.5545661771
 10
1512.6192250644
 20
235.6683776729
 10
1512.7374866011
 20
235.8531975133
 10
1512.8411437049
 20
236.1019231755
 10
1512.9262128916
 20
236.4049962719
 10
1512.9894249999
 20
236.7507698732
 10
1513.028350824
 20
237.1259560939
 10
1513.0414944663
 20
237.5161367379
  0
LINE
  5
336
330
1F
100
AcDbEntity
  8
0
  6
Continuous
 62
     7
100
AcDbLine
 10
1510.4862554573
 20
235.5161367379
 30
0.0
 11
1512.3574541796
 21
235.5161367379
 31
0.0
  0
LINE
  5
337
330
1F
100
AcDbEntity
  8
0
  6
Continuous
 62
     7
100
AcDbLine
 10
1510.4862554573
 20
235.5161367379
 30
0.0
 11
1510.4862554573
 21
251.5161367379
 31
0.0
  0
LINE
  5
338
330
1F
100
AcDbEntity
  8
0
  6
Continuous
 62
     7
100
AcDbLine
 10
1512.3574541796
 20
251.5161367379
 30
0.0
 11
1510.4862554573
 21
251.5161367379
 31
0.0
  0
LWPOLYLINE
  5
339
330
1F
100
AcDbEntity
  8
0
  6
Continuous
 62
     7
100
AcDbPolyline
 90
        9
 70
   128
 43
0.0
 10
1513.0414944663
 20
249.5161367379
 10
1513.028350824
 20
249.906317382
 10
1512.9894249999
 20
250.2815036026
 10
1512.9262128916
 20
250.627277204
 10
1512.8411437049
 20
250.9303503003
 10
1512.7374866011
 20
251.1790759625
 10
1512.6192250644
 20
251.3638958029
 10
1512.4909038194
 20
251.4777072987
 10
1512.3574541796
 20
251.5161367379
  0
LINE
  5
33A
330
1F
100
AcDbEntity
  8
0
  6
Continuous
 62
     7
100
AcDbLine
 10
1513.0414944663
 20
237.5161367379
 30
0.0
 11
1513.0414944663
 21
249.5161367379
 31
0.0
  0
LINE
  5
33B
330
1F
100
AcDbEntity
  8
0
  6
Continuous
 62
     7
100
AcDbLine
 10
1513.0414944663
 20
237.5161367379
 30
0.0
 11
1514.9208797078
 21
237.5161367379
 31
0.0
  0
LINE
  5
33C
330
1F
100
AcDbEntity
  8
0
  6
Continuous
 62
     7
100
AcDbLine
 10
1514.9208797078
 20
249.5161367379
 30
0.0
 11
1513.0414944663
 21
249.5161367379
 31
0.0
  0
LINE
  5
33D
330
1F
100
AcDbEntity
  8
0
  6
Continuous
 62
     7
100
AcDbLine
 10
1514.9208797078
 20
237.5161367379
 30
0.0
 11
1514.9208797078
 21
249.5161367379
 31
0.0
  0
LINE
  5
33E
330
1F
100
AcDbEntity
  8
0
  6
Continuous
 62
     7
100
AcDbLine
 10
1512.3574541796
 20
251.5161367379
 30
0.0
 11
1514.2368394212
 21
251.5161367379
 31
0.0
  0
LWPOLYLINE
  5
33F
330
1F
100
AcDbEntity
  8
0
  6
Continuous
 62
     7
100
AcDbPolyline
 90
        9
 70
   128
 43
0.0
 10
1514.2368394212
 20
251.5161367379
 10
1514.370289061
 20
251.4777072987
 10
1514.498610306
 20
251.3638958029
 10
1514.6168718426
 20
251.1790759625
 10
1514.7205289465
 20
250.9303503003
 10
1514.8055981331
 20
250.627277204
 10
1514.8688102414
 20
250.2815036026
 10
1514.9077360655
 20
249.906317382
 10
1514.9208797078
 20
249.5161367379
  0
LWPOLYLINE
  5
340
330
1F
100
AcDbEntity
  8
0
  6
Continuous
 62
     7
100
AcDbPolyline
 90
        9
 70
   128
 43
0.0
 10
1514.9208797078
 20
237.5161367379
 10
1514.9077360655
 20
237.1259560939
 10
1514.8688102414
 20
236.7507698732
 10
1514.8055981331
 20
236.4049962719
 10
1514.7205289465
 20
236.1019231755
 10
1514.6168718426
 20
235.8531975133
 10
1514.498610306
 20
235.6683776729
 10
1514.370289061
 20
235.5545661771
 10
1514.2368394212
 20
235.5161367379
  0
LINE
  5
341
330
1F
100
AcDbEntity
  8
0
  6
Continuous
 62
     7
100
AcDbLine
 10
1514.2368394212
 20
235.5161367379
 30
0.0
 11
1512.3574541796
 21
235.5161367379
 31
0.0
  0
LINE
  5
342
330
1F
100
AcDbEntity
  8
0
  6
Continuous
 62
     7
100
AcDbLine
 10
606.124411182
 20
251.5161367379
 30
0.0
 11
606.3001469693
 21
251.5161367379
 31
0.0
  0
LINE
  5
343
330
1F
100
AcDbEntity
  8
0
  6
Continuous
 62
     7
100
AcDbLine
 10
606.3053333197
 20
251.5161367379
 30
0.0
 11
606.3053333197
 21
235.5161367379
 31
0.0
  0
LINE
  5
344
330
1F
100
AcDbEntity
  8
0
  6
Continuous
 62
     7
100
AcDbLine
 10
606.3053333197
 20
235.5161367379
 30
0.0
 11
606.124411182
 21
235.5161367379
 31
0.0
  0
LINE
  5
345
330
1F
100
AcDbEntity
  8
0
  6
Continuous
 62
     7
100
AcDbLine
 10
1510.3105196701
 20
251.5161367379
 30
0.0
 11
1510.4862554573
 21
251.5161367379
 31
0.0
  0
LINE
  5
346
330
1F
100
AcDbEntity
  8
0
  6
Continuous
 62
     7
100
AcDbLine
 10
1510.3053333197
 20
235.5161367379
 30
0.0
 11
1510.3053333197
 21
251.5161367379
 31
0.0
  0
LINE
  5
347
330
1F
100
AcDbEntity
  8
0
  6
Continuous
 62
     7
100
AcDbLine
 10
1510.4862554573
 20
235.5161367379
 30
0.0
 11
1510.3053333197
 21
235.5161367379
 31
0.0
  0
LINE
  5
348
330
1F
100
AcDbEntity
  8
0
  6
Continuous
 62
     7
100
AcDbLine
 10
606.3001469693
 20
251.5161367379
 30
0.0
 11
606.3053333197
 21
251.5161367379
 31
0.0
  0
LINE
  5
349
330
1F
100
AcDbEntity
  8
0
  6
Continuous
 62
     7
100
AcDbLine
 10
604.3053333197
 20
251.5161367379
 30
0.0
 11
604.3053333197
 21
266.0161367379
 31
0.0
  0
LINE
  5
34A
330
1F
100
AcDbEntity
  8
0
  6
Continuous
 62
     7
100
AcDbLine
 10
606.3053333197
 20
251.5161367379
 30
0.0
 11
606.3053333197
 21
264.5161367379
 31
0.0
  0
LINE
  5
34B
330
1F
100
AcDbEntity
  8
0
  6
Continuous
 62
     7
100
AcDbLine
 10
1510.3105196701
 20
251.5161367379
 30
0.0
 11
1510.3053333197
 21
251.5161367379
 31
0.0
  0
LINE
  5
34C
330
1F
100
AcDbEntity
  8
0
  6
Continuous
 62
     7
100
AcDbLine
 10
1510.3053333197
 20
264.5161367379
 30
0.0
 11
1510.3053333197
 21
251.5161367379
 31
0.0
  0
LINE
  5
34D
330
1F
100
AcDbEntity
  8
0
  6
Continuous
 62
     7
100
AcDbLine
 10
1512.3053333197
 20
266.0161367379
 30
0.0
 11
1512.3053333197
 21
251.5161367379
 31
0.0
  0
LINE
  5
34E
330
1F
100
AcDbEntity
  8
0
  6
Continuous
 62
     7
100
AcDbLine
 10
1507.4653407106
 20
249.2464522142
 30
0.0
 11
1510.3053333197
 21
249.2464522142
 31
0.0
  0
ARC
  5
34F
330
1F
100
AcDbEntity
  8
0
  6
Continuous
 62
     7
100
AcDbCircle
 10
1507.461646467
 20
247.74427576
 30
0.0
 40
1.502180996726771
100
AcDbArc
 50
89.8590950211
 51
152.0268050375
  0
LINE
  5
350
330
1F
100
AcDbEntity
  8
0
  6
Continuous
 62
     7
100
AcDbLine
 10
609.1453259287
 20
249.3090479025
 30
0.0
 11
606.3053333197
 21
249.3090479025
 31
0.0
  0
ARC
  5
351
330
1F
100
AcDbEntity
  8
0
  6
Continuous
 62
     7
100
AcDbCircle
 10
609.1457037404
 20
247.8088373088
 30
0.0
 40
1.500210641247991
100
AcDbArc
 50
27.5586488616
 51
90.0144293185
  0
LINE
  5
352
330
1F
100
AcDbEntity
  8
0
  6
Continuous
 62
     7
100
AcDbLine
 10
1505.4749621934
 20
247.1966392252
 30
0.0
 11
1506.1349695844
 21
248.4488864298
 31
0.0
  0
LINE
  5
353
330
1F
100
AcDbEntity
  8
0
  6
Continuous
 62
     7
100
AcDbLine
 10
611.1357044459
 20
247.2372276215
 30
0.0
 11
610.4756970549
 21
248.5029192574
 31
0.0
  0
LINE
  5
354
330
1F
100
AcDbEntity
  8
0
  6
Continuous
 62
     7
100
AcDbLine
 10
1505.3053333197
 20
246.5119214139
 30
0.0
 11
1505.3053333197
 21
240.2833509286
 31
0.0
  0
ARC
  5
355
330
1F
100
AcDbEntity
  8
0
  6
Continuous
 62
     7
100
AcDbCircle
 10
1506.7736180463
 20
246.5115456875
 30
0.0
 40
1.468284774719963
100
AcDbArc
 50
152.1865385125
 51
179.9853383095
  0
ARC
  5
356
330
1F
100
AcDbEntity
  8
0
  6
Continuous
 62
     7
100
AcDbCircle
 10
609.8085768529
 20
246.5451204953
 30
0.0
 40
1.496756467237553
100
AcDbArc
 50
0.0014553091
 51
27.5423833083
  0
LINE
  5
357
330
1F
100
AcDbEntity
  8
0
  6
Continuous
 62
     7
100
AcDbLine
 10
611.3053333197
 20
240.2833509286
 30
0.0
 11
611.3053333197
 21
246.5451585129
 31
0.0
  0
LINE
  5
358
330
1F
100
AcDbEntity
  8
0
  6
Continuous
 62
     7
100
AcDbLine
 10
1519.0053333197
 20
246.3807039292
 30
0.0
 11
1519.0053333197
 21
240.4161367379
 31
0.0
  0
LINE
  5
359
330
1F
100
AcDbEntity
  8
0
  6
Continuous
 62
     7
100
AcDbLine
 10
1519.5053333197
 20
245.8866093974
 30
0.0
 11
1519.0053333197
 21
246.3807039292
 31
0.0
  0
LINE
  5
35A
330
1F
100
AcDbEntity
  8
0
  6
Continuous
 62
     7
100
AcDbLine
 10
1519.5053333197
 20
245.8866093974
 30
0.0
 11
1519.5053333197
 21
240.9161367379
 31
0.0
  0
LINE
  5
35B
330
1F
100
AcDbEntity
  8
0
  6
Continuous
 62
     7
100
AcDbLine
 10
618.4335809323
 20
261.0161367379
 30
0.0
 11
618.7592304548
 21
261.5161367379
 31
0.0
  0
LINE
  5
35C
330
1F
100
AcDbEntity
  8
0
  6
Continuous
 62
     7
100
AcDbLine
 10
618.4335809323
 20
261.0161367379
 30
0.0
 11
614.3053333197
 21
261.0161367379
 31
0.0
  0
LINE
  5
35D
330
1F
100
AcDbEntity
  8
0
  6
Continuous
 62
     7
100
AcDbLine
 10
1502.3053333197
 20
261.0161367379
 30
0.0
 11
1498.177085707
 21
261.0161367379
 31
0.0
  0
LINE
  5
35E
330
1F
100
AcDbEntity
  8
0
  6
Continuous
 62
     7
100
AcDbLine
 10
1498.177085707
 20
261.0161367379
 30
0.0
 11
1497.8514361845
 21
261.5161367379
 31
0.0
  0
LINE
  5
35F
330
1F
100
AcDbEntity
  8
0
  6
Continuous
 62
     7
100
AcDbLine
 10
597.1053333197
 20
245.9131329941
 30
0.0
 11
597.6053333197
 21
246.4125322453
 31
0.0
  0
LINE
  5
360
330
1F
100
AcDbEntity
  8
0
  6
Continuous
 62
     7
100
AcDbLine
 10
597.6053333197
 20
240.4161367379
 30
0.0
 11
597.6053333197
 21
246.4125322453
 31
0.0
  0
LINE
  5
361
330
1F
100
AcDbEntity
  8
0
  6
Continuous
 62
     7
100
AcDbLine
 10
597.1053333197
 20
240.9161367379
 30
0.0
 11
597.1053333197
 21
245.9131329941
 31
0.0
  0
LINE
  5
362
330
1F
100
AcDbEntity
  8
0
  6
Continuous
 62
     7
100
AcDbLine
 10
1498.177085707
 20
261.0161367379
 30
0.0
 11
1497.3053333197
 21
261.0161367379
 31
0.0
  0
LINE
  5
363
330
1F
100
AcDbEntity
  8
0
  6
Continuous
 62
     7
100
AcDbLine
 10
619.3053333197
 20
261.0161367379
 30
0.0
 11
618.4335809323
 21
261.0161367379
 31
0.0
  0
LINE
  5
364
330
1F
100
AcDbEntity
  8
0
  6
Continuous
 62
     7
100
AcDbLine
 10
1505.3053333197
 20
246.5489225473
 30
0.0
 11
1505.3053333197
 21
246.5119214139
 31
0.0
  0
LINE
  5
365
330
1F
100
AcDbEntity
  8
0
  6
Continuous
 62
     7
100
AcDbLine
 10
1519.0053333197
 20
246.4161367379
 30
0.0
 11
1519.0053333197
 21
246.3807039292
 31
0.0
  0
LINE
  5
366
330
1F
100
AcDbEntity
  8
0
  6
Continuous
 62
     7
100
AcDbLine
 10
1519.5053333197
 20
245.9161367379
 30
0.0
 11
1519.5053333197
 21
245.8866093974
 31
0.0
  0
LINE
  5
367
330
1F
100
AcDbEntity
  8
0
  6
Continuous
 62
     7
100
AcDbLine
 10
597.6053333197
 20
246.4125322453
 30
0.0
 11
597.6053333197
 21
246.4161367379
 31
0.0
  0
LINE
  5
368
330
1F
100
AcDbEntity
  8
0
  6
Continuous
 62
     7
100
AcDbLine
 10
597.1053333197
 20
245.9131329941
 30
0.0
 11
597.1053333197
 21
245.9161367379
 31
0.0
  0
LINE
  5
369
330
1F
100
AcDbEntity
  8
0
  6
Continuous
 62
     7
100
AcDbLine
 10
657.8053333197
 20
256.0161367379
 30
0.0
 11
661.3011781692
 21
256.0161367379
 31
0.0
  0
LINE
  5
36A
330
1F
100
AcDbEntity
  8
0
  6
Continuous
 62
     7
100
AcDbLine
 10
661.2185373609
 20
255.5161367379
 30
0.0
 11
661.3011781692
 21
256.0161367379
 31
0.0
  0
LINE
  5
36B
330
1F
100
AcDbEntity
  8
0
  6
Continuous
 62
     7
100
AcDbLine
 10
661.2185373609
 20
255.5161367379
 30
0.0
 11
658.3053333197
 21
255.5161367379
 31
0.0
  0
LINE
  5
36C
330
1F
100
AcDbEntity
  8
0
  6
Continuous
 62
     7
100
AcDbLine
 10
661.3011781692
 20
256.0161367379
 30
0.0
 11
663.8053333197
 21
256.0161367379
 31
0.0
  0
LINE
  5
36D
330
1F
100
AcDbEntity
  8
0
  6
Continuous
 62
     7
100
AcDbLine
 10
663.3053333197
 20
255.5161367379
 30
0.0
 11
661.2185373609
 21
255.5161367379
 31
0.0
  0
LINE
  5
36E
330
1F
100
AcDbEntity
  8
0
  6
Continuous
 62
     7
100
AcDbLine
 10
605.8053333197
 20
267.6744491331
 30
0.0
 11
605.8053333197
 21
266.0161367379
 31
0.0
  0
LINE
  5
36F
330
1F
100
AcDbEntity
  8
0
  6
Continuous
 62
     7
100
AcDbLine
 10
1510.8053333197
 20
267.6744491331
 30
0.0
 11
1510.8053333197
 21
266.0161367379
 31
0.0
  0
LINE
  5
370
330
1F
100
AcDbEntity
  8
0
  6
Continuous
 62
     7
100
AcDbLine
 10
762.1030151139
 20
274.0161367379
 30
0.0
 11
762.1030151139
 21
277.0161367379
 31
0.0
  0
LINE
  5
371
330
1F
100
AcDbEntity
  8
0
  6
Continuous
 62
     7
100
AcDbLine
 10
1002.1030151139
 20
274.0161367379
 30
0.0
 11
1002.1030151139
 21
277.0161367379
 31
0.0
  0
LINE
  5
372
330
1F
100
AcDbEntity
  8
0
  6
Continuous
 62
     7
100
AcDbLine
 10
1082.1030151139
 20
274.0161367379
 30
0.0
 11
1082.1030151139
 21
277.0161367379
 31
0.0
  0
LINE
  5
373
330
1F
100
AcDbEntity
  8
0
  6
Continuous
 62
     7
100
AcDbLine
 10
963.1030151139
 20
277.0161367379
 30
0.0
 11
963.1030151139
 21
274.0161367379
 31
0.0
  0
LINE
  5
374
330
1F
100
AcDbEntity
  8
0
  6
Continuous
 62
     7
100
AcDbLine
 10
1162.1030151139
 20
274.0161367379
 30
0.0
 11
1162.1030151139
 21
277.0161367379
 31
0.0
  0
LINE
  5
375
330
1F
100
AcDbEntity
  8
0
  6
Continuous
 62
     7
100
AcDbLine
 10
922.1030151139
 20
274.0161367379
 30
0.0
 11
922.1030151139
 21
277.0161367379
 31
0.0
  0
LINE
  5
376
330
1F
100
AcDbEntity
  8
0
  6
Continuous
 62
     7
100
AcDbLine
 10
1283.1030151139
 20
277.0161367379
 30
0.0
 11
1283.1030151139
 21
274.0161367379
 31
0.0
  0
LINE
  5
377
330
1F
100
AcDbEntity
  8
0
  6
Continuous
 62
     7
100
AcDbLine
 10
723.1030151139
 20
277.0161367379
 30
0.0
 11
723.1030151139
 21
274.0161367379
 31
0.0
  0
LINE
  5
378
330
1F
100
AcDbEntity
  8
0
  6
Continuous
 62
     7
100
AcDbLine
 10
1242.1030151139
 20
274.0161367379
 30
0.0
 11
1242.1030151139
 21
277.0161367379
 31
0.0
  0
LINE
  5
379
330
1F
100
AcDbEntity
  8
0
  6
Continuous
 62
     7
100
AcDbLine
 10
1322.1030151139
 20
274.0161367379
 30
0.0
 11
1322.1030151139
 21
277.0161367379
 31
0.0
  0
LINE
  5
37A
330
1F
100
AcDbEntity
  8
0
  6
Continuous
 62
     7
100
AcDbLine
 10
883.1030151139
 20
277.0161367379
 30
0.0
 11
883.1030151139
 21
274.0161367379
 31
0.0
  0
LINE
  5
37B
330
1F
100
AcDbEntity
  8
0
  6
Continuous
 62
     7
100
AcDbLine
 10
1123.1030151139
 20
277.0161367379
 30
0.0
 11
1123.1030151139
 21
274.0161367379
 31
0.0
  0
LINE
  5
37C
330
1F
100
AcDbEntity
  8
0
  6
Continuous
 62
     7
100
AcDbLine
 10
1043.1030151139
 20
277.0161367379
 30
0.0
 11
1043.1030151139
 21
274.0161367379
 31
0.0
  0
LINE
  5
37D
330
1F
100
AcDbEntity
  8
0
  6
Continuous
 62
     7
100
AcDbLine
 10
1203.1030151139
 20
277.0161367379
 30
0.0
 11
1203.1030151139
 21
274.0161367379
 31
0.0
  0
LINE
  5
37E
330
1F
100
AcDbEntity
  8
0
  6
Continuous
 62
     7
100
AcDbLine
 10
1402.1030151139
 20
274.0161367379
 30
0.0
 11
1402.1030151139
 21
277.0161367379
 31
0.0
  0
LINE
  5
37F
330
1F
100
AcDbEntity
  8
0
  6
Continuous
 62
     7
100
AcDbLine
 10
1363.1030151139
 20
277.0161367379
 30
0.0
 11
1363.1030151139
 21
274.0161367379
 31
0.0
  0
LINE
  5
380
330
1F
100
AcDbEntity
  8
0
  6
Continuous
 62
     7
100
AcDbLine
 10
842.1030151139
 20
274.0161367379
 30
0.0
 11
842.1030151139
 21
277.0161367379
 31
0.0
  0
LINE
  5
381
330
1F
100
AcDbEntity
  8
0
  6
Continuous
 62
     7
100
AcDbLine
 10
803.1030151139
 20
277.0161367379
 30
0.0
 11
803.1030151139
 21
274.0161367379
 31
0.0
  0
LINE
  5
382
330
1F
100
AcDbEntity
  8
0
  6
Continuous
 62
     7
100
AcDbLine
 10
1507.4653407106
 20
249.2464522142
 30
0.0
 11
1507.4653407106
 21
237.5161367379
 31
0.0
  0
LINE
  5
383
330
1F
100
AcDbEntity
  8
0
  6
Continuous
 62
     7
100
AcDbLine
 10
1506.1349695844
 20
248.4488864298
 30
0.0
 11
1506.1349695844
 21
238.3232351097
 31
0.0
  0
LINE
  5
384
330
1F
100
AcDbEntity
  8
0
  6
Continuous
 62
     7
100
AcDbLine
 10
609.1453259287
 20
237.5161367379
 30
0.0
 11
609.1453259287
 21
249.3090479025
 31
0.0
  0
LINE
  5
385
330
1F
100
AcDbEntity
  8
0
  6
Continuous
 62
     7
100
AcDbLine
 10
610.4756970549
 20
238.3232351097
 30
0.0
 11
610.4756970549
 21
248.5029192574
 31
0.0
  0
LINE
  5
386
330
1F
100
AcDbEntity
  8
0
  6
Continuous
 62
     7
100
AcDbLine
 10
1505.4749621934
 20
247.1966392252
 30
0.0
 11
1505.4749621934
 21
239.5904493003
 31
0.0
  0
LINE
  5
387
330
1F
100
AcDbEntity
  8
0
  6
Continuous
 62
     7
100
AcDbLine
 10
611.1357044459
 20
239.5904493003
 30
0.0
 11
611.1357044459
 21
247.2372276215
 31
0.0
  0
LINE
  5
388
330
1F
100
AcDbEntity
  8
0
  6
Continuous
 62
     7
100
AcDbLine
 10
1519.0053333197
 20
246.3807039292
 30
0.0
 11
1514.9208797078
 21
246.3807039292
 31
0.0
  0
LINE
  5
389
330
1F
100
AcDbEntity
  8
0
  6
Continuous
 62
     7
100
AcDbLine
 10
597.6053333197
 20
246.4125322453
 30
0.0
 11
601.6897869315
 21
246.4125322453
 31
0.0
  0
LINE
  5
38A
330
1F
100
AcDbEntity
  8
0
  6
Continuous
 62
     7
100
AcDbLine
 10
1507.4653407106
 20
249.3161367379
 30
0.0
 11
1507.4653407106
 21
249.2464522142
 31
0.0
  0
LINE
  5
38B
330
1F
100
AcDbEntity
  8
0
  6
Continuous
 62
     7
100
AcDbLine
 10
1506.1349695844
 20
248.5090383662
 30
0.0
 11
1506.1349695844
 21
248.4488864298
 31
0.0
  0
LINE
  5
38C
330
1F
100
AcDbEntity
  8
0
  6
Continuous
 62
     7
100
AcDbLine
 10
1505.4749621934
 20
247.2418241755
 30
0.0
 11
1505.4749621934
 21
247.1966392252
 31
0.0
  0
LINE
  5
38D
330
1F
100
AcDbEntity
  8
0
  6
Continuous
 62
     7
100
AcDbLine
 10
609.1453259287
 20
249.3090479025
 30
0.0
 11
609.1453259287
 21
249.3161367379
 31
0.0
  0
LINE
  5
38E
330
1F
100
AcDbEntity
  8
0
  6
Continuous
 62
     7
100
AcDbLine
 10
610.4756970549
 20
248.5029192574
 30
0.0
 11
610.4756970549
 21
248.5090383662
 31
0.0
  0
LINE
  5
38F
330
1F
100
AcDbEntity
  8
0
  6
Continuous
 62
     7
100
AcDbLine
 10
611.1357044459
 20
247.2372276215
 30
0.0
 11
611.1357044459
 21
247.2418241755
 31
0.0
  0
LINE
  5
390
330
1F
100
AcDbEntity
  8
0
  6
Continuous
 62
     7
100
AcDbLine
 10
661.3011781692
 20
256.0161367379
 30
0.0
 11
661.3011781692
 21
261.5161367379
 31
0.0
  0
LINE
  5
391
330
1F
100
AcDbEntity
  8
0
  6
Continuous
 62
     7
100
AcDbLine
 10
605.8053333197
 20
39.6669738875
 30
0.0
 11
597.8053333197
 21
39.6669738875
 31
0.0
  0
LINE
  5
392
330
1F
100
AcDbEntity
  8
0
  6
Continuous
 62
     7
100
AcDbLine
 10
1518.8053333197
 20
39.6669738875
 30
0.0
 11
1510.8053333197
 21
39.6669738875
 31
0.0
  0
LINE
  5
393
330
1F
100
AcDbEntity
  8
0
  6
Continuous
 62
     7
100
AcDbLine
 10
1510.8053333197
 20
39.6669738875
 30
0.0
 11
1510.3053333197
 21
39.6669738875
 31
0.0
  0
LINE
  5
394
330
1F
100
AcDbEntity
  8
0
  6
Continuous
 62
     7
100
AcDbLine
 10
606.3053333197
 20
39.6669738875
 30
0.0
 11
605.8053333197
 21
39.6669738875
 31
0.0
  0
LINE
  5
395
330
1F
100
AcDbEntity
  8
0
  6
Continuous
 62
     7
100
AcDbLine
 10
663.8053333197
 20
44.1669738875
 30
0.0
 11
663.8053333197
 21
49.6669738875
 31
0.0
  0
LINE
  5
396
330
1F
100
AcDbEntity
  8
0
  6
Continuous
 62
     7
100
AcDbLine
 10
663.8053333197
 20
49.6669738875
 30
0.0
 11
663.3053333197
 21
50.1669738875
 31
0.0
  0
LINE
  5
397
330
1F
100
AcDbEntity
  8
0
  6
Continuous
 62
     7
100
AcDbLine
 10
657.8053333197
 20
49.6669738875
 30
0.0
 11
657.8053333197
 21
44.1669738875
 31
0.0
  0
LINE
  5
398
330
1F
100
AcDbEntity
  8
0
  6
Continuous
 62
     7
100
AcDbLine
 10
658.3053333197
 20
50.1669738875
 30
0.0
 11
657.8053333197
 21
49.6669738875
 31
0.0
  0
LINE
  5
399
330
1F
100
AcDbEntity
  8
0
  6
Continuous
 62
     7
100
AcDbLine
 10
606.3053333197
 20
56.3669738875
 30
0.0
 11
609.1453259287
 21
56.3669738875
 31
0.0
  0
ARC
  5
39A
330
1F
100
AcDbEntity
  8
0
  6
Continuous
 62
     7
100
AcDbCircle
 10
609.1453259287
 20
57.8669738875
 30
0.0
 40
1.500000000000008
100
AcDbArc
 50
270.0
 51
332.4879973761
  0
LINE
  5
39B
330
1F
100
AcDbEntity
  8
0
  6
Continuous
 62
     7
100
AcDbLine
 10
1507.4653407106
 20
56.3669738875
 30
0.0
 11
1510.3053333197
 21
56.3669738875
 31
0.0
  0
ARC
  5
39C
330
1F
100
AcDbEntity
  8
0
  6
Continuous
 62
     7
100
AcDbCircle
 10
1507.4653407106
 20
57.8669738875
 30
0.0
 40
1.500000000000007
100
AcDbArc
 50
207.5120026239
 51
270.0
  0
LINE
  5
39D
330
1F
100
AcDbEntity
  8
0
  6
Continuous
 62
     7
100
AcDbLine
 10
610.4756970549
 20
57.1740722592
 30
0.0
 11
611.1357044459
 21
58.4412864499
 31
0.0
  0
LINE
  5
39E
330
1F
100
AcDbEntity
  8
0
  6
Continuous
 62
     7
100
AcDbLine
 10
1505.4749621934
 20
58.4412864499
 30
0.0
 11
1506.1349695844
 21
57.1740722593
 31
0.0
  0
ARC
  5
39F
330
1F
100
AcDbEntity
  8
0
  6
Continuous
 62
     7
100
AcDbCircle
 10
609.8053333197
 20
59.1341880782
 30
0.0
 40
1.500000000000014
100
AcDbArc
 50
332.4879973761
 51
0.0
  0
ARC
  5
3A0
330
1F
100
AcDbEntity
  8
0
  6
Continuous
 62
     7
100
AcDbCircle
 10
1506.8053333197
 20
59.1341880782
 30
0.0
 40
1.499999999999955
100
AcDbArc
 50
180.0
 51
207.5120026239
  0
LINE
  5
3A1
330
1F
100
AcDbEntity
  8
0
  6
Continuous
 62
     7
100
AcDbLine
 10
597.6053333197
 20
59.2669738875
 30
0.0
 11
604.3053333197
 21
59.2669738875
 31
0.0
  0
LINE
  5
3A2
330
1F
100
AcDbEntity
  8
0
  6
Continuous
 62
     7
100
AcDbLine
 10
597.1053333197
 20
59.7669738875
 30
0.0
 11
597.6053333197
 21
59.2669738875
 31
0.0
  0
LINE
  5
3A3
330
1F
100
AcDbEntity
  8
0
  6
Continuous
 62
     7
100
AcDbLine
 10
1519.0053333197
 20
59.2669738875
 30
0.0
 11
1519.5053333197
 21
59.7669738875
 31
0.0
  0
LINE
  5
3A4
330
1F
100
AcDbEntity
  8
0
  6
Continuous
 62
     7
100
AcDbLine
 10
1512.3053333197
 20
59.2669738875
 30
0.0
 11
1519.0053333197
 21
59.2669738875
 31
0.0
  0
LINE
  5
3A5
330
1F
100
AcDbEntity
  8
0
  6
Continuous
 62
     7
100
AcDbLine
 10
619.8053333197
 20
44.1669738875
 30
0.0
 11
619.3053333197
 21
44.6669738875
 31
0.0
  0
LINE
  5
3A6
330
1F
100
AcDbEntity
  8
0
  6
Continuous
 62
     7
100
AcDbLine
 10
1497.3053333197
 20
44.6669738875
 30
0.0
 11
1496.8053333197
 21
44.1669738875
 31
0.0
  0
LINE
  5
3A7
330
1F
100
AcDbEntity
  8
0
  6
Continuous
 62
     7
100
AcDbLine
 10
1502.8053333197
 20
44.1669738875
 30
0.0
 11
1502.3053333197
 21
44.6669738875
 31
0.0
  0
LINE
  5
3A8
330
1F
100
AcDbEntity
  8
0
  6
Continuous
 62
     7
100
AcDbLine
 10
614.3053333197
 20
44.6669738875
 30
0.0
 11
613.8053333197
 21
44.1669738875
 31
0.0
  0
ARC
  5
3A9
330
1F
100
AcDbEntity
  8
0
  6
Continuous
 62
     7
100
AcDbCircle
 10
1507.4653407106
 20
66.6669738875
 30
0.0
 40
1.5
100
AcDbArc
 50
90.0
 51
152.4879973761
  0
LINE
  5
3AA
330
1F
100
AcDbEntity
  8
0
  6
Continuous
 62
     7
100
AcDbLine
 10
1510.3053333197
 20
68.1669738875
 30
0.0
 11
1507.4653407106
 21
68.1669738875
 31
0.0
  0
LINE
  5
3AB
330
1F
100
AcDbEntity
  8
0
  6
Continuous
 62
     7
100
AcDbLine
 10
1506.1349695844
 20
67.3598755158
 30
0.0
 11
1505.4749621934
 21
66.0926613251
 31
0.0
  0
ARC
  5
3AC
330
1F
100
AcDbEntity
  8
0
  6
Continuous
 62
     7
100
AcDbCircle
 10
1506.8053333197
 20
65.3997596969
 30
0.0
 40
1.499999999999952
100
AcDbArc
 50
152.4879973761
 51
180.0
  0
LINE
  5
3AD
330
1F
100
AcDbEntity
  8
0
  6
Continuous
 62
     7
100
AcDbLine
 10
1519.0053333197
 20
65.2669738875
 30
0.0
 11
1512.3053333197
 21
65.2669738875
 31
0.0
  0
LINE
  5
3AE
330
1F
100
AcDbEntity
  8
0
  6
Continuous
 62
     7
100
AcDbLine
 10
1519.5053333197
 20
64.7669738875
 30
0.0
 11
1519.0053333197
 21
65.2669738875
 31
0.0
  0
ARC
  5
3AF
330
1F
100
AcDbEntity
  8
0
  6
Continuous
 62
     7
100
AcDbCircle
 10
609.1453259287
 20
66.6669738875
 30
0.0
 40
1.500000000000018
100
AcDbArc
 50
27.5120026239
 51
90.0
  0
LINE
  5
3B0
330
1F
100
AcDbEntity
  8
0
  6
Continuous
 62
     7
100
AcDbLine
 10
609.1453259287
 20
68.1669738875
 30
0.0
 11
606.3053333197
 21
68.1669738875
 31
0.0
  0
LINE
  5
3B1
330
1F
100
AcDbEntity
  8
0
  6
Continuous
 62
     7
100
AcDbLine
 10
611.1357044459
 20
66.0926613251
 30
0.0
 11
610.4756970549
 21
67.3598755158
 31
0.0
  0
ARC
  5
3B2
330
1F
100
AcDbEntity
  8
0
  6
Continuous
 62
     7
100
AcDbCircle
 10
609.8053333197
 20
65.3997596968
 30
0.0
 40
1.500000000000024
100
AcDbArc
 50
0.0
 51
27.5120026239
  0
LINE
  5
3B3
330
1F
100
AcDbEntity
  8
0
  6
Continuous
 62
     7
100
AcDbLine
 10
604.3053333197
 20
65.2669738875
 30
0.0
 11
597.6053333197
 21
65.2669738875
 31
0.0
  0
LINE
  5
3B4
330
1F
100
AcDbEntity
  8
0
  6
Continuous
 62
     7
100
AcDbLine
 10
597.6053333197
 20
65.2669738875
 30
0.0
 11
597.1053333197
 21
64.7669738875
 31
0.0
  0
LINE
  5
3B5
330
1F
100
AcDbEntity
  8
0
  6
Continuous
 62
     7
100
AcDbLine
 10
584.3053333197
 20
44.1669738875
 30
0.0
 11
560.8053333197
 21
44.1669738875
 31
0.0
  0
ARC
  5
3B6
330
1F
100
AcDbEntity
  8
0
  6
Continuous
 62
     7
100
AcDbCircle
 10
584.3053333197
 20
41.1669738875
 30
0.0
 40
3.0
100
AcDbArc
 50
0.0
 51
90.0
  0
LINE
  5
3B7
330
1F
100
AcDbEntity
  8
0
  6
Continuous
 62
     7
100
AcDbLine
 10
587.3053333197
 20
41.1669738875
 30
0.0
 11
587.3053333197
 21
39.6669738875
 31
0.0
  0
ARC
  5
3B8
330
1F
100
AcDbEntity
  8
0
  6
Continuous
 62
     7
100
AcDbCircle
 10
590.3053333197
 20
39.6669738875
 30
0.0
 40
3.0
100
AcDbArc
 50
180.0
 51
270.0
  0
LINE
  5
3B9
330
1F
100
AcDbEntity
  8
0
  6
Continuous
 62
     7
100
AcDbLine
 10
590.3053333197
 20
36.6669738875
 30
0.0
 11
603.3053333197
 21
36.6669738875
 31
0.0
  0
ARC
  5
3BA
330
1F
100
AcDbEntity
  8
0
  6
Continuous
 62
     7
100
AcDbCircle
 10
603.3053333197
 20
39.6669738875
 30
0.0
 40
3.0
100
AcDbArc
 50
270.0
 51
0.0
  0
LINE
  5
3BB
330
1F
100
AcDbEntity
  8
0
  6
Continuous
 62
     7
100
AcDbLine
 10
606.3053333197
 20
39.6669738875
 30
0.0
 11
606.3053333197
 21
41.1669738875
 31
0.0
  0
ARC
  5
3BC
330
1F
100
AcDbEntity
  8
0
  6
Continuous
 62
     7
100
AcDbCircle
 10
609.3053333197
 20
41.1669738875
 30
0.0
 40
3.000000000000007
100
AcDbArc
 50
90.0
 51
180.0
  0
LINE
  5
3BD
330
1F
100
AcDbEntity
  8
0
  6
Continuous
 62
     7
100
AcDbLine
 10
1507.3053333197
 20
44.1669738875
 30
0.0
 11
609.3053333197
 21
44.1669738875
 31
0.0
  0
ARC
  5
3BE
330
1F
100
AcDbEntity
  8
0
  6
Continuous
 62
     7
100
AcDbCircle
 10
1507.3053333197
 20
41.1669738875
 30
0.0
 40
3.000000000000227
100
AcDbArc
 50
0.0
 51
90.0
  0
LINE
  5
3BF
330
1F
100
AcDbEntity
  8
0
  6
Continuous
 62
     7
100
AcDbLine
 10
1510.3053333197
 20
41.1669738875
 30
0.0
 11
1510.3053333197
 21
39.6669738875
 31
0.0
  0
ARC
  5
3C0
330
1F
100
AcDbEntity
  8
0
  6
Continuous
 62
     7
100
AcDbCircle
 10
1513.3053333197
 20
39.6669738875
 30
0.0
 40
3.0
100
AcDbArc
 50
180.0
 51
270.0
  0
LINE
  5
3C1
330
1F
100
AcDbEntity
  8
0
  6
Continuous
 62
     7
100
AcDbLine
 10
1513.3053333197
 20
36.6669738875
 30
0.0
 11
1526.3053333197
 21
36.6669738875
 31
0.0
  0
ARC
  5
3C2
330
1F
100
AcDbEntity
  8
0
  6
Continuous
 62
     7
100
AcDbCircle
 10
1526.3053333197
 20
39.6669738875
 30
0.0
 40
3.0
100
AcDbArc
 50
270.0
 51
0.0
  0
LINE
  5
3C3
330
1F
100
AcDbEntity
  8
0
  6
Continuous
 62
     7
100
AcDbLine
 10
1529.3053333197
 20
39.6669738875
 30
0.0
 11
1529.3053333197
 21
41.1669738875
 31
0.0
  0
ARC
  5
3C4
330
1F
100
AcDbEntity
  8
0
  6
Continuous
 62
     7
100
AcDbCircle
 10
1532.3053333197
 20
41.1669738875
 30
0.0
 40
3.000000000000227
100
AcDbArc
 50
90.0
 51
180.0
  0
LINE
  5
3C5
330
1F
100
AcDbEntity
  8
0
  6
Continuous
 62
     7
100
AcDbLine
 10
1555.8053333197
 20
44.1669738875
 30
0.0
 11
1532.3053333197
 21
44.1669738875
 31
0.0
  0
LINE
  5
3C6
330
1F
100
AcDbEntity
  8
0
  6
Continuous
 62
     7
100
AcDbLine
 10
1555.8053333197
 20
31.6669738875
 30
0.0
 11
1555.8053333197
 21
44.1669738875
 31
0.0
  0
LINE
  5
3C7
330
1F
100
AcDbEntity
  8
0
  6
Continuous
 62
     7
100
AcDbLine
 10
560.8053333197
 20
31.6669738875
 30
0.0
 11
1555.8053333197
 21
31.6669738875
 31
0.0
  0
LINE
  5
3C8
330
1F
100
AcDbEntity
  8
0
  6
Continuous
 62
     7
100
AcDbLine
 10
560.8053333197
 20
31.6669738875
 30
0.0
 11
560.8053333197
 21
44.1669738875
 31
0.0
  0
ARC
  5
3C9
330
1F
100
AcDbEntity
  8
0
  6
Continuous
 62
     7
100
AcDbCircle
 10
597.8053333197
 20
33.6669738875
 30
0.0
 40
6.0
100
AcDbArc
 50
90.0
 51
150.0
  0
ARC
  5
3CA
330
1F
100
AcDbEntity
  8
0
  6
Continuous
 62
     7
100
AcDbCircle
 10
1518.8053333197
 20
33.6669738875
 30
0.0
 40
6.000000000000099
100
AcDbArc
 50
30.0
 51
90.0
  0
LINE
  5
3CB
330
1F
100
AcDbEntity
  8
0
  6
Continuous
 62
     7
100
AcDbLine
 10
1123.1030151139
 20
31.1293394789
 30
0.0
 11
1123.1030151139
 21
31.6669738875
 31
0.0
  0
LINE
  5
3CC
330
1F
100
AcDbEntity
  8
0
  6
Continuous
 62
     7
100
AcDbLine
 10
1123.1030151139
 20
31.1293394789
 30
0.0
 11
1111.7788007499
 21
31.1293394789
 31
0.0
  0
ARC
  5
3CD
330
1F
100
AcDbEntity
  8
0
  6
Continuous
 62
     7
100
AcDbCircle
 10
1110.4144375735
 20
29.6669738875
 30
0.0
 40
2.000000000000007
100
AcDbArc
 50
46.9856438472
 51
90.0
  0
LINE
  5
3CE
330
1F
100
AcDbEntity
  8
0
  6
Continuous
 62
     7
100
AcDbLine
 10
1253.427229478
 20
31.1293394789
 30
0.0
 11
1242.1030151139
 21
31.1293394789
 31
0.0
  0
LINE
  5
3CF
330
1F
100
AcDbEntity
  8
0
  6
Continuous
 62
     7
100
AcDbLine
 10
1242.1030151139
 20
31.1293394789
 30
0.0
 11
1242.1030151139
 21
31.6669738875
 31
0.0
  0
ARC
  5
3D0
330
1F
100
AcDbEntity
  8
0
  6
Continuous
 62
     7
100
AcDbCircle
 10
1254.7915926544
 20
29.6669738875
 30
0.0
 40
2.000000000000091
100
AcDbArc
 50
90.0
 51
133.0143561528
  0
LINE
  5
3D1
330
1F
100
AcDbEntity
  8
0
  6
Continuous
 62
     7
100
AcDbLine
 10
1413.427229478
 20
31.1293394789
 30
0.0
 11
1402.1030151139
 21
31.1293394789
 31
0.0
  0
LINE
  5
3D2
330
1F
100
AcDbEntity
  8
0
  6
Continuous
 62
     7
100
AcDbLine
 10
1402.1030151139
 20
31.1293394789
 30
0.0
 11
1402.1030151139
 21
31.6669738875
 31
0.0
  0
ARC
  5
3D3
330
1F
100
AcDbEntity
  8
0
  6
Continuous
 62
     7
100
AcDbCircle
 10
1414.7915926544
 20
29.6669738875
 30
0.0
 40
2.000000000000004
100
AcDbArc
 50
90.0
 51
133.0143561528
  0
LINE
  5
3D4
330
1F
100
AcDbEntity
  8
0
  6
Continuous
 62
     7
100
AcDbLine
 10
1363.1030151139
 20
31.1293394789
 30
0.0
 11
1363.1030151139
 21
31.6669738875
 31
0.0
  0
LINE
  5
3D5
330
1F
100
AcDbEntity
  8
0
  6
Continuous
 62
     7
100
AcDbLine
 10
1363.1030151139
 20
31.1293394789
 30
0.0
 11
1351.7788007499
 21
31.1293394789
 31
0.0
  0
ARC
  5
3D6
330
1F
100
AcDbEntity
  8
0
  6
Continuous
 62
     7
100
AcDbCircle
 10
1350.4144375735
 20
29.6669738875
 30
0.0
 40
2.00000000000008
100
AcDbArc
 50
46.9856438472
 51
90.0
  0
LINE
  5
3D7
330
1F
100
AcDbEntity
  8
0
  6
Continuous
 62
     7
100
AcDbLine
 10
1333.427229478
 20
31.1293394789
 30
0.0
 11
1322.1030151139
 21
31.1293394789
 31
0.0
  0
LINE
  5
3D8
330
1F
100
AcDbEntity
  8
0
  6
Continuous
 62
     7
100
AcDbLine
 10
1322.1030151139
 20
31.1293394789
 30
0.0
 11
1322.1030151139
 21
31.6669738875
 31
0.0
  0
ARC
  5
3D9
330
1F
100
AcDbEntity
  8
0
  6
Continuous
 62
     7
100
AcDbCircle
 10
1334.7915926544
 20
29.6669738875
 30
0.0
 40
2.000000000000088
100
AcDbArc
 50
90.0
 51
133.0143561528
  0
LINE
  5
3DA
330
1F
100
AcDbEntity
  8
0
  6
Continuous
 62
     7
100
AcDbLine
 10
933.427229478
 20
31.1293394789
 30
0.0
 11
922.1030151139
 21
31.1293394789
 31
0.0
  0
LINE
  5
3DB
330
1F
100
AcDbEntity
  8
0
  6
Continuous
 62
     7
100
AcDbLine
 10
922.1030151139
 20
31.1293394789
 30
0.0
 11
922.1030151139
 21
31.6669738875
 31
0.0
  0
ARC
  5
3DC
330
1F
100
AcDbEntity
  8
0
  6
Continuous
 62
     7
100
AcDbCircle
 10
934.7915926544
 20
29.6669738875
 30
0.0
 40
2.000000000000398
100
AcDbArc
 50
90.0
 51
133.0143561528
  0
LINE
  5
3DD
330
1F
100
AcDbEntity
  8
0
  6
Continuous
 62
     7
100
AcDbLine
 10
1242.1030151139
 20
31.1293394789
 30
0.0
 11
1203.1030151139
 21
31.1293394789
 31
0.0
  0
LINE
  5
3DE
330
1F
100
AcDbEntity
  8
0
  6
Continuous
 62
     7
100
AcDbLine
 10
1203.1030151139
 20
31.1293394789
 30
0.0
 11
1203.1030151139
 21
31.6669738875
 31
0.0
  0
LINE
  5
3DF
330
1F
100
AcDbEntity
  8
0
  6
Continuous
 62
     7
100
AcDbLine
 10
853.427229478
 20
31.1293394789
 30
0.0
 11
842.1030151139
 21
31.1293394789
 31
0.0
  0
LINE
  5
3E0
330
1F
100
AcDbEntity
  8
0
  6
Continuous
 62
     7
100
AcDbLine
 10
842.1030151139
 20
31.1293394789
 30
0.0
 11
842.1030151139
 21
31.6669738875
 31
0.0
  0
ARC
  5
3E1
330
1F
100
AcDbEntity
  8
0
  6
Continuous
 62
     7
100
AcDbCircle
 10
854.7915926544
 20
29.6669738875
 30
0.0
 40
2.000000000000401
100
AcDbArc
 50
90.0
 51
133.0143561528
  0
LINE
  5
3E2
330
1F
100
AcDbEntity
  8
0
  6
Continuous
 62
     7
100
AcDbLine
 10
1093.427229478
 20
31.1293394789
 30
0.0
 11
1082.1030151139
 21
31.1293394789
 31
0.0
  0
LINE
  5
3E3
330
1F
100
AcDbEntity
  8
0
  6
Continuous
 62
     7
100
AcDbLine
 10
1082.1030151139
 20
31.1293394789
 30
0.0
 11
1082.1030151139
 21
31.6669738875
 31
0.0
  0
ARC
  5
3E4
330
1F
100
AcDbEntity
  8
0
  6
Continuous
 62
     7
100
AcDbCircle
 10
1094.7915926544
 20
29.6669738875
 30
0.0
 40
2.0
100
AcDbArc
 50
90.0
 51
133.0143561528
  0
LINE
  5
3E5
330
1F
100
AcDbEntity
  8
0
  6
Continuous
 62
     7
100
AcDbLine
 10
1173.427229478
 20
31.1293394789
 30
0.0
 11
1162.1030151139
 21
31.1293394789
 31
0.0
  0
LINE
  5
3E6
330
1F
100
AcDbEntity
  8
0
  6
Continuous
 62
     7
100
AcDbLine
 10
1162.1030151139
 20
31.1293394789
 30
0.0
 11
1162.1030151139
 21
31.6669738875
 31
0.0
  0
ARC
  5
3E7
330
1F
100
AcDbEntity
  8
0
  6
Continuous
 62
     7
100
AcDbCircle
 10
1174.7915926544
 20
29.6669738875
 30
0.0
 40
1.999999999999993
100
AcDbArc
 50
90.0
 51
133.0143561528
  0
LINE
  5
3E8
330
1F
100
AcDbEntity
  8
0
  6
Continuous
 62
     7
100
AcDbLine
 10
1203.1030151139
 20
31.1293394789
 30
0.0
 11
1191.7788007499
 21
31.1293394789
 31
0.0
  0
ARC
  5
3E9
330
1F
100
AcDbEntity
  8
0
  6
Continuous
 62
     7
100
AcDbCircle
 10
1190.4144375735
 20
29.6669738875
 30
0.0
 40
2.000000000000077
100
AcDbArc
 50
46.9856438472
 51
90.0
  0
LINE
  5
3EA
330
1F
100
AcDbEntity
  8
0
  6
Continuous
 62
     7
100
AcDbLine
 10
1013.427229478
 20
31.1293394789
 30
0.0
 11
1002.1030151139
 21
31.1293394789
 31
0.0
  0
LINE
  5
3EB
330
1F
100
AcDbEntity
  8
0
  6
Continuous
 62
     7
100
AcDbLine
 10
1002.1030151139
 20
31.1293394789
 30
0.0
 11
1002.1030151139
 21
31.6669738875
 31
0.0
  0
ARC
  5
3EC
330
1F
100
AcDbEntity
  8
0
  6
Continuous
 62
     7
100
AcDbCircle
 10
1014.7915926544
 20
29.6669738875
 30
0.0
 40
2.000000000000478
100
AcDbArc
 50
90.0
 51
133.0143561528
  0
LINE
  5
3ED
330
1F
100
AcDbEntity
  8
0
  6
Continuous
 62
     7
100
AcDbLine
 10
723.1030151139
 20
31.1293394789
 30
0.0
 11
723.1030151139
 21
31.6669738875
 31
0.0
  0
LINE
  5
3EE
330
1F
100
AcDbEntity
  8
0
  6
Continuous
 62
     7
100
AcDbLine
 10
723.1030151139
 20
31.1293394789
 30
0.0
 11
711.7788007499
 21
31.1293394789
 31
0.0
  0
ARC
  5
3EF
330
1F
100
AcDbEntity
  8
0
  6
Continuous
 62
     7
100
AcDbCircle
 10
710.4144375735
 20
29.6669738875
 30
0.0
 40
2.0
100
AcDbArc
 50
46.9856438472
 51
90.0
  0
LINE
  5
3F0
330
1F
100
AcDbEntity
  8
0
  6
Continuous
 62
     7
100
AcDbLine
 10
1283.1030151139
 20
31.1293394789
 30
0.0
 11
1283.1030151139
 21
31.6669738875
 31
0.0
  0
LINE
  5
3F1
330
1F
100
AcDbEntity
  8
0
  6
Continuous
 62
     7
100
AcDbLine
 10
1283.1030151139
 20
31.1293394789
 30
0.0
 11
1271.7788007499
 21
31.1293394789
 31
0.0
  0
ARC
  5
3F2
330
1F
100
AcDbEntity
  8
0
  6
Continuous
 62
     7
100
AcDbCircle
 10
1270.4144375735
 20
29.6669738875
 30
0.0
 40
2.000000000000233
100
AcDbArc
 50
46.9856438472
 51
90.0
  0
LINE
  5
3F3
330
1F
100
AcDbEntity
  8
0
  6
Continuous
 62
     7
100
AcDbLine
 10
883.1030151139
 20
31.1293394789
 30
0.0
 11
883.1030151139
 21
31.6669738875
 31
0.0
  0
LINE
  5
3F4
330
1F
100
AcDbEntity
  8
0
  6
Continuous
 62
     7
100
AcDbLine
 10
883.1030151139
 20
31.1293394789
 30
0.0
 11
871.7788007499
 21
31.1293394789
 31
0.0
  0
ARC
  5
3F5
330
1F
100
AcDbEntity
  8
0
  6
Continuous
 62
     7
100
AcDbCircle
 10
870.4144375735
 20
29.6669738875
 30
0.0
 40
2.0
100
AcDbArc
 50
46.9856438472
 51
90.0
  0
LINE
  5
3F6
330
1F
100
AcDbEntity
  8
0
  6
Continuous
 62
     7
100
AcDbLine
 10
963.1030151139
 20
31.1293394789
 30
0.0
 11
963.1030151139
 21
31.6669738875
 31
0.0
  0
LINE
  5
3F7
330
1F
100
AcDbEntity
  8
0
  6
Continuous
 62
     7
100
AcDbLine
 10
963.1030151139
 20
31.1293394789
 30
0.0
 11
951.7788007499
 21
31.1293394789
 31
0.0
  0
ARC
  5
3F8
330
1F
100
AcDbEntity
  8
0
  6
Continuous
 62
     7
100
AcDbCircle
 10
950.4144375735
 20
29.6669738875
 30
0.0
 40
2.000000000000004
100
AcDbArc
 50
46.9856438472
 51
90.0
  0
LINE
  5
3F9
330
1F
100
AcDbEntity
  8
0
  6
Continuous
 62
     7
100
AcDbLine
 10
1322.1030151139
 20
31.1293394789
 30
0.0
 11
1283.1030151139
 21
31.1293394789
 31
0.0
  0
LINE
  5
3FA
330
1F
100
AcDbEntity
  8
0
  6
Continuous
 62
     7
100
AcDbLine
 10
773.427229478
 20
31.1293394789
 30
0.0
 11
762.1030151139
 21
31.1293394789
 31
0.0
  0
LINE
  5
3FB
330
1F
100
AcDbEntity
  8
0
  6
Continuous
 62
     7
100
AcDbLine
 10
762.1030151139
 20
31.1293394789
 30
0.0
 11
762.1030151139
 21
31.6669738875
 31
0.0
  0
ARC
  5
3FC
330
1F
100
AcDbEntity
  8
0
  6
Continuous
 62
     7
100
AcDbCircle
 10
774.7915926544
 20
29.6669738875
 30
0.0
 40
2.000000000000398
100
AcDbArc
 50
90.0
 51
133.0143561528
  0
LINE
  5
3FD
330
1F
100
AcDbEntity
  8
0
  6
Continuous
 62
     7
100
AcDbLine
 10
803.1030151139
 20
31.1293394789
 30
0.0
 11
803.1030151139
 21
31.6669738875
 31
0.0
  0
LINE
  5
3FE
330
1F
100
AcDbEntity
  8
0
  6
Continuous
 62
     7
100
AcDbLine
 10
803.1030151139
 20
31.1293394789
 30
0.0
 11
791.7788007499
 21
31.1293394789
 31
0.0
  0
ARC
  5
3FF
330
1F
100
AcDbEntity
  8
0
  6
Continuous
 62
     7
100
AcDbCircle
 10
790.4144375735
 20
29.6669738875
 30
0.0
 40
1.999999999999993
100
AcDbArc
 50
46.9856438472
 51
90.0
  0
LINE
  5
400
330
1F
100
AcDbEntity
  8
0
  6
Continuous
 62
     7
100
AcDbLine
 10
1043.1030151139
 20
31.1293394789
 30
0.0
 11
1043.1030151139
 21
31.6669738875
 31
0.0
  0
LINE
  5
401
330
1F
100
AcDbEntity
  8
0
  6
Continuous
 62
     7
100
AcDbLine
 10
1043.1030151139
 20
31.1293394789
 30
0.0
 11
1031.7788007499
 21
31.1293394789
 31
0.0
  0
ARC
  5
402
330
1F
100
AcDbEntity
  8
0
  6
Continuous
 62
     7
100
AcDbCircle
 10
1030.4144375735
 20
29.6669738875
 30
0.0
 40
2.000000000000004
100
AcDbArc
 50
46.9856438472
 51
90.0
  0
LINE
  5
403
330
1F
100
AcDbEntity
  8
0
  6
Continuous
 62
     7
100
AcDbLine
 10
1402.1030151139
 20
31.1293394789
 30
0.0
 11
1363.1030151139
 21
31.1293394789
 31
0.0
  0
LINE
  5
404
330
1F
100
AcDbEntity
  8
0
  6
Continuous
 62
     7
100
AcDbLine
 10
1162.1030151139
 20
31.1293394789
 30
0.0
 11
1123.1030151139
 21
31.1293394789
 31
0.0
  0
LINE
  5
405
330
1F
100
AcDbEntity
  8
0
  6
Continuous
 62
     7
100
AcDbLine
 10
1082.1030151139
 20
31.1293394789
 30
0.0
 11
1043.1030151139
 21
31.1293394789
 31
0.0
  0
LINE
  5
406
330
1F
100
AcDbEntity
  8
0
  6
Continuous
 62
     7
100
AcDbLine
 10
1002.1030151139
 20
31.1293394789
 30
0.0
 11
963.1030151139
 21
31.1293394789
 31
0.0
  0
LINE
  5
407
330
1F
100
AcDbEntity
  8
0
  6
Continuous
 62
     7
100
AcDbLine
 10
922.1030151139
 20
31.1293394789
 30
0.0
 11
883.1030151139
 21
31.1293394789
 31
0.0
  0
LINE
  5
408
330
1F
100
AcDbEntity
  8
0
  6
Continuous
 62
     7
100
AcDbLine
 10
762.1030151139
 20
31.1293394789
 30
0.0
 11
723.1030151139
 21
31.1293394789
 31
0.0
  0
LINE
  5
409
330
1F
100
AcDbEntity
  8
0
  6
Continuous
 62
     7
100
AcDbLine
 10
842.1030151139
 20
31.1293394789
 30
0.0
 11
803.1030151139
 21
31.1293394789
 31
0.0
  0
ARC
  5
40A
330
1F
100
AcDbEntity
  8
0
  6
Continuous
 62
     7
100
AcDbCircle
 10
1203.1030151139
 20
43.2669738875
 30
0.0
 40
16.59999999999999
100
AcDbArc
 50
226.9856438472
 51
270.0
  0
LINE
  5
40B
330
1F
100
AcDbEntity
  8
0
  6
Continuous
 62
     7
100
AcDbLine
 10
1203.1030151139
 20
26.6669738875
 30
0.0
 11
1203.1030151139
 21
31.1293394789
 31
0.0
  0
ARC
  5
40C
330
1F
100
AcDbEntity
  8
0
  6
Continuous
 62
     7
100
AcDbCircle
 10
1123.1030151139
 20
43.2669738875
 30
0.0
 40
16.6
100
AcDbArc
 50
226.9856438472
 51
270.0
  0
LINE
  5
40D
330
1F
100
AcDbEntity
  8
0
  6
Continuous
 62
     7
100
AcDbLine
 10
1123.1030151139
 20
26.6669738875
 30
0.0
 11
1123.1030151139
 21
31.1293394789
 31
0.0
  0
ARC
  5
40E
330
1F
100
AcDbEntity
  8
0
  6
Continuous
 62
     7
100
AcDbCircle
 10
1283.1030151139
 20
43.2669738875
 30
0.0
 40
16.60000000000026
100
AcDbArc
 50
226.9856438472
 51
270.0
  0
LINE
  5
40F
330
1F
100
AcDbEntity
  8
0
  6
Continuous
 62
     7
100
AcDbLine
 10
1283.1030151139
 20
26.6669738875
 30
0.0
 11
1283.1030151139
 21
31.1293394789
 31
0.0
  0
LINE
  5
410
330
1F
100
AcDbEntity
  8
0
  6
Continuous
 62
     7
100
AcDbLine
 10
1242.1030151139
 20
31.1293394789
 30
0.0
 11
1242.1030151139
 21
26.6669738875
 31
0.0
  0
ARC
  5
411
330
1F
100
AcDbEntity
  8
0
  6
Continuous
 62
     7
100
AcDbCircle
 10
1242.1030151139
 20
43.2669738875
 30
0.0
 40
16.60000000000002
100
AcDbArc
 50
270.0
 51
313.0143561528
  0
LINE
  5
412
330
1F
100
AcDbEntity
  8
0
  6
Continuous
 62
     7
100
AcDbLine
 10
762.1030151139
 20
31.1293394789
 30
0.0
 11
762.1030151139
 21
26.6669738875
 31
0.0
  0
ARC
  5
413
330
1F
100
AcDbEntity
  8
0
  6
Continuous
 62
     7
100
AcDbCircle
 10
762.1030151139
 20
43.2669738875
 30
0.0
 40
16.60000000000002
100
AcDbArc
 50
270.0
 51
313.0143561528
  0
LINE
  5
414
330
1F
100
AcDbEntity
  8
0
  6
Continuous
 62
     7
100
AcDbLine
 10
1162.1030151139
 20
31.1293394789
 30
0.0
 11
1162.1030151139
 21
26.6669738875
 31
0.0
  0
ARC
  5
415
330
1F
100
AcDbEntity
  8
0
  6
Continuous
 62
     7
100
AcDbCircle
 10
1162.1030151139
 20
43.2669738875
 30
0.0
 40
16.60000000000002
100
AcDbArc
 50
270.0
 51
313.0143561528
  0
LINE
  5
416
330
1F
100
AcDbEntity
  8
0
  6
Continuous
 62
     7
100
AcDbLine
 10
1002.1030151139
 20
31.1293394789
 30
0.0
 11
1002.1030151139
 21
26.6669738875
 31
0.0
  0
ARC
  5
417
330
1F
100
AcDbEntity
  8
0
  6
Continuous
 62
     7
100
AcDbCircle
 10
1002.1030151139
 20
43.2669738875
 30
0.0
 40
16.60000000000002
100
AcDbArc
 50
270.0
 51
313.0143561528
  0
LINE
  5
418
330
1F
100
AcDbEntity
  8
0
  6
Continuous
 62
     7
100
AcDbLine
 10
1082.1030151139
 20
31.1293394789
 30
0.0
 11
1082.1030151139
 21
26.6669738875
 31
0.0
  0
ARC
  5
419
330
1F
100
AcDbEntity
  8
0
  6
Continuous
 62
     7
100
AcDbCircle
 10
1082.1030151139
 20
43.2669738875
 30
0.0
 40
16.60000000000003
100
AcDbArc
 50
270.0
 51
313.0143561528
  0
LINE
  5
41A
330
1F
100
AcDbEntity
  8
0
  6
Continuous
 62
     7
100
AcDbLine
 10
922.1030151139
 20
31.1293394789
 30
0.0
 11
922.1030151139
 21
26.6669738875
 31
0.0
  0
ARC
  5
41B
330
1F
100
AcDbEntity
  8
0
  6
Continuous
 62
     7
100
AcDbCircle
 10
922.1030151139
 20
43.2669738875
 30
0.0
 40
16.60000000000003
100
AcDbArc
 50
270.0
 51
313.0143561528
  0
ARC
  5
41C
330
1F
100
AcDbEntity
  8
0
  6
Continuous
 62
     7
100
AcDbCircle
 10
1363.1030151139
 20
43.2669738875
 30
0.0
 40
16.6
100
AcDbArc
 50
226.9856438472
 51
270.0
  0
LINE
  5
41D
330
1F
100
AcDbEntity
  8
0
  6
Continuous
 62
     7
100
AcDbLine
 10
1363.1030151139
 20
26.6669738875
 30
0.0
 11
1363.1030151139
 21
31.1293394789
 31
0.0
  0
LINE
  5
41E
330
1F
100
AcDbEntity
  8
0
  6
Continuous
 62
     7
100
AcDbLine
 10
1402.1030151139
 20
31.1293394789
 30
0.0
 11
1402.1030151139
 21
26.6669738875
 31
0.0
  0
ARC
  5
41F
330
1F
100
AcDbEntity
  8
0
  6
Continuous
 62
     7
100
AcDbCircle
 10
1402.1030151139
 20
43.2669738875
 30
0.0
 40
16.60000000000017
100
AcDbArc
 50
270.0
 51
313.0143561528
  0
LINE
  5
420
330
1F
100
AcDbEntity
  8
0
  6
Continuous
 62
     7
100
AcDbLine
 10
1322.1030151139
 20
31.1293394789
 30
0.0
 11
1322.1030151139
 21
26.6669738875
 31
0.0
  0
ARC
  5
421
330
1F
100
AcDbEntity
  8
0
  6
Continuous
 62
     7
100
AcDbCircle
 10
1322.1030151139
 20
43.2669738875
 30
0.0
 40
16.6
100
AcDbArc
 50
270.0
 51
313.0143561528
  0
LINE
  5
422
330
1F
100
AcDbEntity
  8
0
  6
Continuous
 62
     7
100
AcDbLine
 10
1283.1030151139
 20
26.6669738875
 30
0.0
 11
1322.1030151139
 21
26.6669738875
 31
0.0
  0
LINE
  5
423
330
1F
100
AcDbEntity
  8
0
  6
Continuous
 62
     7
100
AcDbLine
 10
1363.1030151139
 20
26.6669738875
 30
0.0
 11
1402.1030151139
 21
26.6669738875
 31
0.0
  0
LINE
  5
424
330
1F
100
AcDbEntity
  8
0
  6
Continuous
 62
     7
100
AcDbLine
 10
842.1030151139
 20
31.1293394789
 30
0.0
 11
842.1030151139
 21
26.6669738875
 31
0.0
  0
ARC
  5
425
330
1F
100
AcDbEntity
  8
0
  6
Continuous
 62
     7
100
AcDbCircle
 10
842.1030151139
 20
43.2669738875
 30
0.0
 40
16.6
100
AcDbArc
 50
270.0
 51
313.0143561528
  0
ARC
  5
426
330
1F
100
AcDbEntity
  8
0
  6
Continuous
 62
     7
100
AcDbCircle
 10
883.1030151139
 20
43.2669738875
 30
0.0
 40
16.6
100
AcDbArc
 50
226.9856438472
 51
270.0
  0
LINE
  5
427
330
1F
100
AcDbEntity
  8
0
  6
Continuous
 62
     7
100
AcDbLine
 10
883.1030151139
 20
26.6669738875
 30
0.0
 11
883.1030151139
 21
31.1293394789
 31
0.0
  0
ARC
  5
428
330
1F
100
AcDbEntity
  8
0
  6
Continuous
 62
     7
100
AcDbCircle
 10
723.1030151139
 20
43.2669738875
 30
0.0
 40
16.60000000000001
100
AcDbArc
 50
226.9856438472
 51
270.0
  0
LINE
  5
429
330
1F
100
AcDbEntity
  8
0
  6
Continuous
 62
     7
100
AcDbLine
 10
723.1030151139
 20
26.6669738875
 30
0.0
 11
723.1030151139
 21
31.1293394789
 31
0.0
  0
ARC
  5
42A
330
1F
100
AcDbEntity
  8
0
  6
Continuous
 62
     7
100
AcDbCircle
 10
1043.1030151139
 20
43.2669738875
 30
0.0
 40
16.6000000000001
100
AcDbArc
 50
226.9856438472
 51
270.0
  0
LINE
  5
42B
330
1F
100
AcDbEntity
  8
0
  6
Continuous
 62
     7
100
AcDbLine
 10
1043.1030151139
 20
26.6669738875
 30
0.0
 11
1043.1030151139
 21
31.1293394789
 31
0.0
  0
ARC
  5
42C
330
1F
100
AcDbEntity
  8
0
  6
Continuous
 62
     7
100
AcDbCircle
 10
963.1030151139
 20
43.2669738875
 30
0.0
 40
16.59999999999999
100
AcDbArc
 50
226.9856438472
 51
270.0
  0
LINE
  5
42D
330
1F
100
AcDbEntity
  8
0
  6
Continuous
 62
     7
100
AcDbLine
 10
963.1030151139
 20
26.6669738875
 30
0.0
 11
963.1030151139
 21
31.1293394789
 31
0.0
  0
ARC
  5
42E
330
1F
100
AcDbEntity
  8
0
  6
Continuous
 62
     7
100
AcDbCircle
 10
803.1030151139
 20
43.2669738875
 30
0.0
 40
16.6
100
AcDbArc
 50
226.9856438472
 51
270.0
  0
LINE
  5
42F
330
1F
100
AcDbEntity
  8
0
  6
Continuous
 62
     7
100
AcDbLine
 10
803.1030151139
 20
26.6669738875
 30
0.0
 11
803.1030151139
 21
31.1293394789
 31
0.0
  0
LINE
  5
430
330
1F
100
AcDbEntity
  8
0
  6
Continuous
 62
     7
100
AcDbLine
 10
1123.1030151139
 20
26.6669738875
 30
0.0
 11
1162.1030151139
 21
26.6669738875
 31
0.0
  0
LINE
  5
431
330
1F
100
AcDbEntity
  8
0
  6
Continuous
 62
     7
100
AcDbLine
 10
1203.1030151139
 20
26.6669738875
 30
0.0
 11
1242.1030151139
 21
26.6669738875
 31
0.0
  0
LINE
  5
432
330
1F
100
AcDbEntity
  8
0
  6
Continuous
 62
     7
100
AcDbLine
 10
963.1030151139
 20
26.6669738875
 30
0.0
 11
1002.1030151139
 21
26.6669738875
 31
0.0
  0
LINE
  5
433
330
1F
100
AcDbEntity
  8
0
  6
Continuous
 62
     7
100
AcDbLine
 10
1043.1030151139
 20
26.6669738875
 30
0.0
 11
1082.1030151139
 21
26.6669738875
 31
0.0
  0
LINE
  5
434
330
1F
100
AcDbEntity
  8
0
  6
Continuous
 62
     7
100
AcDbLine
 10
883.1030151139
 20
26.6669738875
 30
0.0
 11
922.1030151139
 21
26.6669738875
 31
0.0
  0
LINE
  5
435
330
1F
100
AcDbEntity
  8
0
  6
Continuous
 62
     7
100
AcDbLine
 10
803.1030151139
 20
26.6669738875
 30
0.0
 11
842.1030151139
 21
26.6669738875
 31
0.0
  0
LINE
  5
436
330
1F
100
AcDbEntity
  8
0
  6
Continuous
 62
     7
100
AcDbLine
 10
723.1030151139
 20
26.6669738875
 30
0.0
 11
762.1030151139
 21
26.6669738875
 31
0.0
  0
LINE
  5
437
330
1F
100
AcDbEntity
  8
0
  6
Continuous
 62
     7
100
AcDbLine
 10
663.8053333197
 20
49.6669738875
 30
0.0
 11
660.3094884701
 21
49.6669738875
 31
0.0
  0
LINE
  5
438
330
1F
100
AcDbEntity
  8
0
  6
Continuous
 62
     7
100
AcDbLine
 10
660.3921292784
 20
50.1669738875
 30
0.0
 11
660.3094884701
 21
49.6669738875
 31
0.0
  0
LINE
  5
439
330
1F
100
AcDbEntity
  8
0
  6
Continuous
 62
     7
100
AcDbLine
 10
660.3921292784
 20
50.1669738875
 30
0.0
 11
663.3053333197
 21
50.1669738875
 31
0.0
  0
LINE
  5
43A
330
1F
100
AcDbEntity
  8
0
  6
Continuous
 62
     7
100
AcDbLine
 10
660.3094884701
 20
49.6669738875
 30
0.0
 11
657.8053333197
 21
49.6669738875
 31
0.0
  0
LINE
  5
43B
330
1F
100
AcDbEntity
  8
0
  6
Continuous
 62
     7
100
AcDbLine
 10
658.3053333197
 20
50.1669738875
 30
0.0
 11
660.3921292784
 21
50.1669738875
 31
0.0
  0
LINE
  5
43C
330
1F
100
AcDbEntity
  8
0
  6
Continuous
 62
     7
100
AcDbLine
 10
1512.3053333197
 20
68.1669738875
 30
0.0
 11
1510.3053333197
 21
68.1669738875
 31
0.0
  0
LINE
  5
43D
330
1F
100
AcDbEntity
  8
0
  6
Continuous
 62
     7
100
AcDbLine
 10
1510.3053333197
 20
70.1669738875
 30
0.0
 11
1512.3053333197
 21
70.1669738875
 31
0.0
  0
LINE
  5
43E
330
1F
100
AcDbEntity
  8
0
  6
Continuous
 62
     7
100
AcDbLine
 10
1510.3053333197
 20
68.1669738875
 30
0.0
 11
1510.3053333197
 21
70.1669738875
 31
0.0
  0
LINE
  5
43F
330
1F
100
AcDbEntity
  8
0
  6
Continuous
 62
     7
100
AcDbLine
 10
1512.3053333197
 20
70.1669738875
 30
0.0
 11
1512.3053333197
 21
68.1669738875
 31
0.0
  0
LINE
  5
440
330
1F
100
AcDbEntity
  8
0
  6
Continuous
 62
     7
100
AcDbLine
 10
1510.3053333197
 20
68.1669738875
 30
0.0
 11
1510.3053333197
 21
41.1669738875
 31
0.0
  0
LINE
  5
441
330
1F
100
AcDbEntity
  8
0
  6
Continuous
 62
     7
100
AcDbLine
 10
1512.3053333197
 20
68.1669738875
 30
0.0
 11
1512.3053333197
 21
39.6669738875
 31
0.0
  0
LINE
  5
442
330
1F
100
AcDbEntity
  8
0
  6
Continuous
 62
     7
100
AcDbLine
 10
604.3053333197
 20
70.1669738875
 30
0.0
 11
606.3053333197
 21
70.1669738875
 31
0.0
  0
LINE
  5
443
330
1F
100
AcDbEntity
  8
0
  6
Continuous
 62
     7
100
AcDbLine
 10
606.3053333197
 20
68.1669738875
 30
0.0
 11
604.3053333197
 21
68.1669738875
 31
0.0
  0
LINE
  5
444
330
1F
100
AcDbEntity
  8
0
  6
Continuous
 62
     7
100
AcDbLine
 10
604.3053333197
 20
68.1669738875
 30
0.0
 11
604.3053333197
 21
70.1669738875
 31
0.0
  0
LINE
  5
445
330
1F
100
AcDbEntity
  8
0
  6
Continuous
 62
     7
100
AcDbLine
 10
606.3053333197
 20
70.1669738875
 30
0.0
 11
606.3053333197
 21
68.1669738875
 31
0.0
  0
LINE
  5
446
330
1F
100
AcDbEntity
  8
0
  6
Continuous
 62
     7
100
AcDbLine
 10
604.3053333197
 20
39.6669738875
 30
0.0
 11
604.3053333197
 21
68.1669738875
 31
0.0
  0
LINE
  5
447
330
1F
100
AcDbEntity
  8
0
  6
Continuous
 62
     7
100
AcDbLine
 10
606.3053333197
 20
41.1669738875
 30
0.0
 11
606.3053333197
 21
68.1669738875
 31
0.0
  0
LINE
  5
448
330
1F
100
AcDbEntity
  8
0
  6
Continuous
 62
     7
100
AcDbLine
 10
609.1453259287
 20
68.1598850521
 30
0.0
 11
606.3053333197
 21
68.1598850521
 31
0.0
  0
ARC
  5
449
330
1F
100
AcDbEntity
  8
0
  6
Continuous
 62
     7
100
AcDbCircle
 10
609.1457037404
 20
66.6596744584
 30
0.0
 40
1.500210641247978
100
AcDbArc
 50
27.5586488616
 51
90.0144293185
  0
LINE
  5
44A
330
1F
100
AcDbEntity
  8
0
  6
Continuous
 62
     7
100
AcDbLine
 10
1507.4653407106
 20
68.0972893638
 30
0.0
 11
1510.3053333197
 21
68.0972893638
 31
0.0
  0
ARC
  5
44B
330
1F
100
AcDbEntity
  8
0
  6
Continuous
 62
     7
100
AcDbCircle
 10
1507.461646467
 20
66.5951129096
 30
0.0
 40
1.502180996726757
100
AcDbArc
 50
89.8590950211
 51
152.0268050375
  0
LINE
  5
44C
330
1F
100
AcDbEntity
  8
0
  6
Continuous
 62
     7
100
AcDbLine
 10
611.1357044459
 20
66.0880647711
 30
0.0
 11
610.4756970549
 21
67.353756407
 31
0.0
  0
LINE
  5
44D
330
1F
100
AcDbEntity
  8
0
  6
Continuous
 62
     7
100
AcDbLine
 10
1505.4749621934
 20
66.0474763748
 30
0.0
 11
1506.1349695844
 21
67.2997235794
 31
0.0
  0
ARC
  5
44E
330
1F
100
AcDbEntity
  8
0
  6
Continuous
 62
     7
100
AcDbCircle
 10
609.8085768529
 20
65.3959576449
 30
0.0
 40
1.496756467235522
100
AcDbArc
 50
0.0014553091
 51
27.5423833083
  0
LINE
  5
44F
330
1F
100
AcDbEntity
  8
0
  6
Continuous
 62
     7
100
AcDbLine
 10
611.3053333197
 20
59.1341880782
 30
0.0
 11
611.3053333197
 21
65.3959956624
 31
0.0
  0
ARC
  5
450
330
1F
100
AcDbEntity
  8
0
  6
Continuous
 62
     7
100
AcDbCircle
 10
1506.7736180463
 20
65.3623828371
 30
0.0
 40
1.468284774719954
100
AcDbArc
 50
152.1865385125
 51
179.9853383095
  0
LINE
  5
451
330
1F
100
AcDbEntity
  8
0
  6
Continuous
 62
     7
100
AcDbLine
 10
1505.3053333197
 20
65.3627585635
 30
0.0
 11
1505.3053333197
 21
59.1341880782
 31
0.0
  0
LINE
  5
452
330
1F
100
AcDbEntity
  8
0
  6
Continuous
 62
     7
100
AcDbLine
 10
597.6053333197
 20
59.2669738875
 30
0.0
 11
597.6053333197
 21
65.2633693949
 31
0.0
  0
LINE
  5
453
330
1F
100
AcDbEntity
  8
0
  6
Continuous
 62
     7
100
AcDbLine
 10
597.1053333197
 20
59.7669738875
 30
0.0
 11
597.1053333197
 21
64.7639701437
 31
0.0
  0
LINE
  5
454
330
1F
100
AcDbEntity
  8
0
  6
Continuous
 62
     7
100
AcDbLine
 10
597.1053333197
 20
64.7639701437
 30
0.0
 11
597.6053333197
 21
65.2633693949
 31
0.0
  0
LINE
  5
455
330
1F
100
AcDbEntity
  8
0
  6
Continuous
 62
     7
100
AcDbLine
 10
1519.0053333197
 20
65.2315410788
 30
0.0
 11
1519.0053333197
 21
59.2669738875
 31
0.0
  0
LINE
  5
456
330
1F
100
AcDbEntity
  8
0
  6
Continuous
 62
     7
100
AcDbLine
 10
1519.5053333197
 20
64.7374465469
 30
0.0
 11
1519.0053333197
 21
65.2315410788
 31
0.0
  0
LINE
  5
457
330
1F
100
AcDbEntity
  8
0
  6
Continuous
 62
     7
100
AcDbLine
 10
1519.5053333197
 20
64.7374465469
 30
0.0
 11
1519.5053333197
 21
59.7669738875
 31
0.0
  0
LINE
  5
458
330
1F
100
AcDbEntity
  8
0
  6
Continuous
 62
     7
100
AcDbLine
 10
615.177085707
 20
44.6669738875
 30
0.0
 11
614.8514361845
 21
44.1669738875
 31
0.0
  0
LINE
  5
459
330
1F
100
AcDbEntity
  8
0
  6
Continuous
 62
     7
100
AcDbLine
 10
615.177085707
 20
44.6669738875
 30
0.0
 11
619.3053333197
 21
44.6669738875
 31
0.0
  0
LINE
  5
45A
330
1F
100
AcDbEntity
  8
0
  6
Continuous
 62
     7
100
AcDbLine
 10
1501.4335809323
 20
44.6669738875
 30
0.0
 11
1501.7592304548
 21
44.1669738875
 31
0.0
  0
LINE
  5
45B
330
1F
100
AcDbEntity
  8
0
  6
Continuous
 62
     7
100
AcDbLine
 10
1497.3053333197
 20
44.6669738875
 30
0.0
 11
1501.4335809323
 21
44.6669738875
 31
0.0
  0
LINE
  5
45C
330
1F
100
AcDbEntity
  8
0
  6
Continuous
 62
     7
100
AcDbLine
 10
1501.4335809323
 20
44.6669738875
 30
0.0
 11
1502.3053333197
 21
44.6669738875
 31
0.0
  0
LINE
  5
45D
330
1F
100
AcDbEntity
  8
0
  6
Continuous
 62
     7
100
AcDbLine
 10
614.3053333197
 20
44.6669738875
 30
0.0
 11
615.177085707
 21
44.6669738875
 31
0.0
  0
LINE
  5
45E
330
1F
100
AcDbEntity
  8
0
  6
Continuous
 62
     7
100
AcDbLine
 10
1505.3053333197
 20
65.3997596969
 30
0.0
 11
1505.3053333197
 21
65.3627585635
 31
0.0
  0
LINE
  5
45F
330
1F
100
AcDbEntity
  8
0
  6
Continuous
 62
     7
100
AcDbLine
 10
1519.0053333197
 20
65.2669738875
 30
0.0
 11
1519.0053333197
 21
65.2315410788
 31
0.0
  0
LINE
  5
460
330
1F
100
AcDbEntity
  8
0
  6
Continuous
 62
     7
100
AcDbLine
 10
1519.5053333197
 20
64.7669738875
 30
0.0
 11
1519.5053333197
 21
64.7374465469
 31
0.0
  0
LINE
  5
461
330
1F
100
AcDbEntity
  8
0
  6
Continuous
 62
     7
100
AcDbLine
 10
597.6053333197
 20
65.2633693949
 30
0.0
 11
597.6053333197
 21
65.2669738875
 31
0.0
  0
LINE
  5
462
330
1F
100
AcDbEntity
  8
0
  6
Continuous
 62
     7
100
AcDbLine
 10
597.1053333197
 20
64.7639701437
 30
0.0
 11
597.1053333197
 21
64.7669738875
 31
0.0
  0
LWPOLYLINE
  5
463
330
1F
100
AcDbEntity
  8
0
  6
Continuous
 62
     7
100
AcDbPolyline
 90
        9
 70
   128
 43
0.0
 10
602.3738272181
 20
70.1669738875
 10
602.2403775783
 20
70.1285444483
 10
602.1120563334
 20
70.0147329525
 10
601.9937947967
 20
69.8299131121
 10
601.8901376928
 20
69.5811874499
 10
601.8050685062
 20
69.2781143536
 10
601.7418563979
 20
68.9323407522
 10
601.7029305738
 20
68.5571545316
 10
601.6897869315
 20
68.1669738875
  0
LINE
  5
464
330
1F
100
AcDbEntity
  8
0
  6
Continuous
 62
     7
100
AcDbLine
 10
602.3738272181
 20
70.1669738875
 30
0.0
 11
604.2450259404
 21
70.1669738875
 31
0.0
  0
LINE
  5
465
330
1F
100
AcDbEntity
  8
0
  6
Continuous
 62
     7
100
AcDbLine
 10
604.2450259404
 20
54.1669738875
 30
0.0
 11
604.3053333197
 21
54.1669738875
 31
0.0
  0
LINE
  5
466
330
1F
100
AcDbEntity
  8
0
  6
Continuous
 62
     7
100
AcDbLine
 10
604.2450259404
 20
54.1669738875
 30
0.0
 11
602.3738272181
 21
54.1669738875
 31
0.0
  0
LWPOLYLINE
  5
467
330
1F
100
AcDbEntity
  8
0
  6
Continuous
 62
     7
100
AcDbPolyline
 90
        9
 70
   128
 43
0.0
 10
601.6897869315
 20
56.1669738875
 10
601.7029305738
 20
55.7767932435
 10
601.7418563979
 20
55.4016070228
 10
601.8050685062
 20
55.0558334215
 10
601.8901376928
 20
54.7527603251
 10
601.9937947967
 20
54.5040346629
 10
602.1120563334
 20
54.3192148225
 10
602.2403775783
 20
54.2054033267
 10
602.3738272181
 20
54.1669738875
  0
LINE
  5
468
330
1F
100
AcDbEntity
  8
0
  6
Continuous
 62
     7
100
AcDbLine
 10
601.6897869315
 20
56.1669738875
 30
0.0
 11
601.6897869315
 21
59.2669738875
 31
0.0
  0
LINE
  5
469
330
1F
100
AcDbEntity
  8
0
  6
Continuous
 62
     7
100
AcDbLine
 10
601.6897869315
 20
65.2669738875
 30
0.0
 11
601.6897869315
 21
68.1669738875
 31
0.0
  0
LINE
  5
46A
330
1F
100
AcDbEntity
  8
0
  6
Continuous
 62
     7
100
AcDbLine
 10
604.2450259404
 20
70.1669738875
 30
0.0
 11
604.3053333197
 21
70.1669738875
 31
0.0
  0
LINE
  5
46B
330
1F
100
AcDbEntity
  8
0
  6
Continuous
 62
     7
100
AcDbLine
 10
1512.3656406989
 20
54.1669738875
 30
0.0
 11
1512.3053333197
 21
54.1669738875
 31
0.0
  0
LINE
  5
46C
330
1F
100
AcDbEntity
  8
0
  6
Continuous
 62
     7
100
AcDbLine
 10
1512.3656406989
 20
70.1669738875
 30
0.0
 11
1514.2368394212
 21
70.1669738875
 31
0.0
  0
LWPOLYLINE
  5
46D
330
1F
100
AcDbEntity
  8
0
  6
Continuous
 62
     7
100
AcDbPolyline
 90
        9
 70
   128
 43
0.0
 10
1514.9208797078
 20
68.1669738875
 10
1514.9077360655
 20
68.5571545315
 10
1514.8688102414
 20
68.9323407522
 10
1514.8055981331
 20
69.2781143536
 10
1514.7205289465
 20
69.5811874499
 10
1514.6168718426
 20
69.8299131121
 10
1514.498610306
 20
70.0147329525
 10
1514.370289061
 20
70.1285444483
 10
1514.2368394212
 20
70.1669738875
  0
LINE
  5
46E
330
1F
100
AcDbEntity
  8
0
  6
Continuous
 62
     7
100
AcDbLine
 10
1514.9208797078
 20
68.1669738875
 30
0.0
 11
1514.9208797078
 21
65.2669738875
 31
0.0
  0
LINE
  5
46F
330
1F
100
AcDbEntity
  8
0
  6
Continuous
 62
     7
100
AcDbLine
 10
1514.9208797078
 20
59.2669738875
 30
0.0
 11
1514.9208797078
 21
56.1669738875
 31
0.0
  0
LWPOLYLINE
  5
470
330
1F
100
AcDbEntity
  8
0
  6
Continuous
 62
     7
100
AcDbPolyline
 90
        9
 70
   128
 43
0.0
 10
1514.2368394212
 20
54.1669738875
 10
1514.370289061
 20
54.2054033267
 10
1514.498610306
 20
54.3192148225
 10
1514.6168718426
 20
54.5040346629
 10
1514.7205289465
 20
54.7527603251
 10
1514.8055981331
 20
55.0558334215
 10
1514.8688102414
 20
55.4016070228
 10
1514.9077360655
 20
55.7767932435
 10
1514.9208797078
 20
56.1669738875
  0
LINE
  5
471
330
1F
100
AcDbEntity
  8
0
  6
Continuous
 62
     7
100
AcDbLine
 10
1514.2368394212
 20
54.1669738875
 30
0.0
 11
1512.3656406989
 21
54.1669738875
 31
0.0
  0
LINE
  5
472
330
1F
100
AcDbEntity
  8
0
  6
Continuous
 62
     7
100
AcDbLine
 10
1512.3656406989
 20
70.1669738875
 30
0.0
 11
1512.3053333197
 21
70.1669738875
 31
0.0
  0
LINE
  5
473
330
1F
100
AcDbEntity
  8
0
  6
Continuous
 62
     7
100
AcDbLine
 10
605.8053333197
 20
39.6669738875
 30
0.0
 11
605.8053333197
 21
38.0086614923
 31
0.0
  0
LINE
  5
474
330
1F
100
AcDbEntity
  8
0
  6
Continuous
 62
     7
100
AcDbLine
 10
1510.8053333197
 20
39.6669738875
 30
0.0
 11
1510.8053333197
 21
38.0086614923
 31
0.0
  0
LINE
  5
475
330
1F
100
AcDbEntity
  8
0
  6
Continuous
 62
     7
100
AcDbLine
 10
660.3094884701
 20
49.6669738875
 30
0.0
 11
660.3094884701
 21
44.1669738875
 31
0.0
  0
LINE
  5
476
330
1F
100
AcDbEntity
  8
0
  6
Continuous
 62
     7
100
AcDbLine
 10
609.1453259287
 20
56.3669738875
 30
0.0
 11
609.1453259287
 21
68.1598850521
 31
0.0
  0
LINE
  5
477
330
1F
100
AcDbEntity
  8
0
  6
Continuous
 62
     7
100
AcDbLine
 10
610.4756970549
 20
57.1740722592
 30
0.0
 11
610.4756970549
 21
67.353756407
 31
0.0
  0
LINE
  5
478
330
1F
100
AcDbEntity
  8
0
  6
Continuous
 62
     7
100
AcDbLine
 10
1507.4653407106
 20
68.0972893638
 30
0.0
 11
1507.4653407106
 21
56.3669738875
 31
0.0
  0
LINE
  5
479
330
1F
100
AcDbEntity
  8
0
  6
Continuous
 62
     7
100
AcDbLine
 10
1506.1349695844
 20
67.2997235794
 30
0.0
 11
1506.1349695844
 21
57.1740722593
 31
0.0
  0
LINE
  5
47A
330
1F
100
AcDbEntity
  8
0
  6
Continuous
 62
     7
100
AcDbLine
 10
611.1357044459
 20
58.4412864499
 30
0.0
 11
611.1357044459
 21
66.0880647711
 31
0.0
  0
LINE
  5
47B
330
1F
100
AcDbEntity
  8
0
  6
Continuous
 62
     7
100
AcDbLine
 10
1505.4749621934
 20
66.0474763748
 30
0.0
 11
1505.4749621934
 21
58.4412864499
 31
0.0
  0
LINE
  5
47C
330
1F
100
AcDbEntity
  8
0
  6
Continuous
 62
     7
100
AcDbLine
 10
597.6053333197
 20
65.2633693949
 30
0.0
 11
604.3053333197
 21
65.2633693949
 31
0.0
  0
LINE
  5
47D
330
1F
100
AcDbEntity
  8
0
  6
Continuous
 62
     7
100
AcDbLine
 10
1519.0053333197
 20
65.2315410788
 30
0.0
 11
1512.3053333197
 21
65.2315410788
 31
0.0
  0
LINE
  5
47E
330
1F
100
AcDbEntity
  8
0
  6
Continuous
 62
     7
100
AcDbLine
 10
1507.4653407106
 20
68.1669738875
 30
0.0
 11
1507.4653407106
 21
68.0972893638
 31
0.0
  0
LINE
  5
47F
330
1F
100
AcDbEntity
  8
0
  6
Continuous
 62
     7
100
AcDbLine
 10
1506.1349695844
 20
67.3598755158
 30
0.0
 11
1506.1349695844
 21
67.2997235794
 31
0.0
  0
LINE
  5
480
330
1F
100
AcDbEntity
  8
0
  6
Continuous
 62
     7
100
AcDbLine
 10
1505.4749621934
 20
66.0926613251
 30
0.0
 11
1505.4749621934
 21
66.0474763748
 31
0.0
  0
LINE
  5
481
330
1F
100
AcDbEntity
  8
0
  6
Continuous
 62
     7
100
AcDbLine
 10
609.1453259287
 20
68.1598850521
 30
0.0
 11
609.1453259287
 21
68.1669738875
 31
0.0
  0
LINE
  5
482
330
1F
100
AcDbEntity
  8
0
  6
Continuous
 62
     7
100
AcDbLine
 10
610.4756970549
 20
67.353756407
 30
0.0
 11
610.4756970549
 21
67.3598755158
 31
0.0
  0
LINE
  5
483
330
1F
100
AcDbEntity
  8
0
  6
Continuous
 62
     7
100
AcDbLine
 10
611.1357044459
 20
66.0880647711
 30
0.0
 11
611.1357044459
 21
66.0926613251
 31
0.0
  0
LINE
  5
484
330
1F
100
AcDbEntity
  8
0
  6
Continuous
 62
     7
100
AcDbLine
 10
1723.6086494052
 20
145.7504003915
 30
0.0
 11
1726.4486420143
 21
145.7504003915
 31
0.0
  0
ARC
  5
485
330
1F
100
AcDbEntity
  8
0
  6
Continuous
 62
     7
100
AcDbCircle
 10
1726.4486420143
 20
147.2504003915
 30
0.0
 40
1.5
100
AcDbArc
 50
270.0
 51
332.4879973761
  0
ARC
  5
486
330
1F
100
AcDbEntity
  8
0
  6
Continuous
 62
     7
100
AcDbCircle
 10
2624.7686567962
 20
147.2504003915
 30
0.0
 40
1.500000000000212
100
AcDbArc
 50
207.5120026239
 51
270.0
  0
LINE
  5
487
330
1F
100
AcDbEntity
  8
0
  6
Continuous
 62
     7
100
AcDbLine
 10
2624.7686567962
 20
145.7504003915
 30
0.0
 11
2627.6086494052
 21
145.7504003915
 31
0.0
  0
ARC
  5
488
330
1F
100
AcDbEntity
  8
0
  6
Continuous
 62
     7
100
AcDbCircle
 10
2624.7686567962
 20
156.0504003915
 30
0.0
 40
1.500000000000212
100
AcDbArc
 50
90.0
 51
152.4879973761
  0
LINE
  5
489
330
1F
100
AcDbEntity
  8
0
  6
Continuous
 62
     7
100
AcDbLine
 10
2627.6086494052
 20
157.5504003915
 30
0.0
 11
2624.7686567962
 21
157.5504003915
 31
0.0
  0
LINE
  5
48A
330
1F
100
AcDbEntity
  8
0
  6
Continuous
 62
     7
100
AcDbLine
 10
1726.4486420143
 20
157.5504003915
 30
0.0
 11
1723.6086494052
 21
157.5504003915
 31
0.0
  0
ARC
  5
48B
330
1F
100
AcDbEntity
  8
0
  6
Continuous
 62
     7
100
AcDbCircle
 10
1726.4486420143
 20
156.0504003915
 30
0.0
 40
1.5
100
AcDbArc
 50
27.5120026239
 51
90.0
  0
LINE
  5
48C
330
1F
100
AcDbEntity
  8
0
  6
Continuous
 62
     7
100
AcDbLine
 10
1727.7790131405
 20
146.5574987633
 30
0.0
 11
1728.4390205315
 21
147.8247129539
 31
0.0
  0
LINE
  5
48D
330
1F
100
AcDbEntity
  8
0
  6
Continuous
 62
     7
100
AcDbLine
 10
2622.778278279
 20
147.8247129539
 30
0.0
 11
2623.43828567
 21
146.5574987633
 31
0.0
  0
LINE
  5
48E
330
1F
100
AcDbEntity
  8
0
  6
Continuous
 62
     7
100
AcDbLine
 10
2623.43828567
 20
156.7433020198
 30
0.0
 11
2622.778278279
 21
155.4760878291
 31
0.0
  0
LINE
  5
48F
330
1F
100
AcDbEntity
  8
0
  6
Continuous
 62
     7
100
AcDbLine
 10
1728.4390205315
 20
155.4760878291
 30
0.0
 11
1727.7790131405
 21
156.7433020198
 31
0.0
  0
ARC
  5
490
330
1F
100
AcDbEntity
  8
0
  6
Continuous
 62
     7
100
AcDbCircle
 10
1727.1086494052
 20
148.5176145822
 30
0.0
 40
1.500000000000227
100
AcDbArc
 50
332.4879973762
 51
0.0
  0
ARC
  5
491
330
1F
100
AcDbEntity
  8
0
  6
Continuous
 62
     7
100
AcDbCircle
 10
2624.1086494052
 20
148.5176145822
 30
0.0
 40
1.500000000000226
100
AcDbArc
 50
180.0
 51
207.5120026239
  0
ARC
  5
492
330
1F
100
AcDbEntity
  8
0
  6
Continuous
 62
     7
100
AcDbCircle
 10
2624.1086494052
 20
154.7831862009
 30
0.0
 40
1.500000000000226
100
AcDbArc
 50
152.4879973761
 51
180.0
  0
ARC
  5
493
330
1F
100
AcDbEntity
  8
0
  6
Continuous
 62
     7
100
AcDbCircle
 10
1727.1086494052
 20
154.7831862009
 30
0.0
 40
1.500000000000227
100
AcDbArc
 50
0.0
 51
27.5120026239
  0
LINE
  5
494
330
1F
100
AcDbEntity
  8
0
  6
Continuous
 62
     7
100
AcDbLine
 10
1714.4086494052
 20
149.1504003915
 30
0.0
 11
1714.9086494052
 21
148.6504003915
 31
0.0
  0
LINE
  5
495
330
1F
100
AcDbEntity
  8
0
  6
Continuous
 62
     7
100
AcDbLine
 10
1714.9086494052
 20
148.6504003915
 30
0.0
 11
1721.6086494052
 21
148.6504003915
 31
0.0
  0
LINE
  5
496
330
1F
100
AcDbEntity
  8
0
  6
Continuous
 62
     7
100
AcDbLine
 10
2629.6086494052
 20
148.6504003915
 30
0.0
 11
2636.3086494052
 21
148.6504003915
 31
0.0
  0
LINE
  5
497
330
1F
100
AcDbEntity
  8
0
  6
Continuous
 62
     7
100
AcDbLine
 10
2636.3086494052
 20
148.6504003915
 30
0.0
 11
2636.8086494052
 21
149.1504003915
 31
0.0
  0
LINE
  5
498
330
1F
100
AcDbEntity
  8
0
  6
Continuous
 62
     7
100
AcDbLine
 10
2636.3086494052
 20
154.6504003915
 30
0.0
 11
2629.6086494052
 21
154.6504003915
 31
0.0
  0
LINE
  5
499
330
1F
100
AcDbEntity
  8
0
  6
Continuous
 62
     7
100
AcDbLine
 10
2636.8086494052
 20
154.1504003915
 30
0.0
 11
2636.3086494052
 21
154.6504003915
 31
0.0
  0
LINE
  5
49A
330
1F
100
AcDbEntity
  8
0
  6
Continuous
 62
     7
100
AcDbLine
 10
1721.6086494052
 20
154.6504003915
 30
0.0
 11
1714.9086494052
 21
154.6504003915
 31
0.0
  0
LINE
  5
49B
330
1F
100
AcDbEntity
  8
0
  6
Continuous
 62
     7
100
AcDbLine
 10
1714.9086494052
 20
154.6504003915
 30
0.0
 11
1714.4086494052
 21
154.1504003915
 31
0.0
  0
LINE
  5
49C
330
1F
100
AcDbEntity
  8
0
  6
Continuous
 62
     7
100
AcDbLine
 10
1720.8724882586
 20
136.2802054638
 30
0.0
 11
1718.9931030171
 21
136.9642457505
 31
0.0
  0
LINE
  5
49D
330
1F
100
AcDbEntity
  8
0
  6
Continuous
 62
     7
100
AcDbLine
 10
1719.6771433037
 20
138.843630992
 30
0.0
 11
1721.5565285453
 21
138.1595907054
 31
0.0
  0
LINE
  5
49E
330
1F
100
AcDbEntity
  8
0
  6
Continuous
 62
     7
100
AcDbLine
 10
1721.5565285453
 20
138.1595907054
 30
0.0
 11
1720.8724882586
 21
136.2802054638
 31
0.0
  0
LINE
  5
49F
330
1F
100
AcDbEntity
  8
0
  6
Continuous
 62
     7
100
AcDbLine
 10
1718.9931030171
 20
136.9642457505
 30
0.0
 11
1719.6771433037
 21
138.843630992
 31
0.0
  0
LINE
  5
4A0
330
1F
100
AcDbEntity
  8
0
  6
Continuous
 62
     7
100
AcDbLine
 10
1721.548342026
 20
143.9847072289
 30
0.0
 11
1723.4277272676
 21
143.3006669422
 31
0.0
  0
LINE
  5
4A1
330
1F
100
AcDbEntity
  8
0
  6
Continuous
 62
     7
100
AcDbLine
 10
1723.4277272676
 20
143.3006669422
 30
0.0
 11
1721.5565285453
 21
138.1595907054
 31
0.0
  0
LINE
  5
4A2
330
1F
100
AcDbEntity
  8
0
  6
Continuous
 62
     7
100
AcDbLine
 10
1721.548342026
 20
143.9847072289
 30
0.0
 11
1719.6771433037
 21
138.843630992
 31
0.0
  0
LINE
  5
4A3
330
1F
100
AcDbEntity
  8
0
  6
Continuous
 62
     7
100
AcDbLine
 10
1721.6086494052
 20
159.1504003915
 30
0.0
 11
1723.6086494052
 21
159.1504003915
 31
0.0
  0
LINE
  5
4A4
330
1F
100
AcDbEntity
  8
0
  6
Continuous
 62
     7
100
AcDbLine
 10
1723.6086494052
 20
159.1504003915
 30
0.0
 11
1723.6086494052
 21
157.1504003915
 31
0.0
  0
LINE
  5
4A5
330
1F
100
AcDbEntity
  8
0
  6
Continuous
 62
     7
100
AcDbLine
 10
1723.6086494052
 20
157.1504003915
 30
0.0
 11
1721.6086494052
 21
157.1504003915
 31
0.0
  0
LINE
  5
4A6
330
1F
100
AcDbEntity
  8
0
  6
Continuous
 62
     7
100
AcDbLine
 10
1721.6086494052
 20
157.1504003915
 30
0.0
 11
1721.6086494052
 21
159.1504003915
 31
0.0
  0
LINE
  5
4A7
330
1F
100
AcDbEntity
  8
0
  6
Continuous
 62
     7
100
AcDbLine
 10
1721.6086494052
 20
144.3267273722
 30
0.0
 11
1723.6086494052
 21
144.3267273722
 31
0.0
  0
LINE
  5
4A8
330
1F
100
AcDbEntity
  8
0
  6
Continuous
 62
     7
100
AcDbLine
 10
1723.6086494052
 20
144.3267273722
 30
0.0
 11
1723.6086494052
 21
157.1504003915
 31
0.0
  0
LINE
  5
4A9
330
1F
100
AcDbEntity
  8
0
  6
Continuous
 62
     7
100
AcDbLine
 10
1721.6086494052
 20
144.3267273722
 30
0.0
 11
1721.6086494052
 21
157.1504003915
 31
0.0
  0
ARC
  5
4AA
330
1F
100
AcDbEntity
  8
0
  6
Continuous
 62
     7
100
AcDbCircle
 10
1720.6086494052
 20
144.3267273722
 30
0.0
 40
3.0
100
AcDbArc
 50
340.0
 51
0.0
  0
LINE
  5
4AB
330
1F
100
AcDbEntity
  8
0
  6
Continuous
 62
     7
100
AcDbLine
 10
1721.6086494052
 20
144.3267273722
 30
0.0
 11
1721.6086494052
 21
144.1504003915
 31
0.0
  0
LINE
  5
4AC
330
1F
100
AcDbEntity
  8
0
  6
Continuous
 62
     7
100
AcDbLine
 10
1721.548342026
 20
143.9847072289
 30
0.0
 11
1721.6086494052
 21
144.1504003915
 31
0.0
  0
LINE
  5
4AD
330
1F
100
AcDbEntity
  8
0
  6
Continuous
 62
     7
100
AcDbLine
 10
2629.6086494052
 20
157.1504003915
 30
0.0
 11
2627.6086494052
 21
157.1504003915
 31
0.0
  0
LINE
  5
4AE
330
1F
100
AcDbEntity
  8
0
  6
Continuous
 62
     7
100
AcDbLine
 10
2627.6086494052
 20
159.1504003915
 30
0.0
 11
2629.6086494052
 21
159.1504003915
 31
0.0
  0
LINE
  5
4AF
330
1F
100
AcDbEntity
  8
0
  6
Continuous
 62
     7
100
AcDbLine
 10
2629.6086494052
 20
159.1504003915
 30
0.0
 11
2629.6086494052
 21
157.1504003915
 31
0.0
  0
LINE
  5
4B0
330
1F
100
AcDbEntity
  8
0
  6
Continuous
 62
     7
100
AcDbLine
 10
2627.6086494052
 20
157.1504003915
 30
0.0
 11
2627.6086494052
 21
159.1504003915
 31
0.0
  0
LINE
  5
4B1
330
1F
100
AcDbEntity
  8
0
  6
Continuous
 62
     7
100
AcDbLine
 10
2629.6086494052
 20
144.3267273722
 30
0.0
 11
2627.6086494052
 21
144.3267273722
 31
0.0
  0
LINE
  5
4B2
330
1F
100
AcDbEntity
  8
0
  6
Continuous
 62
     7
100
AcDbLine
 10
2629.6086494052
 20
144.3267273722
 30
0.0
 11
2629.6086494052
 21
144.1504003915
 31
0.0
  0
LINE
  5
4B3
330
1F
100
AcDbEntity
  8
0
  6
Continuous
 62
     7
100
AcDbLine
 10
2629.6689567844
 20
143.9847072289
 30
0.0
 11
2629.6086494052
 21
144.1504003915
 31
0.0
  0
LINE
  5
4B4
330
1F
100
AcDbEntity
  8
0
  6
Continuous
 62
     7
100
AcDbLine
 10
2629.6689567844
 20
143.9847072289
 30
0.0
 11
2627.7895715429
 21
143.3006669422
 31
0.0
  0
ARC
  5
4B5
330
1F
100
AcDbEntity
  8
0
  6
Continuous
 62
     7
100
AcDbCircle
 10
2630.6086494052
 20
144.3267273722
 30
0.0
 40
3.000000000000659
100
AcDbArc
 50
180.0
 51
200.0
  0
LINE
  5
4B6
330
1F
100
AcDbEntity
  8
0
  6
Continuous
 62
     7
100
AcDbLine
 10
2631.5401555068
 20
138.843630992
 30
0.0
 11
2629.6689567844
 21
143.9847072289
 31
0.0
  0
LINE
  5
4B7
330
1F
100
AcDbEntity
  8
0
  6
Continuous
 62
     7
100
AcDbLine
 10
2629.6607702652
 20
138.1595907054
 30
0.0
 11
2631.5401555068
 21
138.843630992
 31
0.0
  0
LINE
  5
4B8
330
1F
100
AcDbEntity
  8
0
  6
Continuous
 62
     7
100
AcDbLine
 10
2629.6607702652
 20
138.1595907054
 30
0.0
 11
2627.7895715429
 21
143.3006669422
 31
0.0
  0
LINE
  5
4B9
330
1F
100
AcDbEntity
  8
0
  6
Continuous
 62
     7
100
AcDbLine
 10
2629.6086494052
 20
157.1504003915
 30
0.0
 11
2629.6086494052
 21
144.3267273722
 31
0.0
  0
LINE
  5
4BA
330
1F
100
AcDbEntity
  8
0
  6
Continuous
 62
     7
100
AcDbLine
 10
2627.6086494052
 20
157.1504003915
 30
0.0
 11
2627.6086494052
 21
144.3267273722
 31
0.0
  0
LINE
  5
4BB
330
1F
100
AcDbEntity
  8
0
  6
Continuous
 62
     7
100
AcDbLine
 10
2631.5401555068
 20
138.843630992
 30
0.0
 11
2632.2241957934
 21
136.9642457505
 31
0.0
  0
LINE
  5
4BC
330
1F
100
AcDbEntity
  8
0
  6
Continuous
 62
     7
100
AcDbLine
 10
2632.2241957934
 20
136.9642457505
 30
0.0
 11
2630.3448105518
 21
136.2802054638
 31
0.0
  0
LINE
  5
4BD
330
1F
100
AcDbEntity
  8
0
  6
Continuous
 62
     7
100
AcDbLine
 10
2630.3448105518
 20
136.2802054638
 30
0.0
 11
2629.6607702652
 21
138.1595907054
 31
0.0
  0
LINE
  5
4BE
330
1F
100
AcDbEntity
  8
0
  6
Continuous
 62
     7
100
AcDbLine
 10
1726.4486420143
 20
152.5545140167
 30
0.0
 11
1723.6086494052
 21
152.5545140167
 31
0.0
  0
ARC
  5
4BF
330
1F
100
AcDbEntity
  8
0
  6
Continuous
 62
     7
100
AcDbCircle
 10
1726.6022676221
 20
146.9900244599
 30
0.0
 40
5.566609817051971
100
AcDbArc
 50
77.795968526
 51
91.5814323177
  0
ARC
  5
4C0
330
1F
100
AcDbEntity
  8
0
  6
Continuous
 62
     7
100
AcDbCircle
 10
2624.6117147565
 20
134.8246338891
 30
0.0
 40
17.11561925805011
100
AcDbArc
 50
89.4746177521
 51
93.931222944
  0
LINE
  5
4C1
330
1F
100
AcDbEntity
  8
0
  6
Continuous
 62
     7
100
AcDbLine
 10
2624.7686567962
 20
151.9395335903
 30
0.0
 11
2627.6086494052
 21
151.9395335903
 31
0.0
  0
LINE
  5
4C2
330
1F
100
AcDbEntity
  8
0
  6
Continuous
 62
     7
100
AcDbLine
 10
1728.4390205315
 20
152.2366471946
 30
0.0
 11
1727.7790131405
 21
152.4308345871
 31
0.0
  0
LINE
  5
4C3
330
1F
100
AcDbEntity
  8
0
  6
Continuous
 62
     7
100
AcDbLine
 10
2622.778278279
 20
151.8378806028
 30
0.0
 11
2623.43828567
 21
151.8999812286
 31
0.0
  0
LWPOLYLINE
  5
4C4
330
1F
100
AcDbEntity
  8
0
  6
Continuous
 62
     7
100
AcDbPolyline
 90
        9
 70
   128
 43
0.0
 10
1728.6086494052
 20
152.130467228
 10
1728.6059482469
 20
152.1442555383
 10
1728.5978545001
 20
152.1579941893
 10
1728.584397315
 20
152.1716337009
 10
1728.5656251582
 20
152.1851249495
 10
1728.5416056384
 20
152.1984193459
 10
1728.5124252629
 20
152.2114690097
 10
1728.4781891263
 20
152.224226942
 10
1728.4390205315
 20
152.2366471946
  0
LINE
  5
4C5
330
1F
100
AcDbEntity
  8
0
  6
Continuous
 62
     7
100
AcDbLine
 10
1728.6086494052
 20
148.5176145822
 30
0.0
 11
1728.6086494052
 21
152.130467228
 31
0.0
  0
LINE
  5
4C6
330
1F
100
AcDbEntity
  8
0
  6
Continuous
 62
     7
100
AcDbLine
 10
2622.6086494052
 20
151.8039245241
 30
0.0
 11
2622.6086494052
 21
148.5176145822
 31
0.0
  0
ARC
  5
4C7
330
1F
100
AcDbEntity
  8
0
  6
Continuous
 62
     7
100
AcDbCircle
 10
2622.7612938456
 20
151.4820552186
 30
0.0
 40
0.3562305082431545
100
AcDbArc
 50
87.2672036932
 51
115.3723448124
  0
LINE
  5
4C8
330
1F
100
AcDbEntity
  8
0
  6
Continuous
 62
     7
100
AcDbLine
 10
2622.6086494052
 20
154.7831862009
 30
0.0
 11
2622.6086494052
 21
151.8039245241
 31
0.0
  0
LINE
  5
4C9
330
1F
100
AcDbEntity
  8
0
  6
Continuous
 62
     7
100
AcDbLine
 10
1728.6086494052
 20
152.130467228
 30
0.0
 11
1728.6086494052
 21
154.7831862009
 31
0.0
  0
LINE
  5
4CA
330
1F
100
AcDbEntity
  8
0
  6
Continuous
 62
     7
100
AcDbLine
 10
1714.4086494052
 20
152.0334993852
 30
0.0
 11
1714.9086494052
 21
152.110119184
 31
0.0
  0
LINE
  5
4CB
330
1F
100
AcDbEntity
  8
0
  6
Continuous
 62
     7
100
AcDbLine
 10
1714.9086494052
 20
148.6504003915
 30
0.0
 11
1714.9086494052
 21
152.110119184
 31
0.0
  0
LINE
  5
4CC
330
1F
100
AcDbEntity
  8
0
  6
Continuous
 62
     7
100
AcDbLine
 10
1714.4086494052
 20
149.1504003915
 30
0.0
 11
1714.4086494052
 21
152.0334993852
 31
0.0
  0
LINE
  5
4CD
330
1F
100
AcDbEntity
  8
0
  6
Continuous
 62
     7
100
AcDbLine
 10
2636.3086494052
 20
151.7974172723
 30
0.0
 11
2636.3086494052
 21
148.6504003915
 31
0.0
  0
LINE
  5
4CE
330
1F
100
AcDbEntity
  8
0
  6
Continuous
 62
     7
100
AcDbLine
 10
2636.8086494052
 20
151.7729144588
 30
0.0
 11
2636.3086494052
 21
151.7974172723
 31
0.0
  0
LINE
  5
4CF
330
1F
100
AcDbEntity
  8
0
  6
Continuous
 62
     7
100
AcDbLine
 10
2636.8086494052
 20
151.7729144588
 30
0.0
 11
2636.8086494052
 21
149.1504003915
 31
0.0
  0
LINE
  5
4D0
330
1F
100
AcDbEntity
  8
0
  6
Continuous
 62
     7
100
AcDbLine
 10
2636.3086494052
 20
154.6504003915
 30
0.0
 11
2636.3086494052
 21
151.7974172723
 31
0.0
  0
LINE
  5
4D1
330
1F
100
AcDbEntity
  8
0
  6
Continuous
 62
     7
100
AcDbLine
 10
2636.8086494052
 20
154.1504003915
 30
0.0
 11
2636.8086494052
 21
151.7729144588
 31
0.0
  0
LINE
  5
4D2
330
1F
100
AcDbEntity
  8
0
  6
Continuous
 62
     7
100
AcDbLine
 10
1714.9086494052
 20
152.110119184
 30
0.0
 11
1714.9086494052
 21
154.6504003915
 31
0.0
  0
LINE
  5
4D3
330
1F
100
AcDbEntity
  8
0
  6
Continuous
 62
     7
100
AcDbLine
 10
1714.4086494052
 20
152.0334993852
 30
0.0
 11
1714.4086494052
 21
154.1504003915
 31
0.0
  0
LINE
  5
4D4
330
1F
100
AcDbEntity
  8
0
  6
Continuous
 62
     7
100
AcDbLine
 10
1723.6034630548
 20
144.1504003915
 30
0.0
 11
1723.6086494052
 21
144.1504003915
 31
0.0
  0
LINE
  5
4D5
330
1F
100
AcDbEntity
  8
0
  6
Continuous
 62
     7
100
AcDbLine
 10
1723.6086494052
 20
144.3267273722
 30
0.0
 11
1723.6086494052
 21
144.1504003915
 31
0.0
  0
LINE
  5
4D6
330
1F
100
AcDbEntity
  8
0
  6
Continuous
 62
     7
100
AcDbLine
 10
2627.6138357556
 20
144.1504003915
 30
0.0
 11
2627.6086494052
 21
144.1504003915
 31
0.0
  0
LINE
  5
4D7
330
1F
100
AcDbEntity
  8
0
  6
Continuous
 62
     7
100
AcDbLine
 10
2627.6086494052
 20
144.1504003915
 30
0.0
 11
2627.6086494052
 21
144.3267273722
 31
0.0
  0
ARC
  5
4D8
330
1F
100
AcDbEntity
  8
0
  6
Continuous
 62
     7
100
AcDbCircle
 10
2573.1086494052
 20
169.6504003915
 30
0.0
 40
3.000000000000129
100
AcDbArc
 50
80.4864054705
 51
260.4864054704
  0
LINE
  5
4D9
330
1F
100
AcDbEntity
  8
0
  6
Continuous
 62
     7
100
AcDbLine
 10
2573.5218534465
 20
172.1160164241
 30
0.0
 11
2573.6044942548
 21
172.6091396307
 31
0.0
  0
ARC
  5
4DA
330
1F
100
AcDbEntity
  8
0
  6
Continuous
 62
     7
100
AcDbCircle
 10
2573.1086494052
 20
169.6504003915
 30
0.0
 40
2.500000000000111
100
AcDbArc
 50
80.4864054704
 51
260.4864054704
  0
LINE
  5
4DB
330
1F
100
AcDbEntity
  8
0
  6
Continuous
 62
     7
100
AcDbLine
 10
2572.695445364
 20
167.1847843589
 30
0.0
 11
2572.6128045557
 21
166.6916611524
 31
0.0
  0
ARC
  5
4DC
330
1F
100
AcDbEntity
  8
0
  6
Continuous
 62
     7
100
AcDbCircle
 10
2573.1086494052
 20
169.6504003915
 30
0.0
 40
2.500000000000111
100
AcDbArc
 50
260.4864054704
 51
80.4864054704
  0
ARC
  5
4DD
330
1F
100
AcDbEntity
  8
0
  6
Continuous
 62
     7
100
AcDbCircle
 10
2573.1086494052
 20
169.6504003915
 30
0.0
 40
3.000000000000129
100
AcDbArc
 50
260.4864054704
 51
80.4864054705
  0
ARC
  5
4DE
330
1F
100
AcDbEntity
  8
0
  6
Continuous
 62
     7
100
AcDbCircle
 10
1734.1086494052
 20
151.6504003915
 30
0.0
 40
2.999999999995248
100
AcDbArc
 50
130.6396160529
 51
310.6396160529
  0
LINE
  5
4DF
330
1F
100
AcDbEntity
  8
0
  6
Continuous
 62
     7
100
AcDbLine
 10
1732.4804017926
 20
153.5474532933
 30
0.0
 11
1732.1547522701
 21
153.9268638736
 31
0.0
  0
ARC
  5
4E0
330
1F
100
AcDbEntity
  8
0
  6
Continuous
 62
     7
100
AcDbCircle
 10
1734.1086494052
 20
151.6504003915
 30
0.0
 40
2.500000000000025
100
AcDbArc
 50
130.6396160529
 51
310.6396160529
  0
LINE
  5
4E1
330
1F
100
AcDbEntity
  8
0
  6
Continuous
 62
     7
100
AcDbLine
 10
1735.7368970179
 20
149.7533474898
 30
0.0
 11
1736.0625465404
 21
149.3739369094
 31
0.0
  0
ARC
  5
4E2
330
1F
100
AcDbEntity
  8
0
  6
Continuous
 62
     7
100
AcDbCircle
 10
1734.1086494052
 20
151.6504003915
 30
0.0
 40
2.500000000000025
100
AcDbArc
 50
310.6396160529
 51
130.6396160529
  0
ARC
  5
4E3
330
1F
100
AcDbEntity
  8
0
  6
Continuous
 62
     7
100
AcDbCircle
 10
1734.1086494052
 20
151.6504003915
 30
0.0
 40
2.999999999995248
100
AcDbArc
 50
310.6396160529
 51
130.6396160529
  0
LINE
  5
4E4
330
1F
100
AcDbEntity
  8
0
  6
Continuous
 62
     7
100
AcDbLine
 10
2615.4804017926
 20
149.7533474898
 30
0.0
 11
2615.1547522701
 21
149.3739369094
 31
0.0
  0
ARC
  5
4E5
330
1F
100
AcDbEntity
  8
0
  6
Continuous
 62
     7
100
AcDbCircle
 10
2617.1086494052
 20
151.6504003915
 30
0.0
 40
2.999999999990821
100
AcDbArc
 50
49.3603839471
 51
229.3603839471
  0
LINE
  5
4E6
330
1F
100
AcDbEntity
  8
0
  6
Continuous
 62
     7
100
AcDbLine
 10
2618.7368970179
 20
153.5474532933
 30
0.0
 11
2619.0625465404
 21
153.9268638736
 31
0.0
  0
ARC
  5
4E7
330
1F
100
AcDbEntity
  8
0
  6
Continuous
 62
     7
100
AcDbCircle
 10
2617.1086494052
 20
151.6504003915
 30
0.0
 40
2.500000000000392
100
AcDbArc
 50
49.3603839471
 51
229.3603839471
  0
ARC
  5
4E8
330
1F
100
AcDbEntity
  8
0
  6
Continuous
 62
     7
100
AcDbCircle
 10
2617.1086494052
 20
151.6504003915
 30
0.0
 40
2.500000000000392
100
AcDbArc
 50
229.3603839471
 51
49.3603839471
  0
ARC
  5
4E9
330
1F
100
AcDbEntity
  8
0
  6
Continuous
 62
     7
100
AcDbCircle
 10
2617.1086494052
 20
151.6504003915
 30
0.0
 40
2.999999999990821
100
AcDbArc
 50
229.3603839471
 51
49.3603839471
  0
LINE
  5
4EA
330
1F
100
AcDbEntity
  8
0
  6
Continuous
 62
     7
100
AcDbLine
 10
2624.6086494052
 20
197.6504003915
 30
0.0
 11
2624.6086494052
 21
199.6504003915
 31
0.0
  0
LINE
  5
4EB
330
1F
100
AcDbEntity
  8
0
  6
Continuous
 62
     7
100
AcDbLine
 10
1726.6086494052
 20
199.6504003915
 30
0.0
 11
1726.6086494052
 21
197.6504003915
 31
0.0
  0
LINE
  5
4EC
330
1F
100
AcDbEntity
  8
0
  6
Continuous
 62
     7
100
AcDbLine
 10
1726.6086494052
 20
197.6504003915
 30
0.0
 11
2624.6086494052
 21
197.6504003915
 31
0.0
  0
LINE
  5
4ED
330
1F
100
AcDbEntity
  8
0
  6
Continuous
 62
     7
100
AcDbLine
 10
1726.6086494052
 20
199.6504003915
 30
0.0
 11
2624.6086494052
 21
199.6504003915
 31
0.0
  0
LINE
  5
4EE
330
1F
100
AcDbEntity
  8
0
  6
Continuous
 62
     7
100
AcDbLine
 10
1726.6086494052
 20
105.6504003915
 30
0.0
 11
1726.6086494052
 21
103.6504003915
 31
0.0
  0
LINE
  5
4EF
330
1F
100
AcDbEntity
  8
0
  6
Continuous
 62
     7
100
AcDbLine
 10
2624.6086494052
 20
103.6504003915
 30
0.0
 11
2624.6086494052
 21
105.6504003915
 31
0.0
  0
LINE
  5
4F0
330
1F
100
AcDbEntity
  8
0
  6
Continuous
 62
     7
100
AcDbLine
 10
2624.6086494052
 20
105.6504003915
 30
0.0
 11
1726.6086494052
 21
105.6504003915
 31
0.0
  0
LINE
  5
4F1
330
1F
100
AcDbEntity
  8
0
  6
Continuous
 62
     7
100
AcDbLine
 10
2624.6086494052
 20
103.6504003915
 30
0.0
 11
1726.6086494052
 21
103.6504003915
 31
0.0
  0
LINE
  5
4F2
330
1F
100
AcDbEntity
  8
0
  6
Continuous
 62
     7
100
AcDbLine
 10
1701.6086494052
 20
197.6504003915
 30
0.0
 11
1701.6086494052
 21
199.6504003915
 31
0.0
  0
LINE
  5
4F3
330
1F
100
AcDbEntity
  8
0
  6
Continuous
 62
     7
100
AcDbLine
 10
1680.1086494052
 20
105.6504003915
 30
0.0
 11
1680.1086494052
 21
197.6504003915
 31
0.0
  0
LINE
  5
4F4
330
1F
100
AcDbEntity
  8
0
  6
Continuous
 62
     7
100
AcDbLine
 10
1701.6086494052
 20
103.6504003915
 30
0.0
 11
1701.6086494052
 21
105.6504003915
 31
0.0
  0
LINE
  5
4F5
330
1F
100
AcDbEntity
  8
0
  6
Continuous
 62
     7
100
AcDbLine
 10
1678.1086494052
 20
103.6504003915
 30
0.0
 11
1678.1086494052
 21
199.6504003915
 31
0.0
  0
LINE
  5
4F6
330
1F
100
AcDbEntity
  8
0
  6
Continuous
 62
     7
100
AcDbLine
 10
1701.6086494052
 20
105.6504003915
 30
0.0
 11
1680.1086494052
 21
105.6504003915
 31
0.0
  0
LINE
  5
4F7
330
1F
100
AcDbEntity
  8
0
  6
Continuous
 62
     7
100
AcDbLine
 10
1701.6086494052
 20
103.6504003915
 30
0.0
 11
1678.1086494052
 21
103.6504003915
 31
0.0
  0
LINE
  5
4F8
330
1F
100
AcDbEntity
  8
0
  6
Continuous
 62
     7
100
AcDbLine
 10
1680.1086494052
 20
197.6504003915
 30
0.0
 11
1701.6086494052
 21
197.6504003915
 31
0.0
  0
LINE
  5
4F9
330
1F
100
AcDbEntity
  8
0
  6
Continuous
 62
     7
100
AcDbLine
 10
1678.1086494052
 20
199.6504003915
 30
0.0
 11
1701.6086494052
 21
199.6504003915
 31
0.0
  0
LINE
  5
4FA
330
1F
100
AcDbEntity
  8
0
  6
Continuous
 62
     7
100
AcDbLine
 10
1704.6086494052
 20
199.6504003915
 30
0.0
 11
1704.6086494052
 21
197.6504003915
 31
0.0
  0
LINE
  5
4FB
330
1F
100
AcDbEntity
  8
0
  6
Continuous
 62
     7
100
AcDbLine
 10
1704.6086494052
 20
197.6504003915
 30
0.0
 11
1701.6086494052
 21
197.6504003915
 31
0.0
  0
LINE
  5
4FC
330
1F
100
AcDbEntity
  8
0
  6
Continuous
 62
     7
100
AcDbLine
 10
1701.6086494052
 20
199.6504003915
 30
0.0
 11
1704.6086494052
 21
199.6504003915
 31
0.0
  0
LINE
  5
4FD
330
1F
100
AcDbEntity
  8
0
  6
Continuous
 62
     7
100
AcDbLine
 10
1723.6086494052
 20
197.6504003915
 30
0.0
 11
1723.6086494052
 21
199.6504003915
 31
0.0
  0
LINE
  5
4FE
330
1F
100
AcDbEntity
  8
0
  6
Continuous
 62
     7
100
AcDbLine
 10
1726.6086494052
 20
197.6504003915
 30
0.0
 11
1723.6086494052
 21
197.6504003915
 31
0.0
  0
LINE
  5
4FF
330
1F
100
AcDbEntity
  8
0
  6
Continuous
 62
     7
100
AcDbLine
 10
1723.6086494052
 20
199.6504003915
 30
0.0
 11
1726.6086494052
 21
199.6504003915
 31
0.0
  0
LINE
  5
500
330
1F
100
AcDbEntity
  8
0
  6
Continuous
 62
     7
100
AcDbLine
 10
1723.6086494052
 20
103.6504003915
 30
0.0
 11
1723.6086494052
 21
105.6504003915
 31
0.0
  0
LINE
  5
501
330
1F
100
AcDbEntity
  8
0
  6
Continuous
 62
     7
100
AcDbLine
 10
1723.6086494052
 20
105.6504003915
 30
0.0
 11
1726.6086494052
 21
105.6504003915
 31
0.0
  0
LINE
  5
502
330
1F
100
AcDbEntity
  8
0
  6
Continuous
 62
     7
100
AcDbLine
 10
1726.6086494052
 20
103.6504003915
 30
0.0
 11
1723.6086494052
 21
103.6504003915
 31
0.0
  0
LINE
  5
503
330
1F
100
AcDbEntity
  8
0
  6
Continuous
 62
     7
100
AcDbLine
 10
1728.3086494052
 20
147.0004003915
 30
0.0
 11
1728.0096910719
 21
147.0004003915
 31
0.0
  0
LINE
  5
504
330
1F
100
AcDbEntity
  8
0
  6
Continuous
 62
     7
100
AcDbLine
 10
1728.0096910719
 20
156.3004003915
 30
0.0
 11
1728.3086494052
 21
156.3004003915
 31
0.0
  0
LINE
  5
505
330
1F
100
AcDbEntity
  8
0
  6
Continuous
 62
     7
100
AcDbLine
 10
1738.7586494052
 20
146.1504003915
 30
0.0
 11
1738.7586494052
 21
147.0004003915
 31
0.0
  0
LINE
  5
506
330
1F
100
AcDbEntity
  8
0
  6
Continuous
 62
     7
100
AcDbLine
 10
1729.4586494052
 20
146.1504003915
 30
0.0
 11
1738.7586494052
 21
146.1504003915
 31
0.0
  0
LINE
  5
507
330
1F
100
AcDbEntity
  8
0
  6
Continuous
 62
     7
100
AcDbLine
 10
1729.4586494052
 20
147.0004003915
 30
0.0
 11
1729.4586494052
 21
146.1504003915
 31
0.0
  0
LINE
  5
508
330
1F
100
AcDbEntity
  8
0
  6
Continuous
 62
     7
100
AcDbLine
 10
1729.4586494052
 20
157.1504003915
 30
0.0
 11
1729.4586494052
 21
156.3004003915
 31
0.0
  0
LINE
  5
509
330
1F
100
AcDbEntity
  8
0
  6
Continuous
 62
     7
100
AcDbLine
 10
1738.7586494052
 20
157.1504003915
 30
0.0
 11
1729.4586494052
 21
157.1504003915
 31
0.0
  0
LINE
  5
50A
330
1F
100
AcDbEntity
  8
0
  6
Continuous
 62
     7
100
AcDbLine
 10
1738.7586494052
 20
156.3004003915
 30
0.0
 11
1738.7586494052
 21
157.1504003915
 31
0.0
  0
LINE
  5
50B
330
1F
100
AcDbEntity
  8
0
  6
Continuous
 62
     7
100
AcDbLine
 10
1739.9086494052
 20
156.3004003915
 30
0.0
 11
1738.7586494052
 21
156.3004003915
 31
0.0
  0
LINE
  5
50C
330
1F
100
AcDbEntity
  8
0
  6
Continuous
 62
     7
100
AcDbLine
 10
1739.9086494052
 20
147.0004003915
 30
0.0
 11
1739.9086494052
 21
156.3004003915
 31
0.0
  0
LINE
  5
50D
330
1F
100
AcDbEntity
  8
0
  6
Continuous
 62
     7
100
AcDbLine
 10
1738.7586494052
 20
147.0004003915
 30
0.0
 11
1739.9086494052
 21
147.0004003915
 31
0.0
  0
LINE
  5
50E
330
1F
100
AcDbEntity
  8
0
  6
Continuous
 62
     7
100
AcDbLine
 10
1729.4586494052
 20
156.3004003915
 30
0.0
 11
1728.3086494052
 21
156.3004003915
 31
0.0
  0
LINE
  5
50F
330
1F
100
AcDbEntity
  8
0
  6
Continuous
 62
     7
100
AcDbLine
 10
1728.3086494052
 20
147.0004003915
 30
0.0
 11
1729.4586494052
 21
147.0004003915
 31
0.0
  0
LINE
  5
510
330
1F
100
AcDbEntity
  8
0
  6
Continuous
 62
     7
100
AcDbLine
 10
1729.4586494052
 20
157.1504003915
 30
0.0
 11
1729.4586494052
 21
158.1504003915
 31
0.0
  0
LINE
  5
511
330
1F
100
AcDbEntity
  8
0
  6
Continuous
 62
     7
100
AcDbLine
 10
1738.7586494052
 20
158.1504003915
 30
0.0
 11
1729.4586494052
 21
158.1504003915
 31
0.0
  0
LINE
  5
512
330
1F
100
AcDbEntity
  8
0
  6
Continuous
 62
     7
100
AcDbLine
 10
1738.7586494052
 20
158.1504003915
 30
0.0
 11
1738.7586494052
 21
157.1504003915
 31
0.0
  0
LINE
  5
513
330
1F
100
AcDbEntity
  8
0
  6
Continuous
 62
     7
100
AcDbLine
 10
1738.7586494052
 20
146.1504003915
 30
0.0
 11
1738.7586494052
 21
145.1504003915
 31
0.0
  0
LINE
  5
514
330
1F
100
AcDbEntity
  8
0
  6
Continuous
 62
     7
100
AcDbLine
 10
1729.4586494052
 20
145.1504003915
 30
0.0
 11
1738.7586494052
 21
145.1504003915
 31
0.0
  0
LINE
  5
515
330
1F
100
AcDbEntity
  8
0
  6
Continuous
 62
     7
100
AcDbLine
 10
1729.4586494052
 20
145.1504003915
 30
0.0
 11
1729.4586494052
 21
146.1504003915
 31
0.0
  0
LINE
  5
516
330
1F
100
AcDbEntity
  8
0
  6
Continuous
 62
     7
100
AcDbLine
 10
1704.6086494052
 20
105.6504003915
 30
0.0
 11
1704.6086494052
 21
103.6504003915
 31
0.0
  0
LINE
  5
517
330
1F
100
AcDbEntity
  8
0
  6
Continuous
 62
     7
100
AcDbLine
 10
1701.6086494052
 20
105.6504003915
 30
0.0
 11
1704.6086494052
 21
105.6504003915
 31
0.0
  0
LINE
  5
518
330
1F
100
AcDbEntity
  8
0
  6
Continuous
 62
     7
100
AcDbLine
 10
1704.6086494052
 20
103.6504003915
 30
0.0
 11
1701.6086494052
 21
103.6504003915
 31
0.0
  0
LINE
  5
519
330
1F
100
AcDbEntity
  8
0
  6
Continuous
 62
     7
100
AcDbLine
 10
1740.9086494052
 20
156.3004003915
 30
0.0
 11
1740.9086494052
 21
147.0004003915
 31
0.0
  0
LINE
  5
51A
330
1F
100
AcDbEntity
  8
0
  6
Continuous
 62
     7
100
AcDbLine
 10
1740.9086494052
 20
147.0004003915
 30
0.0
 11
1739.9086494052
 21
147.0004003915
 31
0.0
  0
LINE
  5
51B
330
1F
100
AcDbEntity
  8
0
  6
Continuous
 62
     7
100
AcDbLine
 10
1739.9086494052
 20
156.3004003915
 30
0.0
 11
1740.9086494052
 21
156.3004003915
 31
0.0
  0
LINE
  5
51C
330
1F
100
AcDbEntity
  8
0
  6
Continuous
 62
     7
100
AcDbLine
 10
2649.6086494052
 20
105.6504003915
 30
0.0
 11
2649.6086494052
 21
103.6504003915
 31
0.0
  0
LINE
  5
51D
330
1F
100
AcDbEntity
  8
0
  6
Continuous
 62
     7
100
AcDbLine
 10
2671.1086494052
 20
197.6504003915
 30
0.0
 11
2671.1086494052
 21
105.6504003915
 31
0.0
  0
LINE
  5
51E
330
1F
100
AcDbEntity
  8
0
  6
Continuous
 62
     7
100
AcDbLine
 10
2649.6086494052
 20
199.6504003915
 30
0.0
 11
2649.6086494052
 21
197.6504003915
 31
0.0
  0
LINE
  5
51F
330
1F
100
AcDbEntity
  8
0
  6
Continuous
 62
     7
100
AcDbLine
 10
2673.1086494052
 20
199.6504003915
 30
0.0
 11
2673.1086494052
 21
103.6504003915
 31
0.0
  0
LINE
  5
520
330
1F
100
AcDbEntity
  8
0
  6
Continuous
 62
     7
100
AcDbLine
 10
2671.1086494052
 20
105.6504003915
 30
0.0
 11
2649.6086494052
 21
105.6504003915
 31
0.0
  0
LINE
  5
521
330
1F
100
AcDbEntity
  8
0
  6
Continuous
 62
     7
100
AcDbLine
 10
2673.1086494052
 20
103.6504003915
 30
0.0
 11
2649.6086494052
 21
103.6504003915
 31
0.0
  0
LINE
  5
522
330
1F
100
AcDbEntity
  8
0
  6
Continuous
 62
     7
100
AcDbLine
 10
2649.6086494052
 20
197.6504003915
 30
0.0
 11
2671.1086494052
 21
197.6504003915
 31
0.0
  0
LINE
  5
523
330
1F
100
AcDbEntity
  8
0
  6
Continuous
 62
     7
100
AcDbLine
 10
2649.6086494052
 20
199.6504003915
 30
0.0
 11
2673.1086494052
 21
199.6504003915
 31
0.0
  0
LINE
  5
524
330
1F
100
AcDbEntity
  8
0
  6
Continuous
 62
     7
100
AcDbLine
 10
2627.6086494052
 20
199.6504003915
 30
0.0
 11
2627.6086494052
 21
197.6504003915
 31
0.0
  0
LINE
  5
525
330
1F
100
AcDbEntity
  8
0
  6
Continuous
 62
     7
100
AcDbLine
 10
2627.6086494052
 20
197.6504003915
 30
0.0
 11
2624.6086494052
 21
197.6504003915
 31
0.0
  0
LINE
  5
526
330
1F
100
AcDbEntity
  8
0
  6
Continuous
 62
     7
100
AcDbLine
 10
2624.6086494052
 20
199.6504003915
 30
0.0
 11
2627.6086494052
 21
199.6504003915
 31
0.0
  0
LINE
  5
527
330
1F
100
AcDbEntity
  8
0
  6
Continuous
 62
     7
100
AcDbLine
 10
2646.6086494052
 20
197.6504003915
 30
0.0
 11
2646.6086494052
 21
199.6504003915
 31
0.0
  0
LINE
  5
528
330
1F
100
AcDbEntity
  8
0
  6
Continuous
 62
     7
100
AcDbLine
 10
2649.6086494052
 20
197.6504003915
 30
0.0
 11
2646.6086494052
 21
197.6504003915
 31
0.0
  0
LINE
  5
529
330
1F
100
AcDbEntity
  8
0
  6
Continuous
 62
     7
100
AcDbLine
 10
2646.6086494052
 20
199.6504003915
 30
0.0
 11
2649.6086494052
 21
199.6504003915
 31
0.0
  0
LINE
  5
52A
330
1F
100
AcDbEntity
  8
0
  6
Continuous
 62
     7
100
AcDbLine
 10
2627.6086494052
 20
105.6504003915
 30
0.0
 11
2627.6086494052
 21
103.6504003915
 31
0.0
  0
LINE
  5
52B
330
1F
100
AcDbEntity
  8
0
  6
Continuous
 62
     7
100
AcDbLine
 10
2624.6086494052
 20
105.6504003915
 30
0.0
 11
2627.6086494052
 21
105.6504003915
 31
0.0
  0
LINE
  5
52C
330
1F
100
AcDbEntity
  8
0
  6
Continuous
 62
     7
100
AcDbLine
 10
2627.6086494052
 20
103.6504003915
 30
0.0
 11
2624.6086494052
 21
103.6504003915
 31
0.0
  0
LINE
  5
52D
330
1F
100
AcDbEntity
  8
0
  6
Continuous
 62
     7
100
AcDbLine
 10
2646.6086494052
 20
103.6504003915
 30
0.0
 11
2646.6086494052
 21
105.6504003915
 31
0.0
  0
LINE
  5
52E
330
1F
100
AcDbEntity
  8
0
  6
Continuous
 62
     7
100
AcDbLine
 10
2646.6086494052
 20
105.6504003915
 30
0.0
 11
2649.6086494052
 21
105.6504003915
 31
0.0
  0
LINE
  5
52F
330
1F
100
AcDbEntity
  8
0
  6
Continuous
 62
     7
100
AcDbLine
 10
2649.6086494052
 20
103.6504003915
 30
0.0
 11
2646.6086494052
 21
103.6504003915
 31
0.0
  0
LINE
  5
530
330
1F
100
AcDbEntity
  8
0
  6
Continuous
 62
     7
100
AcDbLine
 10
2610.3086494052
 20
147.0004003915
 30
0.0
 11
2610.3086494052
 21
156.3004003915
 31
0.0
  0
LINE
  5
531
330
1F
100
AcDbEntity
  8
0
  6
Continuous
 62
     7
100
AcDbLine
 10
2611.3086494052
 20
156.3004003915
 30
0.0
 11
2611.3086494052
 21
147.0004003915
 31
0.0
  0
LINE
  5
532
330
1F
100
AcDbEntity
  8
0
  6
Continuous
 62
     7
100
AcDbLine
 10
2611.3086494052
 20
147.0004003915
 30
0.0
 11
2610.3086494052
 21
147.0004003915
 31
0.0
  0
LINE
  5
533
330
1F
100
AcDbEntity
  8
0
  6
Continuous
 62
     7
100
AcDbLine
 10
2610.3086494052
 20
156.3004003915
 30
0.0
 11
2611.3086494052
 21
156.3004003915
 31
0.0
  0
LINE
  5
534
330
1F
100
AcDbEntity
  8
0
  6
Continuous
 62
     7
100
AcDbLine
 10
2612.4586494052
 20
157.1504003915
 30
0.0
 11
2612.4586494052
 21
156.3004003915
 31
0.0
  0
LINE
  5
535
330
1F
100
AcDbEntity
  8
0
  6
Continuous
 62
     7
100
AcDbLine
 10
2621.7586494052
 20
157.1504003915
 30
0.0
 11
2612.4586494052
 21
157.1504003915
 31
0.0
  0
LINE
  5
536
330
1F
100
AcDbEntity
  8
0
  6
Continuous
 62
     7
100
AcDbLine
 10
2621.7586494052
 20
156.3004003915
 30
0.0
 11
2621.7586494052
 21
157.1504003915
 31
0.0
  0
LINE
  5
537
330
1F
100
AcDbEntity
  8
0
  6
Continuous
 62
     7
100
AcDbLine
 10
2622.9086494052
 20
156.3004003915
 30
0.0
 11
2621.7586494052
 21
156.3004003915
 31
0.0
  0
LINE
  5
538
330
1F
100
AcDbEntity
  8
0
  6
Continuous
 62
     7
100
AcDbLine
 10
2621.7586494052
 20
147.0004003915
 30
0.0
 11
2622.9086494052
 21
147.0004003915
 31
0.0
  0
LINE
  5
539
330
1F
100
AcDbEntity
  8
0
  6
Continuous
 62
     7
100
AcDbLine
 10
2621.7586494052
 20
146.1504003915
 30
0.0
 11
2621.7586494052
 21
147.0004003915
 31
0.0
  0
LINE
  5
53A
330
1F
100
AcDbEntity
  8
0
  6
Continuous
 62
     7
100
AcDbLine
 10
2612.4586494052
 20
146.1504003915
 30
0.0
 11
2621.7586494052
 21
146.1504003915
 31
0.0
  0
LINE
  5
53B
330
1F
100
AcDbEntity
  8
0
  6
Continuous
 62
     7
100
AcDbLine
 10
2612.4586494052
 20
147.0004003915
 30
0.0
 11
2612.4586494052
 21
146.1504003915
 31
0.0
  0
LINE
  5
53C
330
1F
100
AcDbEntity
  8
0
  6
Continuous
 62
     7
100
AcDbLine
 10
2611.3086494052
 20
147.0004003915
 30
0.0
 11
2612.4586494052
 21
147.0004003915
 31
0.0
  0
LINE
  5
53D
330
1F
100
AcDbEntity
  8
0
  6
Continuous
 62
     7
100
AcDbLine
 10
2612.4586494052
 20
156.3004003915
 30
0.0
 11
2611.3086494052
 21
156.3004003915
 31
0.0
  0
LINE
  5
53E
330
1F
100
AcDbEntity
  8
0
  6
Continuous
 62
     7
100
AcDbLine
 10
2621.7586494052
 20
146.1504003915
 30
0.0
 11
2621.7586494052
 21
145.1504003915
 31
0.0
  0
LINE
  5
53F
330
1F
100
AcDbEntity
  8
0
  6
Continuous
 62
     7
100
AcDbLine
 10
2612.4586494052
 20
145.1504003915
 30
0.0
 11
2621.7586494052
 21
145.1504003915
 31
0.0
  0
LINE
  5
540
330
1F
100
AcDbEntity
  8
0
  6
Continuous
 62
     7
100
AcDbLine
 10
2612.4586494052
 20
145.1504003915
 30
0.0
 11
2612.4586494052
 21
146.1504003915
 31
0.0
  0
LINE
  5
541
330
1F
100
AcDbEntity
  8
0
  6
Continuous
 62
     7
100
AcDbLine
 10
2612.4586494052
 20
157.1504003915
 30
0.0
 11
2612.4586494052
 21
158.1504003915
 31
0.0
  0
LINE
  5
542
330
1F
100
AcDbEntity
  8
0
  6
Continuous
 62
     7
100
AcDbLine
 10
2621.7586494052
 20
158.1504003915
 30
0.0
 11
2612.4586494052
 21
158.1504003915
 31
0.0
  0
LINE
  5
543
330
1F
100
AcDbEntity
  8
0
  6
Continuous
 62
     7
100
AcDbLine
 10
2621.7586494052
 20
158.1504003915
 30
0.0
 11
2621.7586494052
 21
157.1504003915
 31
0.0
  0
LINE
  5
544
330
1F
100
AcDbEntity
  8
0
  6
Continuous
 62
     7
100
AcDbLine
 10
2622.9086494052
 20
156.3004003915
 30
0.0
 11
2623.2076077386
 21
156.3004003915
 31
0.0
  0
LINE
  5
545
330
1F
100
AcDbEntity
  8
0
  6
Continuous
 62
     7
100
AcDbLine
 10
2623.2076077386
 20
147.0004003915
 30
0.0
 11
2622.9086494052
 21
147.0004003915
 31
0.0
  0
LINE
  5
546
330
1F
100
AcDbEntity
  8
0
  6
Continuous
 62
     7
100
AcDbLine
 10
1729.4586494052
 20
157.1504003915
 30
0.0
 11
1728.6086494052
 21
157.1504003915
 31
0.0
  0
LINE
  5
547
330
1F
100
AcDbEntity
  8
0
  6
Continuous
 62
     7
100
AcDbLine
 10
1728.6086494052
 20
157.1504003915
 30
0.0
 11
1728.6086494052
 21
156.3004003915
 31
0.0
  0
LINE
  5
548
330
1F
100
AcDbEntity
  8
0
  6
Continuous
 62
     7
100
AcDbLine
 10
1728.6086494052
 20
146.1504003915
 30
0.0
 11
1729.4586494052
 21
146.1504003915
 31
0.0
  0
LINE
  5
549
330
1F
100
AcDbEntity
  8
0
  6
Continuous
 62
     7
100
AcDbLine
 10
1728.6086494052
 20
147.0004003915
 30
0.0
 11
1728.6086494052
 21
146.1504003915
 31
0.0
  0
LINE
  5
54A
330
1F
100
AcDbEntity
  8
0
  6
Continuous
 62
     7
100
AcDbLine
 10
1739.6086494052
 20
156.3004003915
 30
0.0
 11
1739.6086494052
 21
157.1504003915
 31
0.0
  0
LINE
  5
54B
330
1F
100
AcDbEntity
  8
0
  6
Continuous
 62
     7
100
AcDbLine
 10
1739.6086494052
 20
157.1504003915
 30
0.0
 11
1738.7586494052
 21
157.1504003915
 31
0.0
  0
LINE
  5
54C
330
1F
100
AcDbEntity
  8
0
  6
Continuous
 62
     7
100
AcDbLine
 10
1739.6086494052
 20
146.1504003915
 30
0.0
 11
1739.6086494052
 21
147.0004003915
 31
0.0
  0
LINE
  5
54D
330
1F
100
AcDbEntity
  8
0
  6
Continuous
 62
     7
100
AcDbLine
 10
1738.7586494052
 20
146.1504003915
 30
0.0
 11
1739.6086494052
 21
146.1504003915
 31
0.0
  0
LINE
  5
54E
330
1F
100
AcDbEntity
  8
0
  6
Continuous
 62
     7
100
AcDbLine
 10
2611.6086494052
 20
157.1504003915
 30
0.0
 11
2611.6086494052
 21
156.3004003915
 31
0.0
  0
LINE
  5
54F
330
1F
100
AcDbEntity
  8
0
  6
Continuous
 62
     7
100
AcDbLine
 10
2612.4586494052
 20
157.1504003915
 30
0.0
 11
2611.6086494052
 21
157.1504003915
 31
0.0
  0
LINE
  5
550
330
1F
100
AcDbEntity
  8
0
  6
Continuous
 62
     7
100
AcDbLine
 10
2611.6086494052
 20
147.0004003915
 30
0.0
 11
2611.6086494052
 21
146.1504003915
 31
0.0
  0
LINE
  5
551
330
1F
100
AcDbEntity
  8
0
  6
Continuous
 62
     7
100
AcDbLine
 10
2611.6086494052
 20
146.1504003915
 30
0.0
 11
2612.4586494052
 21
146.1504003915
 31
0.0
  0
LINE
  5
552
330
1F
100
AcDbEntity
  8
0
  6
Continuous
 62
     7
100
AcDbLine
 10
2622.6086494052
 20
146.1504003915
 30
0.0
 11
2622.6086494052
 21
147.0004003915
 31
0.0
  0
LINE
  5
553
330
1F
100
AcDbEntity
  8
0
  6
Continuous
 62
     7
100
AcDbLine
 10
2621.7586494052
 20
146.1504003915
 30
0.0
 11
2622.6086494052
 21
146.1504003915
 31
0.0
  0
LINE
  5
554
330
1F
100
AcDbEntity
  8
0
  6
Continuous
 62
     7
100
AcDbLine
 10
2622.6086494052
 20
156.3004003915
 30
0.0
 11
2622.6086494052
 21
157.1504003915
 31
0.0
  0
LINE
  5
555
330
1F
100
AcDbEntity
  8
0
  6
Continuous
 62
     7
100
AcDbLine
 10
2622.6086494052
 20
157.1504003915
 30
0.0
 11
2621.7586494052
 21
157.1504003915
 31
0.0
  0
LINE
  5
556
330
1F
100
AcDbEntity
  8
0
  6
Continuous
 62
     7
100
AcDbLine
 10
1721.1086494052
 20
179.6504003915
 30
0.0
 11
1709.1086494052
 21
179.6504003915
 31
0.0
  0
LINE
  5
557
330
1F
100
AcDbEntity
  8
0
  6
Continuous
 62
     7
100
AcDbLine
 10
1721.1086494052
 20
123.6504003915
 30
0.0
 11
1721.1086494052
 21
136.9290528815
 31
0.0
  0
LINE
  5
558
330
1F
100
AcDbEntity
  8
0
  6
Continuous
 62
     7
100
AcDbLine
 10
1721.1086494052
 20
142.7766616818
 30
0.0
 11
1721.1086494052
 21
148.6504003915
 31
0.0
  0
LINE
  5
559
330
1F
100
AcDbEntity
  8
0
  6
Continuous
 62
     7
100
AcDbLine
 10
1721.1086494052
 20
154.6504003915
 30
0.0
 11
1721.1086494052
 21
179.6504003915
 31
0.0
  0
LINE
  5
55A
330
1F
100
AcDbEntity
  8
0
  6
Continuous
 62
     7
100
AcDbLine
 10
1709.1086494052
 20
123.6504003915
 30
0.0
 11
1721.1086494052
 21
123.6504003915
 31
0.0
  0
LINE
  5
55B
330
1F
100
AcDbEntity
  8
0
  6
Continuous
 62
     7
100
AcDbLine
 10
1709.1086494052
 20
123.6504003915
 30
0.0
 11
1709.1086494052
 21
179.6504003915
 31
0.0
  0
LINE
  5
55C
330
1F
100
AcDbEntity
  8
0
  6
Continuous
 62
     7
100
AcDbLine
 10
1723.1086494052
 20
181.6504003915
 30
0.0
 11
1723.1086494052
 21
193.6504003915
 31
0.0
  0
ARC
  5
55D
330
1F
100
AcDbEntity
  8
0
  6
Continuous
 62
     7
100
AcDbCircle
 10
1723.1086494052
 20
179.6504003915
 30
0.0
 40
2.0
100
AcDbArc
 50
90.0
 51
180.0
  0
ARC
  5
55E
330
1F
100
AcDbEntity
  8
0
  6
Continuous
 62
     7
100
AcDbCircle
 10
1723.1086494052
 20
179.6504003915
 30
0.0
 40
13.99999999999986
100
AcDbArc
 50
90.0
 51
180.0
  0
LINE
  5
55F
330
1F
100
AcDbEntity
  8
0
  6
Continuous
 62
     7
100
AcDbLine
 10
1723.1086494052
 20
109.6504003915
 30
0.0
 11
1723.1086494052
 21
121.6504003915
 31
0.0
  0
ARC
  5
560
330
1F
100
AcDbEntity
  8
0
  6
Continuous
 62
     7
100
AcDbCircle
 10
1723.1086494052
 20
123.6504003915
 30
0.0
 40
13.99999999999999
100
AcDbArc
 50
180.0
 51
270.0
  0
ARC
  5
561
330
1F
100
AcDbEntity
  8
0
  6
Continuous
 62
     7
100
AcDbCircle
 10
1723.1086494052
 20
123.6504003915
 30
0.0
 40
2.0
100
AcDbArc
 50
180.0
 51
270.0
  0
LINE
  5
562
330
1F
100
AcDbEntity
  8
0
  6
Continuous
 62
     7
100
AcDbLine
 10
2628.1086494052
 20
181.6504003915
 30
0.0
 11
2628.1086494052
 21
193.6504003915
 31
0.0
  0
LINE
  5
563
330
1F
100
AcDbEntity
  8
0
  6
Continuous
 62
     7
100
AcDbLine
 10
1723.1086494052
 20
181.6504003915
 30
0.0
 11
2628.1086494052
 21
181.6504003915
 31
0.0
  0
LINE
  5
564
330
1F
100
AcDbEntity
  8
0
  6
Continuous
 62
     7
100
AcDbLine
 10
1723.1086494052
 20
193.6504003915
 30
0.0
 11
2628.1086494052
 21
193.6504003915
 31
0.0
  0
LINE
  5
565
330
1F
100
AcDbEntity
  8
0
  6
Continuous
 62
     7
100
AcDbLine
 10
2628.1086494052
 20
109.6504003915
 30
0.0
 11
2628.1086494052
 21
121.6504003915
 31
0.0
  0
LINE
  5
566
330
1F
100
AcDbEntity
  8
0
  6
Continuous
 62
     7
100
AcDbLine
 10
1723.1086494052
 20
109.6504003915
 30
0.0
 11
2628.1086494052
 21
109.6504003915
 31
0.0
  0
LINE
  5
567
330
1F
100
AcDbEntity
  8
0
  6
Continuous
 62
     7
100
AcDbLine
 10
1723.1086494052
 20
121.6504003915
 30
0.0
 11
2628.1086494052
 21
121.6504003915
 31
0.0
  0
LINE
  5
568
330
1F
100
AcDbEntity
  8
0
  6
Continuous
 62
     7
100
AcDbLine
 10
1707.6086494052
 20
105.6504003915
 30
0.0
 11
1707.6086494052
 21
103.6504003915
 31
0.0
  0
LINE
  5
569
330
1F
100
AcDbEntity
  8
0
  6
Continuous
 62
     7
100
AcDbLine
 10
1704.6086494052
 20
105.6504003915
 30
0.0
 11
1707.6086494052
 21
105.6504003915
 31
0.0
  0
LINE
  5
56A
330
1F
100
AcDbEntity
  8
0
  6
Continuous
 62
     7
100
AcDbLine
 10
1707.6086494052
 20
103.6504003915
 30
0.0
 11
1704.6086494052
 21
103.6504003915
 31
0.0
  0
LINE
  5
56B
330
1F
100
AcDbEntity
  8
0
  6
Continuous
 62
     7
100
AcDbLine
 10
1707.6086494052
 20
199.6504003915
 30
0.0
 11
1707.6086494052
 21
197.6504003915
 31
0.0
  0
LINE
  5
56C
330
1F
100
AcDbEntity
  8
0
  6
Continuous
 62
     7
100
AcDbLine
 10
1707.6086494052
 20
197.6504003915
 30
0.0
 11
1704.6086494052
 21
197.6504003915
 31
0.0
  0
LINE
  5
56D
330
1F
100
AcDbEntity
  8
0
  6
Continuous
 62
     7
100
AcDbLine
 10
1704.6086494052
 20
199.6504003915
 30
0.0
 11
1707.6086494052
 21
199.6504003915
 31
0.0
  0
LINE
  5
56E
330
1F
100
AcDbEntity
  8
0
  6
Continuous
 62
     7
100
AcDbLine
 10
1720.6086494052
 20
103.6504003915
 30
0.0
 11
1720.6086494052
 21
105.6504003915
 31
0.0
  0
LINE
  5
56F
330
1F
100
AcDbEntity
  8
0
  6
Continuous
 62
     7
100
AcDbLine
 10
1720.6086494052
 20
105.6504003915
 30
0.0
 11
1723.6086494052
 21
105.6504003915
 31
0.0
  0
LINE
  5
570
330
1F
100
AcDbEntity
  8
0
  6
Continuous
 62
     7
100
AcDbLine
 10
1723.6086494052
 20
103.6504003915
 30
0.0
 11
1720.6086494052
 21
103.6504003915
 31
0.0
  0
LINE
  5
571
330
1F
100
AcDbEntity
  8
0
  6
Continuous
 62
     7
100
AcDbLine
 10
1720.6086494052
 20
197.6504003915
 30
0.0
 11
1720.6086494052
 21
199.6504003915
 31
0.0
  0
LINE
  5
572
330
1F
100
AcDbEntity
  8
0
  6
Continuous
 62
     7
100
AcDbLine
 10
1723.6086494052
 20
197.6504003915
 30
0.0
 11
1720.6086494052
 21
197.6504003915
 31
0.0
  0
LINE
  5
573
330
1F
100
AcDbEntity
  8
0
  6
Continuous
 62
     7
100
AcDbLine
 10
1720.6086494052
 20
199.6504003915
 30
0.0
 11
1723.6086494052
 21
199.6504003915
 31
0.0
  0
LINE
  5
574
330
1F
100
AcDbEntity
  8
0
  6
Continuous
 62
     7
100
AcDbLine
 10
2630.6086494052
 20
105.6504003915
 30
0.0
 11
2630.6086494052
 21
103.6504003915
 31
0.0
  0
LINE
  5
575
330
1F
100
AcDbEntity
  8
0
  6
Continuous
 62
     7
100
AcDbLine
 10
2627.6086494052
 20
105.6504003915
 30
0.0
 11
2630.6086494052
 21
105.6504003915
 31
0.0
  0
LINE
  5
576
330
1F
100
AcDbEntity
  8
0
  6
Continuous
 62
     7
100
AcDbLine
 10
2630.6086494052
 20
103.6504003915
 30
0.0
 11
2627.6086494052
 21
103.6504003915
 31
0.0
  0
LINE
  5
577
330
1F
100
AcDbEntity
  8
0
  6
Continuous
 62
     7
100
AcDbLine
 10
2630.6086494052
 20
199.6504003915
 30
0.0
 11
2630.6086494052
 21
197.6504003915
 31
0.0
  0
LINE
  5
578
330
1F
100
AcDbEntity
  8
0
  6
Continuous
 62
     7
100
AcDbLine
 10
2630.6086494052
 20
197.6504003915
 30
0.0
 11
2627.6086494052
 21
197.6504003915
 31
0.0
  0
LINE
  5
579
330
1F
100
AcDbEntity
  8
0
  6
Continuous
 62
     7
100
AcDbLine
 10
2627.6086494052
 20
199.6504003915
 30
0.0
 11
2630.6086494052
 21
199.6504003915
 31
0.0
  0
LINE
  5
57A
330
1F
100
AcDbEntity
  8
0
  6
Continuous
 62
     7
100
AcDbLine
 10
2643.6086494052
 20
103.6504003915
 30
0.0
 11
2643.6086494052
 21
105.6504003915
 31
0.0
  0
LINE
  5
57B
330
1F
100
AcDbEntity
  8
0
  6
Continuous
 62
     7
100
AcDbLine
 10
2643.6086494052
 20
105.6504003915
 30
0.0
 11
2646.6086494052
 21
105.6504003915
 31
0.0
  0
LINE
  5
57C
330
1F
100
AcDbEntity
  8
0
  6
Continuous
 62
     7
100
AcDbLine
 10
2646.6086494052
 20
103.6504003915
 30
0.0
 11
2643.6086494052
 21
103.6504003915
 31
0.0
  0
LINE
  5
57D
330
1F
100
AcDbEntity
  8
0
  6
Continuous
 62
     7
100
AcDbLine
 10
2643.6086494052
 20
197.6504003915
 30
0.0
 11
2643.6086494052
 21
199.6504003915
 31
0.0
  0
LINE
  5
57E
330
1F
100
AcDbEntity
  8
0
  6
Continuous
 62
     7
100
AcDbLine
 10
2646.6086494052
 20
197.6504003915
 30
0.0
 11
2643.6086494052
 21
197.6504003915
 31
0.0
  0
LINE
  5
57F
330
1F
100
AcDbEntity
  8
0
  6
Continuous
 62
     7
100
AcDbLine
 10
2643.6086494052
 20
199.6504003915
 30
0.0
 11
2646.6086494052
 21
199.6504003915
 31
0.0
  0
LINE
  5
580
330
1F
100
AcDbEntity
  8
0
  6
Continuous
 62
     7
100
AcDbLine
 10
2636.1086494052
 20
179.6504003915
 30
0.0
 11
2642.1086494052
 21
179.6504003915
 31
0.0
  0
LINE
  5
581
330
1F
100
AcDbEntity
  8
0
  6
Continuous
 62
     7
100
AcDbLine
 10
2630.1086494052
 20
179.6504003915
 30
0.0
 11
2636.1086494052
 21
179.6504003915
 31
0.0
  0
ARC
  5
582
330
1F
100
AcDbEntity
  8
0
  6
Continuous
 62
     7
100
AcDbCircle
 10
2628.1086494052
 20
179.6504003915
 30
0.0
 40
2.0
100
AcDbArc
 50
0.0
 51
90.0
  0
ARC
  5
583
330
1F
100
AcDbEntity
  8
0
  6
Continuous
 62
     7
100
AcDbCircle
 10
2628.1086494052
 20
179.6504003915
 30
0.0
 40
14.0
100
AcDbArc
 50
0.0
 51
90.0
  0
LINE
  5
584
330
1F
100
AcDbEntity
  8
0
  6
Continuous
 62
     7
100
AcDbLine
 10
2636.1086494052
 20
123.6504003915
 30
0.0
 11
2630.1086494052
 21
123.6504003915
 31
0.0
  0
LINE
  5
585
330
1F
100
AcDbEntity
  8
0
  6
Continuous
 62
     7
100
AcDbLine
 10
2642.1086494052
 20
123.6504003915
 30
0.0
 11
2636.1086494052
 21
123.6504003915
 31
0.0
  0
ARC
  5
586
330
1F
100
AcDbEntity
  8
0
  6
Continuous
 62
     7
100
AcDbCircle
 10
2628.1086494052
 20
123.6504003915
 30
0.0
 40
14.0
100
AcDbArc
 50
270.0
 51
0.0
  0
ARC
  5
587
330
1F
100
AcDbEntity
  8
0
  6
Continuous
 62
     7
100
AcDbCircle
 10
2628.1086494052
 20
123.6504003915
 30
0.0
 40
2.0
100
AcDbArc
 50
270.0
 51
0.0
  0
LINE
  5
588
330
1F
100
AcDbEntity
  8
0
  6
Continuous
 62
     7
100
AcDbLine
 10
2630.1086494052
 20
179.6504003915
 30
0.0
 11
2630.1086494052
 21
154.6504003915
 31
0.0
  0
LINE
  5
589
330
1F
100
AcDbEntity
  8
0
  6
Continuous
 62
     7
100
AcDbLine
 10
2630.1086494052
 20
148.6504003915
 30
0.0
 11
2630.1086494052
 21
142.7766616818
 31
0.0
  0
LINE
  5
58A
330
1F
100
AcDbEntity
  8
0
  6
Continuous
 62
     7
100
AcDbLine
 10
2630.1086494052
 20
136.9290528815
 30
0.0
 11
2630.1086494052
 21
123.6504003915
 31
0.0
  0
LINE
  5
58B
330
1F
100
AcDbEntity
  8
0
  6
Continuous
 62
     7
100
AcDbLine
 10
2642.1086494052
 20
179.6504003915
 30
0.0
 11
2642.1086494052
 21
123.6504003915
 31
0.0
  0
ARC
  5
58C
330
1F
100
AcDbEntity
  8
0
  6
Continuous
 62
     7
100
AcDbCircle
 10
1740.6086494052
 20
146.1504003915
 30
0.0
 40
2.0
100
AcDbArc
 50
270.0
 51
0.0
  0
LINE
  5
58D
330
1F
100
AcDbEntity
  8
0
  6
Continuous
 62
     7
100
AcDbLine
 10
1740.6086494052
 20
144.1504003915
 30
0.0
 11
1724.6086494052
 21
144.1504003915
 31
0.0
  0
LINE
  5
58E
330
1F
100
AcDbEntity
  8
0
  6
Continuous
 62
     7
100
AcDbLine
 10
1724.6086494052
 20
159.1504003915
 30
0.0
 11
1740.6086494052
 21
159.1504003915
 31
0.0
  0
ARC
  5
58F
330
1F
100
AcDbEntity
  8
0
  6
Continuous
 62
     7
100
AcDbCircle
 10
1740.6086494052
 20
157.1504003915
 30
0.0
 40
2.0
100
AcDbArc
 50
0.0
 51
90.0
  0
LINE
  5
590
330
1F
100
AcDbEntity
  8
0
  6
Continuous
 62
     7
100
AcDbLine
 10
1742.6086494052
 20
157.1504003915
 30
0.0
 11
1742.6086494052
 21
146.1504003915
 31
0.0
  0
LINE
  5
591
330
1F
100
AcDbEntity
  8
0
  6
Continuous
 62
     7
100
AcDbLine
 10
1724.6086494052
 20
144.1504003915
 30
0.0
 11
1723.6086494052
 21
144.1504003915
 31
0.0
  0
LINE
  5
592
330
1F
100
AcDbEntity
  8
0
  6
Continuous
 62
     7
100
AcDbLine
 10
1724.6086494052
 20
159.1504003915
 30
0.0
 11
1723.6086494052
 21
159.1504003915
 31
0.0
  0
ARC
  5
593
330
1F
100
AcDbEntity
  8
0
  6
Continuous
 62
     7
100
AcDbCircle
 10
2610.6086494052
 20
157.1504003915
 30
0.0
 40
2.000000000000455
100
AcDbArc
 50
90.0
 51
180.0
  0
LINE
  5
594
330
1F
100
AcDbEntity
  8
0
  6
Continuous
 62
     7
100
AcDbLine
 10
2610.6086494052
 20
159.1504003915
 30
0.0
 11
2626.6086494052
 21
159.1504003915
 31
0.0
  0
LINE
  5
595
330
1F
100
AcDbEntity
  8
0
  6
Continuous
 62
     7
100
AcDbLine
 10
2626.6086494052
 20
144.1504003915
 30
0.0
 11
2610.6086494052
 21
144.1504003915
 31
0.0
  0
ARC
  5
596
330
1F
100
AcDbEntity
  8
0
  6
Continuous
 62
     7
100
AcDbCircle
 10
2610.6086494052
 20
146.1504003915
 30
0.0
 40
2.000000000000455
100
AcDbArc
 50
180.0
 51
270.0
  0
LINE
  5
597
330
1F
100
AcDbEntity
  8
0
  6
Continuous
 62
     7
100
AcDbLine
 10
2608.6086494052
 20
146.1504003915
 30
0.0
 11
2608.6086494052
 21
157.1504003915
 31
0.0
  0
LINE
  5
598
330
1F
100
AcDbEntity
  8
0
  6
Continuous
 62
     7
100
AcDbLine
 10
2626.6086494052
 20
144.1504003915
 30
0.0
 11
2627.6086494052
 21
144.1504003915
 31
0.0
  0
LINE
  5
599
330
1F
100
AcDbEntity
  8
0
  6
Continuous
 62
     7
100
AcDbLine
 10
2626.6086494052
 20
159.1504003915
 30
0.0
 11
2627.6086494052
 21
159.1504003915
 31
0.0
  0
LINE
  5
59A
330
1F
100
AcDbEntity
  8
0
  6
Continuous
 62
     7
100
AcDbLine
 10
1720.6086494052
 20
105.6504003915
 30
0.0
 11
1707.6086494052
 21
105.6504003915
 31
0.0
  0
LINE
  5
59B
330
1F
100
AcDbEntity
  8
0
  6
Continuous
 62
     7
100
AcDbLine
 10
1720.6086494052
 20
103.6504003915
 30
0.0
 11
1707.6086494052
 21
103.6504003915
 31
0.0
  0
LINE
  5
59C
330
1F
100
AcDbEntity
  8
0
  6
Continuous
 62
     7
100
AcDbLine
 10
1707.6086494052
 20
197.6504003915
 30
0.0
 11
1720.6086494052
 21
197.6504003915
 31
0.0
  0
LINE
  5
59D
330
1F
100
AcDbEntity
  8
0
  6
Continuous
 62
     7
100
AcDbLine
 10
1720.6086494052
 20
199.6504003915
 30
0.0
 11
1707.6086494052
 21
199.6504003915
 31
0.0
  0
LINE
  5
59E
330
1F
100
AcDbEntity
  8
0
  6
Continuous
 62
     7
100
AcDbLine
 10
2643.6086494052
 20
105.6504003915
 30
0.0
 11
2630.6086494052
 21
105.6504003915
 31
0.0
  0
LINE
  5
59F
330
1F
100
AcDbEntity
  8
0
  6
Continuous
 62
     7
100
AcDbLine
 10
2643.6086494052
 20
103.6504003915
 30
0.0
 11
2630.6086494052
 21
103.6504003915
 31
0.0
  0
LINE
  5
5A0
330
1F
100
AcDbEntity
  8
0
  6
Continuous
 62
     7
100
AcDbLine
 10
2630.6086494052
 20
197.6504003915
 30
0.0
 11
2643.6086494052
 21
197.6504003915
 31
0.0
  0
LINE
  5
5A1
330
1F
100
AcDbEntity
  8
0
  6
Continuous
 62
     7
100
AcDbLine
 10
2643.6086494052
 20
199.6504003915
 30
0.0
 11
2630.6086494052
 21
199.6504003915
 31
0.0
  0
ARC
  5
5A2
330
1F
100
AcDbEntity
  8
0
  6
Continuous
 62
     7
100
AcDbCircle
 10
2573.1086494052
 20
169.6504003915
 30
0.0
 40
5.750000000000304
100
AcDbArc
 50
260.4864054705
 51
80.4864054704
  0
ARC
  5
5A3
330
1F
100
AcDbEntity
  8
0
  6
Continuous
 62
     7
100
AcDbCircle
 10
2573.1086494052
 20
169.6504003915
 30
0.0
 40
5.750000000000304
100
AcDbArc
 50
80.4864054704
 51
260.4864054705
  0
LINE
  5
5A4
330
1F
100
AcDbEntity
  8
0
  6
Continuous
 62
     7
100
AcDbLine
 10
1734.1086494052
 20
144.1148664856
 30
0.0
 11
1734.1086494052
 21
143.4077597044
 31
0.0
  0
LINE
  5
5A5
330
1F
100
AcDbEntity
  8
0
  6
Continuous
 62
     7
100
AcDbLine
 10
1734.1086494052
 20
159.1859342974
 30
0.0
 11
1734.1086494052
 21
159.8930410786
 31
0.0
  0
LINE
  5
5A6
330
1F
100
AcDbEntity
  8
0
  6
Continuous
 62
     7
100
AcDbLine
 10
2617.1086494052
 20
144.1148664856
 30
0.0
 11
2617.1086494052
 21
143.4077597044
 31
0.0
  0
LINE
  5
5A7
330
1F
100
AcDbEntity
  8
0
  6
Continuous
 62
     7
100
AcDbLine
 10
2617.1086494052
 20
159.1859342974
 30
0.0
 11
2617.1086494052
 21
159.8930410786
 31
0.0
  0
ARC
  5
5A8
330
1F
100
AcDbEntity
  8
0
  6
Continuous
 62
     7
100
AcDbCircle
 10
2588.1086494052
 20
144.6504003915
 30
0.0
 40
13.19999999999982
100
AcDbArc
 50
0.0
 51
180.0
  0
ARC
  5
5A9
330
1F
100
AcDbEntity
  8
0
  6
Continuous
 62
     7
100
AcDbCircle
 10
2588.1086494052
 20
144.6504003915
 30
0.0
 40
13.19999999999982
100
AcDbArc
 50
180.0
 51
0.0
  0
ARC
  5
5AA
330
1F
100
AcDbEntity
  8
0
  6
Continuous
 62
     7
100
AcDbCircle
 10
2588.1086494052
 20
144.6504003915
 30
0.0
 40
15.00000000000045
100
AcDbArc
 50
180.0
 51
0.0
  0
ARC
  5
5AB
330
1F
100
AcDbEntity
  8
0
  6
Continuous
 62
     7
100
AcDbCircle
 10
2588.1086494052
 20
144.6504003915
 30
0.0
 40
15.00000000000045
100
AcDbArc
 50
0.0
 51
180.0
  0
LINE
  5
5AC
330
1F
100
AcDbEntity
  8
0
  6
Continuous
 62
     7
100
AcDbLine
 10
2589.0086494052
 20
147.1504003915
 30
0.0
 11
2589.0086494052
 21
151.2504003915
 31
0.0
  0
LINE
  5
5AD
330
1F
100
AcDbEntity
  8
0
  6
Continuous
 62
     7
100
AcDbLine
 10
2589.0086494052
 20
147.1504003915
 30
0.0
 11
2596.7358569811
 21
147.1504003915
 31
0.0
  0
ARC
  5
5AE
330
1F
100
AcDbEntity
  8
0
  6
Continuous
 62
     7
100
AcDbCircle
 10
2596.7358571991
 20
146.2504003915
 30
0.0
 40
0.9000000000000321
100
AcDbArc
 50
270.0
 51
90.0000138802
  0
LINE
  5
5AF
330
1F
100
AcDbEntity
  8
0
  6
Continuous
 62
     7
100
AcDbLine
 10
2579.4814414898
 20
145.3504003915
 30
0.0
 11
2596.7358571991
 21
145.3504003915
 31
0.0
  0
ARC
  5
5B0
330
1F
100
AcDbEntity
  8
0
  6
Continuous
 62
     7
100
AcDbCircle
 10
2579.4814416114
 20
146.2504003915
 30
0.0
 40
0.900000000000091
100
AcDbArc
 50
180.0
 51
269.9999922617
  0
ARC
  5
5B1
330
1F
100
AcDbEntity
  8
0
  6
Continuous
 62
     7
100
AcDbCircle
 10
2579.4814416114
 20
146.2504003915
 30
0.0
 40
0.900000000000091
100
AcDbArc
 50
90.0
 51
180.0
  0
LINE
  5
5B2
330
1F
100
AcDbEntity
  8
0
  6
Continuous
 62
     7
100
AcDbLine
 10
2579.4814416114
 20
147.1504003915
 30
0.0
 11
2587.2086494052
 21
147.1504003915
 31
0.0
  0
LINE
  5
5B3
330
1F
100
AcDbEntity
  8
0
  6
Continuous
 62
     7
100
AcDbLine
 10
2587.2086494052
 20
151.2504003915
 30
0.0
 11
2587.2086494052
 21
147.1504003915
 31
0.0
  0
ARC
  5
5B4
330
1F
100
AcDbEntity
  8
0
  6
Continuous
 62
     7
100
AcDbCircle
 10
2588.1086494052
 20
151.2504003915
 30
0.0
 40
0.900000000000091
100
AcDbArc
 50
0.0
 51
180.0
  0
LINE
  5
5B5
330
1F
100
AcDbEntity
  8
0
  6
Continuous
 62
     7
100
AcDbLine
 10
2593.1358571991
 20
141.7504003915
 30
0.0
 11
2583.0814416114
 21
141.7504003915
 31
0.0
  0
ARC
  5
5B6
330
1F
100
AcDbEntity
  8
0
  6
Continuous
 62
     7
100
AcDbCircle
 10
2583.0814416114
 20
142.6504003915
 30
0.0
 40
0.900000000000091
100
AcDbArc
 50
180.0
 51
270.0
  0
ARC
  5
5B7
330
1F
100
AcDbEntity
  8
0
  6
Continuous
 62
     7
100
AcDbCircle
 10
2583.0814416114
 20
142.6504003915
 30
0.0
 40
0.900000000000091
100
AcDbArc
 50
90.0
 51
180.0
  0
LINE
  5
5B8
330
1F
100
AcDbEntity
  8
0
  6
Continuous
 62
     7
100
AcDbLine
 10
2593.1358571991
 20
143.5504003915
 30
0.0
 11
2583.0814416114
 21
143.5504003915
 31
0.0
  0
ARC
  5
5B9
330
1F
100
AcDbEntity
  8
0
  6
Continuous
 62
     7
100
AcDbCircle
 10
2593.1358571991
 20
142.6504003915
 30
0.0
 40
0.9000000000000057
100
AcDbArc
 50
270.0
 51
90.0
  0
LINE
  5
5BA
330
1F
100
AcDbEntity
  8
0
  6
Continuous
 62
     7
100
AcDbLine
 10
2586.6814416114
 20
139.9504003915
 30
0.0
 11
2589.5358571991
 21
139.9504003915
 31
0.0
  0
ARC
  5
5BB
330
1F
100
AcDbEntity
  8
0
  6
Continuous
 62
     7
100
AcDbCircle
 10
2589.5358571991
 20
139.0504003915
 30
0.0
 40
0.9000000000000057
100
AcDbArc
 50
270.0
 51
90.0
  0
LINE
  5
5BC
330
1F
100
AcDbEntity
  8
0
  6
Continuous
 62
     7
100
AcDbLine
 10
2586.6814416114
 20
138.1504003915
 30
0.0
 11
2589.5358571991
 21
138.1504003915
 31
0.0
  0
ARC
  5
5BD
330
1F
100
AcDbEntity
  8
0
  6
Continuous
 62
     7
100
AcDbCircle
 10
2586.6814416114
 20
139.0504003915
 30
0.0
 40
0.900000000000091
100
AcDbArc
 50
180.0
 51
270.0
  0
ARC
  5
5BE
330
1F
100
AcDbEntity
  8
0
  6
Continuous
 62
     7
100
AcDbCircle
 10
2586.6814416114
 20
139.0504003915
 30
0.0
 40
0.900000000000091
100
AcDbArc
 50
90.0
 51
180.0
  0
ARC
  5
5BF
330
1F
100
AcDbEntity
  8
0
  6
Continuous
 62
     7
100
AcDbCircle
 10
2510.810967611
 20
165.2504003915
 30
0.0
 40
12.6885775404493
100
AcDbArc
 50
0.0
 51
90.0
  0
LINE
  5
5C0
330
1F
100
AcDbEntity
  8
0
  6
Continuous
 62
     7
100
AcDbLine
 10
2510.810967611
 20
177.938977932
 30
0.0
 11
2471.810967611
 21
177.938977932
 31
0.0
  0
ARC
  5
5C1
330
1F
100
AcDbEntity
  8
0
  6
Continuous
 62
     7
100
AcDbCircle
 10
2471.810967611
 20
165.2504003915
 30
0.0
 40
12.6885775404503
100
AcDbArc
 50
90.0
 51
180.0
  0
LINE
  5
5C2
330
1F
100
AcDbEntity
  8
0
  6
Continuous
 62
     7
100
AcDbLine
 10
2459.1223900705
 20
165.2504003915
 30
0.0
 11
2523.4995451514
 21
165.2504003915
 31
0.0
  0
ARC
  5
5C3
330
1F
100
AcDbEntity
  8
0
  6
Continuous
 62
     7
100
AcDbCircle
 10
2510.810967611
 20
145.2504003915
 30
0.0
 40
12.6885775404493
100
AcDbArc
 50
0.0
 51
90.0
  0
LINE
  5
5C4
330
1F
100
AcDbEntity
  8
0
  6
Continuous
 62
     7
100
AcDbLine
 10
2510.810967611
 20
157.938977932
 30
0.0
 11
2471.810967611
 21
157.938977932
 31
0.0
  0
ARC
  5
5C5
330
1F
100
AcDbEntity
  8
0
  6
Continuous
 62
     7
100
AcDbCircle
 10
2471.810967611
 20
145.2504003915
 30
0.0
 40
12.6885775404503
100
AcDbArc
 50
90.0
 51
180.0
  0
LINE
  5
5C6
330
1F
100
AcDbEntity
  8
0
  6
Continuous
 62
     7
100
AcDbLine
 10
2459.1223900705
 20
145.2504003915
 30
0.0
 11
2523.4995451514
 21
145.2504003915
 31
0.0
  0
ARC
  5
5C7
330
1F
100
AcDbEntity
  8
0
  6
Continuous
 62
     7
100
AcDbCircle
 10
2510.810967611
 20
125.2504003915
 30
0.0
 40
12.68857754044929
100
AcDbArc
 50
0.0
 51
90.0
  0
LINE
  5
5C8
330
1F
100
AcDbEntity
  8
0
  6
Continuous
 62
     7
100
AcDbLine
 10
2510.810967611
 20
137.938977932
 30
0.0
 11
2471.810967611
 21
137.938977932
 31
0.0
  0
ARC
  5
5C9
330
1F
100
AcDbEntity
  8
0
  6
Continuous
 62
     7
100
AcDbCircle
 10
2471.810967611
 20
125.2504003915
 30
0.0
 40
12.6885775404503
100
AcDbArc
 50
90.0
 51
180.0
  0
LINE
  5
5CA
330
1F
100
AcDbEntity
  8
0
  6
Continuous
 62
     7
100
AcDbLine
 10
2459.1223900705
 20
125.2504003915
 30
0.0
 11
2523.4995451514
 21
125.2504003915
 31
0.0
  0
ARC
  5
5CB
330
1F
100
AcDbEntity
  8
0
  6
Continuous
 62
     7
100
AcDbCircle
 10
2430.810967611
 20
165.2504003915
 30
0.0
 40
12.68857754044936
100
AcDbArc
 50
0.0
 51
90.0
  0
LINE
  5
5CC
330
1F
100
AcDbEntity
  8
0
  6
Continuous
 62
     7
100
AcDbLine
 10
2430.810967611
 20
177.938977932
 30
0.0
 11
2391.810967611
 21
177.938977932
 31
0.0
  0
ARC
  5
5CD
330
1F
100
AcDbEntity
  8
0
  6
Continuous
 62
     7
100
AcDbCircle
 10
2391.810967611
 20
165.2504003915
 30
0.0
 40
12.68857754044984
100
AcDbArc
 50
90.0
 51
180.0
  0
LINE
  5
5CE
330
1F
100
AcDbEntity
  8
0
  6
Continuous
 62
     7
100
AcDbLine
 10
2379.1223900705
 20
165.2504003915
 30
0.0
 11
2443.4995451514
 21
165.2504003915
 31
0.0
  0
ARC
  5
5CF
330
1F
100
AcDbEntity
  8
0
  6
Continuous
 62
     7
100
AcDbCircle
 10
2430.810967611
 20
145.2504003915
 30
0.0
 40
12.68857754044936
100
AcDbArc
 50
0.0
 51
90.0
  0
LINE
  5
5D0
330
1F
100
AcDbEntity
  8
0
  6
Continuous
 62
     7
100
AcDbLine
 10
2430.810967611
 20
157.938977932
 30
0.0
 11
2391.810967611
 21
157.938977932
 31
0.0
  0
ARC
  5
5D1
330
1F
100
AcDbEntity
  8
0
  6
Continuous
 62
     7
100
AcDbCircle
 10
2391.810967611
 20
145.2504003915
 30
0.0
 40
12.68857754044984
100
AcDbArc
 50
90.0
 51
180.0
  0
LINE
  5
5D2
330
1F
100
AcDbEntity
  8
0
  6
Continuous
 62
     7
100
AcDbLine
 10
2379.1223900705
 20
145.2504003915
 30
0.0
 11
2443.4995451514
 21
145.2504003915
 31
0.0
  0
ARC
  5
5D3
330
1F
100
AcDbEntity
  8
0
  6
Continuous
 62
     7
100
AcDbCircle
 10
2430.810967611
 20
125.2504003915
 30
0.0
 40
12.68857754044929
100
AcDbArc
 50
0.0
 51
90.0
  0
LINE
  5
5D4
330
1F
100
AcDbEntity
  8
0
  6
Continuous
 62
     7
100
AcDbLine
 10
2430.810967611
 20
137.938977932
 30
0.0
 11
2391.810967611
 21
137.938977932
 31
0.0
  0
ARC
  5
5D5
330
1F
100
AcDbEntity
  8
0
  6
Continuous
 62
     7
100
AcDbCircle
 10
2391.810967611
 20
125.2504003915
 30
0.0
 40
12.68857754044984
100
AcDbArc
 50
90.0
 51
180.0
  0
LINE
  5
5D6
330
1F
100
AcDbEntity
  8
0
  6
Continuous
 62
     7
100
AcDbLine
 10
2379.1223900705
 20
125.2504003915
 30
0.0
 11
2443.4995451514
 21
125.2504003915
 31
0.0
  0
ARC
  5
5D7
330
1F
100
AcDbEntity
  8
0
  6
Continuous
 62
     7
100
AcDbCircle
 10
2350.810967611
 20
165.2504003915
 30
0.0
 40
12.68857754044936
100
AcDbArc
 50
0.0
 51
90.0
  0
LINE
  5
5D8
330
1F
100
AcDbEntity
  8
0
  6
Continuous
 62
     7
100
AcDbLine
 10
2350.810967611
 20
177.938977932
 30
0.0
 11
2311.810967611
 21
177.938977932
 31
0.0
  0
ARC
  5
5D9
330
1F
100
AcDbEntity
  8
0
  6
Continuous
 62
     7
100
AcDbCircle
 10
2311.810967611
 20
165.2504003915
 30
0.0
 40
12.68857754044984
100
AcDbArc
 50
90.0
 51
180.0
  0
LINE
  5
5DA
330
1F
100
AcDbEntity
  8
0
  6
Continuous
 62
     7
100
AcDbLine
 10
2299.1223900705
 20
165.2504003915
 30
0.0
 11
2363.4995451514
 21
165.2504003915
 31
0.0
  0
ARC
  5
5DB
330
1F
100
AcDbEntity
  8
0
  6
Continuous
 62
     7
100
AcDbCircle
 10
2350.810967611
 20
145.2504003915
 30
0.0
 40
12.68857754044936
100
AcDbArc
 50
0.0
 51
90.0
  0
LINE
  5
5DC
330
1F
100
AcDbEntity
  8
0
  6
Continuous
 62
     7
100
AcDbLine
 10
2350.810967611
 20
157.938977932
 30
0.0
 11
2311.810967611
 21
157.938977932
 31
0.0
  0
ARC
  5
5DD
330
1F
100
AcDbEntity
  8
0
  6
Continuous
 62
     7
100
AcDbCircle
 10
2311.810967611
 20
145.2504003915
 30
0.0
 40
12.68857754044984
100
AcDbArc
 50
90.0
 51
180.0
  0
LINE
  5
5DE
330
1F
100
AcDbEntity
  8
0
  6
Continuous
 62
     7
100
AcDbLine
 10
2299.1223900705
 20
145.2504003915
 30
0.0
 11
2363.4995451514
 21
145.2504003915
 31
0.0
  0
ARC
  5
5DF
330
1F
100
AcDbEntity
  8
0
  6
Continuous
 62
     7
100
AcDbCircle
 10
2350.810967611
 20
125.2504003915
 30
0.0
 40
12.6885775404494
100
AcDbArc
 50
0.0
 51
90.0
  0
LINE
  5
5E0
330
1F
100
AcDbEntity
  8
0
  6
Continuous
 62
     7
100
AcDbLine
 10
2350.810967611
 20
137.938977932
 30
0.0
 11
2311.810967611
 21
137.938977932
 31
0.0
  0
ARC
  5
5E1
330
1F
100
AcDbEntity
  8
0
  6
Continuous
 62
     7
100
AcDbCircle
 10
2311.810967611
 20
125.2504003915
 30
0.0
 40
12.68857754044984
100
AcDbArc
 50
90.0
 51
180.0
  0
LINE
  5
5E2
330
1F
100
AcDbEntity
  8
0
  6
Continuous
 62
     7
100
AcDbLine
 10
2299.1223900705
 20
125.2504003915
 30
0.0
 11
2363.4995451514
 21
125.2504003915
 31
0.0
  0
ARC
  5
5E3
330
1F
100
AcDbEntity
  8
0
  6
Continuous
 62
     7
100
AcDbCircle
 10
2270.810967611
 20
165.2504003915
 30
0.0
 40
12.68857754044936
100
AcDbArc
 50
0.0
 51
90.0
  0
LINE
  5
5E4
330
1F
100
AcDbEntity
  8
0
  6
Continuous
 62
     7
100
AcDbLine
 10
2270.810967611
 20
177.938977932
 30
0.0
 11
2231.810967611
 21
177.938977932
 31
0.0
  0
ARC
  5
5E5
330
1F
100
AcDbEntity
  8
0
  6
Continuous
 62
     7
100
AcDbCircle
 10
2231.810967611
 20
165.2504003915
 30
0.0
 40
12.68857754044984
100
AcDbArc
 50
90.0
 51
180.0
  0
LINE
  5
5E6
330
1F
100
AcDbEntity
  8
0
  6
Continuous
 62
     7
100
AcDbLine
 10
2219.1223900705
 20
165.2504003915
 30
0.0
 11
2283.4995451514
 21
165.2504003915
 31
0.0
  0
ARC
  5
5E7
330
1F
100
AcDbEntity
  8
0
  6
Continuous
 62
     7
100
AcDbCircle
 10
2270.810967611
 20
145.2504003915
 30
0.0
 40
12.68857754044939
100
AcDbArc
 50
0.0
 51
90.0
  0
LINE
  5
5E8
330
1F
100
AcDbEntity
  8
0
  6
Continuous
 62
     7
100
AcDbLine
 10
2270.810967611
 20
157.938977932
 30
0.0
 11
2231.810967611
 21
157.938977932
 31
0.0
  0
ARC
  5
5E9
330
1F
100
AcDbEntity
  8
0
  6
Continuous
 62
     7
100
AcDbCircle
 10
2231.810967611
 20
145.2504003915
 30
0.0
 40
12.68857754044984
100
AcDbArc
 50
90.0
 51
180.0
  0
LINE
  5
5EA
330
1F
100
AcDbEntity
  8
0
  6
Continuous
 62
     7
100
AcDbLine
 10
2219.1223900705
 20
145.2504003915
 30
0.0
 11
2283.4995451514
 21
145.2504003915
 31
0.0
  0
ARC
  5
5EB
330
1F
100
AcDbEntity
  8
0
  6
Continuous
 62
     7
100
AcDbCircle
 10
2270.810967611
 20
125.2504003915
 30
0.0
 40
12.6885775404494
100
AcDbArc
 50
0.0
 51
90.0
  0
LINE
  5
5EC
330
1F
100
AcDbEntity
  8
0
  6
Continuous
 62
     7
100
AcDbLine
 10
2270.810967611
 20
137.938977932
 30
0.0
 11
2231.810967611
 21
137.938977932
 31
0.0
  0
ARC
  5
5ED
330
1F
100
AcDbEntity
  8
0
  6
Continuous
 62
     7
100
AcDbCircle
 10
2231.810967611
 20
125.2504003915
 30
0.0
 40
12.68857754044984
100
AcDbArc
 50
90.0
 51
180.0
  0
LINE
  5
5EE
330
1F
100
AcDbEntity
  8
0
  6
Continuous
 62
     7
100
AcDbLine
 10
2219.1223900705
 20
125.2504003915
 30
0.0
 11
2283.4995451514
 21
125.2504003915
 31
0.0
  0
ARC
  5
5EF
330
1F
100
AcDbEntity
  8
0
  6
Continuous
 62
     7
100
AcDbCircle
 10
1870.810967611
 20
165.2504003915
 30
0.0
 40
12.6885775404495
100
AcDbArc
 50
0.0
 51
90.0
  0
LINE
  5
5F0
330
1F
100
AcDbEntity
  8
0
  6
Continuous
 62
     7
100
AcDbLine
 10
1870.810967611
 20
177.938977932
 30
0.0
 11
1831.810967611
 21
177.938977932
 31
0.0
  0
ARC
  5
5F1
330
1F
100
AcDbEntity
  8
0
  6
Continuous
 62
     7
100
AcDbCircle
 10
1831.810967611
 20
165.2504003915
 30
0.0
 40
12.68857754044961
100
AcDbArc
 50
90.0
 51
180.0
  0
LINE
  5
5F2
330
1F
100
AcDbEntity
  8
0
  6
Continuous
 62
     7
100
AcDbLine
 10
1819.1223900705
 20
165.2504003915
 30
0.0
 11
1883.4995451514
 21
165.2504003915
 31
0.0
  0
ARC
  5
5F3
330
1F
100
AcDbEntity
  8
0
  6
Continuous
 62
     7
100
AcDbCircle
 10
1870.810967611
 20
145.2504003915
 30
0.0
 40
12.6885775404495
100
AcDbArc
 50
0.0
 51
90.0
  0
LINE
  5
5F4
330
1F
100
AcDbEntity
  8
0
  6
Continuous
 62
     7
100
AcDbLine
 10
1870.810967611
 20
157.938977932
 30
0.0
 11
1831.810967611
 21
157.938977932
 31
0.0
  0
ARC
  5
5F5
330
1F
100
AcDbEntity
  8
0
  6
Continuous
 62
     7
100
AcDbCircle
 10
1831.810967611
 20
145.2504003915
 30
0.0
 40
12.68857754044961
100
AcDbArc
 50
90.0
 51
180.0
  0
LINE
  5
5F6
330
1F
100
AcDbEntity
  8
0
  6
Continuous
 62
     7
100
AcDbLine
 10
1819.1223900705
 20
145.2504003915
 30
0.0
 11
1883.4995451514
 21
145.2504003915
 31
0.0
  0
ARC
  5
5F7
330
1F
100
AcDbEntity
  8
0
  6
Continuous
 62
     7
100
AcDbCircle
 10
1870.810967611
 20
125.2504003915
 30
0.0
 40
12.68857754044951
100
AcDbArc
 50
0.0
 51
90.0
  0
LINE
  5
5F8
330
1F
100
AcDbEntity
  8
0
  6
Continuous
 62
     7
100
AcDbLine
 10
1870.810967611
 20
137.938977932
 30
0.0
 11
1831.810967611
 21
137.938977932
 31
0.0
  0
ARC
  5
5F9
330
1F
100
AcDbEntity
  8
0
  6
Continuous
 62
     7
100
AcDbCircle
 10
1831.810967611
 20
125.2504003915
 30
0.0
 40
12.68857754044961
100
AcDbArc
 50
90.0
 51
180.0
  0
LINE
  5
5FA
330
1F
100
AcDbEntity
  8
0
  6
Continuous
 62
     7
100
AcDbLine
 10
1819.1223900705
 20
125.2504003915
 30
0.0
 11
1883.4995451514
 21
125.2504003915
 31
0.0
  0
ARC
  5
5FB
330
1F
100
AcDbEntity
  8
0
  6
Continuous
 62
     7
100
AcDbCircle
 10
1950.810967611
 20
165.2504003915
 30
0.0
 40
12.68857754044947
100
AcDbArc
 50
0.0
 51
90.0
  0
LINE
  5
5FC
330
1F
100
AcDbEntity
  8
0
  6
Continuous
 62
     7
100
AcDbLine
 10
1950.810967611
 20
177.938977932
 30
0.0
 11
1911.810967611
 21
177.938977932
 31
0.0
  0
ARC
  5
5FD
330
1F
100
AcDbEntity
  8
0
  6
Continuous
 62
     7
100
AcDbCircle
 10
1911.810967611
 20
165.2504003915
 30
0.0
 40
12.6885775404495
100
AcDbArc
 50
90.0
 51
180.0
  0
LINE
  5
5FE
330
1F
100
AcDbEntity
  8
0
  6
Continuous
 62
     7
100
AcDbLine
 10
1899.1223900705
 20
165.2504003915
 30
0.0
 11
1963.4995451514
 21
165.2504003915
 31
0.0
  0
ARC
  5
5FF
330
1F
100
AcDbEntity
  8
0
  6
Continuous
 62
     7
100
AcDbCircle
 10
1950.810967611
 20
145.2504003915
 30
0.0
 40
12.68857754044944
100
AcDbArc
 50
0.0
 51
90.0
  0
LINE
  5
600
330
1F
100
AcDbEntity
  8
0
  6
Continuous
 62
     7
100
AcDbLine
 10
1950.810967611
 20
157.938977932
 30
0.0
 11
1911.810967611
 21
157.938977932
 31
0.0
  0
ARC
  5
601
330
1F
100
AcDbEntity
  8
0
  6
Continuous
 62
     7
100
AcDbCircle
 10
1911.810967611
 20
145.2504003915
 30
0.0
 40
12.6885775404495
100
AcDbArc
 50
90.0
 51
180.0
  0
LINE
  5
602
330
1F
100
AcDbEntity
  8
0
  6
Continuous
 62
     7
100
AcDbLine
 10
1899.1223900705
 20
145.2504003915
 30
0.0
 11
1963.4995451514
 21
145.2504003915
 31
0.0
  0
ARC
  5
603
330
1F
100
AcDbEntity
  8
0
  6
Continuous
 62
     7
100
AcDbCircle
 10
1950.810967611
 20
125.2504003915
 30
0.0
 40
12.68857754044951
100
AcDbArc
 50
0.0
 51
90.0
  0
LINE
  5
604
330
1F
100
AcDbEntity
  8
0
  6
Continuous
 62
     7
100
AcDbLine
 10
1950.810967611
 20
137.938977932
 30
0.0
 11
1911.810967611
 21
137.938977932
 31
0.0
  0
ARC
  5
605
330
1F
100
AcDbEntity
  8
0
  6
Continuous
 62
     7
100
AcDbCircle
 10
1911.810967611
 20
125.2504003915
 30
0.0
 40
12.68857754044951
100
AcDbArc
 50
90.0
 51
180.0
  0
LINE
  5
606
330
1F
100
AcDbEntity
  8
0
  6
Continuous
 62
     7
100
AcDbLine
 10
1899.1223900705
 20
125.2504003915
 30
0.0
 11
1963.4995451514
 21
125.2504003915
 31
0.0
  0
ARC
  5
607
330
1F
100
AcDbEntity
  8
0
  6
Continuous
 62
     7
100
AcDbCircle
 10
2030.810967611
 20
165.2504003915
 30
0.0
 40
12.68857754044961
100
AcDbArc
 50
0.0
 51
90.0
  0
LINE
  5
608
330
1F
100
AcDbEntity
  8
0
  6
Continuous
 62
     7
100
AcDbLine
 10
2030.810967611
 20
177.938977932
 30
0.0
 11
1991.810967611
 21
177.938977932
 31
0.0
  0
ARC
  5
609
330
1F
100
AcDbEntity
  8
0
  6
Continuous
 62
     7
100
AcDbCircle
 10
1991.810967611
 20
165.2504003915
 30
0.0
 40
12.68857754044947
100
AcDbArc
 50
90.0
 51
180.0
  0
LINE
  5
60A
330
1F
100
AcDbEntity
  8
0
  6
Continuous
 62
     7
100
AcDbLine
 10
1979.1223900705
 20
165.2504003915
 30
0.0
 11
2043.4995451514
 21
165.2504003915
 31
0.0
  0
ARC
  5
60B
330
1F
100
AcDbEntity
  8
0
  6
Continuous
 62
     7
100
AcDbCircle
 10
2030.810967611
 20
145.2504003915
 30
0.0
 40
12.68857754044961
100
AcDbArc
 50
0.0
 51
90.0
  0
LINE
  5
60C
330
1F
100
AcDbEntity
  8
0
  6
Continuous
 62
     7
100
AcDbLine
 10
2030.810967611
 20
157.938977932
 30
0.0
 11
1991.810967611
 21
157.938977932
 31
0.0
  0
ARC
  5
60D
330
1F
100
AcDbEntity
  8
0
  6
Continuous
 62
     7
100
AcDbCircle
 10
1991.810967611
 20
145.2504003915
 30
0.0
 40
12.68857754044944
100
AcDbArc
 50
90.0
 51
180.0
  0
LINE
  5
60E
330
1F
100
AcDbEntity
  8
0
  6
Continuous
 62
     7
100
AcDbLine
 10
1979.1223900705
 20
145.2504003915
 30
0.0
 11
2043.4995451514
 21
145.2504003915
 31
0.0
  0
ARC
  5
60F
330
1F
100
AcDbEntity
  8
0
  6
Continuous
 62
     7
100
AcDbCircle
 10
2030.810967611
 20
125.2504003915
 30
0.0
 40
12.68857754044961
100
AcDbArc
 50
0.0
 51
90.0
  0
LINE
  5
610
330
1F
100
AcDbEntity
  8
0
  6
Continuous
 62
     7
100
AcDbLine
 10
2030.810967611
 20
137.938977932
 30
0.0
 11
1991.810967611
 21
137.938977932
 31
0.0
  0
ARC
  5
611
330
1F
100
AcDbEntity
  8
0
  6
Continuous
 62
     7
100
AcDbCircle
 10
1991.810967611
 20
125.2504003915
 30
0.0
 40
12.68857754044951
100
AcDbArc
 50
90.0
 51
180.0
  0
LINE
  5
612
330
1F
100
AcDbEntity
  8
0
  6
Continuous
 62
     7
100
AcDbLine
 10
1979.1223900705
 20
125.2504003915
 30
0.0
 11
2043.4995451514
 21
125.2504003915
 31
0.0
  0
ARC
  5
613
330
1F
100
AcDbEntity
  8
0
  6
Continuous
 62
     7
100
AcDbCircle
 10
2110.810967611
 20
165.2504003915
 30
0.0
 40
12.68857754044947
100
AcDbArc
 50
0.0
 51
90.0
  0
LINE
  5
614
330
1F
100
AcDbEntity
  8
0
  6
Continuous
 62
     7
100
AcDbLine
 10
2110.810967611
 20
177.938977932
 30
0.0
 11
2071.810967611
 21
177.938977932
 31
0.0
  0
ARC
  5
615
330
1F
100
AcDbEntity
  8
0
  6
Continuous
 62
     7
100
AcDbCircle
 10
2071.810967611
 20
165.2504003915
 30
0.0
 40
12.68857754044947
100
AcDbArc
 50
90.0
 51
180.0
  0
LINE
  5
616
330
1F
100
AcDbEntity
  8
0
  6
Continuous
 62
     7
100
AcDbLine
 10
2059.1223900705
 20
165.2504003915
 30
0.0
 11
2123.4995451514
 21
165.2504003915
 31
0.0
  0
ARC
  5
617
330
1F
100
AcDbEntity
  8
0
  6
Continuous
 62
     7
100
AcDbCircle
 10
2110.810967611
 20
145.2504003915
 30
0.0
 40
12.68857754044944
100
AcDbArc
 50
0.0
 51
90.0
  0
LINE
  5
618
330
1F
100
AcDbEntity
  8
0
  6
Continuous
 62
     7
100
AcDbLine
 10
2110.810967611
 20
157.938977932
 30
0.0
 11
2071.810967611
 21
157.938977932
 31
0.0
  0
ARC
  5
619
330
1F
100
AcDbEntity
  8
0
  6
Continuous
 62
     7
100
AcDbCircle
 10
2071.810967611
 20
145.2504003915
 30
0.0
 40
12.68857754044944
100
AcDbArc
 50
90.0
 51
180.0
  0
LINE
  5
61A
330
1F
100
AcDbEntity
  8
0
  6
Continuous
 62
     7
100
AcDbLine
 10
2059.1223900705
 20
145.2504003915
 30
0.0
 11
2123.4995451514
 21
145.2504003915
 31
0.0
  0
ARC
  5
61B
330
1F
100
AcDbEntity
  8
0
  6
Continuous
 62
     7
100
AcDbCircle
 10
2110.810967611
 20
125.2504003915
 30
0.0
 40
12.6885775404494
100
AcDbArc
 50
0.0
 51
90.0
  0
LINE
  5
61C
330
1F
100
AcDbEntity
  8
0
  6
Continuous
 62
     7
100
AcDbLine
 10
2110.810967611
 20
137.938977932
 30
0.0
 11
2071.810967611
 21
137.938977932
 31
0.0
  0
ARC
  5
61D
330
1F
100
AcDbEntity
  8
0
  6
Continuous
 62
     7
100
AcDbCircle
 10
2071.810967611
 20
125.2504003915
 30
0.0
 40
12.6885775404494
100
AcDbArc
 50
90.0
 51
180.0
  0
LINE
  5
61E
330
1F
100
AcDbEntity
  8
0
  6
Continuous
 62
     7
100
AcDbLine
 10
2059.1223900705
 20
125.2504003915
 30
0.0
 11
2123.4995451514
 21
125.2504003915
 31
0.0
  0
ARC
  5
61F
330
1F
100
AcDbEntity
  8
0
  6
Continuous
 62
     7
100
AcDbCircle
 10
2190.810967611
 20
165.2504003915
 30
0.0
 40
12.68857754044942
100
AcDbArc
 50
0.0
 51
90.0
  0
LINE
  5
620
330
1F
100
AcDbEntity
  8
0
  6
Continuous
 62
     7
100
AcDbLine
 10
2190.810967611
 20
177.938977932
 30
0.0
 11
2151.810967611
 21
177.938977932
 31
0.0
  0
ARC
  5
621
330
1F
100
AcDbEntity
  8
0
  6
Continuous
 62
     7
100
AcDbCircle
 10
2151.810967611
 20
165.2504003915
 30
0.0
 40
12.68857754044942
100
AcDbArc
 50
90.0
 51
180.0
  0
LINE
  5
622
330
1F
100
AcDbEntity
  8
0
  6
Continuous
 62
     7
100
AcDbLine
 10
2139.1223900705
 20
165.2504003915
 30
0.0
 11
2203.4995451514
 21
165.2504003915
 31
0.0
  0
ARC
  5
623
330
1F
100
AcDbEntity
  8
0
  6
Continuous
 62
     7
100
AcDbCircle
 10
2190.810967611
 20
145.2504003915
 30
0.0
 40
12.68857754044939
100
AcDbArc
 50
0.0
 51
90.0
  0
LINE
  5
624
330
1F
100
AcDbEntity
  8
0
  6
Continuous
 62
     7
100
AcDbLine
 10
2190.810967611
 20
157.938977932
 30
0.0
 11
2151.810967611
 21
157.938977932
 31
0.0
  0
ARC
  5
625
330
1F
100
AcDbEntity
  8
0
  6
Continuous
 62
     7
100
AcDbCircle
 10
2151.810967611
 20
145.2504003915
 30
0.0
 40
12.68857754044939
100
AcDbArc
 50
90.0
 51
180.0
  0
LINE
  5
626
330
1F
100
AcDbEntity
  8
0
  6
Continuous
 62
     7
100
AcDbLine
 10
2139.1223900705
 20
145.2504003915
 30
0.0
 11
2203.4995451514
 21
145.2504003915
 31
0.0
  0
ARC
  5
627
330
1F
100
AcDbEntity
  8
0
  6
Continuous
 62
     7
100
AcDbCircle
 10
2190.810967611
 20
125.2504003915
 30
0.0
 40
12.6885775404494
100
AcDbArc
 50
0.0
 51
90.0
  0
LINE
  5
628
330
1F
100
AcDbEntity
  8
0
  6
Continuous
 62
     7
100
AcDbLine
 10
2190.810967611
 20
137.938977932
 30
0.0
 11
2151.810967611
 21
137.938977932
 31
0.0
  0
ARC
  5
629
330
1F
100
AcDbEntity
  8
0
  6
Continuous
 62
     7
100
AcDbCircle
 10
2151.810967611
 20
125.2504003915
 30
0.0
 40
12.6885775404494
100
AcDbArc
 50
90.0
 51
180.0
  0
LINE
  5
62A
330
1F
100
AcDbEntity
  8
0
  6
Continuous
 62
     7
100
AcDbLine
 10
2139.1223900705
 20
125.2504003915
 30
0.0
 11
2203.4995451514
 21
125.2504003915
 31
0.0
  0
LINE
  5
62B
330
1F
100
AcDbEntity
  8
0
  6
Continuous
 62
     7
100
AcDbLine
 10
1870.810967611
 20
175.2102515792
 30
0.0
 11
1870.810967611
 21
177.938977932
 31
0.0
  0
LINE
  5
62C
330
1F
100
AcDbEntity
  8
0
  6
Continuous
 62
     7
100
AcDbLine
 10
1831.810967611
 20
175.2102515792
 30
0.0
 11
1870.810967611
 21
175.2102515792
 31
0.0
  0
LINE
  5
62D
330
1F
100
AcDbEntity
  8
0
  6
Continuous
 62
     7
100
AcDbLine
 10
1831.810967611
 20
175.2102515792
 30
0.0
 11
1831.810967611
 21
177.938977932
 31
0.0
  0
LINE
  5
62E
330
1F
100
AcDbEntity
  8
0
  6
Continuous
 62
     7
100
AcDbLine
 10
1870.810967611
 20
155.2102515792
 30
0.0
 11
1870.810967611
 21
157.938977932
 31
0.0
  0
LINE
  5
62F
330
1F
100
AcDbEntity
  8
0
  6
Continuous
 62
     7
100
AcDbLine
 10
1831.810967611
 20
155.2102515792
 30
0.0
 11
1870.810967611
 21
155.2102515792
 31
0.0
  0
LINE
  5
630
330
1F
100
AcDbEntity
  8
0
  6
Continuous
 62
     7
100
AcDbLine
 10
1831.810967611
 20
155.2102515792
 30
0.0
 11
1831.810967611
 21
157.938977932
 31
0.0
  0
ARC
  5
631
330
1F
100
AcDbEntity
  8
0
  6
Continuous
 62
     7
100
AcDbCircle
 10
1831.810967611
 20
165.2504003915
 30
0.0
 40
9.959851187664981
100
AcDbArc
 50
90.0
 51
180.0
  0
LINE
  5
632
330
1F
100
AcDbEntity
  8
0
  6
Continuous
 62
     7
100
AcDbLine
 10
1950.810967611
 20
175.2102515792
 30
0.0
 11
1950.810967611
 21
177.938977932
 31
0.0
  0
LINE
  5
633
330
1F
100
AcDbEntity
  8
0
  6
Continuous
 62
     7
100
AcDbLine
 10
1911.810967611
 20
175.2102515792
 30
0.0
 11
1950.810967611
 21
175.2102515792
 31
0.0
  0
LINE
  5
634
330
1F
100
AcDbEntity
  8
0
  6
Continuous
 62
     7
100
AcDbLine
 10
1911.810967611
 20
175.2102515792
 30
0.0
 11
1911.810967611
 21
177.938977932
 31
0.0
  0
LINE
  5
635
330
1F
100
AcDbEntity
  8
0
  6
Continuous
 62
     7
100
AcDbLine
 10
1870.810967611
 20
135.2102515792
 30
0.0
 11
1870.810967611
 21
137.938977932
 31
0.0
  0
LINE
  5
636
330
1F
100
AcDbEntity
  8
0
  6
Continuous
 62
     7
100
AcDbLine
 10
1831.810967611
 20
135.2102515792
 30
0.0
 11
1870.810967611
 21
135.2102515792
 31
0.0
  0
LINE
  5
637
330
1F
100
AcDbEntity
  8
0
  6
Continuous
 62
     7
100
AcDbLine
 10
1831.810967611
 20
135.2102515792
 30
0.0
 11
1831.810967611
 21
137.938977932
 31
0.0
  0
ARC
  5
638
330
1F
100
AcDbEntity
  8
0
  6
Continuous
 62
     7
100
AcDbCircle
 10
1831.810967611
 20
145.2504003915
 30
0.0
 40
9.959851187664981
100
AcDbArc
 50
90.0
 51
180.0
  0
LINE
  5
639
330
1F
100
AcDbEntity
  8
0
  6
Continuous
 62
     7
100
AcDbLine
 10
1950.810967611
 20
155.2102515792
 30
0.0
 11
1950.810967611
 21
157.938977932
 31
0.0
  0
LINE
  5
63A
330
1F
100
AcDbEntity
  8
0
  6
Continuous
 62
     7
100
AcDbLine
 10
1911.810967611
 20
155.2102515792
 30
0.0
 11
1950.810967611
 21
155.2102515792
 31
0.0
  0
LINE
  5
63B
330
1F
100
AcDbEntity
  8
0
  6
Continuous
 62
     7
100
AcDbLine
 10
1911.810967611
 20
155.2102515792
 30
0.0
 11
1911.810967611
 21
157.938977932
 31
0.0
  0
ARC
  5
63C
330
1F
100
AcDbEntity
  8
0
  6
Continuous
 62
     7
100
AcDbCircle
 10
1911.810967611
 20
165.2504003915
 30
0.0
 40
9.959851187664981
100
AcDbArc
 50
90.0
 51
180.0
  0
ARC
  5
63D
330
1F
100
AcDbEntity
  8
0
  6
Continuous
 62
     7
100
AcDbCircle
 10
1870.810967611
 20
165.2504003915
 30
0.0
 40
9.959851187664668
100
AcDbArc
 50
0.0
 51
90.0
  0
ARC
  5
63E
330
1F
100
AcDbEntity
  8
0
  6
Continuous
 62
     7
100
AcDbCircle
 10
1831.810967611
 20
125.2504003915
 30
0.0
 40
9.959851187664981
100
AcDbArc
 50
90.0
 51
180.0
  0
LINE
  5
63F
330
1F
100
AcDbEntity
  8
0
  6
Continuous
 62
     7
100
AcDbLine
 10
2030.810967611
 20
175.2102515792
 30
0.0
 11
2030.810967611
 21
177.938977932
 31
0.0
  0
LINE
  5
640
330
1F
100
AcDbEntity
  8
0
  6
Continuous
 62
     7
100
AcDbLine
 10
1991.810967611
 20
175.2102515792
 30
0.0
 11
2030.810967611
 21
175.2102515792
 31
0.0
  0
LINE
  5
641
330
1F
100
AcDbEntity
  8
0
  6
Continuous
 62
     7
100
AcDbLine
 10
1991.810967611
 20
175.2102515792
 30
0.0
 11
1991.810967611
 21
177.938977932
 31
0.0
  0
LINE
  5
642
330
1F
100
AcDbEntity
  8
0
  6
Continuous
 62
     7
100
AcDbLine
 10
1950.810967611
 20
135.2102515792
 30
0.0
 11
1950.810967611
 21
137.938977932
 31
0.0
  0
LINE
  5
643
330
1F
100
AcDbEntity
  8
0
  6
Continuous
 62
     7
100
AcDbLine
 10
1911.810967611
 20
135.2102515792
 30
0.0
 11
1950.810967611
 21
135.2102515792
 31
0.0
  0
LINE
  5
644
330
1F
100
AcDbEntity
  8
0
  6
Continuous
 62
     7
100
AcDbLine
 10
1911.810967611
 20
135.2102515792
 30
0.0
 11
1911.810967611
 21
137.938977932
 31
0.0
  0
ARC
  5
645
330
1F
100
AcDbEntity
  8
0
  6
Continuous
 62
     7
100
AcDbCircle
 10
1911.810967611
 20
145.2504003915
 30
0.0
 40
9.959851187664981
100
AcDbArc
 50
90.0
 51
180.0
  0
ARC
  5
646
330
1F
100
AcDbEntity
  8
0
  6
Continuous
 62
     7
100
AcDbCircle
 10
1870.810967611
 20
145.2504003915
 30
0.0
 40
9.959851187664668
100
AcDbArc
 50
0.0
 51
90.0
  0
LINE
  5
647
330
1F
100
AcDbEntity
  8
0
  6
Continuous
 62
     7
100
AcDbLine
 10
2030.810967611
 20
155.2102515792
 30
0.0
 11
2030.810967611
 21
157.938977932
 31
0.0
  0
LINE
  5
648
330
1F
100
AcDbEntity
  8
0
  6
Continuous
 62
     7
100
AcDbLine
 10
1991.810967611
 20
155.2102515792
 30
0.0
 11
2030.810967611
 21
155.2102515792
 31
0.0
  0
LINE
  5
649
330
1F
100
AcDbEntity
  8
0
  6
Continuous
 62
     7
100
AcDbLine
 10
1991.810967611
 20
155.2102515792
 30
0.0
 11
1991.810967611
 21
157.938977932
 31
0.0
  0
ARC
  5
64A
330
1F
100
AcDbEntity
  8
0
  6
Continuous
 62
     7
100
AcDbCircle
 10
1950.810967611
 20
165.2504003915
 30
0.0
 40
9.959851187664668
100
AcDbArc
 50
0.0
 51
90.0
  0
ARC
  5
64B
330
1F
100
AcDbEntity
  8
0
  6
Continuous
 62
     7
100
AcDbCircle
 10
1991.810967611
 20
165.2504003915
 30
0.0
 40
9.959851187664754
100
AcDbArc
 50
90.0
 51
180.0
  0
ARC
  5
64C
330
1F
100
AcDbEntity
  8
0
  6
Continuous
 62
     7
100
AcDbCircle
 10
1870.810967611
 20
125.2504003915
 30
0.0
 40
9.959851187664682
100
AcDbArc
 50
0.0
 51
90.0
  0
ARC
  5
64D
330
1F
100
AcDbEntity
  8
0
  6
Continuous
 62
     7
100
AcDbCircle
 10
1911.810967611
 20
125.2504003915
 30
0.0
 40
9.959851187664981
100
AcDbArc
 50
90.0
 51
180.0
  0
LINE
  5
64E
330
1F
100
AcDbEntity
  8
0
  6
Continuous
 62
     7
100
AcDbLine
 10
2110.810967611
 20
175.2102515792
 30
0.0
 11
2110.810967611
 21
177.938977932
 31
0.0
  0
LINE
  5
64F
330
1F
100
AcDbEntity
  8
0
  6
Continuous
 62
     7
100
AcDbLine
 10
2071.810967611
 20
175.2102515792
 30
0.0
 11
2110.810967611
 21
175.2102515792
 31
0.0
  0
LINE
  5
650
330
1F
100
AcDbEntity
  8
0
  6
Continuous
 62
     7
100
AcDbLine
 10
2071.810967611
 20
175.2102515792
 30
0.0
 11
2071.810967611
 21
177.938977932
 31
0.0
  0
LINE
  5
651
330
1F
100
AcDbEntity
  8
0
  6
Continuous
 62
     7
100
AcDbLine
 10
2030.810967611
 20
135.2102515792
 30
0.0
 11
2030.810967611
 21
137.938977932
 31
0.0
  0
LINE
  5
652
330
1F
100
AcDbEntity
  8
0
  6
Continuous
 62
     7
100
AcDbLine
 10
1991.810967611
 20
135.2102515792
 30
0.0
 11
2030.810967611
 21
135.2102515792
 31
0.0
  0
LINE
  5
653
330
1F
100
AcDbEntity
  8
0
  6
Continuous
 62
     7
100
AcDbLine
 10
1991.810967611
 20
135.2102515792
 30
0.0
 11
1991.810967611
 21
137.938977932
 31
0.0
  0
ARC
  5
654
330
1F
100
AcDbEntity
  8
0
  6
Continuous
 62
     7
100
AcDbCircle
 10
1950.810967611
 20
145.2504003915
 30
0.0
 40
9.959851187664668
100
AcDbArc
 50
0.0
 51
90.0
  0
ARC
  5
655
330
1F
100
AcDbEntity
  8
0
  6
Continuous
 62
     7
100
AcDbCircle
 10
1991.810967611
 20
145.2504003915
 30
0.0
 40
9.959851187664754
100
AcDbArc
 50
90.0
 51
180.0
  0
LINE
  5
656
330
1F
100
AcDbEntity
  8
0
  6
Continuous
 62
     7
100
AcDbLine
 10
2110.810967611
 20
155.2102515792
 30
0.0
 11
2110.810967611
 21
157.938977932
 31
0.0
  0
LINE
  5
657
330
1F
100
AcDbEntity
  8
0
  6
Continuous
 62
     7
100
AcDbLine
 10
2071.810967611
 20
155.2102515792
 30
0.0
 11
2110.810967611
 21
155.2102515792
 31
0.0
  0
LINE
  5
658
330
1F
100
AcDbEntity
  8
0
  6
Continuous
 62
     7
100
AcDbLine
 10
2071.810967611
 20
155.2102515792
 30
0.0
 11
2071.810967611
 21
157.938977932
 31
0.0
  0
ARC
  5
659
330
1F
100
AcDbEntity
  8
0
  6
Continuous
 62
     7
100
AcDbCircle
 10
2030.810967611
 20
165.2504003915
 30
0.0
 40
9.959851187664754
100
AcDbArc
 50
0.0
 51
90.0
  0
ARC
  5
65A
330
1F
100
AcDbEntity
  8
0
  6
Continuous
 62
     7
100
AcDbCircle
 10
2071.810967611
 20
165.2504003915
 30
0.0
 40
9.959851187664754
100
AcDbArc
 50
90.0
 51
180.0
  0
ARC
  5
65B
330
1F
100
AcDbEntity
  8
0
  6
Continuous
 62
     7
100
AcDbCircle
 10
1991.810967611
 20
125.2504003915
 30
0.0
 40
9.959851187664754
100
AcDbArc
 50
90.0
 51
180.0
  0
ARC
  5
65C
330
1F
100
AcDbEntity
  8
0
  6
Continuous
 62
     7
100
AcDbCircle
 10
1950.810967611
 20
125.2504003915
 30
0.0
 40
9.959851187664597
100
AcDbArc
 50
0.0
 51
90.0
  0
LINE
  5
65D
330
1F
100
AcDbEntity
  8
0
  6
Continuous
 62
     7
100
AcDbLine
 10
2190.810967611
 20
175.2102515792
 30
0.0
 11
2190.810967611
 21
177.938977932
 31
0.0
  0
LINE
  5
65E
330
1F
100
AcDbEntity
  8
0
  6
Continuous
 62
     7
100
AcDbLine
 10
2151.810967611
 20
175.2102515792
 30
0.0
 11
2190.810967611
 21
175.2102515792
 31
0.0
  0
LINE
  5
65F
330
1F
100
AcDbEntity
  8
0
  6
Continuous
 62
     7
100
AcDbLine
 10
2151.810967611
 20
175.2102515792
 30
0.0
 11
2151.810967611
 21
177.938977932
 31
0.0
  0
LINE
  5
660
330
1F
100
AcDbEntity
  8
0
  6
Continuous
 62
     7
100
AcDbLine
 10
2110.810967611
 20
135.2102515792
 30
0.0
 11
2110.810967611
 21
137.938977932
 31
0.0
  0
LINE
  5
661
330
1F
100
AcDbEntity
  8
0
  6
Continuous
 62
     7
100
AcDbLine
 10
2071.810967611
 20
135.2102515792
 30
0.0
 11
2110.810967611
 21
135.2102515792
 31
0.0
  0
LINE
  5
662
330
1F
100
AcDbEntity
  8
0
  6
Continuous
 62
     7
100
AcDbLine
 10
2071.810967611
 20
135.2102515792
 30
0.0
 11
2071.810967611
 21
137.938977932
 31
0.0
  0
ARC
  5
663
330
1F
100
AcDbEntity
  8
0
  6
Continuous
 62
     7
100
AcDbCircle
 10
2071.810967611
 20
145.2504003915
 30
0.0
 40
9.959851187664754
100
AcDbArc
 50
90.0
 51
180.0
  0
ARC
  5
664
330
1F
100
AcDbEntity
  8
0
  6
Continuous
 62
     7
100
AcDbCircle
 10
2030.810967611
 20
145.2504003915
 30
0.0
 40
9.959851187664754
100
AcDbArc
 50
0.0
 51
90.0
  0
LINE
  5
665
330
1F
100
AcDbEntity
  8
0
  6
Continuous
 62
     7
100
AcDbLine
 10
2190.810967611
 20
155.2102515792
 30
0.0
 11
2190.810967611
 21
157.938977932
 31
0.0
  0
LINE
  5
666
330
1F
100
AcDbEntity
  8
0
  6
Continuous
 62
     7
100
AcDbLine
 10
2151.810967611
 20
155.2102515792
 30
0.0
 11
2190.810967611
 21
155.2102515792
 31
0.0
  0
LINE
  5
667
330
1F
100
AcDbEntity
  8
0
  6
Continuous
 62
     7
100
AcDbLine
 10
2151.810967611
 20
155.2102515792
 30
0.0
 11
2151.810967611
 21
157.938977932
 31
0.0
  0
ARC
  5
668
330
1F
100
AcDbEntity
  8
0
  6
Continuous
 62
     7
100
AcDbCircle
 10
2151.810967611
 20
165.2504003915
 30
0.0
 40
9.959851187664754
100
AcDbArc
 50
90.0
 51
180.0
  0
ARC
  5
669
330
1F
100
AcDbEntity
  8
0
  6
Continuous
 62
     7
100
AcDbCircle
 10
2110.810967611
 20
165.2504003915
 30
0.0
 40
9.959851187664754
100
AcDbArc
 50
0.0
 51
90.0
  0
ARC
  5
66A
330
1F
100
AcDbEntity
  8
0
  6
Continuous
 62
     7
100
AcDbCircle
 10
2030.810967611
 20
125.2504003915
 30
0.0
 40
9.959851187664754
100
AcDbArc
 50
0.0
 51
90.0
  0
ARC
  5
66B
330
1F
100
AcDbEntity
  8
0
  6
Continuous
 62
     7
100
AcDbCircle
 10
2071.810967611
 20
125.2504003915
 30
0.0
 40
9.959851187664754
100
AcDbArc
 50
90.0
 51
180.0
  0
LINE
  5
66C
330
1F
100
AcDbEntity
  8
0
  6
Continuous
 62
     7
100
AcDbLine
 10
2270.810967611
 20
175.2102515792
 30
0.0
 11
2270.810967611
 21
177.938977932
 31
0.0
  0
LINE
  5
66D
330
1F
100
AcDbEntity
  8
0
  6
Continuous
 62
     7
100
AcDbLine
 10
2231.810967611
 20
175.2102515792
 30
0.0
 11
2270.810967611
 21
175.2102515792
 31
0.0
  0
LINE
  5
66E
330
1F
100
AcDbEntity
  8
0
  6
Continuous
 62
     7
100
AcDbLine
 10
2231.810967611
 20
175.2102515792
 30
0.0
 11
2231.810967611
 21
177.938977932
 31
0.0
  0
LINE
  5
66F
330
1F
100
AcDbEntity
  8
0
  6
Continuous
 62
     7
100
AcDbLine
 10
2190.810967611
 20
135.2102515792
 30
0.0
 11
2190.810967611
 21
137.938977932
 31
0.0
  0
LINE
  5
670
330
1F
100
AcDbEntity
  8
0
  6
Continuous
 62
     7
100
AcDbLine
 10
2151.810967611
 20
135.2102515792
 30
0.0
 11
2190.810967611
 21
135.2102515792
 31
0.0
  0
LINE
  5
671
330
1F
100
AcDbEntity
  8
0
  6
Continuous
 62
     7
100
AcDbLine
 10
2151.810967611
 20
135.2102515792
 30
0.0
 11
2151.810967611
 21
137.938977932
 31
0.0
  0
ARC
  5
672
330
1F
100
AcDbEntity
  8
0
  6
Continuous
 62
     7
100
AcDbCircle
 10
2110.810967611
 20
145.2504003915
 30
0.0
 40
9.959851187664754
100
AcDbArc
 50
0.0
 51
90.0
  0
ARC
  5
673
330
1F
100
AcDbEntity
  8
0
  6
Continuous
 62
     7
100
AcDbCircle
 10
2151.810967611
 20
145.2504003915
 30
0.0
 40
9.959851187664754
100
AcDbArc
 50
90.0
 51
180.0
  0
LINE
  5
674
330
1F
100
AcDbEntity
  8
0
  6
Continuous
 62
     7
100
AcDbLine
 10
2270.810967611
 20
155.2102515792
 30
0.0
 11
2270.810967611
 21
157.938977932
 31
0.0
  0
LINE
  5
675
330
1F
100
AcDbEntity
  8
0
  6
Continuous
 62
     7
100
AcDbLine
 10
2231.810967611
 20
155.2102515792
 30
0.0
 11
2270.810967611
 21
155.2102515792
 31
0.0
  0
LINE
  5
676
330
1F
100
AcDbEntity
  8
0
  6
Continuous
 62
     7
100
AcDbLine
 10
2231.810967611
 20
155.2102515792
 30
0.0
 11
2231.810967611
 21
157.938977932
 31
0.0
  0
ARC
  5
677
330
1F
100
AcDbEntity
  8
0
  6
Continuous
 62
     7
100
AcDbCircle
 10
2190.810967611
 20
165.2504003915
 30
0.0
 40
9.959851187665208
100
AcDbArc
 50
0.0
 51
90.0
  0
ARC
  5
678
330
1F
100
AcDbEntity
  8
0
  6
Continuous
 62
     7
100
AcDbCircle
 10
2231.810967611
 20
165.2504003915
 30
0.0
 40
9.959851187665208
100
AcDbArc
 50
90.0
 51
180.0
  0
ARC
  5
679
330
1F
100
AcDbEntity
  8
0
  6
Continuous
 62
     7
100
AcDbCircle
 10
2110.810967611
 20
125.2504003915
 30
0.0
 40
9.959851187664754
100
AcDbArc
 50
0.0
 51
90.0
  0
ARC
  5
67A
330
1F
100
AcDbEntity
  8
0
  6
Continuous
 62
     7
100
AcDbCircle
 10
2151.810967611
 20
125.2504003915
 30
0.0
 40
9.959851187664754
100
AcDbArc
 50
90.0
 51
180.0
  0
LINE
  5
67B
330
1F
100
AcDbEntity
  8
0
  6
Continuous
 62
     7
100
AcDbLine
 10
2350.810967611
 20
175.2102515792
 30
0.0
 11
2350.810967611
 21
177.938977932
 31
0.0
  0
LINE
  5
67C
330
1F
100
AcDbEntity
  8
0
  6
Continuous
 62
     7
100
AcDbLine
 10
2311.810967611
 20
175.2102515792
 30
0.0
 11
2350.810967611
 21
175.2102515792
 31
0.0
  0
LINE
  5
67D
330
1F
100
AcDbEntity
  8
0
  6
Continuous
 62
     7
100
AcDbLine
 10
2311.810967611
 20
175.2102515792
 30
0.0
 11
2311.810967611
 21
177.938977932
 31
0.0
  0
LINE
  5
67E
330
1F
100
AcDbEntity
  8
0
  6
Continuous
 62
     7
100
AcDbLine
 10
2270.810967611
 20
135.2102515792
 30
0.0
 11
2270.810967611
 21
137.938977932
 31
0.0
  0
LINE
  5
67F
330
1F
100
AcDbEntity
  8
0
  6
Continuous
 62
     7
100
AcDbLine
 10
2231.810967611
 20
135.2102515792
 30
0.0
 11
2270.810967611
 21
135.2102515792
 31
0.0
  0
LINE
  5
680
330
1F
100
AcDbEntity
  8
0
  6
Continuous
 62
     7
100
AcDbLine
 10
2231.810967611
 20
135.2102515792
 30
0.0
 11
2231.810967611
 21
137.938977932
 31
0.0
  0
ARC
  5
681
330
1F
100
AcDbEntity
  8
0
  6
Continuous
 62
     7
100
AcDbCircle
 10
2190.810967611
 20
145.2504003915
 30
0.0
 40
9.959851187665208
100
AcDbArc
 50
0.0
 51
90.0
  0
ARC
  5
682
330
1F
100
AcDbEntity
  8
0
  6
Continuous
 62
     7
100
AcDbCircle
 10
2231.810967611
 20
145.2504003915
 30
0.0
 40
9.959851187665208
100
AcDbArc
 50
90.0
 51
180.0
  0
LINE
  5
683
330
1F
100
AcDbEntity
  8
0
  6
Continuous
 62
     7
100
AcDbLine
 10
2350.810967611
 20
155.2102515792
 30
0.0
 11
2350.810967611
 21
157.938977932
 31
0.0
  0
LINE
  5
684
330
1F
100
AcDbEntity
  8
0
  6
Continuous
 62
     7
100
AcDbLine
 10
2311.810967611
 20
155.2102515792
 30
0.0
 11
2350.810967611
 21
155.2102515792
 31
0.0
  0
LINE
  5
685
330
1F
100
AcDbEntity
  8
0
  6
Continuous
 62
     7
100
AcDbLine
 10
2311.810967611
 20
155.2102515792
 30
0.0
 11
2311.810967611
 21
157.938977932
 31
0.0
  0
ARC
  5
686
330
1F
100
AcDbEntity
  8
0
  6
Continuous
 62
     7
100
AcDbCircle
 10
2311.810967611
 20
165.2504003915
 30
0.0
 40
9.959851187664754
100
AcDbArc
 50
90.0
 51
180.0
  0
ARC
  5
687
330
1F
100
AcDbEntity
  8
0
  6
Continuous
 62
     7
100
AcDbCircle
 10
2270.810967611
 20
165.2504003915
 30
0.0
 40
9.959851187664754
100
AcDbArc
 50
0.0
 51
90.0
  0
ARC
  5
688
330
1F
100
AcDbEntity
  8
0
  6
Continuous
 62
     7
100
AcDbCircle
 10
2231.810967611
 20
125.2504003915
 30
0.0
 40
9.959851187665208
100
AcDbArc
 50
90.0
 51
180.0
  0
ARC
  5
689
330
1F
100
AcDbEntity
  8
0
  6
Continuous
 62
     7
100
AcDbCircle
 10
2190.810967611
 20
125.2504003915
 30
0.0
 40
9.959851187665208
100
AcDbArc
 50
0.0
 51
90.0
  0
LINE
  5
68A
330
1F
100
AcDbEntity
  8
0
  6
Continuous
 62
     7
100
AcDbLine
 10
2430.810967611
 20
175.2102515792
 30
0.0
 11
2430.810967611
 21
177.938977932
 31
0.0
  0
LINE
  5
68B
330
1F
100
AcDbEntity
  8
0
  6
Continuous
 62
     7
100
AcDbLine
 10
2391.810967611
 20
175.2102515792
 30
0.0
 11
2430.810967611
 21
175.2102515792
 31
0.0
  0
LINE
  5
68C
330
1F
100
AcDbEntity
  8
0
  6
Continuous
 62
     7
100
AcDbLine
 10
2391.810967611
 20
175.2102515792
 30
0.0
 11
2391.810967611
 21
177.938977932
 31
0.0
  0
LINE
  5
68D
330
1F
100
AcDbEntity
  8
0
  6
Continuous
 62
     7
100
AcDbLine
 10
2350.810967611
 20
135.2102515792
 30
0.0
 11
2350.810967611
 21
137.938977932
 31
0.0
  0
LINE
  5
68E
330
1F
100
AcDbEntity
  8
0
  6
Continuous
 62
     7
100
AcDbLine
 10
2311.810967611
 20
135.2102515792
 30
0.0
 11
2350.810967611
 21
135.2102515792
 31
0.0
  0
LINE
  5
68F
330
1F
100
AcDbEntity
  8
0
  6
Continuous
 62
     7
100
AcDbLine
 10
2311.810967611
 20
135.2102515792
 30
0.0
 11
2311.810967611
 21
137.938977932
 31
0.0
  0
ARC
  5
690
330
1F
100
AcDbEntity
  8
0
  6
Continuous
 62
     7
100
AcDbCircle
 10
2311.810967611
 20
145.2504003915
 30
0.0
 40
9.959851187664754
100
AcDbArc
 50
90.0
 51
180.0
  0
ARC
  5
691
330
1F
100
AcDbEntity
  8
0
  6
Continuous
 62
     7
100
AcDbCircle
 10
2270.810967611
 20
145.2504003915
 30
0.0
 40
9.959851187664754
100
AcDbArc
 50
0.0
 51
90.0
  0
LINE
  5
692
330
1F
100
AcDbEntity
  8
0
  6
Continuous
 62
     7
100
AcDbLine
 10
2430.810967611
 20
155.2102515792
 30
0.0
 11
2430.810967611
 21
157.938977932
 31
0.0
  0
LINE
  5
693
330
1F
100
AcDbEntity
  8
0
  6
Continuous
 62
     7
100
AcDbLine
 10
2391.810967611
 20
155.2102515792
 30
0.0
 11
2430.810967611
 21
155.2102515792
 31
0.0
  0
LINE
  5
694
330
1F
100
AcDbEntity
  8
0
  6
Continuous
 62
     7
100
AcDbLine
 10
2391.810967611
 20
155.2102515792
 30
0.0
 11
2391.810967611
 21
157.938977932
 31
0.0
  0
ARC
  5
695
330
1F
100
AcDbEntity
  8
0
  6
Continuous
 62
     7
100
AcDbCircle
 10
2350.810967611
 20
165.2504003915
 30
0.0
 40
9.959851187664754
100
AcDbArc
 50
0.0
 51
90.0
  0
ARC
  5
696
330
1F
100
AcDbEntity
  8
0
  6
Continuous
 62
     7
100
AcDbCircle
 10
2391.810967611
 20
165.2504003915
 30
0.0
 40
9.959851187664754
100
AcDbArc
 50
90.0
 51
180.0
  0
ARC
  5
697
330
1F
100
AcDbEntity
  8
0
  6
Continuous
 62
     7
100
AcDbCircle
 10
2270.810967611
 20
125.2504003915
 30
0.0
 40
9.959851187664754
100
AcDbArc
 50
0.0
 51
90.0
  0
ARC
  5
698
330
1F
100
AcDbEntity
  8
0
  6
Continuous
 62
     7
100
AcDbCircle
 10
2311.810967611
 20
125.2504003915
 30
0.0
 40
9.959851187664754
100
AcDbArc
 50
90.0
 51
180.0
  0
LINE
  5
699
330
1F
100
AcDbEntity
  8
0
  6
Continuous
 62
     7
100
AcDbLine
 10
2510.810967611
 20
175.2102515792
 30
0.0
 11
2510.810967611
 21
177.938977932
 31
0.0
  0
LINE
  5
69A
330
1F
100
AcDbEntity
  8
0
  6
Continuous
 62
     7
100
AcDbLine
 10
2471.810967611
 20
175.2102515792
 30
0.0
 11
2510.810967611
 21
175.2102515792
 31
0.0
  0
LINE
  5
69B
330
1F
100
AcDbEntity
  8
0
  6
Continuous
 62
     7
100
AcDbLine
 10
2471.810967611
 20
175.2102515792
 30
0.0
 11
2471.810967611
 21
177.938977932
 31
0.0
  0
LINE
  5
69C
330
1F
100
AcDbEntity
  8
0
  6
Continuous
 62
     7
100
AcDbLine
 10
2430.810967611
 20
135.2102515792
 30
0.0
 11
2430.810967611
 21
137.938977932
 31
0.0
  0
LINE
  5
69D
330
1F
100
AcDbEntity
  8
0
  6
Continuous
 62
     7
100
AcDbLine
 10
2391.810967611
 20
135.2102515792
 30
0.0
 11
2430.810967611
 21
135.2102515792
 31
0.0
  0
LINE
  5
69E
330
1F
100
AcDbEntity
  8
0
  6
Continuous
 62
     7
100
AcDbLine
 10
2391.810967611
 20
135.2102515792
 30
0.0
 11
2391.810967611
 21
137.938977932
 31
0.0
  0
ARC
  5
69F
330
1F
100
AcDbEntity
  8
0
  6
Continuous
 62
     7
100
AcDbCircle
 10
2350.810967611
 20
145.2504003915
 30
0.0
 40
9.959851187664754
100
AcDbArc
 50
0.0
 51
90.0
  0
ARC
  5
6A0
330
1F
100
AcDbEntity
  8
0
  6
Continuous
 62
     7
100
AcDbCircle
 10
2391.810967611
 20
145.2504003915
 30
0.0
 40
9.959851187664754
100
AcDbArc
 50
90.0
 51
180.0
  0
LINE
  5
6A1
330
1F
100
AcDbEntity
  8
0
  6
Continuous
 62
     7
100
AcDbLine
 10
2510.810967611
 20
155.2102515792
 30
0.0
 11
2510.810967611
 21
157.938977932
 31
0.0
  0
LINE
  5
6A2
330
1F
100
AcDbEntity
  8
0
  6
Continuous
 62
     7
100
AcDbLine
 10
2471.810967611
 20
155.2102515792
 30
0.0
 11
2510.810967611
 21
155.2102515792
 31
0.0
  0
LINE
  5
6A3
330
1F
100
AcDbEntity
  8
0
  6
Continuous
 62
     7
100
AcDbLine
 10
2471.810967611
 20
155.2102515792
 30
0.0
 11
2471.810967611
 21
157.938977932
 31
0.0
  0
ARC
  5
6A4
330
1F
100
AcDbEntity
  8
0
  6
Continuous
 62
     7
100
AcDbCircle
 10
2430.810967611
 20
165.2504003915
 30
0.0
 40
9.959851187665208
100
AcDbArc
 50
0.0
 51
90.0
  0
ARC
  5
6A5
330
1F
100
AcDbEntity
  8
0
  6
Continuous
 62
     7
100
AcDbCircle
 10
2471.810967611
 20
165.2504003915
 30
0.0
 40
9.959851187665208
100
AcDbArc
 50
90.0
 51
180.0
  0
ARC
  5
6A6
330
1F
100
AcDbEntity
  8
0
  6
Continuous
 62
     7
100
AcDbCircle
 10
2350.810967611
 20
125.2504003915
 30
0.0
 40
9.959851187664754
100
AcDbArc
 50
0.0
 51
90.0
  0
ARC
  5
6A7
330
1F
100
AcDbEntity
  8
0
  6
Continuous
 62
     7
100
AcDbCircle
 10
2391.810967611
 20
125.2504003915
 30
0.0
 40
9.959851187664754
100
AcDbArc
 50
90.0
 51
180.0
  0
LINE
  5
6A8
330
1F
100
AcDbEntity
  8
0
  6
Continuous
 62
     7
100
AcDbLine
 10
2510.810967611
 20
135.2102515792
 30
0.0
 11
2510.810967611
 21
137.938977932
 31
0.0
  0
LINE
  5
6A9
330
1F
100
AcDbEntity
  8
0
  6
Continuous
 62
     7
100
AcDbLine
 10
2471.810967611
 20
135.2102515792
 30
0.0
 11
2510.810967611
 21
135.2102515792
 31
0.0
  0
LINE
  5
6AA
330
1F
100
AcDbEntity
  8
0
  6
Continuous
 62
     7
100
AcDbLine
 10
2471.810967611
 20
135.2102515792
 30
0.0
 11
2471.810967611
 21
137.938977932
 31
0.0
  0
ARC
  5
6AB
330
1F
100
AcDbEntity
  8
0
  6
Continuous
 62
     7
100
AcDbCircle
 10
2471.810967611
 20
145.2504003915
 30
0.0
 40
9.959851187665208
100
AcDbArc
 50
90.0
 51
180.0
  0
ARC
  5
6AC
330
1F
100
AcDbEntity
  8
0
  6
Continuous
 62
     7
100
AcDbCircle
 10
2430.810967611
 20
145.2504003915
 30
0.0
 40
9.959851187665208
100
AcDbArc
 50
0.0
 51
90.0
  0
ARC
  5
6AD
330
1F
100
AcDbEntity
  8
0
  6
Continuous
 62
     7
100
AcDbCircle
 10
2510.810967611
 20
165.2504003915
 30
0.0
 40
9.959851187665208
100
AcDbArc
 50
0.0
 51
90.0
  0
ARC
  5
6AE
330
1F
100
AcDbEntity
  8
0
  6
Continuous
 62
     7
100
AcDbCircle
 10
2430.810967611
 20
125.2504003915
 30
0.0
 40
9.959851187665208
100
AcDbArc
 50
0.0
 51
90.0
  0
ARC
  5
6AF
330
1F
100
AcDbEntity
  8
0
  6
Continuous
 62
     7
100
AcDbCircle
 10
2471.810967611
 20
125.2504003915
 30
0.0
 40
9.959851187665208
100
AcDbArc
 50
90.0
 51
180.0
  0
ARC
  5
6B0
330
1F
100
AcDbEntity
  8
0
  6
Continuous
 62
     7
100
AcDbCircle
 10
2510.810967611
 20
145.2504003915
 30
0.0
 40
9.959851187665208
100
AcDbArc
 50
0.0
 51
90.0
  0
ARC
  5
6B1
330
1F
100
AcDbEntity
  8
0
  6
Continuous
 62
     7
100
AcDbCircle
 10
2510.810967611
 20
125.2504003915
 30
0.0
 40
9.959851187665208
100
AcDbArc
 50
0.0
 51
90.0
  0
LINE
  5
6B2
330
1F
100
AcDbEntity
  8
0
  6
Continuous
 62
     7
100
AcDbLine
 10
1870.810967611
 20
165.2504003915
 30
0.0
 11
1870.810967611
 21
175.2102515792
 31
0.0
  0
LINE
  5
6B3
330
1F
100
AcDbEntity
  8
0
  6
Continuous
 62
     7
100
AcDbLine
 10
1831.810967611
 20
175.2102515792
 30
0.0
 11
1831.810967611
 21
165.2504003915
 31
0.0
  0
LINE
  5
6B4
330
1F
100
AcDbEntity
  8
0
  6
Continuous
 62
     7
100
AcDbLine
 10
1870.810967611
 20
145.2504003915
 30
0.0
 11
1870.810967611
 21
155.2102515792
 31
0.0
  0
LINE
  5
6B5
330
1F
100
AcDbEntity
  8
0
  6
Continuous
 62
     7
100
AcDbLine
 10
1831.810967611
 20
155.2102515792
 30
0.0
 11
1831.810967611
 21
145.2504003915
 31
0.0
  0
LINE
  5
6B6
330
1F
100
AcDbEntity
  8
0
  6
Continuous
 62
     7
100
AcDbLine
 10
1950.810967611
 20
165.2504003915
 30
0.0
 11
1950.810967611
 21
175.2102515792
 31
0.0
  0
LINE
  5
6B7
330
1F
100
AcDbEntity
  8
0
  6
Continuous
 62
     7
100
AcDbLine
 10
1911.810967611
 20
175.2102515792
 30
0.0
 11
1911.810967611
 21
165.2504003915
 31
0.0
  0
LINE
  5
6B8
330
1F
100
AcDbEntity
  8
0
  6
Continuous
 62
     7
100
AcDbLine
 10
1870.810967611
 20
125.2504003915
 30
0.0
 11
1870.810967611
 21
135.2102515792
 31
0.0
  0
LINE
  5
6B9
330
1F
100
AcDbEntity
  8
0
  6
Continuous
 62
     7
100
AcDbLine
 10
1831.810967611
 20
135.2102515792
 30
0.0
 11
1831.810967611
 21
125.2504003915
 31
0.0
  0
LINE
  5
6BA
330
1F
100
AcDbEntity
  8
0
  6
Continuous
 62
     7
100
AcDbLine
 10
1950.810967611
 20
145.2504003915
 30
0.0
 11
1950.810967611
 21
155.2102515792
 31
0.0
  0
LINE
  5
6BB
330
1F
100
AcDbEntity
  8
0
  6
Continuous
 62
     7
100
AcDbLine
 10
1911.810967611
 20
155.2102515792
 30
0.0
 11
1911.810967611
 21
145.2504003915
 31
0.0
  0
LINE
  5
6BC
330
1F
100
AcDbEntity
  8
0
  6
Continuous
 62
     7
100
AcDbLine
 10
2030.810967611
 20
165.2504003915
 30
0.0
 11
2030.810967611
 21
175.2102515792
 31
0.0
  0
LINE
  5
6BD
330
1F
100
AcDbEntity
  8
0
  6
Continuous
 62
     7
100
AcDbLine
 10
1991.810967611
 20
175.2102515792
 30
0.0
 11
1991.810967611
 21
165.2504003915
 31
0.0
  0
LINE
  5
6BE
330
1F
100
AcDbEntity
  8
0
  6
Continuous
 62
     7
100
AcDbLine
 10
1950.810967611
 20
125.2504003915
 30
0.0
 11
1950.810967611
 21
135.2102515792
 31
0.0
  0
LINE
  5
6BF
330
1F
100
AcDbEntity
  8
0
  6
Continuous
 62
     7
100
AcDbLine
 10
1911.810967611
 20
135.2102515792
 30
0.0
 11
1911.810967611
 21
125.2504003915
 31
0.0
  0
LINE
  5
6C0
330
1F
100
AcDbEntity
  8
0
  6
Continuous
 62
     7
100
AcDbLine
 10
2030.810967611
 20
145.2504003915
 30
0.0
 11
2030.810967611
 21
155.2102515792
 31
0.0
  0
LINE
  5
6C1
330
1F
100
AcDbEntity
  8
0
  6
Continuous
 62
     7
100
AcDbLine
 10
1991.810967611
 20
155.2102515792
 30
0.0
 11
1991.810967611
 21
145.2504003915
 31
0.0
  0
LINE
  5
6C2
330
1F
100
AcDbEntity
  8
0
  6
Continuous
 62
     7
100
AcDbLine
 10
2110.810967611
 20
165.2504003915
 30
0.0
 11
2110.810967611
 21
175.2102515792
 31
0.0
  0
LINE
  5
6C3
330
1F
100
AcDbEntity
  8
0
  6
Continuous
 62
     7
100
AcDbLine
 10
2071.810967611
 20
175.2102515792
 30
0.0
 11
2071.810967611
 21
165.2504003915
 31
0.0
  0
LINE
  5
6C4
330
1F
100
AcDbEntity
  8
0
  6
Continuous
 62
     7
100
AcDbLine
 10
2030.810967611
 20
125.2504003915
 30
0.0
 11
2030.810967611
 21
135.2102515792
 31
0.0
  0
LINE
  5
6C5
330
1F
100
AcDbEntity
  8
0
  6
Continuous
 62
     7
100
AcDbLine
 10
1991.810967611
 20
135.2102515792
 30
0.0
 11
1991.810967611
 21
125.2504003915
 31
0.0
  0
LINE
  5
6C6
330
1F
100
AcDbEntity
  8
0
  6
Continuous
 62
     7
100
AcDbLine
 10
2110.810967611
 20
145.2504003915
 30
0.0
 11
2110.810967611
 21
155.2102515792
 31
0.0
  0
LINE
  5
6C7
330
1F
100
AcDbEntity
  8
0
  6
Continuous
 62
     7
100
AcDbLine
 10
2071.810967611
 20
155.2102515792
 30
0.0
 11
2071.810967611
 21
145.2504003915
 31
0.0
  0
LINE
  5
6C8
330
1F
100
AcDbEntity
  8
0
  6
Continuous
 62
     7
100
AcDbLine
 10
2190.810967611
 20
165.2504003915
 30
0.0
 11
2190.810967611
 21
175.2102515792
 31
0.0
  0
LINE
  5
6C9
330
1F
100
AcDbEntity
  8
0
  6
Continuous
 62
     7
100
AcDbLine
 10
2151.810967611
 20
175.2102515792
 30
0.0
 11
2151.810967611
 21
165.2504003915
 31
0.0
  0
LINE
  5
6CA
330
1F
100
AcDbEntity
  8
0
  6
Continuous
 62
     7
100
AcDbLine
 10
2110.810967611
 20
125.2504003915
 30
0.0
 11
2110.810967611
 21
135.2102515792
 31
0.0
  0
LINE
  5
6CB
330
1F
100
AcDbEntity
  8
0
  6
Continuous
 62
     7
100
AcDbLine
 10
2071.810967611
 20
135.2102515792
 30
0.0
 11
2071.810967611
 21
125.2504003915
 31
0.0
  0
LINE
  5
6CC
330
1F
100
AcDbEntity
  8
0
  6
Continuous
 62
     7
100
AcDbLine
 10
2190.810967611
 20
145.2504003915
 30
0.0
 11
2190.810967611
 21
155.2102515792
 31
0.0
  0
LINE
  5
6CD
330
1F
100
AcDbEntity
  8
0
  6
Continuous
 62
     7
100
AcDbLine
 10
2151.810967611
 20
155.2102515792
 30
0.0
 11
2151.810967611
 21
145.2504003915
 31
0.0
  0
LINE
  5
6CE
330
1F
100
AcDbEntity
  8
0
  6
Continuous
 62
     7
100
AcDbLine
 10
2270.810967611
 20
165.2504003915
 30
0.0
 11
2270.810967611
 21
175.2102515792
 31
0.0
  0
LINE
  5
6CF
330
1F
100
AcDbEntity
  8
0
  6
Continuous
 62
     7
100
AcDbLine
 10
2231.810967611
 20
175.2102515792
 30
0.0
 11
2231.810967611
 21
165.2504003915
 31
0.0
  0
LINE
  5
6D0
330
1F
100
AcDbEntity
  8
0
  6
Continuous
 62
     7
100
AcDbLine
 10
2190.810967611
 20
125.2504003915
 30
0.0
 11
2190.810967611
 21
135.2102515792
 31
0.0
  0
LINE
  5
6D1
330
1F
100
AcDbEntity
  8
0
  6
Continuous
 62
     7
100
AcDbLine
 10
2151.810967611
 20
135.2102515792
 30
0.0
 11
2151.810967611
 21
125.2504003915
 31
0.0
  0
LINE
  5
6D2
330
1F
100
AcDbEntity
  8
0
  6
Continuous
 62
     7
100
AcDbLine
 10
2270.810967611
 20
145.2504003915
 30
0.0
 11
2270.810967611
 21
155.2102515792
 31
0.0
  0
LINE
  5
6D3
330
1F
100
AcDbEntity
  8
0
  6
Continuous
 62
     7
100
AcDbLine
 10
2231.810967611
 20
155.2102515792
 30
0.0
 11
2231.810967611
 21
145.2504003915
 31
0.0
  0
LINE
  5
6D4
330
1F
100
AcDbEntity
  8
0
  6
Continuous
 62
     7
100
AcDbLine
 10
2350.810967611
 20
165.2504003915
 30
0.0
 11
2350.810967611
 21
175.2102515792
 31
0.0
  0
LINE
  5
6D5
330
1F
100
AcDbEntity
  8
0
  6
Continuous
 62
     7
100
AcDbLine
 10
2311.810967611
 20
175.2102515792
 30
0.0
 11
2311.810967611
 21
165.2504003915
 31
0.0
  0
LINE
  5
6D6
330
1F
100
AcDbEntity
  8
0
  6
Continuous
 62
     7
100
AcDbLine
 10
2270.810967611
 20
125.2504003915
 30
0.0
 11
2270.810967611
 21
135.2102515792
 31
0.0
  0
LINE
  5
6D7
330
1F
100
AcDbEntity
  8
0
  6
Continuous
 62
     7
100
AcDbLine
 10
2231.810967611
 20
135.2102515792
 30
0.0
 11
2231.810967611
 21
125.2504003915
 31
0.0
  0
LINE
  5
6D8
330
1F
100
AcDbEntity
  8
0
  6
Continuous
 62
     7
100
AcDbLine
 10
2350.810967611
 20
145.2504003915
 30
0.0
 11
2350.810967611
 21
155.2102515792
 31
0.0
  0
LINE
  5
6D9
330
1F
100
AcDbEntity
  8
0
  6
Continuous
 62
     7
100
AcDbLine
 10
2311.810967611
 20
155.2102515792
 30
0.0
 11
2311.810967611
 21
145.2504003915
 31
0.0
  0
LINE
  5
6DA
330
1F
100
AcDbEntity
  8
0
  6
Continuous
 62
     7
100
AcDbLine
 10
2430.810967611
 20
165.2504003915
 30
0.0
 11
2430.810967611
 21
175.2102515792
 31
0.0
  0
LINE
  5
6DB
330
1F
100
AcDbEntity
  8
0
  6
Continuous
 62
     7
100
AcDbLine
 10
2391.810967611
 20
175.2102515792
 30
0.0
 11
2391.810967611
 21
165.2504003915
 31
0.0
  0
LINE
  5
6DC
330
1F
100
AcDbEntity
  8
0
  6
Continuous
 62
     7
100
AcDbLine
 10
2350.810967611
 20
125.2504003915
 30
0.0
 11
2350.810967611
 21
135.2102515792
 31
0.0
  0
LINE
  5
6DD
330
1F
100
AcDbEntity
  8
0
  6
Continuous
 62
     7
100
AcDbLine
 10
2311.810967611
 20
135.2102515792
 30
0.0
 11
2311.810967611
 21
125.2504003915
 31
0.0
  0
LINE
  5
6DE
330
1F
100
AcDbEntity
  8
0
  6
Continuous
 62
     7
100
AcDbLine
 10
2430.810967611
 20
145.2504003915
 30
0.0
 11
2430.810967611
 21
155.2102515792
 31
0.0
  0
LINE
  5
6DF
330
1F
100
AcDbEntity
  8
0
  6
Continuous
 62
     7
100
AcDbLine
 10
2391.810967611
 20
155.2102515792
 30
0.0
 11
2391.810967611
 21
145.2504003915
 31
0.0
  0
LINE
  5
6E0
330
1F
100
AcDbEntity
  8
0
  6
Continuous
 62
     7
100
AcDbLine
 10
2510.810967611
 20
165.2504003915
 30
0.0
 11
2510.810967611
 21
175.2102515792
 31
0.0
  0
LINE
  5
6E1
330
1F
100
AcDbEntity
  8
0
  6
Continuous
 62
     7
100
AcDbLine
 10
2471.810967611
 20
175.2102515792
 30
0.0
 11
2471.810967611
 21
165.2504003915
 31
0.0
  0
LINE
  5
6E2
330
1F
100
AcDbEntity
  8
0
  6
Continuous
 62
     7
100
AcDbLine
 10
2430.810967611
 20
125.2504003915
 30
0.0
 11
2430.810967611
 21
135.2102515792
 31
0.0
  0
LINE
  5
6E3
330
1F
100
AcDbEntity
  8
0
  6
Continuous
 62
     7
100
AcDbLine
 10
2391.810967611
 20
135.2102515792
 30
0.0
 11
2391.810967611
 21
125.2504003915
 31
0.0
  0
LINE
  5
6E4
330
1F
100
AcDbEntity
  8
0
  6
Continuous
 62
     7
100
AcDbLine
 10
2510.810967611
 20
145.2504003915
 30
0.0
 11
2510.810967611
 21
155.2102515792
 31
0.0
  0
LINE
  5
6E5
330
1F
100
AcDbEntity
  8
0
  6
Continuous
 62
     7
100
AcDbLine
 10
2471.810967611
 20
155.2102515792
 30
0.0
 11
2471.810967611
 21
145.2504003915
 31
0.0
  0
LINE
  5
6E6
330
1F
100
AcDbEntity
  8
0
  6
Continuous
 62
     7
100
AcDbLine
 10
2510.810967611
 20
125.2504003915
 30
0.0
 11
2510.810967611
 21
135.2102515792
 31
0.0
  0
LINE
  5
6E7
330
1F
100
AcDbEntity
  8
0
  6
Continuous
 62
     7
100
AcDbLine
 10
2471.810967611
 20
135.2102515792
 30
0.0
 11
2471.810967611
 21
125.2504003915
 31
0.0
  0
LINE
  5
6E8
330
1F
100
AcDbEntity
  8
0
  6
Continuous
 62
     7
100
AcDbLine
 10
1726.4486420143
 20
145.7504003915
 30
0.0
 11
1726.4486420143
 21
152.5545140167
 31
0.0
  0
LINE
  5
6E9
330
1F
100
AcDbEntity
  8
0
  6
Continuous
 62
     7
100
AcDbLine
 10
1727.7790131405
 20
146.5574987633
 30
0.0
 11
1727.7790131405
 21
152.4308345871
 31
0.0
  0
LINE
  5
6EA
330
1F
100
AcDbEntity
  8
0
  6
Continuous
 62
     7
100
AcDbLine
 10
2624.7686567962
 20
151.9395335903
 30
0.0
 11
2624.7686567962
 21
145.7504003915
 31
0.0
  0
LINE
  5
6EB
330
1F
100
AcDbEntity
  8
0
  6
Continuous
 62
     7
100
AcDbLine
 10
2623.43828567
 20
151.8999812286
 30
0.0
 11
2623.43828567
 21
146.5574987633
 31
0.0
  0
LINE
  5
6EC
330
1F
100
AcDbEntity
  8
0
  6
Continuous
 62
     7
100
AcDbLine
 10
2624.7686567962
 20
157.5504003915
 30
0.0
 11
2624.7686567962
 21
151.9395335903
 31
0.0
  0
LINE
  5
6ED
330
1F
100
AcDbEntity
  8
0
  6
Continuous
 62
     7
100
AcDbLine
 10
2623.43828567
 20
156.7433020198
 30
0.0
 11
2623.43828567
 21
151.8999812286
 31
0.0
  0
LINE
  5
6EE
330
1F
100
AcDbEntity
  8
0
  6
Continuous
 62
     7
100
AcDbLine
 10
1726.4486420143
 20
152.5545140167
 30
0.0
 11
1726.4486420143
 21
157.5504003915
 31
0.0
  0
LINE
  5
6EF
330
1F
100
AcDbEntity
  8
0
  6
Continuous
 62
     7
100
AcDbLine
 10
1727.7790131405
 20
152.4308345871
 30
0.0
 11
1727.7790131405
 21
156.7433020198
 31
0.0
  0
LINE
  5
6F0
330
1F
100
AcDbEntity
  8
0
  6
Continuous
 62
     7
100
AcDbLine
 10
1728.4390205315
 20
147.8247129539
 30
0.0
 11
1728.4390205315
 21
152.2366471946
 31
0.0
  0
LINE
  5
6F1
330
1F
100
AcDbEntity
  8
0
  6
Continuous
 62
     7
100
AcDbLine
 10
2622.778278279
 20
151.8378806028
 30
0.0
 11
2622.778278279
 21
147.8247129539
 31
0.0
  0
LINE
  5
6F2
330
1F
100
AcDbEntity
  8
0
  6
Continuous
 62
     7
100
AcDbLine
 10
2622.778278279
 20
155.4760878291
 30
0.0
 11
2622.778278279
 21
151.8378806028
 31
0.0
  0
LINE
  5
6F3
330
1F
100
AcDbEntity
  8
0
  6
Continuous
 62
     7
100
AcDbLine
 10
1728.4390205315
 20
152.2366471946
 30
0.0
 11
1728.4390205315
 21
155.4760878291
 31
0.0
  0
LINE
  5
6F4
330
1F
100
AcDbEntity
  8
0
  6
Continuous
 62
     7
100
AcDbLine
 10
1714.9086494052
 20
152.110119184
 30
0.0
 11
1721.6086494052
 21
152.110119184
 31
0.0
  0
LINE
  5
6F5
330
1F
100
AcDbEntity
  8
0
  6
Continuous
 62
     7
100
AcDbLine
 10
2636.3086494052
 20
151.7974172723
 30
0.0
 11
2629.6086494052
 21
151.7974172723
 31
0.0
  0
LINE
  5
6F6
330
1F
100
AcDbEntity
  8
0
  6
Continuous
 62
     7
100
AcDbLine
 10
1728.3086494052
 20
156.3004003915
 30
0.0
 11
1728.3086494052
 21
155.7264003915
 31
0.0
  0
LINE
  5
6F7
330
1F
100
AcDbEntity
  8
0
  6
Continuous
 62
     7
100
AcDbLine
 10
1728.3086494052
 20
147.5744003915
 30
0.0
 11
1728.3086494052
 21
147.0004003915
 31
0.0
  0
LINE
  5
6F8
330
1F
100
AcDbEntity
  8
0
  6
Continuous
 62
     7
100
AcDbLine
 10
2622.9086494052
 20
147.0004003915
 30
0.0
 11
2622.9086494052
 21
147.5744003915
 31
0.0
  0
LINE
  5
6F9
330
1F
100
AcDbEntity
  8
0
  6
Continuous
 62
     7
100
AcDbLine
 10
2622.9086494052
 20
155.7264003915
 30
0.0
 11
2622.9086494052
 21
156.3004003915
 31
0.0
  0
LINE
  5
6FA
330
1F
100
AcDbEntity
  8
0
  6
Continuous
 62
     7
100
AcDbLine
 10
2636.1086494052
 20
179.6504003915
 30
0.0
 11
2636.1086494052
 21
154.6504003915
 31
0.0
  0
LINE
  5
6FB
330
1F
100
AcDbEntity
  8
0
  6
Continuous
 62
     7
100
AcDbLine
 10
2636.1086494052
 20
148.6504003915
 30
0.0
 11
2636.1086494052
 21
123.6504003915
 31
0.0
  0
LINE
  5
6FC
330
1F
100
AcDbEntity
  8
0
  6
Continuous
 62
     7
100
AcDbLine
 10
1734.1086494052
 20
159.1859342974
 30
0.0
 11
1733.3777107981
 21
159.1504003915
 31
0.0
  0
LINE
  5
6FD
330
1F
100
AcDbEntity
  8
0
  6
Continuous
 62
     7
100
AcDbLine
 10
1734.8395880124
 20
159.1504003915
 30
0.0
 11
1734.1086494052
 21
159.1859342974
 31
0.0
  0
LINE
  5
6FE
330
1F
100
AcDbEntity
  8
0
  6
Continuous
 62
     7
100
AcDbLine
 10
2617.1086494052
 20
159.1859342974
 30
0.0
 11
2616.3777107981
 21
159.1504003915
 31
0.0
  0
LINE
  5
6FF
330
1F
100
AcDbEntity
  8
0
  6
Continuous
 62
     7
100
AcDbLine
 10
2617.8395880124
 20
159.1504003915
 30
0.0
 11
2617.1086494052
 21
159.1859342974
 31
0.0
  0
LINE
  5
700
330
1F
100
AcDbEntity
  8
0
  6
Continuous
 62
     7
100
AcDbLine
 10
1734.1086494052
 20
144.1148664856
 30
0.0
 11
1734.8395880124
 21
144.1504003915
 31
0.0
  0
LINE
  5
701
330
1F
100
AcDbEntity
  8
0
  6
Continuous
 62
     7
100
AcDbLine
 10
1733.3777107981
 20
144.1504003915
 30
0.0
 11
1734.1086494052
 21
144.1148664856
 31
0.0
  0
LINE
  5
702
330
1F
100
AcDbEntity
  8
0
  6
Continuous
 62
     7
100
AcDbLine
 10
2617.1086494052
 20
144.1148664856
 30
0.0
 11
2617.8395880124
 21
144.1504003915
 31
0.0
  0
LINE
  5
703
330
1F
100
AcDbEntity
  8
0
  6
Continuous
 62
     7
100
AcDbLine
 10
2616.3777107981
 20
144.1504003915
 30
0.0
 11
2617.1086494052
 21
144.1148664856
 31
0.0
  0
ARC
  5
704
330
1F
100
AcDbEntity
  8
0
  6
Continuous
 62
     7
100
AcDbCircle
 10
1734.1086494052
 20
151.6504003915
 30
0.0
 40
8.242640687119287
100
AcDbArc
 50
90.0
 51
114.5081081782
  0
ARC
  5
705
330
1F
100
AcDbEntity
  8
0
  6
Continuous
 62
     7
100
AcDbCircle
 10
1734.1086494052
 20
151.6504003915
 30
0.0
 40
8.242640687119291
100
AcDbArc
 50
245.4918918218
 51
270.0
  0
ARC
  5
706
330
1F
100
AcDbEntity
  8
0
  6
Continuous
 62
     7
100
AcDbCircle
 10
1734.1086494052
 20
151.6504003915
 30
0.0
 40
8.242640687119291
100
AcDbArc
 50
270.0
 51
294.5081081782
  0
ARC
  5
707
330
1F
100
AcDbEntity
  8
0
  6
Continuous
 62
     7
100
AcDbCircle
 10
1734.1086494052
 20
151.6504003915
 30
0.0
 40
8.242640687119287
100
AcDbArc
 50
65.4918918218
 51
90.0
  0
ARC
  5
708
330
1F
100
AcDbEntity
  8
0
  6
Continuous
 62
     7
100
AcDbCircle
 10
2617.1086494052
 20
151.6504003915
 30
0.0
 40
8.2426406871192
100
AcDbArc
 50
90.0
 51
114.5081081782
  0
ARC
  5
709
330
1F
100
AcDbEntity
  8
0
  6
Continuous
 62
     7
100
AcDbCircle
 10
2617.1086494052
 20
151.6504003915
 30
0.0
 40
8.242640687119604
100
AcDbArc
 50
245.4918918218
 51
270.0
  0
ARC
  5
70A
330
1F
100
AcDbEntity
  8
0
  6
Continuous
 62
     7
100
AcDbCircle
 10
2617.1086494052
 20
151.6504003915
 30
0.0
 40
8.242640687119604
100
AcDbArc
 50
270.0
 51
294.5081081782
  0
ARC
  5
70B
330
1F
100
AcDbEntity
  8
0
  6
Continuous
 62
     7
100
AcDbCircle
 10
2617.1086494052
 20
151.6504003915
 30
0.0
 40
8.2426406871192
100
AcDbArc
 50
65.4918918218
 51
90.0
  0
ENDSEC
  0
SECTION
  2
OBJECTS
  0
DICTIONARY
  5
C
330
0
100
AcDbDictionary
281
     1
  3
ACAD_GROUP
350
D
  3
ACAD_LAYOUT
350
1A
  3
ACAD_MLINESTYLE
350
17
  3
ACAD_PLOTSETTINGS
350
19
  3
ACAD_PLOTSTYLENAME
350
E
  3
ACAD_SCALELIST
350
47
  3
DWGPROPS
350
70C
  0
DICTIONARY
  5
D
102
{ACAD_REACTORS
330
C
102
}
330
C
100
AcDbDictionary
281
     1
  0
DICTIONARY
  5
1A
102
{ACAD_REACTORS
330
C
102
}
330
C
100
AcDbDictionary
281
     1
  3
Layout1
350
1E
  3
Layout2
350
26
  3
Model
350
22
  0
DICTIONARY
  5
17
102
{ACAD_REACTORS
330
C
102
}
330
C
100
AcDbDictionary
281
     1
  3
Standard
350
18
  0
DICTIONARY
  5
19
102
{ACAD_REACTORS
330
C
102
}
330
C
100
AcDbDictionary
281
     1
  0
ACDBDICTIONARYWDFLT
  5
E
102
{ACAD_REACTORS
330
C
102
}
330
C
100
AcDbDictionary
281
     1
  3
Normal
350
F
100
AcDbDictionaryWithDefault
340
F
  0
DICTIONARY
  5
47
102
{ACAD_REACTORS
330
C
102
}
330
C
100
AcDbDictionary
281
     1
  3
A0
350
48
  3
A1
350
49
  3
A2
350
4A
  3
A3
350
4B
  3
A4
350
4C
  3
A5
350
4D
  3
A6
350
4E
  3
A7
350
4F
  3
A8
350
50
  3
A9
350
51
  3
B0
350
52
  3
B1
350
53
  3
B2
350
54
  3
B3
350
55
  3
B4
350
56
  3
B5
350
57
  3
B6
350
58
  0
XRECORD
  5
70C
102
{ACAD_REACTORS
330
C
102
}
330
C
100
AcDbXrecord
280
     1
  1
DWGPROPS COOKIE
  2

  3

  4

  6

  7

  8
moskovchenkovapa
  9

300
=
301
=
302
=
303
=
304
=
305
=
306
=
307
=
308
=
309
=
 40
0.0
 41
2460697.555329606
 42
2460697.555330139
  1

 90
        0
  0
LAYOUT
  5
1E
102
{ACAD_REACTORS
330
1A
102
}
330
1A
100
AcDbPlotSettings
  1

  2
none_device
  4

  6

 40
0.0
 41
0.0
 42
0.0
 43
0.0
 44
0.0
 45
0.0
 46
0.0
 47
0.0
 48
0.0
 49
0.0
140
0.0
141
0.0
142
1.0
143
1.0
 70
   688
 72
     1
 73
     0
 74
     5
  7

 75
    16
147
1.0
148
0.0
149
0.0
100
AcDbLayout
  1
Layout1
 70
     1
 71
     1
 10
0.0
 20
0.0
 11
420.0
 21
297.0
 12
0.0
 22
0.0
 32
0.0
 14
1.0000000000E+20
 24
1.0000000000E+20
 34
1.0000000000E+20
 15
-1.0000000000E+20
 25
-1.0000000000E+20
 35
-1.0000000000E+20
146
0.0
 13
0.0
 23
0.0
 33
0.0
 16
1.0
 26
0.0
 36
0.0
 17
0.0
 27
1.0
 37
0.0
 76
     0
330
1B
  0
LAYOUT
  5
26
102
{ACAD_REACTORS
330
1A
102
}
330
1A
100
AcDbPlotSettings
  1

  2
none_device
  4

  6

 40
0.0
 41
0.0
 42
0.0
 43
0.0
 44
0.0
 45
0.0
 46
0.0
 47
0.0
 48
0.0
 49
0.0
140
0.0
141
0.0
142
1.0
143
1.0
 70
   688
 72
     1
 73
     0
 74
     5
  7

 75
    16
147
1.0
148
0.0
149
0.0
100
AcDbLayout
  1
Layout2
 70
     1
 71
     2
 10
0.0
 20
0.0
 11
0.0
 21
0.0
 12
0.0
 22
0.0
 32
0.0
 14
0.0
 24
0.0
 34
0.0
 15
0.0
 25
0.0
 35
0.0
146
0.0
 13
0.0
 23
0.0
 33
0.0
 16
1.0
 26
0.0
 36
0.0
 17
0.0
 27
1.0
 37
0.0
 76
     0
330
23
  0
LAYOUT
  5
22
102
{ACAD_REACTORS
330
1A
102
}
330
1A
100
AcDbPlotSettings
  1

  2
none_device
  4
Letter_(8.50_x_11.00_Inches)
  6

 40
6.35
 41
6.35
 42
6.35000508
 43
6.35000508
 44
215.9
 45
279.4
 46
0.0
 47
0.0
 48
0.0
 49
0.0
140
0.0
141
0.0
142
1.0
143
1.0
 70
  1712
 72
     1
 73
     0
 74
     0
  7

 75
     0
147
1.0
148
0.0
149
0.0
100
AcDbLayout
  1
Model
 70
     1
 71
     0
 10
0.0
 20
0.0
 11
420.0
 21
297.0
 12
0.0
 22
0.0
 32
0.0
 14
0.0
 24
0.0
 34
0.0
 15
420.0
 25
297.0
 35
0.0
146
0.0
 13
0.0
 23
0.0
 33
0.0
 16
1.0
 26
0.0
 36
0.0
 17
0.0
 27
1.0
 37
0.0
 76
     0
330
1F
331
29
  0
MLINESTYLE
  5
18
102
{ACAD_REACTORS
330
17
102
}
330
17
100
AcDbMlineStyle
  2
Standard
 70
     0
  3

 62
   256
 51
90.0
 52
90.0
 71
     2
 49
0.5
 62
   256
  6
BYLAYER
 49
-0.5
 62
   256
  6
BYLAYER
  0
ACDBPLACEHOLDER
  5
F
102
{ACAD_REACTORS
330
E
102
}
330
E
  0
SCALE
  5
48
102
{ACAD_REACTORS
330
47
102
}
330
47
100
AcDbScale
 70
     0
300
1:1
140
1.0
141
1.0
290
     1
  0
SCALE
  5
49
102
{ACAD_REACTORS
330
47
102
}
330
47
100
AcDbScale
 70
     0
300
1:2
140
1.0
141
2.0
290
     0
  0
SCALE
  5
4A
102
{ACAD_REACTORS
330
47
102
}
330
47
100
AcDbScale
 70
     0
300
1:4
140
1.0
141
4.0
290
     0
  0
SCALE
  5
4B
102
{ACAD_REACTORS
330
47
102
}
330
47
100
AcDbScale
 70
     0
300
1:5
140
1.0
141
5.0
290
     0
  0
SCALE
  5
4C
102
{ACAD_REACTORS
330
47
102
}
330
47
100
AcDbScale
 70
     0
300
1:8
140
1.0
141
8.0
290
     0
  0
SCALE
  5
4D
102
{ACAD_REACTORS
330
47
102
}
330
47
100
AcDbScale
 70
     0
300
1:10
140
1.0
141
10.0
290
     0
  0
SCALE
  5
4E
102
{ACAD_REACTORS
330
47
102
}
330
47
100
AcDbScale
 70
     0
300
1:16
140
1.0
141
16.0
290
     0
  0
SCALE
  5
4F
102
{ACAD_REACTORS
330
47
102
}
330
47
100
AcDbScale
 70
     0
300
1:20
140
1.0
141
20.0
290
     0
  0
SCALE
  5
50
102
{ACAD_REACTORS
330
47
102
}
330
47
100
AcDbScale
 70
     0
300
1:30
140
1.0
141
30.0
290
     0
  0
SCALE
  5
51
102
{ACAD_REACTORS
330
47
102
}
330
47
100
AcDbScale
 70
     0
300
1:40
140
1.0
141
40.0
290
     0
  0
SCALE
  5
52
102
{ACAD_REACTORS
330
47
102
}
330
47
100
AcDbScale
 70
     0
300
1:50
140
1.0
141
50.0
290
     0
  0
SCALE
  5
53
102
{ACAD_REACTORS
330
47
102
}
330
47
100
AcDbScale
 70
     0
300
1:100
140
1.0
141
100.0
290
     0
  0
SCALE
  5
54
102
{ACAD_REACTORS
330
47
102
}
330
47
100
AcDbScale
 70
     0
300
2:1
140
2.0
141
1.0
290
     0
  0
SCALE
  5
55
102
{ACAD_REACTORS
330
47
102
}
330
47
100
AcDbScale
 70
     0
300
4:1
140
4.0
141
1.0
290
     0
  0
SCALE
  5
56
102
{ACAD_REACTORS
330
47
102
}
330
47
100
AcDbScale
 70
     0
300
8:1
140
8.0
141
1.0
290
     0
  0
SCALE
  5
57
102
{ACAD_REACTORS
330
47
102
}
330
47
100
AcDbScale
 70
     0
300
10:1
140
10.0
141
1.0
290
     0
  0
SCALE
  5
58
102
{ACAD_REACTORS
330
47
102
}
330
47
100
AcDbScale
 70
     0
300
100:1
140
100.0
141
1.0
290
     0
  0
ENDSEC
  0
EOF
