  0
SECTION
  2
HEADER
  9
$ACADVER
  1
AC1015
  9
$ACADMAINTVER
 70
     6
  9
$DWGCODEPAGE
  3
ANSI_1251
  9
$INSBASE
 10
0.0
 20
0.0
 30
0.0
  9
$EXTMIN
 10
0.0
 20
0.0
 30
0.0
  9
$EXTMAX
 10
420.0
 20
297.0
 30
0.0
  9
$LIMMIN
 10
0.0
 20
0.0
  9
$LIMMAX
 10
420.0
 20
297.0
  9
$ORTHOMODE
 70
     0
  9
$REGENMODE
 70
     1
  9
$FILLMODE
 70
     1
  9
$QTEXTMODE
 70
     0
  9
$MIRRTEXT
 70
     1
  9
$LTSCALE
 40
1.0
  9
$ATTMODE
 70
     1
  9
$TEXTSIZE
 40
5.0
  9
$TRACEWID
 40
1.0
  9
$TEXTSTYLE
  7
Standard
  9
$CLAYER
  8
0
  9
$CELTYPE
  6
ByLayer
  9
$CECOLOR
 62
   256
  9
$CELTSCALE
 40
1.0
  9
$DISPSILH
 70
     0
  9
$DIMSCALE
 40
1.0
  9
$DIMASZ
 40
5.0
  9
$DIMEXO
 40
0.0
  9
$DIMDLI
 40
3.75
  9
$DIMRND
 40
0.0
  9
$DIMDLE
 40
0.0
  9
$DIMEXE
 40
1.0
  9
$DIMTP
 40
0.0
  9
$DIMTM
 40
0.0
  9
$DIMTXT
 40
3.5
  9
$DIMCEN
 40
2.5
  9
$DIMTSZ
 40
0.0
  9
$DIMTOL
 70
     0
  9
$DIMLIM
 70
     0
  9
$DIMTIH
 70
     1
  9
$DIMTOH
 70
     1
  9
$DIMSE1
 70
     0
  9
$DIMSE2
 70
     0
  9
$DIMTAD
 70
     1
  9
$DIMZIN
 70
     0
  9
$DIMBLK
  1

  9
$DIMASO
 70
     1
  9
$DIMSHO
 70
     1
  9
$DIMPOST
  1

  9
$DIMAPOST
  1

  9
$DIMALT
 70
     0
  9
$DIMALTD
 70
     3
  9
$DIMALTF
 40
0.0393700787
  9
$DIMLFAC
 40
1.0
  9
$DIMTOFL
 70
     1
  9
$DIMTVP
 40
0.0
  9
$DIMTIX
 70
     0
  9
$DIMSOXD
 70
     0
  9
$DIMSAH
 70
     0
  9
$DIMBLK1
  1

  9
$DIMBLK2
  1

  9
$DIMSTYLE
  2
ISO-25
  9
$DIMCLRD
 70
     0
  9
$DIMCLRE
 70
     0
  9
$DIMCLRT
 70
     0
  9
$DIMTFAC
 40
1.0
  9
$DIMGAP
 40
1.5
  9
$DIMJUST
 70
     0
  9
$DIMSD1
 70
     0
  9
$DIMSD2
 70
     0
  9
$DIMTOLJ
 70
     0
  9
$DIMTZIN
 70
     0
  9
$DIMALTZ
 70
     0
  9
$DIMALTTZ
 70
     0
  9
$DIMUPT
 70
     0
  9
$DIMDEC
 70
     1
  9
$DIMTDEC
 70
     1
  9
$DIMALTU
 70
     2
  9
$DIMALTTD
 70
     3
  9
$DIMTXSTY
  7
Standard
  9
$DIMAUNIT
 70
     0
  9
$DIMADEC
 70
     2
  9
$DIMALTRND
 40
0.0
  9
$DIMAZIN
 70
     0
  9
$DIMDSEP
 70
    44
  9
$DIMATFIT
 70
     3
  9
$DIMFRAC
 70
     0
  9
$DIMLDRBLK
  1

  9
$DIMLUNIT
 70
     2
  9
$DIMLWD
 70
    -2
  9
$DIMLWE
 70
    -2
  9
$DIMTMOVE
 70
     0
  9
$LUNITS
 70
     2
  9
$LUPREC
 70
     1
  9
$SKETCHINC
 40
1.0
  9
$FILLETRAD
 40
0.0
  9
$AUNITS
 70
     0
  9
$AUPREC
 70
     2
  9
$MENU
  1
.
  9
$ELEVATION
 40
0.0
  9
$PELEVATION
 40
0.0
  9
$THICKNESS
 40
0.0
  9
$LIMCHECK
 70
     0
  9
$CHAMFERA
 40
0.0
  9
$CHAMFERB
 40
0.0
  9
$CHAMFERC
 40
0.0
  9
$CHAMFERD
 40
0.0
  9
$SKPOLY
 70
     0
  9
$TDCREATE
 40
2460697.70578625
  9
$TDUCREATE
 40
2460697.58078625
  9
$TDUPDATE
 40
2460697.705786701
  9
$TDUUPDATE
 40
2460697.580786701
  9
$TDINDWG
 40
0.0000000116
  9
$TDUSRTIMER
 40
0.0000000116
  9
$USRTIMER
 70
     1
  9
$ANGBASE
 50
0.0
  9
$ANGDIR
 70
     0
  9
$PDMODE
 70
     0
  9
$PDSIZE
 40
-1.0
  9
$PLINEWID
 40
0.0
  9
$SPLFRAME
 70
     0
  9
$SPLINETYPE
 70
     6
  9
$SPLINESEGS
 70
     8
  9
$HANDSEED
  5
21E
  9
$SURFTAB1
 70
     6
  9
$SURFTAB2
 70
     6
  9
$SURFTYPE
 70
     6
  9
$SURFU
 70
     6
  9
$SURFV
 70
     6
  9
$UCSBASE
  2

  9
$UCSNAME
  2

  9
$UCSORG
 10
0.0
 20
0.0
 30
0.0
  9
$UCSXDIR
 10
1.0
 20
0.0
 30
0.0
  9
$UCSYDIR
 10
0.0
 20
1.0
 30
0.0
  9
$UCSORTHOREF
  2

  9
$UCSORTHOVIEW
 70
     0
  9
$UCSORGTOP
 10
0.0
 20
0.0
 30
0.0
  9
$UCSORGBOTTOM
 10
0.0
 20
0.0
 30
0.0
  9
$UCSORGLEFT
 10
0.0
 20
0.0
 30
0.0
  9
$UCSORGRIGHT
 10
0.0
 20
0.0
 30
0.0
  9
$UCSORGFRONT
 10
0.0
 20
0.0
 30
0.0
  9
$UCSORGBACK
 10
0.0
 20
0.0
 30
0.0
  9
$PUCSBASE
  2

  9
$PUCSNAME
  2

  9
$PUCSORG
 10
0.0
 20
0.0
 30
0.0
  9
$PUCSXDIR
 10
1.0
 20
0.0
 30
0.0
  9
$PUCSYDIR
 10
0.0
 20
1.0
 30
0.0
  9
$PUCSORTHOREF
  2

  9
$PUCSORTHOVIEW
 70
     0
  9
$PUCSORGTOP
 10
0.0
 20
0.0
 30
0.0
  9
$PUCSORGBOTTOM
 10
0.0
 20
0.0
 30
0.0
  9
$PUCSORGLEFT
 10
0.0
 20
0.0
 30
0.0
  9
$PUCSORGRIGHT
 10
0.0
 20
0.0
 30
0.0
  9
$PUCSORGFRONT
 10
0.0
 20
0.0
 30
0.0
  9
$PUCSORGBACK
 10
0.0
 20
0.0
 30
0.0
  9
$USERI1
 70
     0
  9
$USERI2
 70
     0
  9
$USERI3
 70
     0
  9
$USERI4
 70
     0
  9
$USERI5
 70
     0
  9
$USERR1
 40
0.0
  9
$USERR2
 40
0.0
  9
$USERR3
 40
0.0
  9
$USERR4
 40
0.0
  9
$USERR5
 40
0.0
  9
$WORLDVIEW
 70
     1
  9
$SHADEDGE
 70
     3
  9
$SHADEDIF
 70
    70
  9
$TILEMODE
 70
     1
  9
$MAXACTVP
 70
    64
  9
$PINSBASE
 10
0.0
 20
0.0
 30
0.0
  9
$PLIMCHECK
 70
     0
  9
$PEXTMIN
 10
1.0000000000E+20
 20
1.0000000000E+20
 30
1.0000000000E+20
  9
$PEXTMAX
 10
-1.0000000000E+20
 20
-1.0000000000E+20
 30
-1.0000000000E+20
  9
$PLIMMIN
 10
0.0
 20
0.0
  9
$PLIMMAX
 10
420.0
 20
297.0
  9
$UNITMODE
 70
     0
  9
$VISRETAIN
 70
     1
  9
$PLINEGEN
 70
     0
  9
$PSLTSCALE
 70
     1
  9
$TREEDEPTH
 70
  3020
  9
$CMLSTYLE
  2
Standard
  9
$CMLJUST
 70
     0
  9
$CMLSCALE
 40
20.0
  9
$PROXYGRAPHICS
 70
     1
  9
$MEASUREMENT
 70
     1
  9
$CELWEIGHT
370
    -1
  9
$ENDCAPS
280
     0
  9
$JOINSTYLE
280
     0
  9
$LWDISPLAY
290
     1
  9
$INSUNITS
 70
     4
  9
$HYPERLINKBASE
  1

  9
$STYLESHEET
  1

  9
$XEDIT
290
     1
  9
$CEPSNTYPE
380
     0
  9
$PSTYLEMODE
290
     1
  9
$FINGERPRINTGUID
  2
{e5da304e-616d-4106-9f0b-0f1ac3e7a28c}
  9
$VERSIONGUID
  2
{FAEB1C32-E019-11D5-929B-00C0DF256EC4}
  9
$EXTNAMES
290
     1
  9
$PSVPSCALE
 40
0.0
  9
$OLESTARTUP
290
     0
  0
ENDSEC
  0
SECTION
  2
CLASSES
  0
CLASS
  1
ACDBDICTIONARYWDFLT
  2
AcDbDictionaryWithDefault
  3
ObjectDBX Classes
 90
        0
280
     0
281
     0
  0
CLASS
  1
VISUALSTYLE
  2
AcDbVisualStyle
  3
ObjectDBX Classes
 90
     4095
280
     0
281
     0
  0
CLASS
  1
MATERIAL
  2
AcDbMaterial
  3
ObjectDBX Classes
 90
     1153
280
     0
281
     0
  0
CLASS
  1
SCALE
  2
AcDbScale
  3
ObjectDBX Classes
 90
     1153
280
     0
281
     0
  0
CLASS
  1
TABLESTYLE
  2
AcDbTableStyle
  3
ObjectDBX Classes
 90
     4095
280
     0
281
     0
  0
CLASS
  1
MLEADERSTYLE
  2
AcDbMLeaderStyle
  3
ACDB_MLEADERSTYLE_CLASS
 90
     4095
280
     0
281
     0
  0
CLASS
  1
SUN
  2
AcDbSun
  3
SCENEOE
 90
     1153
280
     0
281
     0
  0
CLASS
  1
ACDBPLACEHOLDER
  2
AcDbPlaceHolder
  3
ObjectDBX Classes
 90
        0
280
     0
281
     0
  0
CLASS
  1
LAYOUT
  2
AcDbLayout
  3
ObjectDBX Classes
 90
        0
280
     0
281
     0
  0
ENDSEC
  0
SECTION
  2
TABLES
  0
TABLE
  2
VPORT
  5
8
330
0
100
AcDbSymbolTable
 70
     1
  0
VPORT
  5
29
330
8
100
AcDbSymbolTableRecord
100
AcDbViewportTableRecord
  2
*Active
 70
     0
 10
0.0
 20
0.0
 11
1.0
 21
1.0
 12
210.0
 22
148.5
 13
0.0
 23
0.0
 14
10.0
 24
10.0
 15
10.0
 25
10.0
 16
0.0
 26
0.0
 36
1.0
 17
0.0
 27
0.0
 37
0.0
 40
297.0
 41
1.4141414141
 42
50.0
 43
0.0
 44
0.0
 50
0.0
 51
0.0
 71
     0
 72
  2000
 73
     1
 74
     3
 75
     0
 76
     0
 77
     0
 78
     0
281
     0
 65
     1
110
0.0
120
0.0
130
0.0
111
1.0
121
0.0
131
0.0
112
0.0
122
1.0
132
0.0
 79
     0
146
0.0
  0
ENDTAB
  0
TABLE
  2
LTYPE
  5
5
330
0
100
AcDbSymbolTable
 70
     6
  0
LTYPE
  5
14
330
5
100
AcDbSymbolTableRecord
100
AcDbLinetypeTableRecord
  2
ByBlock
 70
     0
  3

 72
    65
 73
     0
 40
0.0
  0
LTYPE
  5
15
330
5
100
AcDbSymbolTableRecord
100
AcDbLinetypeTableRecord
  2
ByLayer
 70
     0
  3

 72
    65
 73
     0
 40
0.0
  0
LTYPE
  5
16
330
5
100
AcDbSymbolTableRecord
100
AcDbLinetypeTableRecord
  2
Continuous
 70
     0
  3
Solid line
 72
    65
 73
     0
 40
0.0
  0
LTYPE
  5
5E
330
5
100
AcDbSymbolTableRecord
100
AcDbLinetypeTableRecord
  2
HIDDEN
 70
     0
  3
Hidden __ __ __ __ __ __ __ __ __ __ __ __ __ __
 72
    65
 73
     2
 40
1.905
 49
1.27
 74
     0
 49
-0.635
 74
     0
  0
LTYPE
  5
5F
330
5
100
AcDbSymbolTableRecord
100
AcDbLinetypeTableRecord
  2
PHANTOM
 70
     0
  3
Phantom ______  __  __  ______  __  __  ______
 72
    65
 73
     6
 40
12.7
 49
6.35
 74
     0
 49
-1.27
 74
     0
 49
1.27
 74
     0
 49
-1.27
 74
     0
 49
1.27
 74
     0
 49
-1.27
 74
     0
  0
LTYPE
  5
60
330
5
100
AcDbSymbolTableRecord
100
AcDbLinetypeTableRecord
  2
CENTER
 70
     0
  3
Center ____ _ ____ _ ____ _ ____ _ ____ _ ____
 72
    65
 73
     4
 40
10.16
 49
6.35
 74
     0
 49
-1.27
 74
     0
 49
1.27
 74
     0
 49
-1.27
 74
     0
  0
LTYPE
  5
61
330
5
100
AcDbSymbolTableRecord
100
AcDbLinetypeTableRecord
  2
CENTERX2
 70
     0
  3
Center (2x) ________  __  ________  __  _____
 72
    65
 73
     4
 40
20.32
 49
12.7
 74
     0
 49
-2.54
 74
     0
 49
2.54
 74
     0
 49
-2.54
 74
     0
  0
LTYPE
  5
62
330
5
100
AcDbSymbolTableRecord
100
AcDbLinetypeTableRecord
  2
DOT2
 70
     0
  3
Dot (.5x) ........................................
 72
    65
 73
     2
 40
0.635
 49
0.0
 74
     0
 49
-0.635
 74
     0
  0
ENDTAB
  0
TABLE
  2
LAYER
  5
2
330
0
100
AcDbSymbolTable
 70
     3
  0
LAYER
  5
10
330
2
100
AcDbSymbolTableRecord
100
AcDbLayerTableRecord
  2
0
 70
     0
 62
     7
  6
Continuous
370
    -3
390
F
  0
LAYER
  5
63
330
2
100
AcDbSymbolTableRecord
100
AcDbLayerTableRecord
  2
ВОДЯНОЙ_ЗНАК
 70
     0
 62
    11
  6
Continuous
370
    -3
390
F
  0
LAYER
  5
64
330
2
100
AcDbSymbolTableRecord
100
AcDbLayerTableRecord
  2
ОСНОВНОЙ
 70
     0
 62
     7
  6
Continuous
370
    -3
390
F
  0
ENDTAB
  0
TABLE
  2
STYLE
  5
3
330
0
100
AcDbSymbolTable
 70
     1
  0
STYLE
  5
11
330
3
100
AcDbSymbolTableRecord
100
AcDbTextStyleTableRecord
  2
Standard
 70
     0
 40
0.0
 41
1.0
 50
0.0
 71
     0
 42
5.0
  3
txt
  4

  0
ENDTAB
  0
TABLE
  2
VIEW
  5
6
330
0
100
AcDbSymbolTable
 70
     0
  0
ENDTAB
  0
TABLE
  2
UCS
  5
7
330
0
100
AcDbSymbolTable
 70
     0
  0
ENDTAB
  0
TABLE
  2
APPID
  5
9
330
0
100
AcDbSymbolTable
 70
     1
  0
APPID
  5
12
330
9
100
AcDbSymbolTableRecord
100
AcDbRegAppTableRecord
  2
ACAD
 70
     0
  0
ENDTAB
  0
TABLE
  2
DIMSTYLE
  5
A
330
0
100
AcDbSymbolTable
 70
     1
100
AcDbDimStyleTable
  0
DIMSTYLE
105
27
330
A
100
AcDbSymbolTableRecord
100
AcDbDimStyleTableRecord
  2
ISO-25
 70
     0
 41
2.5
 42
0.625
 43
3.75
 44
1.25
 73
     0
 74
     0
 77
     1
 78
     8
140
2.5
141
2.5
143
0.0393700787
147
0.625
171
     3
172
     1
178
     0
271
     2
272
     2
274
     3
278
    44
283
     0
284
     8
340
11
  0
ENDTAB
  0
TABLE
  2
BLOCK_RECORD
  5
1
330
0
100
AcDbSymbolTable
 70
     1
  0
BLOCK_RECORD
  5
1F
330
1
100
AcDbSymbolTableRecord
100
AcDbBlockTableRecord
  2
*Model_Space
340
22
  0
BLOCK_RECORD
  5
1B
330
1
100
AcDbSymbolTableRecord
100
AcDbBlockTableRecord
  2
*Paper_Space
340
1E
  0
BLOCK_RECORD
  5
23
330
1
100
AcDbSymbolTableRecord
100
AcDbBlockTableRecord
  2
*Paper_Space0
340
26
  0
ENDTAB
  0
ENDSEC
  0
SECTION
  2
BLOCKS
  0
BLOCK
  5
20
330
1F
100
AcDbEntity
  8
0
100
AcDbBlockBegin
  2
*Model_Space
 70
     0
 10
0.0
 20
0.0
 30
0.0
  3
*Model_Space
  1

  0
ENDBLK
  5
21
330
1F
100
AcDbEntity
  8
0
100
AcDbBlockEnd
  0
BLOCK
  5
1C
330
1B
100
AcDbEntity
 67
     1
  8
0
100
AcDbBlockBegin
  2
*Paper_Space
 70
     0
 10
0.0
 20
0.0
 30
0.0
  3
*Paper_Space
  1

  0
ENDBLK
  5
1D
330
1B
100
AcDbEntity
 67
     1
  8
0
100
AcDbBlockEnd
  0
BLOCK
  5
24
330
23
100
AcDbEntity
  8
0
100
AcDbBlockBegin
  2
*Paper_Space0
 70
     0
 10
0.0
 20
0.0
 30
0.0
  3
*Paper_Space0
  1

  0
ENDBLK
  5
25
330
23
100
AcDbEntity
  8
0
100
AcDbBlockEnd
  0
ENDSEC
  0
SECTION
  2
ENTITIES
  0
ARC
  5
65
330
1F
100
AcDbEntity
  8
0
  6
Continuous
 62
     7
100
AcDbCircle
 10
1290.4093579622
 20
-70.871548773
 30
0.0
 40
3.825687437599122
100
AcDbArc
 50
0.0914128928
 51
180.0914128928
  0
LINE
  5
66
330
1F
100
AcDbEntity
  8
0
  6
Continuous
 62
     7
100
AcDbLine
 10
1293.5421397843
 20
-70.8665505533
 30
0.0
 11
1294.2350405307
 21
-70.8654450597
 31
0.0
  0
ARC
  5
67
330
1F
100
AcDbEntity
  8
0
  6
Continuous
 62
     7
100
AcDbCircle
 10
1290.4093579622
 20
-70.871548773
 30
0.0
 40
3.132785809343728
100
AcDbArc
 50
0.0914128928
 51
180.0914128928
  0
LINE
  5
68
330
1F
100
AcDbEntity
  8
0
  6
Continuous
 62
     7
100
AcDbLine
 10
1287.2765761401
 20
-70.8765469926
 30
0.0
 11
1286.5836753937
 21
-70.8776524862
 31
0.0
  0
LINE
  5
69
330
1F
100
AcDbEntity
  8
0
  6
Continuous
 62
     7
100
AcDbLine
 10
1003.5342032428
 20
-72.1156678455
 30
0.0
 11
1002.8982838063
 21
-72.3908389499
 31
0.0
  0
ARC
  5
6A
330
1F
100
AcDbEntity
  8
0
  6
Continuous
 62
     7
100
AcDbCircle
 10
1006.4093579622
 20
-70.871548773
 30
0.0
 40
3.825687437599189
100
AcDbArc
 50
23.398800266
 51
203.398800266
  0
LINE
  5
6B
330
1F
100
AcDbEntity
  8
0
  6
Continuous
 62
     7
100
AcDbLine
 10
1009.2845126816
 20
-69.6274297005
 30
0.0
 11
1009.9204321181
 21
-69.352258596
 31
0.0
  0
ARC
  5
6C
330
1F
100
AcDbEntity
  8
0
  6
Continuous
 62
     7
100
AcDbCircle
 10
1006.4093579622
 20
-70.871548773
 30
0.0
 40
3.132785809343871
100
AcDbArc
 50
23.398800266
 51
203.398800266
  0
ARC
  5
6D
330
1F
100
AcDbEntity
  8
0
  6
Continuous
 62
     7
100
AcDbCircle
 10
1006.4093579622
 20
-70.871548773
 30
0.0
 40
3.825687437599189
100
AcDbArc
 50
203.398800266
 51
23.398800266
  0
ARC
  5
6E
330
1F
100
AcDbEntity
  8
0
  6
Continuous
 62
     7
100
AcDbCircle
 10
1006.4093579622
 20
-70.871548773
 30
0.0
 40
3.132785809343871
100
AcDbArc
 50
203.398800266
 51
23.398800266
  0
ARC
  5
6F
330
1F
100
AcDbEntity
  8
0
  6
Continuous
 62
     7
100
AcDbCircle
 10
1000.5318191043
 20
-73.4148408411
 30
0.0
 40
4.154201555956239
100
AcDbArc
 50
23.398800266
 51
39.3620797277
  0
ARC
  5
70
330
1F
100
AcDbEntity
  8
0
  6
Continuous
 62
     7
100
AcDbCircle
 10
1000.5318191043
 20
-73.4148408411
 30
0.0
 40
4.154201555956239
100
AcDbArc
 50
7.4355208042
 51
23.398800266
  0
ARC
  5
71
330
1F
100
AcDbEntity
  8
0
  6
Continuous
 62
     7
100
AcDbCircle
 10
1004.9485658333
 20
-72.8384209996
 30
0.0
 40
0.3000000000005318
100
AcDbArc
 50
187.4355208042
 51
279.3620797277
  0
ARC
  5
72
330
1F
100
AcDbEntity
  8
0
  6
Continuous
 62
     7
100
AcDbCircle
 10
1005.6731440735
 20
-77.2332927697
 30
0.0
 40
4.15420155595633
100
AcDbArc
 50
67.4355208042
 51
99.3620797277
  0
ARC
  5
73
330
1F
100
AcDbEntity
  8
0
  6
Continuous
 62
     7
100
AcDbCircle
 10
1011.5506829314
 20
-74.6900007016
 30
0.0
 40
4.154201555956347
100
AcDbArc
 50
127.4355208042
 51
159.3620797277
  0
ARC
  5
74
330
1F
100
AcDbEntity
  8
0
  6
Continuous
 62
     7
100
AcDbCircle
 10
1008.843115341
 20
-71.1531957529
 30
0.0
 40
0.3000000000008837
100
AcDbArc
 50
307.4355208043
 51
23.3988002659
  0
ARC
  5
75
330
1F
100
AcDbEntity
  8
0
  6
Continuous
 62
     7
100
AcDbCircle
 10
1008.843115341
 20
-71.1531957529
 30
0.0
 40
0.3000000000007254
100
AcDbArc
 50
23.3988002659
 51
39.3620797277
  0
ARC
  5
76
330
1F
100
AcDbEntity
  8
0
  6
Continuous
 62
     7
100
AcDbCircle
 10
1007.8701500911
 20
-68.9046765463
 30
0.0
 40
0.3000000000005216
100
AcDbArc
 50
23.398800266
 51
99.3620797278
  0
ARC
  5
77
330
1F
100
AcDbEntity
  8
0
  6
Continuous
 62
     7
100
AcDbCircle
 10
1007.1455718509
 20
-64.5098047763
 30
0.0
 40
4.154201555956282
100
AcDbArc
 50
247.4355208042
 51
279.3620797277
  0
ARC
  5
78
330
1F
100
AcDbEntity
  8
0
  6
Continuous
 62
     7
100
AcDbCircle
 10
1005.4363927124
 20
-68.6230295663
 30
0.0
 40
0.3000000000000361
100
AcDbArc
 50
67.4355208043
 51
159.3620797277
  0
ARC
  5
79
330
1F
100
AcDbEntity
  8
0
  6
Continuous
 62
     7
100
AcDbCircle
 10
1001.2680329931
 20
-67.0530968444
 30
0.0
 40
4.154201555956238
100
AcDbArc
 50
307.4355208042
 51
339.3620797277
  0
ARC
  5
7A
330
1F
100
AcDbEntity
  8
0
  6
Continuous
 62
     7
100
AcDbCircle
 10
1003.9756005834
 20
-70.589901793
 30
0.0
 40
0.3000000000004465
100
AcDbArc
 50
127.4355208042
 51
219.3620797277
  0
ARC
  5
7B
330
1F
100
AcDbEntity
  8
0
  6
Continuous
 62
     7
100
AcDbCircle
 10
1007.382323212
 20
-73.1200679796
 30
0.0
 40
0.3000000000004867
100
AcDbArc
 50
247.4355208042
 51
339.3620797277
  0
ARC
  5
7C
330
1F
100
AcDbEntity
  8
0
  6
Continuous
 62
     7
100
AcDbCircle
 10
1012.2868968201
 20
-68.3282567049
 30
0.0
 40
4.154201555956426
100
AcDbArc
 50
187.4355208042
 51
219.3620797277
  0
ARC
  5
7D
330
1F
100
AcDbEntity
  8
0
  6
Continuous
 62
     7
100
AcDbCircle
 10
1007.8701500911
 20
-68.9046765463
 30
0.0
 40
0.3000000000004124
100
AcDbArc
 50
7.4355208043
 51
23.398800266
  0
ARC
  5
7E
330
1F
100
AcDbEntity
  8
0
  6
Continuous
 62
     7
100
AcDbCircle
 10
1290.4093579622
 20
-70.871548773
 30
0.0
 40
3.132785809343728
100
AcDbArc
 50
180.0914128928
 51
0.0914128928
  0
ARC
  5
7F
330
1F
100
AcDbEntity
  8
0
  6
Continuous
 62
     7
100
AcDbCircle
 10
1292.5291630683
 20
-69.6431651553
 30
0.0
 40
0.3000000000004546
100
AcDbArc
 50
344.1281334311
 51
76.0546923546
  0
ARC
  5
80
330
1F
100
AcDbEntity
  8
0
  6
Continuous
 62
     7
100
AcDbCircle
 10
1293.6026059487
 20
-65.3202457848
 30
0.0
 40
4.154201555956347
100
AcDbArc
 50
224.1281334311
 51
256.0546923546
  0
ARC
  5
81
330
1F
100
AcDbEntity
  8
0
  6
Continuous
 62
     7
100
AcDbCircle
 10
1288.2856439907
 20
-69.6499355088
 30
0.0
 40
0.3000000000007211
100
AcDbArc
 50
104.1281334311
 51
180.0914128928
  0
ARC
  5
82
330
1F
100
AcDbEntity
  8
0
  6
Continuous
 62
     7
100
AcDbCircle
 10
1288.2856439907
 20
-69.6499355088
 30
0.0
 40
0.3000000000007211
100
AcDbArc
 50
180.0914128928
 51
196.0546923546
  0
ARC
  5
83
330
1F
100
AcDbEntity
  8
0
  6
Continuous
 62
     7
100
AcDbCircle
 10
1284.0051645571
 20
-70.8817663902
 30
0.0
 40
4.154201555956432
100
AcDbArc
 50
344.1281334311
 51
16.0546923546
  0
ARC
  5
84
330
1F
100
AcDbEntity
  8
0
  6
Continuous
 62
     7
100
AcDbCircle
 10
1288.2895528561
 20
-72.0999323906
 30
0.0
 40
0.3000000000007212
100
AcDbArc
 50
180.0914128928
 51
256.0546923546
  0
ARC
  5
85
330
1F
100
AcDbEntity
  8
0
  6
Continuous
 62
     7
100
AcDbCircle
 10
1288.2895528561
 20
-72.0999323906
 30
0.0
 40
0.3000000000007212
100
AcDbArc
 50
164.1281334311
 51
180.0914128928
  0
ARC
  5
86
330
1F
100
AcDbEntity
  8
0
  6
Continuous
 62
     7
100
AcDbCircle
 10
1296.8135513673
 20
-70.8613311558
 30
0.0
 40
4.154201555956354
100
AcDbArc
 50
164.1281334311
 51
180.0914128928
  0
ARC
  5
87
330
1F
100
AcDbEntity
  8
0
  6
Continuous
 62
     7
100
AcDbCircle
 10
1296.8135513673
 20
-70.8613311558
 30
0.0
 40
4.154201555956359
100
AcDbArc
 50
180.0914128928
 51
196.0546923546
  0
ARC
  5
88
330
1F
100
AcDbEntity
  8
0
  6
Continuous
 62
     7
100
AcDbCircle
 10
1290.4054490968
 20
-68.4215518912
 30
0.0
 40
0.3000000000005403
100
AcDbArc
 50
44.1281334311
 51
136.0546923546
  0
ARC
  5
89
330
1F
100
AcDbEntity
  8
0
  6
Continuous
 62
     7
100
AcDbCircle
 10
1287.1984125436
 20
-65.330463402
 30
0.0
 40
4.15420155595633
100
AcDbArc
 50
284.1281334311
 51
316.0546923546
  0
ARC
  5
8A
330
1F
100
AcDbEntity
  8
0
  6
Continuous
 62
     7
100
AcDbCircle
 10
1292.5330719337
 20
-72.0931620371
 30
0.0
 40
0.3000000000004984
100
AcDbArc
 50
284.1281334311
 51
16.0546923546
  0
ARC
  5
8B
330
1F
100
AcDbEntity
  8
0
  6
Continuous
 62
     7
100
AcDbCircle
 10
1287.2161099757
 20
-76.4228517611
 30
0.0
 40
4.15420155595617
100
AcDbArc
 50
44.1281334311
 51
76.0546923546
  0
ARC
  5
8C
330
1F
100
AcDbEntity
  8
0
  6
Continuous
 62
     7
100
AcDbCircle
 10
1290.4132668276
 20
-73.3215456548
 30
0.0
 40
0.2999999999998733
100
AcDbArc
 50
224.1281334311
 51
316.0546923546
  0
ARC
  5
8D
330
1F
100
AcDbEntity
  8
0
  6
Continuous
 62
     7
100
AcDbCircle
 10
1293.6203033808
 20
-76.4126341439
 30
0.0
 40
4.154201555956484
100
AcDbArc
 50
104.1281334311
 51
136.0546923546
  0
ARC
  5
8E
330
1F
100
AcDbEntity
  8
0
  6
Continuous
 62
     7
100
AcDbCircle
 10
1290.4093579622
 20
-70.871548773
 30
0.0
 40
3.825687437599122
100
AcDbArc
 50
180.0914128928
 51
0.0914128928
  0
LINE
  5
8F
330
1F
100
AcDbEntity
  8
0
  6
Continuous
 62
     7
100
AcDbLine
 10
1002.8982838063
 20
-72.3908389499
 30
0.0
 11
1001.7352815832
 21
-72.8940860404
 31
0.0
  0
ARC
  5
90
330
1F
100
AcDbEntity
  8
0
  6
Continuous
 62
     7
100
AcDbCircle
 10
1006.4093579622
 20
-70.871548773
 30
0.0
 40
5.092901628255548
100
AcDbArc
 50
23.398800266
 51
203.398800266
  0
LINE
  5
91
330
1F
100
AcDbEntity
  8
0
  6
Continuous
 62
     7
100
AcDbLine
 10
1009.9204321181
 20
-69.352258596
 30
0.0
 11
1011.0834343412
 21
-68.8490115056
 31
0.0
  0
ARC
  5
92
330
1F
100
AcDbEntity
  8
0
  6
Continuous
 62
     7
100
AcDbCircle
 10
1290.4093579622
 20
-70.871548773
 30
0.0
 40
5.092901628255664
100
AcDbArc
 50
0.0914128928
 51
180.0914128928
  0
LINE
  5
93
330
1F
100
AcDbEntity
  8
0
  6
Continuous
 62
     7
100
AcDbLine
 10
1294.2350405307
 20
-70.8654450597
 30
0.0
 11
1295.5022531085
 21
-70.8634232762
 31
0.0
  0
LINE
  5
94
330
1F
100
AcDbEntity
  8
0
  6
Continuous
 62
     7
100
AcDbLine
 10
1286.5836753937
 20
-70.8776524862
 30
0.0
 11
1285.3164628159
 21
-70.8796742698
 31
0.0
  0
ARC
  5
95
330
1F
100
AcDbEntity
  8
0
  6
Continuous
 62
     7
100
AcDbCircle
 10
1290.4093579622
 20
-70.871548773
 30
0.0
 40
5.092901628255664
100
AcDbArc
 50
180.0914128928
 51
0.0914128928
  0
ARC
  5
96
330
1F
100
AcDbEntity
  8
0
  6
Continuous
 62
     7
100
AcDbCircle
 10
1006.4093579622
 20
-70.871548773
 30
0.0
 40
5.092901628255548
100
AcDbArc
 50
203.398800266
 51
23.398800266
  0
LINE
  5
97
330
1F
100
AcDbEntity
  8
0
  6
Continuous
 62
     7
100
AcDbLine
 10
1001.7352815832
 20
-72.8940860404
 30
0.0
 11
1000.9945566074
 21
-73.214607946
 31
0.0
  0
ARC
  5
98
330
1F
100
AcDbEntity
  8
0
  6
Continuous
 62
     7
100
AcDbCircle
 10
1006.4093579622
 20
-70.871548773
 30
0.0
 40
5.90000000000021
100
AcDbArc
 50
23.398800266
 51
203.398800266
  0
LINE
  5
99
330
1F
100
AcDbEntity
  8
0
  6
Continuous
 62
     7
100
AcDbLine
 10
1011.0834343412
 20
-68.8490115056
 30
0.0
 11
1011.824159317
 21
-68.5284895999
 31
0.0
  0
ARC
  5
9A
330
1F
100
AcDbEntity
  8
0
  6
Continuous
 62
     7
100
AcDbCircle
 10
1290.4093579622
 20
-70.871548773
 30
0.0
 40
5.90000000000001
100
AcDbArc
 50
0.0914128928
 51
180.0914128928
  0
LINE
  5
9B
330
1F
100
AcDbEntity
  8
0
  6
Continuous
 62
     7
100
AcDbLine
 10
1295.5022531085
 20
-70.8634232762
 30
0.0
 11
1296.309350453
 21
-70.8621355868
 31
0.0
  0
LINE
  5
9C
330
1F
100
AcDbEntity
  8
0
  6
Continuous
 62
     7
100
AcDbLine
 10
1285.3164628159
 20
-70.8796742698
 30
0.0
 11
1284.5093654714
 21
-70.8809619591
 31
0.0
  0
ARC
  5
9D
330
1F
100
AcDbEntity
  8
0
  6
Continuous
 62
     7
100
AcDbCircle
 10
1290.4093579622
 20
-70.871548773
 30
0.0
 40
5.90000000000001
100
AcDbArc
 50
180.0914128928
 51
0.0914128928
  0
ARC
  5
9E
330
1F
100
AcDbEntity
  8
0
  6
Continuous
 62
     7
100
AcDbCircle
 10
1006.4093579622
 20
-70.871548773
 30
0.0
 40
5.90000000000021
100
AcDbArc
 50
203.398800266
 51
23.398800266
  0
LINE
  5
9F
330
1F
100
AcDbEntity
  8
0
  6
Continuous
 62
     7
100
AcDbLine
 10
1587.9093579622
 20
322.1284512294
 30
0.0
 11
1587.9093579622
 21
24.0426647894
 31
0.0
  0
LINE
  5
A0
330
1F
100
AcDbEntity
  8
0
  6
Continuous
 62
     7
100
AcDbLine
 10
1587.9093579622
 20
24.0426647894
 30
0.0
 11
1569.9093579622
 21
6.0426647894
 31
0.0
  0
LINE
  5
A1
330
1F
100
AcDbEntity
  8
0
  6
Continuous
 62
     7
100
AcDbLine
 10
1569.9093579622
 20
6.0426647894
 30
0.0
 11
1553.1593579622
 21
6.0426647894
 31
0.0
  0
LINE
  5
A2
330
1F
100
AcDbEntity
  8
0
  6
Continuous
 62
     7
100
AcDbLine
 10
1553.1593579622
 20
6.0426647894
 30
0.0
 11
1553.1593579622
 21
5.0071308835
 31
0.0
  0
LINE
  5
A3
330
1F
100
AcDbEntity
  8
0
  6
Continuous
 62
     7
100
AcDbLine
 10
1553.1593579622
 20
5.0071308835
 30
0.0
 11
743.6593579622
 21
5.0071308835
 31
0.0
  0
LINE
  5
A4
330
1F
100
AcDbEntity
  8
0
  6
Continuous
 62
     7
100
AcDbLine
 10
743.6593579622
 20
6.0426647894
 30
0.0
 11
743.6593579622
 21
5.0071308835
 31
0.0
  0
LINE
  5
A5
330
1F
100
AcDbEntity
  8
0
  6
Continuous
 62
     7
100
AcDbLine
 10
743.6593579622
 20
6.0426647894
 30
0.0
 11
726.9093579622
 21
6.0426647894
 31
0.0
  0
LINE
  5
A6
330
1F
100
AcDbEntity
  8
0
  6
Continuous
 62
     7
100
AcDbLine
 10
726.9093579622
 20
6.0426647894
 30
0.0
 11
708.9093579622
 21
24.0426647894
 31
0.0
  0
LINE
  5
A7
330
1F
100
AcDbEntity
  8
0
  6
Continuous
 62
     7
100
AcDbLine
 10
708.9093579622
 20
24.0426647894
 30
0.0
 11
708.9093579622
 21
322.1284512294
 31
0.0
  0
LINE
  5
A8
330
1F
100
AcDbEntity
  8
0
  6
Continuous
 62
     7
100
AcDbLine
 10
708.9093579622
 20
322.1284512294
 30
0.0
 11
726.9093579622
 21
340.1284512294
 31
0.0
  0
LINE
  5
A9
330
1F
100
AcDbEntity
  8
0
  6
Continuous
 62
     7
100
AcDbLine
 10
726.9093579622
 20
340.1284512294
 30
0.0
 11
1569.9093579622
 21
340.1284512294
 31
0.0
  0
ARC
  5
AA
330
1F
100
AcDbEntity
  8
0
  6
Continuous
 62
     7
100
AcDbCircle
 10
723.4093579622
 20
47.1284512294
 30
0.0
 40
3.5
100
AcDbArc
 50
180.0
 51
0.0
  0
ARC
  5
AB
330
1F
100
AcDbEntity
  8
0
  6
Continuous
 62
     7
100
AcDbCircle
 10
723.4093579622
 20
47.1284512294
 30
0.0
 40
3.5
100
AcDbArc
 50
0.0
 51
180.0
  0
ARC
  5
AC
330
1F
100
AcDbEntity
  8
0
  6
Continuous
 62
     7
100
AcDbCircle
 10
1573.4093579622
 20
47.1284512294
 30
0.0
 40
3.500000000000227
100
AcDbArc
 50
180.0
 51
0.0
  0
ARC
  5
AD
330
1F
100
AcDbEntity
  8
0
  6
Continuous
 62
     7
100
AcDbCircle
 10
1573.4093579622
 20
47.1284512294
 30
0.0
 40
3.500000000000227
100
AcDbArc
 50
0.0
 51
180.0
  0
ARC
  5
AE
330
1F
100
AcDbEntity
  8
0
  6
Continuous
 62
     7
100
AcDbCircle
 10
723.4093579622
 20
314.1284512294
 30
0.0
 40
3.5
100
AcDbArc
 50
180.0
 51
0.0
  0
ARC
  5
AF
330
1F
100
AcDbEntity
  8
0
  6
Continuous
 62
     7
100
AcDbCircle
 10
723.4093579622
 20
314.1284512294
 30
0.0
 40
3.5
100
AcDbArc
 50
0.0
 51
180.0
  0
ARC
  5
B0
330
1F
100
AcDbEntity
  8
0
  6
Continuous
 62
     7
100
AcDbCircle
 10
1006.4093579622
 20
329.1284512294
 30
0.0
 40
3.500000000000114
100
AcDbArc
 50
180.0
 51
0.0
  0
ARC
  5
B1
330
1F
100
AcDbEntity
  8
0
  6
Continuous
 62
     7
100
AcDbCircle
 10
1006.4093579622
 20
329.1284512294
 30
0.0
 40
3.500000000000114
100
AcDbArc
 50
0.0
 51
180.0
  0
ARC
  5
B2
330
1F
100
AcDbEntity
  8
0
  6
Continuous
 62
     7
100
AcDbCircle
 10
1290.4093579622
 20
329.1284512294
 30
0.0
 40
3.5
100
AcDbArc
 50
180.0
 51
0.0
  0
ARC
  5
B3
330
1F
100
AcDbEntity
  8
0
  6
Continuous
 62
     7
100
AcDbCircle
 10
1290.4093579622
 20
329.1284512294
 30
0.0
 40
3.5
100
AcDbArc
 50
0.0
 51
180.0
  0
ARC
  5
B4
330
1F
100
AcDbEntity
  8
0
  6
Continuous
 62
     7
100
AcDbCircle
 10
1573.4093579622
 20
314.1284512294
 30
0.0
 40
3.500000000000227
100
AcDbArc
 50
180.0
 51
0.0
  0
ARC
  5
B5
330
1F
100
AcDbEntity
  8
0
  6
Continuous
 62
     7
100
AcDbCircle
 10
1573.4093579622
 20
314.1284512294
 30
0.0
 40
3.500000000000227
100
AcDbArc
 50
0.0
 51
180.0
  0
LINE
  5
B6
330
1F
100
AcDbEntity
  8
0
  6
Continuous
 62
     7
100
AcDbLine
 10
1569.9093579622
 20
340.1284512294
 30
0.0
 11
1587.9093579622
 21
322.1284512294
 31
0.0
  0
LINE
  5
B7
330
1F
100
AcDbEntity
  8
0
  6
Continuous
 62
     7
100
AcDbLine
 10
1553.1593579622
 20
3.8000241023
 30
0.0
 11
1553.1593579622
 21
3.5071308835
 31
0.0
  0
LINE
  5
B8
330
1F
100
AcDbEntity
  8
0
  6
Continuous
 62
     7
100
AcDbLine
 10
743.6593579622
 20
3.5071308835
 30
0.0
 11
1553.1593579622
 21
3.5071308835
 31
0.0
  0
LINE
  5
B9
330
1F
100
AcDbEntity
  8
0
  6
Continuous
 62
     7
100
AcDbLine
 10
743.6593579622
 20
3.8000241023
 30
0.0
 11
743.6593579622
 21
3.5071308835
 31
0.0
  0
LINE
  5
BA
330
1F
100
AcDbEntity
  8
0
  6
Continuous
 62
     7
100
AcDbLine
 10
743.6593579622
 20
4.2748978364
 30
0.0
 11
743.6593579622
 21
3.8000241023
 31
0.0
  0
LINE
  5
BB
330
1F
100
AcDbEntity
  8
0
  6
Continuous
 62
     7
100
AcDbLine
 10
1553.1593579622
 20
3.8000241023
 30
0.0
 11
1553.1593579622
 21
4.2748978364
 31
0.0
  0
LINE
  5
BC
330
1F
100
AcDbEntity
  8
0
  6
Continuous
 62
     7
100
AcDbLine
 10
1553.1593579622
 20
4.2748978364
 30
0.0
 11
1553.1593579622
 21
5.0071308835
 31
0.0
  0
LINE
  5
BD
330
1F
100
AcDbEntity
  8
0
  6
Continuous
 62
     7
100
AcDbLine
 10
743.6593579622
 20
4.2748978364
 30
0.0
 11
743.6593579622
 21
5.0071308835
 31
0.0
  0
LINE
  5
BE
330
1F
100
AcDbEntity
  8
0
  6
Continuous
 62
     7
100
AcDbLine
 10
1553.1593579622
 20
-79.871548773
 30
0.0
 11
1553.1593579622
 21
-82.371548773
 31
0.0
  0
LINE
  5
BF
330
1F
100
AcDbEntity
  8
0
  6
Continuous
 62
     7
100
AcDbLine
 10
1553.1593579622
 20
-82.371548773
 30
0.0
 11
743.6593579622
 21
-82.371548773
 31
0.0
  0
LINE
  5
C0
330
1F
100
AcDbEntity
  8
0
  6
Continuous
 62
     7
100
AcDbLine
 10
743.6593579622
 20
-79.871548773
 30
0.0
 11
743.6593579622
 21
-82.371548773
 31
0.0
  0
LINE
  5
C1
330
1F
100
AcDbEntity
  8
0
  6
Continuous
 62
     7
100
AcDbLine
 10
743.6593579622
 20
-79.871548773
 30
0.0
 11
743.6593579622
 21
3.0929173211
 31
0.0
  0
LINE
  5
C2
330
1F
100
AcDbEntity
  8
0
  6
Continuous
 62
     7
100
AcDbLine
 10
1553.1593579622
 20
3.0929173211
 30
0.0
 11
1553.1593579622
 21
-79.871548773
 31
0.0
  0
LINE
  5
C3
330
1F
100
AcDbEntity
  8
0
  6
Continuous
 62
     7
100
AcDbLine
 10
1553.1593579622
 20
3.0929173211
 30
0.0
 11
1553.1593579622
 21
3.5071308835
 31
0.0
  0
LINE
  5
C4
330
1F
100
AcDbEntity
  8
0
  6
Continuous
 62
     7
100
AcDbLine
 10
743.6593579622
 20
3.0929173211
 30
0.0
 11
743.6593579622
 21
3.5071308835
 31
0.0
  0
LINE
  5
C5
330
1F
100
AcDbEntity
  8
0
  6
Continuous
 62
     7
100
AcDbLine
 10
645.3659488215
 20
-76.771548773
 30
0.0
 11
648.2059414305
 21
-76.771548773
 31
0.0
  0
ARC
  5
C6
330
1F
100
AcDbEntity
  8
0
  6
Continuous
 62
     7
100
AcDbCircle
 10
645.3659488215
 20
-75.271548773
 30
0.0
 40
1.500000000000033
100
AcDbArc
 50
207.5120026239
 51
270.0
  0
ARC
  5
C7
330
1F
100
AcDbEntity
  8
0
  6
Continuous
 62
     7
100
AcDbCircle
 10
645.3659488215
 20
-66.471548773
 30
0.0
 40
1.500000000000033
100
AcDbArc
 50
90.0
 51
152.4879973761
  0
LINE
  5
C8
330
1F
100
AcDbEntity
  8
0
  6
Continuous
 62
     7
100
AcDbLine
 10
648.2059414305
 20
-64.971548773
 30
0.0
 11
645.3659488215
 21
-64.971548773
 31
0.0
  0
LINE
  5
C9
330
1F
100
AcDbEntity
  8
0
  6
Continuous
 62
     7
100
AcDbLine
 10
643.3755703043
 20
-74.6972362106
 30
0.0
 11
644.0355776952
 21
-75.9644504012
 31
0.0
  0
LINE
  5
CA
330
1F
100
AcDbEntity
  8
0
  6
Continuous
 62
     7
100
AcDbLine
 10
644.0355776952
 20
-65.7786471447
 30
0.0
 11
643.3755703043
 21
-67.0458613354
 31
0.0
  0
ARC
  5
CB
330
1F
100
AcDbEntity
  8
0
  6
Continuous
 62
     7
100
AcDbCircle
 10
644.7059414305
 20
-74.0043345823
 30
0.0
 40
1.50000000000002
100
AcDbArc
 50
180.0
 51
207.5120026239
  0
ARC
  5
CC
330
1F
100
AcDbEntity
  8
0
  6
Continuous
 62
     7
100
AcDbCircle
 10
644.7059414305
 20
-67.7387629636
 30
0.0
 40
1.50000000000002
100
AcDbArc
 50
152.4879973761
 51
180.0
  0
LINE
  5
CD
330
1F
100
AcDbEntity
  8
0
  6
Continuous
 62
     7
100
AcDbLine
 10
651.2059414305
 20
-73.871548773
 30
0.0
 11
656.9059414305
 21
-73.871548773
 31
0.0
  0
LINE
  5
CE
330
1F
100
AcDbEntity
  8
0
  6
Continuous
 62
     7
100
AcDbLine
 10
656.9059414305
 20
-73.871548773
 30
0.0
 11
657.4059414305
 21
-73.371548773
 31
0.0
  0
LINE
  5
CF
330
1F
100
AcDbEntity
  8
0
  6
Continuous
 62
     7
100
AcDbLine
 10
648.2059414305
 20
-73.871548773
 30
0.0
 11
649.7059414305
 21
-73.871548773
 31
0.0
  0
LINE
  5
D0
330
1F
100
AcDbEntity
  8
0
  6
Continuous
 62
     7
100
AcDbLine
 10
656.9059414305
 20
-67.871548773
 30
0.0
 11
651.2059414305
 21
-67.871548773
 31
0.0
  0
LINE
  5
D1
330
1F
100
AcDbEntity
  8
0
  6
Continuous
 62
     7
100
AcDbLine
 10
657.4059414305
 20
-68.371548773
 30
0.0
 11
656.9059414305
 21
-67.871548773
 31
0.0
  0
LINE
  5
D2
330
1F
100
AcDbEntity
  8
0
  6
Continuous
 62
     7
100
AcDbLine
 10
649.7059414305
 20
-67.871548773
 30
0.0
 11
648.2059414305
 21
-67.871548773
 31
0.0
  0
LINE
  5
D3
330
1F
100
AcDbEntity
  8
0
  6
Continuous
 62
     7
100
AcDbLine
 10
648.2059414305
 20
322.1284512294
 30
0.0
 11
649.7059414305
 21
322.1284512294
 31
0.0
  0
LINE
  5
D4
330
1F
100
AcDbEntity
  8
0
  6
Continuous
 62
     7
100
AcDbLine
 10
648.2059414305
 20
340.1284512294
 30
0.0
 11
648.2059414305
 21
322.1284512294
 31
0.0
  0
LINE
  5
D5
330
1F
100
AcDbEntity
  8
0
  6
Continuous
 62
     7
100
AcDbLine
 10
648.2059414305
 20
340.1284512294
 30
0.0
 11
649.7059414305
 21
340.1284512294
 31
0.0
  0
LINE
  5
D6
330
1F
100
AcDbEntity
  8
0
  6
Continuous
 62
     7
100
AcDbLine
 10
649.7059414305
 20
340.1284512294
 30
0.0
 11
649.7059414305
 21
322.1284512294
 31
0.0
  0
LINE
  5
D7
330
1F
100
AcDbEntity
  8
0
  6
Continuous
 62
     7
100
AcDbLine
 10
648.2059414305
 20
24.0426647894
 30
0.0
 11
649.7059414305
 21
24.0426647894
 31
0.0
  0
LINE
  5
D8
330
1F
100
AcDbEntity
  8
0
  6
Continuous
 62
     7
100
AcDbLine
 10
648.2059414305
 20
322.1284512294
 30
0.0
 11
648.2059414305
 21
24.0426647894
 31
0.0
  0
LINE
  5
D9
330
1F
100
AcDbEntity
  8
0
  6
Continuous
 62
     7
100
AcDbLine
 10
649.7059414305
 20
322.1284512294
 30
0.0
 11
649.7059414305
 21
24.0426647894
 31
0.0
  0
LINE
  5
DA
330
1F
100
AcDbEntity
  8
0
  6
Continuous
 62
     7
100
AcDbLine
 10
648.2059414305
 20
6.0426647894
 30
0.0
 11
649.7059414305
 21
6.0426647894
 31
0.0
  0
LINE
  5
DB
330
1F
100
AcDbEntity
  8
0
  6
Continuous
 62
     7
100
AcDbLine
 10
648.2059414305
 20
24.0426647894
 30
0.0
 11
648.2059414305
 21
6.0426647894
 31
0.0
  0
LINE
  5
DC
330
1F
100
AcDbEntity
  8
0
  6
Continuous
 62
     7
100
AcDbLine
 10
649.7059414305
 20
24.0426647894
 30
0.0
 11
649.7059414305
 21
6.0426647894
 31
0.0
  0
LINE
  5
DD
330
1F
100
AcDbEntity
  8
0
  6
Continuous
 62
     7
100
AcDbLine
 10
659.2059414305
 20
-82.371548773
 30
0.0
 11
659.2059414305
 21
-80.871548773
 31
0.0
  0
LINE
  5
DE
330
1F
100
AcDbEntity
  8
0
  6
Continuous
 62
     7
100
AcDbLine
 10
656.2059414305
 20
-82.371548773
 30
0.0
 11
656.2059414305
 21
-80.871548773
 31
0.0
  0
LINE
  5
DF
330
1F
100
AcDbEntity
  8
0
  6
Continuous
 62
     7
100
AcDbLine
 10
659.2059414305
 20
-82.371548773
 30
0.0
 11
656.2059414305
 21
-82.371548773
 31
0.0
  0
LINE
  5
E0
330
1F
100
AcDbEntity
  8
0
  6
Continuous
 62
     7
100
AcDbLine
 10
659.2059414305
 20
-80.871548773
 30
0.0
 11
656.2059414305
 21
-80.871548773
 31
0.0
  0
LINE
  5
E1
330
1F
100
AcDbEntity
  8
0
  6
Continuous
 62
     7
100
AcDbLine
 10
652.2059414305
 20
-80.871548773
 30
0.0
 11
652.2059414305
 21
-82.371548773
 31
0.0
  0
LINE
  5
E2
330
1F
100
AcDbEntity
  8
0
  6
Continuous
 62
     7
100
AcDbLine
 10
656.2059414305
 20
-82.371548773
 30
0.0
 11
652.2059414305
 21
-82.371548773
 31
0.0
  0
LINE
  5
E3
330
1F
100
AcDbEntity
  8
0
  6
Continuous
 62
     7
100
AcDbLine
 10
656.2059414305
 20
-80.871548773
 30
0.0
 11
652.2059414305
 21
-80.871548773
 31
0.0
  0
LINE
  5
E4
330
1F
100
AcDbEntity
  8
0
  6
Continuous
 62
     7
100
AcDbLine
 10
649.7059414305
 20
-79.871548773
 30
0.0
 11
649.7059414305
 21
-82.371548773
 31
0.0
  0
LINE
  5
E5
330
1F
100
AcDbEntity
  8
0
  6
Continuous
 62
     7
100
AcDbLine
 10
651.2059414305
 20
-79.871548773
 30
0.0
 11
649.7059414305
 21
-79.871548773
 31
0.0
  0
LINE
  5
E6
330
1F
100
AcDbEntity
  8
0
  6
Continuous
 62
     7
100
AcDbLine
 10
651.2059414305
 20
-79.871548773
 30
0.0
 11
651.2059414305
 21
-80.871548773
 31
0.0
  0
LINE
  5
E7
330
1F
100
AcDbEntity
  8
0
  6
Continuous
 62
     7
100
AcDbLine
 10
652.2059414305
 20
-82.371548773
 30
0.0
 11
649.7059414305
 21
-82.371548773
 31
0.0
  0
LINE
  5
E8
330
1F
100
AcDbEntity
  8
0
  6
Continuous
 62
     7
100
AcDbLine
 10
652.2059414305
 20
-80.871548773
 30
0.0
 11
651.2059414305
 21
-80.871548773
 31
0.0
  0
LINE
  5
E9
330
1F
100
AcDbEntity
  8
0
  6
Continuous
 62
     7
100
AcDbLine
 10
649.7059414305
 20
3.0929173211
 30
0.0
 11
649.7059414305
 21
-79.871548773
 31
0.0
  0
LINE
  5
EA
330
1F
100
AcDbEntity
  8
0
  6
Continuous
 62
     7
100
AcDbLine
 10
649.7059414305
 20
3.0929173211
 30
0.0
 11
651.2059414305
 21
3.0929173211
 31
0.0
  0
LINE
  5
EB
330
1F
100
AcDbEntity
  8
0
  6
Continuous
 62
     7
100
AcDbLine
 10
651.2059414305
 20
3.0929173211
 30
0.0
 11
651.2059414305
 21
-79.871548773
 31
0.0
  0
LINE
  5
EC
330
1F
100
AcDbEntity
  8
0
  6
Continuous
 62
     7
100
AcDbLine
 10
650.4737083835
 20
4.8606842741
 30
0.0
 11
649.9988346493
 21
5.3355580082
 31
0.0
  0
LINE
  5
ED
330
1F
100
AcDbEntity
  8
0
  6
Continuous
 62
     7
100
AcDbLine
 10
649.4130482117
 20
3.8000241023
 30
0.0
 11
650.4737083835
 21
4.8606842741
 31
0.0
  0
LINE
  5
EE
330
1F
100
AcDbEntity
  8
0
  6
Continuous
 62
     7
100
AcDbLine
 10
649.9988346493
 20
5.3355580082
 30
0.0
 11
648.9381744776
 21
4.2748978364
 31
0.0
  0
LINE
  5
EF
330
1F
100
AcDbEntity
  8
0
  6
Continuous
 62
     7
100
AcDbLine
 10
649.4130482117
 20
3.8000241023
 30
0.0
 11
648.9381744776
 21
4.2748978364
 31
0.0
  0
LINE
  5
F0
330
1F
100
AcDbEntity
  8
0
  6
Continuous
 62
     7
100
AcDbLine
 10
650.4737083835
 20
4.8606842741
 30
0.0
 11
651.2059414305
 21
4.128451227
 31
0.0
  0
LINE
  5
F1
330
1F
100
AcDbEntity
  8
0
  6
Continuous
 62
     7
100
AcDbLine
 10
649.7059414305
 20
3.0929173211
 30
0.0
 11
649.7059414305
 21
3.5071308835
 31
0.0
  0
LINE
  5
F2
330
1F
100
AcDbEntity
  8
0
  6
Continuous
 62
     7
100
AcDbLine
 10
649.4130482117
 20
3.8000241023
 30
0.0
 11
649.7059414305
 21
3.5071308835
 31
0.0
  0
LINE
  5
F3
330
1F
100
AcDbEntity
  8
0
  6
Continuous
 62
     7
100
AcDbLine
 10
651.2059414305
 20
3.0929173211
 30
0.0
 11
651.2059414305
 21
4.128451227
 31
0.0
  0
LINE
  5
F4
330
1F
100
AcDbEntity
  8
0
  6
Continuous
 62
     7
100
AcDbLine
 10
649.9988346493
 20
5.3355580082
 30
0.0
 11
649.7059414305
 21
5.628451227
 31
0.0
  0
LINE
  5
F5
330
1F
100
AcDbEntity
  8
0
  6
Continuous
 62
     7
100
AcDbLine
 10
648.9381744776
 20
4.2748978364
 30
0.0
 11
648.2059414305
 21
5.0071308835
 31
0.0
  0
LINE
  5
F6
330
1F
100
AcDbEntity
  8
0
  6
Continuous
 62
     7
100
AcDbLine
 10
649.7059414305
 20
6.0426647894
 30
0.0
 11
649.7059414305
 21
5.628451227
 31
0.0
  0
LINE
  5
F7
330
1F
100
AcDbEntity
  8
0
  6
Continuous
 62
     7
100
AcDbLine
 10
648.2059414305
 20
6.0426647894
 30
0.0
 11
648.2059414305
 21
5.0071308835
 31
0.0
  0
LINE
  5
F8
330
1F
100
AcDbEntity
  8
0
  6
Continuous
 62
     7
100
AcDbLine
 10
645.3659488215
 20
-70.8621355868
 30
0.0
 11
648.2059414305
 21
-70.8621355868
 31
0.0
  0
LINE
  5
F9
330
1F
100
AcDbEntity
  8
0
  6
Continuous
 62
     7
100
AcDbLine
 10
648.2059414305
 20
-70.8621355868
 30
0.0
 11
648.2059414305
 21
-76.771548773
 31
0.0
  0
LWPOLYLINE
  5
FA
330
1F
100
AcDbEntity
  8
0
  6
Continuous
 62
     7
100
AcDbPolyline
 90
        9
 70
   128
 43
0.0
 10
644.0355776952
 20
-70.8634232762
 10
644.1420905201
 20
-70.8631450667
 10
644.2713138288
 20
-70.8628925339
 10
644.4208496935
 20
-70.8626703638
 10
644.5879232571
 20
-70.8624826792
 10
644.7694342249
 20
-70.8623329628
 10
644.962014395
 20
-70.8622239928
 10
645.1620901602
 20
-70.8621577913
 10
645.3659488215
 20
-70.8621355868
  0
LINE
  5
FB
330
1F
100
AcDbEntity
  8
0
  6
Continuous
 62
     7
100
AcDbLine
 10
648.2059414305
 20
-64.971548773
 30
0.0
 11
648.2059414305
 21
-70.8621355868
 31
0.0
  0
LINE
  5
FC
330
1F
100
AcDbEntity
  8
0
  6
Continuous
 62
     7
100
AcDbLine
 10
643.3755703043
 20
-70.8654450597
 30
0.0
 11
644.0355776952
 21
-70.8634232762
 31
0.0
  0
ARC
  5
FD
330
1F
100
AcDbEntity
  8
0
  6
Continuous
 62
     7
100
AcDbCircle
 10
643.3553457756
 20
-80.7767867552
 30
0.0
 40
9.911362329930974
100
AcDbArc
 50
89.8830856041
 51
90.8637120053
  0
LINE
  5
FE
330
1F
100
AcDbEntity
  8
0
  6
Continuous
 62
     7
100
AcDbLine
 10
643.2059414305
 20
-70.8665505533
 30
0.0
 11
643.2059414305
 21
-74.0043345823
 31
0.0
  0
LINE
  5
FF
330
1F
100
AcDbEntity
  8
0
  6
Continuous
 62
     7
100
AcDbLine
 10
643.2059414305
 20
-67.7387629636
 30
0.0
 11
643.2059414305
 21
-70.8665505533
 31
0.0
  0
LINE
  5
100
330
1F
100
AcDbEntity
  8
0
  6
Continuous
 62
     7
100
AcDbLine
 10
656.9059414305
 20
-70.8667624071
 30
0.0
 11
651.2059414305
 21
-70.8667624071
 31
0.0
  0
LINE
  5
101
330
1F
100
AcDbEntity
  8
0
  6
Continuous
 62
     7
100
AcDbLine
 10
656.9059414305
 20
-70.8667624071
 30
0.0
 11
656.9059414305
 21
-73.871548773
 31
0.0
  0
LINE
  5
102
330
1F
100
AcDbEntity
  8
0
  6
Continuous
 62
     7
100
AcDbLine
 10
657.4059414305
 20
-70.8675601348
 30
0.0
 11
656.9059414305
 21
-70.8667624071
 31
0.0
  0
LINE
  5
103
330
1F
100
AcDbEntity
  8
0
  6
Continuous
 62
     7
100
AcDbLine
 10
657.4059414305
 20
-70.8675601348
 30
0.0
 11
657.4059414305
 21
-73.371548773
 31
0.0
  0
LINE
  5
104
330
1F
100
AcDbEntity
  8
0
  6
Continuous
 62
     7
100
AcDbLine
 10
649.7059414305
 20
-70.8667624071
 30
0.0
 11
648.2059414305
 21
-70.8667624071
 31
0.0
  0
LINE
  5
105
330
1F
100
AcDbEntity
  8
0
  6
Continuous
 62
     7
100
AcDbLine
 10
656.9059414305
 20
-67.871548773
 30
0.0
 11
656.9059414305
 21
-70.8667624071
 31
0.0
  0
LINE
  5
106
330
1F
100
AcDbEntity
  8
0
  6
Continuous
 62
     7
100
AcDbLine
 10
657.4059414305
 20
-68.371548773
 30
0.0
 11
657.4059414305
 21
-70.8675601348
 31
0.0
  0
LINE
  5
107
330
1F
100
AcDbEntity
  8
0
  6
Continuous
 62
     7
100
AcDbLine
 10
645.3659488215
 20
-70.8621355868
 30
0.0
 11
645.3659488215
 21
-76.771548773
 31
0.0
  0
LINE
  5
108
330
1F
100
AcDbEntity
  8
0
  6
Continuous
 62
     7
100
AcDbLine
 10
644.0355776952
 20
-70.8634232762
 30
0.0
 11
644.0355776952
 21
-75.9644504012
 31
0.0
  0
LINE
  5
109
330
1F
100
AcDbEntity
  8
0
  6
Continuous
 62
     7
100
AcDbLine
 10
645.3659488215
 20
-64.971548773
 30
0.0
 11
645.3659488215
 21
-70.8621355868
 31
0.0
  0
LINE
  5
10A
330
1F
100
AcDbEntity
  8
0
  6
Continuous
 62
     7
100
AcDbLine
 10
644.0355776952
 20
-65.7786471447
 30
0.0
 11
644.0355776952
 21
-70.8634232762
 31
0.0
  0
LINE
  5
10B
330
1F
100
AcDbEntity
  8
0
  6
Continuous
 62
     7
100
AcDbLine
 10
643.3755703043
 20
-70.8654450597
 30
0.0
 11
643.3755703043
 21
-74.6972362106
 31
0.0
  0
LINE
  5
10C
330
1F
100
AcDbEntity
  8
0
  6
Continuous
 62
     7
100
AcDbLine
 10
643.3755703043
 20
-67.0458613354
 30
0.0
 11
643.3755703043
 21
-70.8654450597
 31
0.0
  0
LINE
  5
10D
330
1F
100
AcDbEntity
  8
0
  6
Continuous
 62
     7
100
AcDbLine
 10
1012.3093579622
 20
406.5117519826
 30
0.0
 11
1012.3093579622
 21
409.3517445917
 31
0.0
  0
ARC
  5
10E
330
1F
100
AcDbEntity
  8
0
  6
Continuous
 62
     7
100
AcDbCircle
 10
1010.8093579622
 20
409.3517445917
 30
0.0
 40
1.499999999999904
100
AcDbArc
 50
0.0
 51
62.4879973762
  0
LINE
  5
10F
330
1F
100
AcDbEntity
  8
0
  6
Continuous
 62
     7
100
AcDbLine
 10
1011.5022595905
 20
410.6821157179
 30
0.0
 11
1010.2350453998
 21
411.3421231089
 31
0.0
  0
ARC
  5
110
330
1F
100
AcDbEntity
  8
0
  6
Continuous
 62
     7
100
AcDbCircle
 10
1009.5421437715
 20
410.0117519826
 30
0.0
 40
1.500000000000059
100
AcDbArc
 50
62.4879973761
 51
90.0
  0
LINE
  5
111
330
1F
100
AcDbEntity
  8
0
  6
Continuous
 62
     7
100
AcDbLine
 10
1009.4093579622
 20
405.0117519826
 30
0.0
 11
1009.4093579622
 21
406.5117519826
 31
0.0
  0
ARC
  5
112
330
1F
100
AcDbEntity
  8
0
  6
Continuous
 62
     7
100
AcDbCircle
 10
1002.0093579622
 20
409.3517445917
 30
0.0
 40
1.499999999999904
100
AcDbArc
 50
117.5120026238
 51
180.0
  0
LINE
  5
113
330
1F
100
AcDbEntity
  8
0
  6
Continuous
 62
     7
100
AcDbLine
 10
1000.5093579622
 20
409.3517445917
 30
0.0
 11
1000.5093579622
 21
406.5117519826
 31
0.0
  0
LINE
  5
114
330
1F
100
AcDbEntity
  8
0
  6
Continuous
 62
     7
100
AcDbLine
 10
1002.5836705246
 20
411.3421231089
 30
0.0
 11
1001.3164563339
 21
410.6821157179
 31
0.0
  0
ARC
  5
115
330
1F
100
AcDbEntity
  8
0
  6
Continuous
 62
     7
100
AcDbCircle
 10
1003.2765721529
 20
410.0117519826
 30
0.0
 40
1.500000000000059
100
AcDbArc
 50
90.0
 51
117.5120026239
  0
LINE
  5
116
330
1F
100
AcDbEntity
  8
0
  6
Continuous
 62
     7
100
AcDbLine
 10
1003.4093579622
 20
406.5117519826
 30
0.0
 11
1003.4093579622
 21
405.0117519826
 31
0.0
  0
LINE
  5
117
330
1F
100
AcDbEntity
  8
0
  6
Continuous
 62
     7
100
AcDbLine
 10
743.6593579622
 20
402.5117519826
 30
0.0
 11
743.6593579622
 21
398.5117519826
 31
0.0
  0
LINE
  5
118
330
1F
100
AcDbEntity
  8
0
  6
Continuous
 62
     7
100
AcDbLine
 10
1553.1593579622
 20
398.5117519826
 30
0.0
 11
1553.1593579622
 21
402.5117519826
 31
0.0
  0
LINE
  5
119
330
1F
100
AcDbEntity
  8
0
  6
Continuous
 62
     7
100
AcDbLine
 10
1550.1593579622
 20
395.5117519826
 30
0.0
 11
1553.1593579622
 21
398.5117519826
 31
0.0
  0
LINE
  5
11A
330
1F
100
AcDbEntity
  8
0
  6
Continuous
 62
     7
100
AcDbLine
 10
743.6593579622
 20
398.5117519826
 30
0.0
 11
746.6593579622
 21
395.5117519826
 31
0.0
  0
LINE
  5
11B
330
1F
100
AcDbEntity
  8
0
  6
Continuous
 62
     7
100
AcDbLine
 10
746.6593579622
 20
395.5117519826
 30
0.0
 11
1550.1593579622
 21
395.5117519826
 31
0.0
  0
LINE
  5
11C
330
1F
100
AcDbEntity
  8
0
  6
Continuous
 62
     7
100
AcDbLine
 10
1553.1593579622
 20
405.0117519826
 30
0.0
 11
743.6593579622
 21
405.0117519826
 31
0.0
  0
LINE
  5
11D
330
1F
100
AcDbEntity
  8
0
  6
Continuous
 62
     7
100
AcDbLine
 10
1553.1593579622
 20
402.5117519826
 30
0.0
 11
1553.1593579622
 21
405.0117519826
 31
0.0
  0
LINE
  5
11E
330
1F
100
AcDbEntity
  8
0
  6
Continuous
 62
     7
100
AcDbLine
 10
743.6593579622
 20
402.5117519826
 30
0.0
 11
743.6593579622
 21
405.0117519826
 31
0.0
  0
LINE
  5
11F
330
1F
100
AcDbEntity
  8
0
  6
Continuous
 62
     7
100
AcDbLine
 10
1012.3093579622
 20
406.5117519826
 30
0.0
 11
1000.9945566074
 21
406.5117519826
 31
0.0
  0
LINE
  5
120
330
1F
100
AcDbEntity
  8
0
  6
Continuous
 62
     7
100
AcDbLine
 10
1000.9945566074
 20
409.3517445917
 30
0.0
 11
1000.9945566074
 21
406.5117519826
 31
0.0
  0
ARC
  5
121
330
1F
100
AcDbEntity
  8
0
  6
Continuous
 62
     7
100
AcDbCircle
 10
1002.5150567628
 20
409.3765556916
 30
0.0
 40
1.520702572215014
100
AcDbArc
 50
120.8487132719
 51
180.9348536747
  0
LINE
  5
122
330
1F
100
AcDbEntity
  8
0
  6
Continuous
 62
     7
100
AcDbLine
 10
1296.309350453
 20
409.3517445917
 30
0.0
 11
1296.309350453
 21
406.5117519826
 31
0.0
  0
LINE
  5
123
330
1F
100
AcDbEntity
  8
0
  6
Continuous
 62
     7
100
AcDbLine
 10
1284.5093654714
 20
409.3517445917
 30
0.0
 11
1284.5093654714
 21
406.5117519826
 31
0.0
  0
LINE
  5
124
330
1F
100
AcDbEntity
  8
0
  6
Continuous
 62
     7
100
AcDbLine
 10
1296.309350453
 20
409.3517445917
 30
0.0
 11
1284.5093654714
 21
409.3517445917
 31
0.0
  0
LINE
  5
125
330
1F
100
AcDbEntity
  8
0
  6
Continuous
 62
     7
100
AcDbLine
 10
1296.309350453
 20
406.5117519826
 30
0.0
 11
1284.5093654714
 21
406.5117519826
 31
0.0
  0
ARC
  5
126
330
1F
100
AcDbEntity
  8
0
  6
Continuous
 62
     7
100
AcDbCircle
 10
1294.8093502312
 20
409.3517449921
 30
0.0
 40
1.500000221800401
100
AcDbArc
 50
359.9999847038
 51
62.4879479963
  0
ARC
  5
127
330
1F
100
AcDbEntity
  8
0
  6
Continuous
 62
     7
100
AcDbCircle
 10
1286.0093656932
 20
409.3517449921
 30
0.0
 40
1.500000221799682
100
AcDbArc
 50
117.5120520037
 51
180.0000152962
  0
LINE
  5
128
330
1F
100
AcDbEntity
  8
0
  6
Continuous
 62
     7
100
AcDbLine
 10
1295.5022531085
 20
410.6821157179
 30
0.0
 11
1285.3164628159
 21
410.6821157179
 31
0.0
  0
LINE
  5
129
330
1F
100
AcDbEntity
  8
0
  6
Continuous
 62
     7
100
AcDbLine
 10
1294.2350405307
 20
411.3421231089
 30
0.0
 11
1295.5022531085
 21
410.6821157179
 31
0.0
  0
LINE
  5
12A
330
1F
100
AcDbEntity
  8
0
  6
Continuous
 62
     7
100
AcDbLine
 10
1286.5836753937
 20
411.3421231089
 30
0.0
 11
1285.3164628159
 21
410.6821157179
 31
0.0
  0
LINE
  5
12B
330
1F
100
AcDbEntity
  8
0
  6
Continuous
 62
     7
100
AcDbLine
 10
1294.2350405307
 20
411.3421231089
 30
0.0
 11
1286.5836753937
 21
411.3421231089
 31
0.0
  0
LINE
  5
12C
330
1F
100
AcDbEntity
  8
0
  6
Continuous
 62
     7
100
AcDbLine
 10
1002.8982838063
 20
411.3421231089
 30
0.0
 11
1001.7352815832
 21
410.6821157179
 31
0.0
  0
ARC
  5
12D
330
1F
100
AcDbEntity
  8
0
  6
Continuous
 62
     7
100
AcDbCircle
 10
1003.5369203184
 20
410.2247565636
 30
0.0
 40
1.286998287101131
100
AcDbArc
 50
90.1209613726
 51
119.7503446782
  0
LINE
  5
12E
330
1F
100
AcDbEntity
  8
0
  6
Continuous
 62
     7
100
AcDbLine
 10
1009.5421437715
 20
411.5117519826
 30
0.0
 11
1003.5342032428
 21
411.5117519826
 31
0.0
  0
ARC
  5
12F
330
1F
100
AcDbEntity
  8
0
  6
Continuous
 62
     7
100
AcDbCircle
 10
1293.5421397441
 20
410.0117554205
 30
0.0
 40
1.499996562080387
100
AcDbArc
 50
62.487965228
 51
89.9999984626
  0
ARC
  5
130
330
1F
100
AcDbEntity
  8
0
  6
Continuous
 62
     7
100
AcDbCircle
 10
1287.2765761803
 20
410.0117554205
 30
0.0
 40
1.499996562081298
100
AcDbArc
 50
90.0000015374
 51
117.512034772
  0
LINE
  5
131
330
1F
100
AcDbEntity
  8
0
  6
Continuous
 62
     7
100
AcDbLine
 10
1293.5421397843
 20
411.5117519826
 30
0.0
 11
1287.2765761401
 21
411.5117519826
 31
0.0
  0
LINE
  5
132
330
1F
100
AcDbEntity
  8
0
  6
Continuous
 62
     7
100
AcDbLine
 10
1287.4093617804
 20
405.0117519826
 30
0.0
 11
1287.4093617804
 21
406.5117519826
 31
0.0
  0
LINE
  5
133
330
1F
100
AcDbEntity
  8
0
  6
Continuous
 62
     7
100
AcDbLine
 10
1293.409354144
 20
405.0117519826
 30
0.0
 11
1293.409354144
 21
406.5117519826
 31
0.0
  0
LINE
  5
134
330
1F
100
AcDbEntity
  8
0
  6
Continuous
 62
     7
100
AcDbLine
 10
1003.6560691377
 20
405.0117519826
 30
0.0
 11
1003.6560691377
 21
406.5117519826
 31
0.0
  0
LINE
  5
135
330
1F
100
AcDbEntity
  8
0
  6
Continuous
 62
     7
100
AcDbLine
 10
1000.9945566074
 20
406.5117519826
 30
0.0
 11
1000.5093579622
 21
406.5117519826
 31
0.0
  0
LINE
  5
136
330
1F
100
AcDbEntity
  8
0
  6
Continuous
 62
     7
100
AcDbLine
 10
1003.5342032428
 20
411.5117519826
 30
0.0
 11
1003.2765721529
 21
411.5117519826
 31
0.0
  0
LINE
  5
137
330
1F
100
AcDbEntity
  8
0
  6
Continuous
 62
     7
100
AcDbLine
 10
743.6593579622
 20
405.7795189356
 30
0.0
 11
743.6593579622
 21
405.3046452014
 31
0.0
  0
LINE
  5
138
330
1F
100
AcDbEntity
  8
0
  6
Continuous
 62
     7
100
AcDbLine
 10
743.6593579622
 20
405.7795189356
 30
0.0
 11
743.6593579622
 21
406.5117519826
 31
0.0
  0
LINE
  5
139
330
1F
100
AcDbEntity
  8
0
  6
Continuous
 62
     7
100
AcDbLine
 10
1553.1593579622
 20
406.5117519826
 30
0.0
 11
1296.309350453
 21
406.5117519826
 31
0.0
  0
LINE
  5
13A
330
1F
100
AcDbEntity
  8
0
  6
Continuous
 62
     7
100
AcDbLine
 10
1284.5093654714
 20
406.5117519826
 30
0.0
 11
1012.3093579622
 21
406.5117519826
 31
0.0
  0
LINE
  5
13B
330
1F
100
AcDbEntity
  8
0
  6
Continuous
 62
     7
100
AcDbLine
 10
1000.5093579622
 20
406.5117519826
 30
0.0
 11
743.6593579622
 21
406.5117519826
 31
0.0
  0
LINE
  5
13C
330
1F
100
AcDbEntity
  8
0
  6
Continuous
 62
     7
100
AcDbLine
 10
1553.1593579622
 20
405.7795189356
 30
0.0
 11
1553.1593579622
 21
406.5117519826
 31
0.0
  0
LINE
  5
13D
330
1F
100
AcDbEntity
  8
0
  6
Continuous
 62
     7
100
AcDbLine
 10
1553.1593579622
 20
405.3046452014
 30
0.0
 11
1553.1593579622
 21
405.7795189356
 31
0.0
  0
LINE
  5
13E
330
1F
100
AcDbEntity
  8
0
  6
Continuous
 62
     7
100
AcDbLine
 10
1553.1593579622
 20
405.3046452014
 30
0.0
 11
1553.1593579622
 21
405.0117519826
 31
0.0
  0
LINE
  5
13F
330
1F
100
AcDbEntity
  8
0
  6
Continuous
 62
     7
100
AcDbLine
 10
743.6593579622
 20
405.3046452014
 30
0.0
 11
743.6593579622
 21
405.0117519826
 31
0.0
  0
LINE
  5
140
330
1F
100
AcDbEntity
  8
0
  6
Continuous
 62
     7
100
AcDbLine
 10
1569.9093579622
 20
406.5117519826
 30
0.0
 11
1569.9093579622
 21
405.0117519826
 31
0.0
  0
LINE
  5
141
330
1F
100
AcDbEntity
  8
0
  6
Continuous
 62
     7
100
AcDbLine
 10
1569.9093579622
 20
405.0117519826
 30
0.0
 11
1553.1593579622
 21
405.0117519826
 31
0.0
  0
LINE
  5
142
330
1F
100
AcDbEntity
  8
0
  6
Continuous
 62
     7
100
AcDbLine
 10
1569.9093579622
 20
406.5117519826
 30
0.0
 11
1553.1593579622
 21
406.5117519826
 31
0.0
  0
LINE
  5
143
330
1F
100
AcDbEntity
  8
0
  6
Continuous
 62
     7
100
AcDbLine
 10
726.9093579622
 20
406.5117519826
 30
0.0
 11
726.9093579622
 21
405.0117519826
 31
0.0
  0
LINE
  5
144
330
1F
100
AcDbEntity
  8
0
  6
Continuous
 62
     7
100
AcDbLine
 10
743.6593579622
 20
405.0117519826
 30
0.0
 11
726.9093579622
 21
405.0117519826
 31
0.0
  0
LINE
  5
145
330
1F
100
AcDbEntity
  8
0
  6
Continuous
 62
     7
100
AcDbLine
 10
743.6593579622
 20
406.5117519826
 30
0.0
 11
726.9093579622
 21
406.5117519826
 31
0.0
  0
LINE
  5
146
330
1F
100
AcDbEntity
  8
0
  6
Continuous
 62
     7
100
AcDbLine
 10
708.9093579622
 20
406.5117519826
 30
0.0
 11
708.9093579622
 21
405.0117519826
 31
0.0
  0
LINE
  5
147
330
1F
100
AcDbEntity
  8
0
  6
Continuous
 62
     7
100
AcDbLine
 10
726.9093579622
 20
405.0117519826
 30
0.0
 11
708.9093579622
 21
405.0117519826
 31
0.0
  0
LINE
  5
148
330
1F
100
AcDbEntity
  8
0
  6
Continuous
 62
     7
100
AcDbLine
 10
726.9093579622
 20
406.5117519826
 30
0.0
 11
708.9093579622
 21
406.5117519826
 31
0.0
  0
LINE
  5
149
330
1F
100
AcDbEntity
  8
0
  6
Continuous
 62
     7
100
AcDbLine
 10
1587.9093579622
 20
406.5117519826
 30
0.0
 11
1587.9093579622
 21
405.0117519826
 31
0.0
  0
LINE
  5
14A
330
1F
100
AcDbEntity
  8
0
  6
Continuous
 62
     7
100
AcDbLine
 10
1587.9093579622
 20
405.0117519826
 30
0.0
 11
1569.9093579622
 21
405.0117519826
 31
0.0
  0
LINE
  5
14B
330
1F
100
AcDbEntity
  8
0
  6
Continuous
 62
     7
100
AcDbLine
 10
1587.9093579622
 20
406.5117519826
 30
0.0
 11
1569.9093579622
 21
406.5117519826
 31
0.0
  0
LINE
  5
14C
330
1F
100
AcDbEntity
  8
0
  6
Continuous
 62
     7
100
AcDbLine
 10
1012.3093579622
 20
409.3517445917
 30
0.0
 11
1000.9945566074
 21
409.3517445917
 31
0.0
  0
LINE
  5
14D
330
1F
100
AcDbEntity
  8
0
  6
Continuous
 62
     7
100
AcDbLine
 10
1011.5022595905
 20
410.6821157179
 30
0.0
 11
1001.7352815832
 21
410.6821157179
 31
0.0
  0
LINE
  5
14E
330
1F
100
AcDbEntity
  8
0
  6
Continuous
 62
     7
100
AcDbLine
 10
1010.2350453998
 20
411.3421231089
 30
0.0
 11
1002.8982838063
 21
411.3421231089
 31
0.0
  0
LINE
  5
14F
330
1F
100
AcDbEntity
  8
0
  6
Continuous
 62
     7
100
AcDbLine
 10
1000.9945566074
 20
409.3517445917
 30
0.0
 11
1000.5093579622
 21
409.3517445917
 31
0.0
  0
LINE
  5
150
330
1F
100
AcDbEntity
  8
0
  6
Continuous
 62
     7
100
AcDbLine
 10
1001.7352815832
 20
410.6821157179
 30
0.0
 11
1001.3164563339
 21
410.6821157179
 31
0.0
  0
LINE
  5
151
330
1F
100
AcDbEntity
  8
0
  6
Continuous
 62
     7
100
AcDbLine
 10
1002.8982838063
 20
411.3421231089
 30
0.0
 11
1002.5836705246
 21
411.3421231089
 31
0.0
  0
LINE
  5
152
330
1F
100
AcDbEntity
  8
0
  6
Continuous
 62
     7
100
AcDbLine
 10
1000.5093579622
 20
-153.9611680239
 30
0.0
 11
1000.5093579622
 21
-156.8011606329
 31
0.0
  0
ARC
  5
153
330
1F
100
AcDbEntity
  8
0
  6
Continuous
 62
     7
100
AcDbCircle
 10
1002.0093579622
 20
-156.8011606329
 30
0.0
 40
1.499999999999954
100
AcDbArc
 50
180.0
 51
242.4879973762
  0
LINE
  5
154
330
1F
100
AcDbEntity
  8
0
  6
Continuous
 62
     7
100
AcDbLine
 10
1001.3164563339
 20
-158.1315317592
 30
0.0
 11
1002.5836705246
 21
-158.7915391502
 31
0.0
  0
ARC
  5
155
330
1F
100
AcDbEntity
  8
0
  6
Continuous
 62
     7
100
AcDbCircle
 10
1003.2765721529
 20
-157.4611680239
 30
0.0
 40
1.500000000000059
100
AcDbArc
 50
242.4879973761
 51
270.0
  0
LINE
  5
156
330
1F
100
AcDbEntity
  8
0
  6
Continuous
 62
     7
100
AcDbLine
 10
1003.9093579622
 20
-144.7611680239
 30
0.0
 11
1003.4093579622
 21
-145.2611680239
 31
0.0
  0
LINE
  5
157
330
1F
100
AcDbEntity
  8
0
  6
Continuous
 62
     7
100
AcDbLine
 10
1003.4093579622
 20
-145.2611680239
 30
0.0
 11
1003.4093579622
 21
-150.9611680239
 31
0.0
  0
LINE
  5
158
330
1F
100
AcDbEntity
  8
0
  6
Continuous
 62
     7
100
AcDbLine
 10
1012.3093579622
 20
-156.8011606329
 30
0.0
 11
1012.3093579622
 21
-153.9611680239
 31
0.0
  0
ARC
  5
159
330
1F
100
AcDbEntity
  8
0
  6
Continuous
 62
     7
100
AcDbCircle
 10
1010.8093579622
 20
-156.8011606329
 30
0.0
 40
1.499999999999954
100
AcDbArc
 50
297.5120026238
 51
0.0
  0
LINE
  5
15A
330
1F
100
AcDbEntity
  8
0
  6
Continuous
 62
     7
100
AcDbLine
 10
1010.2350453998
 20
-158.7915391502
 30
0.0
 11
1011.5022595905
 21
-158.1315317592
 31
0.0
  0
ARC
  5
15B
330
1F
100
AcDbEntity
  8
0
  6
Continuous
 62
     7
100
AcDbCircle
 10
1009.5421437715
 20
-157.4611680239
 30
0.0
 40
1.500000000000059
100
AcDbArc
 50
270.0
 51
297.5120026239
  0
LINE
  5
15C
330
1F
100
AcDbEntity
  8
0
  6
Continuous
 62
     7
100
AcDbLine
 10
1009.4093579622
 20
-145.2611680239
 30
0.0
 11
1008.9093579622
 21
-144.7611680239
 31
0.0
  0
LINE
  5
15D
330
1F
100
AcDbEntity
  8
0
  6
Continuous
 62
     7
100
AcDbLine
 10
1009.4093579622
 20
-150.9611680239
 30
0.0
 11
1009.4093579622
 21
-145.2611680239
 31
0.0
  0
LINE
  5
15E
330
1F
100
AcDbEntity
  8
0
  6
Continuous
 62
     7
100
AcDbLine
 10
1587.9093579622
 20
-153.9611680239
 30
0.0
 11
1587.9093579622
 21
-152.4611680239
 31
0.0
  0
LINE
  5
15F
330
1F
100
AcDbEntity
  8
0
  6
Continuous
 62
     7
100
AcDbLine
 10
1569.9093579622
 20
-153.9611680239
 30
0.0
 11
1587.9093579622
 21
-153.9611680239
 31
0.0
  0
LINE
  5
160
330
1F
100
AcDbEntity
  8
0
  6
Continuous
 62
     7
100
AcDbLine
 10
1569.9093579622
 20
-153.9611680239
 30
0.0
 11
1569.9093579622
 21
-152.4611680239
 31
0.0
  0
LINE
  5
161
330
1F
100
AcDbEntity
  8
0
  6
Continuous
 62
     7
100
AcDbLine
 10
1569.9093579622
 20
-152.4611680239
 30
0.0
 11
1587.9093579622
 21
-152.4611680239
 31
0.0
  0
LINE
  5
162
330
1F
100
AcDbEntity
  8
0
  6
Continuous
 62
     7
100
AcDbLine
 10
726.9093579622
 20
-153.9611680239
 30
0.0
 11
1569.9093579622
 21
-153.9611680239
 31
0.0
  0
LINE
  5
163
330
1F
100
AcDbEntity
  8
0
  6
Continuous
 62
     7
100
AcDbLine
 10
726.9093579622
 20
-153.9611680239
 30
0.0
 11
726.9093579622
 21
-152.4611680239
 31
0.0
  0
LINE
  5
164
330
1F
100
AcDbEntity
  8
0
  6
Continuous
 62
     7
100
AcDbLine
 10
726.9093579622
 20
-152.4611680239
 30
0.0
 11
1569.9093579622
 21
-152.4611680239
 31
0.0
  0
LINE
  5
165
330
1F
100
AcDbEntity
  8
0
  6
Continuous
 62
     7
100
AcDbLine
 10
708.9093579622
 20
-153.9611680239
 30
0.0
 11
708.9093579622
 21
-152.4611680239
 31
0.0
  0
LINE
  5
166
330
1F
100
AcDbEntity
  8
0
  6
Continuous
 62
     7
100
AcDbLine
 10
708.9093579622
 20
-153.9611680239
 30
0.0
 11
726.9093579622
 21
-153.9611680239
 31
0.0
  0
LINE
  5
167
330
1F
100
AcDbEntity
  8
0
  6
Continuous
 62
     7
100
AcDbLine
 10
708.9093579622
 20
-152.4611680239
 30
0.0
 11
726.9093579622
 21
-152.4611680239
 31
0.0
  0
LINE
  5
168
330
1F
100
AcDbEntity
  8
0
  6
Continuous
 62
     7
100
AcDbLine
 10
743.6593579622
 20
-151.6934010709
 30
0.0
 11
743.6593579622
 21
-150.9611680239
 31
0.0
  0
LINE
  5
169
330
1F
100
AcDbEntity
  8
0
  6
Continuous
 62
     7
100
AcDbLine
 10
743.6593579622
 20
-150.9611680239
 30
0.0
 11
1553.1593579622
 21
-150.9611680239
 31
0.0
  0
LINE
  5
16A
330
1F
100
AcDbEntity
  8
0
  6
Continuous
 62
     7
100
AcDbLine
 10
1553.1593579622
 20
-151.6934010709
 30
0.0
 11
1553.1593579622
 21
-150.9611680239
 31
0.0
  0
LINE
  5
16B
330
1F
100
AcDbEntity
  8
0
  6
Continuous
 62
     7
100
AcDbLine
 10
1553.1593579622
 20
-151.6934010709
 30
0.0
 11
1553.1593579622
 21
-152.1682748051
 31
0.0
  0
LINE
  5
16C
330
1F
100
AcDbEntity
  8
0
  6
Continuous
 62
     7
100
AcDbLine
 10
743.6593579622
 20
-152.1682748051
 30
0.0
 11
743.6593579622
 21
-151.6934010709
 31
0.0
  0
LINE
  5
16D
330
1F
100
AcDbEntity
  8
0
  6
Continuous
 62
     7
100
AcDbLine
 10
1553.1593579622
 20
-152.1682748051
 30
0.0
 11
1553.1593579622
 21
-152.4611680239
 31
0.0
  0
LINE
  5
16E
330
1F
100
AcDbEntity
  8
0
  6
Continuous
 62
     7
100
AcDbLine
 10
743.6593579622
 20
-152.1682748051
 30
0.0
 11
743.6593579622
 21
-152.4611680239
 31
0.0
  0
LINE
  5
16F
330
1F
100
AcDbEntity
  8
0
  6
Continuous
 62
     7
100
AcDbLine
 10
1011.824159317
 20
-156.8011606329
 30
0.0
 11
1011.824159317
 21
-153.9611680239
 31
0.0
  0
LINE
  5
170
330
1F
100
AcDbEntity
  8
0
  6
Continuous
 62
     7
100
AcDbLine
 10
1296.309350453
 20
-156.8011606329
 30
0.0
 11
1296.309350453
 21
-153.9611680239
 31
0.0
  0
LINE
  5
171
330
1F
100
AcDbEntity
  8
0
  6
Continuous
 62
     7
100
AcDbLine
 10
1284.5093654714
 20
-156.8011606329
 30
0.0
 11
1296.309350453
 21
-156.8011606329
 31
0.0
  0
LINE
  5
172
330
1F
100
AcDbEntity
  8
0
  6
Continuous
 62
     7
100
AcDbLine
 10
1284.5093654714
 20
-156.8011606329
 30
0.0
 11
1284.5093654714
 21
-153.9611680239
 31
0.0
  0
ARC
  5
173
330
1F
100
AcDbEntity
  8
0
  6
Continuous
 62
     7
100
AcDbCircle
 10
1294.8093502312
 20
-156.8011610334
 30
0.0
 40
1.500000221800632
100
AcDbArc
 50
297.5120520038
 51
0.0000152962
  0
LINE
  5
174
330
1F
100
AcDbEntity
  8
0
  6
Continuous
 62
     7
100
AcDbLine
 10
1285.3164628159
 20
-158.1315317592
 30
0.0
 11
1295.5022531085
 21
-158.1315317592
 31
0.0
  0
ARC
  5
175
330
1F
100
AcDbEntity
  8
0
  6
Continuous
 62
     7
100
AcDbCircle
 10
1286.0093656932
 20
-156.8011610334
 30
0.0
 40
1.500000221799891
100
AcDbArc
 50
179.9999847038
 51
242.4879479963
  0
ARC
  5
176
330
1F
100
AcDbEntity
  8
0
  6
Continuous
 62
     7
100
AcDbCircle
 10
1010.3036591616
 20
-156.8259717329
 30
0.0
 40
1.520702572214956
100
AcDbArc
 50
300.8487132719
 51
0.9348536747
  0
LINE
  5
177
330
1F
100
AcDbEntity
  8
0
  6
Continuous
 62
     7
100
AcDbLine
 10
1009.9204321181
 20
-158.7915391502
 30
0.0
 11
1011.0834343412
 21
-158.1315317592
 31
0.0
  0
LINE
  5
178
330
1F
100
AcDbEntity
  8
0
  6
Continuous
 62
     7
100
AcDbLine
 10
1294.2350405307
 20
-158.7915391502
 30
0.0
 11
1295.5022531085
 21
-158.1315317592
 31
0.0
  0
LINE
  5
179
330
1F
100
AcDbEntity
  8
0
  6
Continuous
 62
     7
100
AcDbLine
 10
1286.5836753937
 20
-158.7915391502
 30
0.0
 11
1294.2350405307
 21
-158.7915391502
 31
0.0
  0
LINE
  5
17A
330
1F
100
AcDbEntity
  8
0
  6
Continuous
 62
     7
100
AcDbLine
 10
1286.5836753937
 20
-158.7915391502
 30
0.0
 11
1285.3164628159
 21
-158.1315317592
 31
0.0
  0
ARC
  5
17B
330
1F
100
AcDbEntity
  8
0
  6
Continuous
 62
     7
100
AcDbCircle
 10
1009.281795606
 20
-157.6741726049
 30
0.0
 40
1.286998287099908
100
AcDbArc
 50
270.1209613725
 51
299.7503446782
  0
LINE
  5
17C
330
1F
100
AcDbEntity
  8
0
  6
Continuous
 62
     7
100
AcDbLine
 10
1003.2765721529
 20
-158.9611680239
 30
0.0
 11
1009.2845126816
 21
-158.9611680239
 31
0.0
  0
ARC
  5
17D
330
1F
100
AcDbEntity
  8
0
  6
Continuous
 62
     7
100
AcDbCircle
 10
1293.5421397441
 20
-157.4611714618
 30
0.0
 40
1.499996562079674
100
AcDbArc
 50
270.0000015373
 51
297.512034772
  0
LINE
  5
17E
330
1F
100
AcDbEntity
  8
0
  6
Continuous
 62
     7
100
AcDbLine
 10
1287.2765761401
 20
-158.9611680239
 30
0.0
 11
1293.5421397843
 21
-158.9611680239
 31
0.0
  0
ARC
  5
17F
330
1F
100
AcDbEntity
  8
0
  6
Continuous
 62
     7
100
AcDbCircle
 10
1287.2765761803
 20
-157.4611714618
 30
0.0
 40
1.499996562080588
100
AcDbArc
 50
242.487965228
 51
269.9999984627
  0
LINE
  5
180
330
1F
100
AcDbEntity
  8
0
  6
Continuous
 62
     7
100
AcDbLine
 10
1292.9093547804
 20
-144.7611680239
 30
0.0
 11
1293.409354144
 21
-145.2611680239
 31
0.0
  0
LINE
  5
181
330
1F
100
AcDbEntity
  8
0
  6
Continuous
 62
     7
100
AcDbLine
 10
1287.4093617804
 20
-145.2611680239
 30
0.0
 11
1293.409354144
 21
-145.2611680239
 31
0.0
  0
LINE
  5
182
330
1F
100
AcDbEntity
  8
0
  6
Continuous
 62
     7
100
AcDbLine
 10
1287.9093611441
 20
-144.7611680239
 30
0.0
 11
1287.4093617804
 21
-145.2611680239
 31
0.0
  0
LINE
  5
183
330
1F
100
AcDbEntity
  8
0
  6
Continuous
 62
     7
100
AcDbLine
 10
1287.9093611441
 20
-144.7611680239
 30
0.0
 11
1292.9093547804
 21
-144.7611680239
 31
0.0
  0
LINE
  5
184
330
1F
100
AcDbEntity
  8
0
  6
Continuous
 62
     7
100
AcDbLine
 10
1003.4093579622
 20
-145.2611680239
 30
0.0
 11
1009.1626467867
 21
-145.2611680239
 31
0.0
  0
LINE
  5
185
330
1F
100
AcDbEntity
  8
0
  6
Continuous
 62
     7
100
AcDbLine
 10
1003.9093579622
 20
-144.7611680239
 30
0.0
 11
1008.7037653159
 21
-144.7611680239
 31
0.0
  0
LINE
  5
186
330
1F
100
AcDbEntity
  8
0
  6
Continuous
 62
     7
100
AcDbLine
 10
1008.7037653159
 20
-144.7611680239
 30
0.0
 11
1009.1626467867
 21
-145.2611680239
 31
0.0
  0
LINE
  5
187
330
1F
100
AcDbEntity
  8
0
  6
Continuous
 62
     7
100
AcDbLine
 10
1009.1626467867
 20
-145.2611680239
 30
0.0
 11
1009.1626467867
 21
-150.9611680239
 31
0.0
  0
LINE
  5
188
330
1F
100
AcDbEntity
  8
0
  6
Continuous
 62
     7
100
AcDbLine
 10
1287.4093617804
 20
-145.2611680239
 30
0.0
 11
1287.4093617804
 21
-150.9611680239
 31
0.0
  0
LINE
  5
189
330
1F
100
AcDbEntity
  8
0
  6
Continuous
 62
     7
100
AcDbLine
 10
1293.409354144
 20
-145.2611680239
 30
0.0
 11
1293.409354144
 21
-150.9611680239
 31
0.0
  0
LINE
  5
18A
330
1F
100
AcDbEntity
  8
0
  6
Continuous
 62
     7
100
AcDbLine
 10
1009.2845126816
 20
-158.9611680239
 30
0.0
 11
1009.5421437715
 21
-158.9611680239
 31
0.0
  0
LINE
  5
18B
330
1F
100
AcDbEntity
  8
0
  6
Continuous
 62
     7
100
AcDbLine
 10
1009.1626467867
 20
-145.2611680239
 30
0.0
 11
1009.4093579622
 21
-145.2611680239
 31
0.0
  0
LINE
  5
18C
330
1F
100
AcDbEntity
  8
0
  6
Continuous
 62
     7
100
AcDbLine
 10
1008.7037653159
 20
-144.7611680239
 30
0.0
 11
1008.9093579622
 21
-144.7611680239
 31
0.0
  0
LINE
  5
18D
330
1F
100
AcDbEntity
  8
0
  6
Continuous
 62
     7
100
AcDbLine
 10
1553.1593579622
 20
-145.9611680239
 30
0.0
 11
1553.1593579622
 21
-149.9611680239
 31
0.0
  0
LINE
  5
18E
330
1F
100
AcDbEntity
  8
0
  6
Continuous
 62
     7
100
AcDbLine
 10
743.6593579622
 20
-149.9611680239
 30
0.0
 11
743.6593579622
 21
-145.9611680239
 31
0.0
  0
LINE
  5
18F
330
1F
100
AcDbEntity
  8
0
  6
Continuous
 62
     7
100
AcDbLine
 10
743.6593579622
 20
-145.9611680239
 30
0.0
 11
746.6593579622
 21
-142.9611680239
 31
0.0
  0
LINE
  5
190
330
1F
100
AcDbEntity
  8
0
  6
Continuous
 62
     7
100
AcDbLine
 10
746.6593579622
 20
-142.9611680239
 30
0.0
 11
1550.1593579622
 21
-142.9611680239
 31
0.0
  0
LINE
  5
191
330
1F
100
AcDbEntity
  8
0
  6
Continuous
 62
     7
100
AcDbLine
 10
1550.1593579622
 20
-142.9611680239
 30
0.0
 11
1553.1593579622
 21
-145.9611680239
 31
0.0
  0
LINE
  5
192
330
1F
100
AcDbEntity
  8
0
  6
Continuous
 62
     7
100
AcDbLine
 10
1553.1593579622
 20
-149.9611680239
 30
0.0
 11
1553.1593579622
 21
-150.9611680239
 31
0.0
  0
LINE
  5
193
330
1F
100
AcDbEntity
  8
0
  6
Continuous
 62
     7
100
AcDbLine
 10
743.6593579622
 20
-149.9611680239
 30
0.0
 11
743.6593579622
 21
-150.9611680239
 31
0.0
  0
LINE
  5
194
330
1F
100
AcDbEntity
  8
0
  6
Continuous
 62
     7
100
AcDbLine
 10
1000.5093579622
 20
-156.8011606329
 30
0.0
 11
1011.824159317
 21
-156.8011606329
 31
0.0
  0
LINE
  5
195
330
1F
100
AcDbEntity
  8
0
  6
Continuous
 62
     7
100
AcDbLine
 10
1001.3164563339
 20
-158.1315317592
 30
0.0
 11
1011.0834343412
 21
-158.1315317592
 31
0.0
  0
LINE
  5
196
330
1F
100
AcDbEntity
  8
0
  6
Continuous
 62
     7
100
AcDbLine
 10
1002.5836705246
 20
-158.7915391502
 30
0.0
 11
1009.9204321181
 21
-158.7915391502
 31
0.0
  0
LINE
  5
197
330
1F
100
AcDbEntity
  8
0
  6
Continuous
 62
     7
100
AcDbLine
 10
1011.824159317
 20
-156.8011606329
 30
0.0
 11
1012.3093579622
 21
-156.8011606329
 31
0.0
  0
LINE
  5
198
330
1F
100
AcDbEntity
  8
0
  6
Continuous
 62
     7
100
AcDbLine
 10
1011.0834343412
 20
-158.1315317592
 30
0.0
 11
1011.5022595905
 21
-158.1315317592
 31
0.0
  0
LINE
  5
199
330
1F
100
AcDbEntity
  8
0
  6
Continuous
 62
     7
100
AcDbLine
 10
1009.9204321181
 20
-158.7915391502
 30
0.0
 11
1010.2350453998
 21
-158.7915391502
 31
0.0
  0
LINE
  5
19A
330
1F
100
AcDbEntity
  8
0
  6
Continuous
 62
     7
100
AcDbLine
 10
1657.9606652251
 20
-64.971548773
 30
0.0
 11
1655.120672616
 21
-64.971548773
 31
0.0
  0
ARC
  5
19B
330
1F
100
AcDbEntity
  8
0
  6
Continuous
 62
     7
100
AcDbCircle
 10
1657.9606652251
 20
-66.471548773
 30
0.0
 40
1.5
100
AcDbArc
 50
27.5120026239
 51
90.0
  0
ARC
  5
19C
330
1F
100
AcDbEntity
  8
0
  6
Continuous
 62
     7
100
AcDbCircle
 10
1657.9606652251
 20
-75.271548773
 30
0.0
 40
1.5
100
AcDbArc
 50
270.0
 51
332.4879973761
  0
LINE
  5
19D
330
1F
100
AcDbEntity
  8
0
  6
Continuous
 62
     7
100
AcDbLine
 10
1655.120672616
 20
-76.771548773
 30
0.0
 11
1657.9606652251
 21
-76.771548773
 31
0.0
  0
LINE
  5
19E
330
1F
100
AcDbEntity
  8
0
  6
Continuous
 62
     7
100
AcDbLine
 10
1659.9510437423
 20
-67.0458613354
 30
0.0
 11
1659.2910363513
 21
-65.7786471447
 31
0.0
  0
LINE
  5
19F
330
1F
100
AcDbEntity
  8
0
  6
Continuous
 62
     7
100
AcDbLine
 10
1659.2910363513
 20
-75.9644504012
 30
0.0
 11
1659.9510437423
 21
-74.6972362106
 31
0.0
  0
ARC
  5
1A0
330
1F
100
AcDbEntity
  8
0
  6
Continuous
 62
     7
100
AcDbCircle
 10
1658.620672616
 20
-67.7387629636
 30
0.0
 40
1.499999999999932
100
AcDbArc
 50
0.0
 51
27.5120026239
  0
ARC
  5
1A1
330
1F
100
AcDbEntity
  8
0
  6
Continuous
 62
     7
100
AcDbCircle
 10
1658.620672616
 20
-74.0043345823
 30
0.0
 40
1.499999999999932
100
AcDbArc
 50
332.4879973761
 51
0.0
  0
LINE
  5
1A2
330
1F
100
AcDbEntity
  8
0
  6
Continuous
 62
     7
100
AcDbLine
 10
1646.420672616
 20
-67.871548773
 30
0.0
 11
1645.920672616
 21
-68.371548773
 31
0.0
  0
LINE
  5
1A3
330
1F
100
AcDbEntity
  8
0
  6
Continuous
 62
     7
100
AcDbLine
 10
1652.120672616
 20
-67.871548773
 30
0.0
 11
1646.420672616
 21
-67.871548773
 31
0.0
  0
LINE
  5
1A4
330
1F
100
AcDbEntity
  8
0
  6
Continuous
 62
     7
100
AcDbLine
 10
1655.120672616
 20
-67.871548773
 30
0.0
 11
1653.620672616
 21
-67.871548773
 31
0.0
  0
LINE
  5
1A5
330
1F
100
AcDbEntity
  8
0
  6
Continuous
 62
     7
100
AcDbLine
 10
1645.920672616
 20
-73.371548773
 30
0.0
 11
1646.420672616
 21
-73.871548773
 31
0.0
  0
LINE
  5
1A6
330
1F
100
AcDbEntity
  8
0
  6
Continuous
 62
     7
100
AcDbLine
 10
1646.420672616
 20
-73.871548773
 30
0.0
 11
1652.120672616
 21
-73.871548773
 31
0.0
  0
LINE
  5
1A7
330
1F
100
AcDbEntity
  8
0
  6
Continuous
 62
     7
100
AcDbLine
 10
1653.620672616
 20
-73.871548773
 30
0.0
 11
1655.120672616
 21
-73.871548773
 31
0.0
  0
LINE
  5
1A8
330
1F
100
AcDbEntity
  8
0
  6
Continuous
 62
     7
100
AcDbLine
 10
1655.120672616
 20
24.0426647894
 30
0.0
 11
1653.620672616
 21
24.0426647894
 31
0.0
  0
LINE
  5
1A9
330
1F
100
AcDbEntity
  8
0
  6
Continuous
 62
     7
100
AcDbLine
 10
1655.120672616
 20
6.0426647894
 30
0.0
 11
1653.620672616
 21
6.0426647894
 31
0.0
  0
LINE
  5
1AA
330
1F
100
AcDbEntity
  8
0
  6
Continuous
 62
     7
100
AcDbLine
 10
1653.620672616
 20
6.0426647894
 30
0.0
 11
1653.620672616
 21
24.0426647894
 31
0.0
  0
LINE
  5
1AB
330
1F
100
AcDbEntity
  8
0
  6
Continuous
 62
     7
100
AcDbLine
 10
1655.120672616
 20
6.0426647894
 30
0.0
 11
1655.120672616
 21
24.0426647894
 31
0.0
  0
LINE
  5
1AC
330
1F
100
AcDbEntity
  8
0
  6
Continuous
 62
     7
100
AcDbLine
 10
1655.120672616
 20
340.1284512294
 30
0.0
 11
1653.620672616
 21
340.1284512294
 31
0.0
  0
LINE
  5
1AD
330
1F
100
AcDbEntity
  8
0
  6
Continuous
 62
     7
100
AcDbLine
 10
1655.120672616
 20
322.1284512294
 30
0.0
 11
1653.620672616
 21
322.1284512294
 31
0.0
  0
LINE
  5
1AE
330
1F
100
AcDbEntity
  8
0
  6
Continuous
 62
     7
100
AcDbLine
 10
1653.620672616
 20
322.1284512294
 30
0.0
 11
1653.620672616
 21
340.1284512294
 31
0.0
  0
LINE
  5
1AF
330
1F
100
AcDbEntity
  8
0
  6
Continuous
 62
     7
100
AcDbLine
 10
1655.120672616
 20
322.1284512294
 30
0.0
 11
1655.120672616
 21
340.1284512294
 31
0.0
  0
LINE
  5
1B0
330
1F
100
AcDbEntity
  8
0
  6
Continuous
 62
     7
100
AcDbLine
 10
1653.620672616
 20
24.0426647894
 30
0.0
 11
1653.620672616
 21
322.1284512294
 31
0.0
  0
LINE
  5
1B1
330
1F
100
AcDbEntity
  8
0
  6
Continuous
 62
     7
100
AcDbLine
 10
1655.120672616
 20
24.0426647894
 30
0.0
 11
1655.120672616
 21
322.1284512294
 31
0.0
  0
LINE
  5
1B2
330
1F
100
AcDbEntity
  8
0
  6
Continuous
 62
     7
100
AcDbLine
 10
1653.620672616
 20
-79.871548773
 30
0.0
 11
1653.620672616
 21
3.0929173211
 31
0.0
  0
LINE
  5
1B3
330
1F
100
AcDbEntity
  8
0
  6
Continuous
 62
     7
100
AcDbLine
 10
1652.120672616
 20
-79.871548773
 30
0.0
 11
1653.620672616
 21
-79.871548773
 31
0.0
  0
LINE
  5
1B4
330
1F
100
AcDbEntity
  8
0
  6
Continuous
 62
     7
100
AcDbLine
 10
1652.120672616
 20
-79.871548773
 30
0.0
 11
1652.120672616
 21
3.0929173211
 31
0.0
  0
LINE
  5
1B5
330
1F
100
AcDbEntity
  8
0
  6
Continuous
 62
     7
100
AcDbLine
 10
1653.620672616
 20
3.0929173211
 30
0.0
 11
1652.120672616
 21
3.0929173211
 31
0.0
  0
LINE
  5
1B6
330
1F
100
AcDbEntity
  8
0
  6
Continuous
 62
     7
100
AcDbLine
 10
1653.620672616
 20
-79.871548773
 30
0.0
 11
1653.620672616
 21
-82.371548773
 31
0.0
  0
LINE
  5
1B7
330
1F
100
AcDbEntity
  8
0
  6
Continuous
 62
     7
100
AcDbLine
 10
1651.120672616
 20
-82.371548773
 30
0.0
 11
1653.620672616
 21
-82.371548773
 31
0.0
  0
LINE
  5
1B8
330
1F
100
AcDbEntity
  8
0
  6
Continuous
 62
     7
100
AcDbLine
 10
1651.120672616
 20
-80.871548773
 30
0.0
 11
1651.120672616
 21
-82.371548773
 31
0.0
  0
LINE
  5
1B9
330
1F
100
AcDbEntity
  8
0
  6
Continuous
 62
     7
100
AcDbLine
 10
1651.120672616
 20
-80.871548773
 30
0.0
 11
1652.120672616
 21
-80.871548773
 31
0.0
  0
LINE
  5
1BA
330
1F
100
AcDbEntity
  8
0
  6
Continuous
 62
     7
100
AcDbLine
 10
1652.120672616
 20
-79.871548773
 30
0.0
 11
1652.120672616
 21
-80.871548773
 31
0.0
  0
LINE
  5
1BB
330
1F
100
AcDbEntity
  8
0
  6
Continuous
 62
     7
100
AcDbLine
 10
1653.3277793972
 20
5.3355580082
 30
0.0
 11
1654.388439569
 21
4.2748978364
 31
0.0
  0
LINE
  5
1BC
330
1F
100
AcDbEntity
  8
0
  6
Continuous
 62
     7
100
AcDbLine
 10
1653.3277793972
 20
5.3355580082
 30
0.0
 11
1653.620672616
 21
5.628451227
 31
0.0
  0
LINE
  5
1BD
330
1F
100
AcDbEntity
  8
0
  6
Continuous
 62
     7
100
AcDbLine
 10
1654.388439569
 20
4.2748978364
 30
0.0
 11
1655.120672616
 21
5.0071308835
 31
0.0
  0
LINE
  5
1BE
330
1F
100
AcDbEntity
  8
0
  6
Continuous
 62
     7
100
AcDbLine
 10
1653.620672616
 20
6.0426647894
 30
0.0
 11
1653.620672616
 21
5.628451227
 31
0.0
  0
LINE
  5
1BF
330
1F
100
AcDbEntity
  8
0
  6
Continuous
 62
     7
100
AcDbLine
 10
1655.120672616
 20
6.0426647894
 30
0.0
 11
1655.120672616
 21
5.0071308835
 31
0.0
  0
LINE
  5
1C0
330
1F
100
AcDbEntity
  8
0
  6
Continuous
 62
     7
100
AcDbLine
 10
1653.9135658348
 20
3.8000241023
 30
0.0
 11
1652.8529056631
 21
4.8606842741
 31
0.0
  0
LINE
  5
1C1
330
1F
100
AcDbEntity
  8
0
  6
Continuous
 62
     7
100
AcDbLine
 10
1652.8529056631
 20
4.8606842741
 30
0.0
 11
1652.120672616
 21
4.128451227
 31
0.0
  0
LINE
  5
1C2
330
1F
100
AcDbEntity
  8
0
  6
Continuous
 62
     7
100
AcDbLine
 10
1653.9135658348
 20
3.8000241023
 30
0.0
 11
1653.620672616
 21
3.5071308835
 31
0.0
  0
LINE
  5
1C3
330
1F
100
AcDbEntity
  8
0
  6
Continuous
 62
     7
100
AcDbLine
 10
1653.620672616
 20
3.0929173211
 30
0.0
 11
1653.620672616
 21
3.5071308835
 31
0.0
  0
LINE
  5
1C4
330
1F
100
AcDbEntity
  8
0
  6
Continuous
 62
     7
100
AcDbLine
 10
1652.120672616
 20
3.0929173211
 30
0.0
 11
1652.120672616
 21
4.128451227
 31
0.0
  0
LINE
  5
1C5
330
1F
100
AcDbEntity
  8
0
  6
Continuous
 62
     7
100
AcDbLine
 10
1647.120672616
 20
-82.371548773
 30
0.0
 11
1647.120672616
 21
-80.871548773
 31
0.0
  0
LINE
  5
1C6
330
1F
100
AcDbEntity
  8
0
  6
Continuous
 62
     7
100
AcDbLine
 10
1647.120672616
 20
-82.371548773
 30
0.0
 11
1644.120672616
 21
-82.371548773
 31
0.0
  0
LINE
  5
1C7
330
1F
100
AcDbEntity
  8
0
  6
Continuous
 62
     7
100
AcDbLine
 10
1644.120672616
 20
-82.371548773
 30
0.0
 11
1644.120672616
 21
-80.871548773
 31
0.0
  0
LINE
  5
1C8
330
1F
100
AcDbEntity
  8
0
  6
Continuous
 62
     7
100
AcDbLine
 10
1647.120672616
 20
-80.871548773
 30
0.0
 11
1644.120672616
 21
-80.871548773
 31
0.0
  0
LINE
  5
1C9
330
1F
100
AcDbEntity
  8
0
  6
Continuous
 62
     7
100
AcDbLine
 10
1651.120672616
 20
-80.871548773
 30
0.0
 11
1647.120672616
 21
-80.871548773
 31
0.0
  0
LINE
  5
1CA
330
1F
100
AcDbEntity
  8
0
  6
Continuous
 62
     7
100
AcDbLine
 10
1651.120672616
 20
-82.371548773
 30
0.0
 11
1647.120672616
 21
-82.371548773
 31
0.0
  0
LINE
  5
1CB
330
1F
100
AcDbEntity
  8
0
  6
Continuous
 62
     7
100
AcDbLine
 10
1653.3277793972
 20
5.3355580082
 30
0.0
 11
1652.8529056631
 21
4.8606842741
 31
0.0
  0
LINE
  5
1CC
330
1F
100
AcDbEntity
  8
0
  6
Continuous
 62
     7
100
AcDbLine
 10
1654.388439569
 20
4.2748978364
 30
0.0
 11
1653.9135658348
 21
3.8000241023
 31
0.0
  0
LINE
  5
1CD
330
1F
100
AcDbEntity
  8
0
  6
Continuous
 62
     7
100
AcDbLine
 10
1657.9606652251
 20
-73.214607946
 30
0.0
 11
1655.120672616
 21
-73.214607946
 31
0.0
  0
LINE
  5
1CE
330
1F
100
AcDbEntity
  8
0
  6
Continuous
 62
     7
100
AcDbLine
 10
1655.120672616
 20
-73.214607946
 30
0.0
 11
1655.120672616
 21
-64.971548773
 31
0.0
  0
ARC
  5
1CF
330
1F
100
AcDbEntity
  8
0
  6
Continuous
 62
     7
100
AcDbCircle
 10
1658.0931739766
 20
-70.8433971729
 30
0.0
 40
2.374910335140336
100
AcDbArc
 50
266.8015057867
 51
300.2903465167
  0
LINE
  5
1D0
330
1F
100
AcDbEntity
  8
0
  6
Continuous
 62
     7
100
AcDbLine
 10
1655.120672616
 20
-76.771548773
 30
0.0
 11
1655.120672616
 21
-73.214607946
 31
0.0
  0
LINE
  5
1D1
330
1F
100
AcDbEntity
  8
0
  6
Continuous
 62
     7
100
AcDbLine
 10
1659.9510437423
 20
-72.3908389499
 30
0.0
 11
1659.2910363513
 21
-72.8940860404
 31
0.0
  0
ARC
  5
1D2
330
1F
100
AcDbEntity
  8
0
  6
Continuous
 62
     7
100
AcDbCircle
 10
1659.7582671279
 20
-72.0821327508
 30
0.0
 40
0.3639537613875353
100
AcDbArc
 50
301.9833882445
 51
354.7132058071
  0
LINE
  5
1D3
330
1F
100
AcDbEntity
  8
0
  6
Continuous
 62
     7
100
AcDbLine
 10
1660.120672616
 20
-72.1156678455
 30
0.0
 11
1660.120672616
 21
-67.7387629636
 31
0.0
  0
LINE
  5
1D4
330
1F
100
AcDbEntity
  8
0
  6
Continuous
 62
     7
100
AcDbLine
 10
1660.120672616
 20
-74.0043345823
 30
0.0
 11
1660.120672616
 21
-72.1156678455
 31
0.0
  0
LINE
  5
1D5
330
1F
100
AcDbEntity
  8
0
  6
Continuous
 62
     7
100
AcDbLine
 10
1646.420672616
 20
-72.0629347932
 30
0.0
 11
1646.420672616
 21
-67.871548773
 31
0.0
  0
LINE
  5
1D6
330
1F
100
AcDbEntity
  8
0
  6
Continuous
 62
     7
100
AcDbLine
 10
1645.920672616
 20
-71.8643704565
 30
0.0
 11
1646.420672616
 21
-72.0629347932
 31
0.0
  0
LINE
  5
1D7
330
1F
100
AcDbEntity
  8
0
  6
Continuous
 62
     7
100
AcDbLine
 10
1645.920672616
 20
-71.8643704565
 30
0.0
 11
1645.920672616
 21
-68.371548773
 31
0.0
  0
LINE
  5
1D8
330
1F
100
AcDbEntity
  8
0
  6
Continuous
 62
     7
100
AcDbLine
 10
1646.420672616
 20
-72.0629347932
 30
0.0
 11
1652.120672616
 21
-72.0629347932
 31
0.0
  0
LINE
  5
1D9
330
1F
100
AcDbEntity
  8
0
  6
Continuous
 62
     7
100
AcDbLine
 10
1653.620672616
 20
-72.0629347932
 30
0.0
 11
1655.120672616
 21
-72.0629347932
 31
0.0
  0
LINE
  5
1DA
330
1F
100
AcDbEntity
  8
0
  6
Continuous
 62
     7
100
AcDbLine
 10
1646.420672616
 20
-73.871548773
 30
0.0
 11
1646.420672616
 21
-72.0629347932
 31
0.0
  0
LINE
  5
1DB
330
1F
100
AcDbEntity
  8
0
  6
Continuous
 62
     7
100
AcDbLine
 10
1645.920672616
 20
-73.371548773
 30
0.0
 11
1645.920672616
 21
-71.8643704565
 31
0.0
  0
LINE
  5
1DC
330
1F
100
AcDbEntity
  8
0
  6
Continuous
 62
     7
100
AcDbLine
 10
1657.9606652251
 20
-73.214607946
 30
0.0
 11
1657.9606652251
 21
-64.971548773
 31
0.0
  0
LINE
  5
1DD
330
1F
100
AcDbEntity
  8
0
  6
Continuous
 62
     7
100
AcDbLine
 10
1659.2910363513
 20
-72.8940860404
 30
0.0
 11
1659.2910363513
 21
-65.7786471447
 31
0.0
  0
LINE
  5
1DE
330
1F
100
AcDbEntity
  8
0
  6
Continuous
 62
     7
100
AcDbLine
 10
1657.9606652251
 20
-76.771548773
 30
0.0
 11
1657.9606652251
 21
-73.214607946
 31
0.0
  0
LINE
  5
1DF
330
1F
100
AcDbEntity
  8
0
  6
Continuous
 62
     7
100
AcDbLine
 10
1659.2910363513
 20
-75.9644504012
 30
0.0
 11
1659.2910363513
 21
-72.8940860404
 31
0.0
  0
LINE
  5
1E0
330
1F
100
AcDbEntity
  8
0
  6
Continuous
 62
     7
100
AcDbLine
 10
1659.9510437423
 20
-72.3908389499
 30
0.0
 11
1659.9510437423
 21
-67.0458613354
 31
0.0
  0
LINE
  5
1E1
330
1F
100
AcDbEntity
  8
0
  6
Continuous
 62
     7
100
AcDbLine
 10
1659.9510437423
 20
-74.6972362106
 30
0.0
 11
1659.9510437423
 21
-72.3908389499
 31
0.0
  0
LINE
  5
1E2
330
1F
100
AcDbEntity
  8
0
  6
Continuous
 62
     7
100
AcDbLine
 10
1757.9867261431
 20
-82.371548773
 30
0.0
 11
1757.9867261431
 21
-80.871548773
 31
0.0
  0
LINE
  5
1E3
330
1F
100
AcDbEntity
  8
0
  6
Continuous
 62
     7
100
AcDbLine
 10
1754.9867261431
 20
-82.371548773
 30
0.0
 11
1754.9867261431
 21
-80.871548773
 31
0.0
  0
LINE
  5
1E4
330
1F
100
AcDbEntity
  8
0
  6
Continuous
 62
     7
100
AcDbLine
 10
1757.9867261431
 20
-80.871548773
 30
0.0
 11
1754.9867261431
 21
-80.871548773
 31
0.0
  0
LINE
  5
1E5
330
1F
100
AcDbEntity
  8
0
  6
Continuous
 62
     7
100
AcDbLine
 10
1757.9867261431
 20
-82.371548773
 30
0.0
 11
1754.9867261431
 21
-82.371548773
 31
0.0
  0
LINE
  5
1E6
330
1F
100
AcDbEntity
  8
0
  6
Continuous
 62
     7
100
AcDbLine
 10
2561.4867261431
 20
-82.371548773
 30
0.0
 11
2561.4867261431
 21
-80.871548773
 31
0.0
  0
LINE
  5
1E7
330
1F
100
AcDbEntity
  8
0
  6
Continuous
 62
     7
100
AcDbLine
 10
2561.4867261431
 20
-80.871548773
 30
0.0
 11
1757.9867261431
 21
-80.871548773
 31
0.0
  0
LINE
  5
1E8
330
1F
100
AcDbEntity
  8
0
  6
Continuous
 62
     7
100
AcDbLine
 10
2561.4867261431
 20
-82.371548773
 30
0.0
 11
1757.9867261431
 21
-82.371548773
 31
0.0
  0
LINE
  5
1E9
330
1F
100
AcDbEntity
  8
0
  6
Continuous
 62
     7
100
AcDbLine
 10
2564.4867261431
 20
-82.371548773
 30
0.0
 11
2564.4867261431
 21
-80.871548773
 31
0.0
  0
LINE
  5
1EA
330
1F
100
AcDbEntity
  8
0
  6
Continuous
 62
     7
100
AcDbLine
 10
2564.4867261431
 20
-80.871548773
 30
0.0
 11
2561.4867261431
 21
-80.871548773
 31
0.0
  0
LINE
  5
1EB
330
1F
100
AcDbEntity
  8
0
  6
Continuous
 62
     7
100
AcDbLine
 10
2564.4867261431
 20
-82.371548773
 30
0.0
 11
2561.4867261431
 21
-82.371548773
 31
0.0
  0
ARC
  5
1EC
330
1F
100
AcDbEntity
  8
0
  6
Continuous
 62
     7
100
AcDbCircle
 10
2017.7367261431
 20
-70.871548773
 30
0.0
 40
3.000000000000163
100
AcDbArc
 50
179.9085871072
 51
359.9085871072
  0
LINE
  5
1ED
330
1F
100
AcDbEntity
  8
0
  6
Continuous
 62
     7
100
AcDbLine
 10
2015.236729325
 20
-70.8675601348
 30
0.0
 11
2014.7367299614
 21
-70.8667624071
 31
0.0
  0
ARC
  5
1EE
330
1F
100
AcDbEntity
  8
0
  6
Continuous
 62
     7
100
AcDbCircle
 10
2017.7367261431
 20
-70.871548773
 30
0.0
 40
2.499999999999947
100
AcDbArc
 50
179.9085871072
 51
359.9085871072
  0
LINE
  5
1EF
330
1F
100
AcDbEntity
  8
0
  6
Continuous
 62
     7
100
AcDbLine
 10
2020.2367229613
 20
-70.8755374112
 30
0.0
 11
2020.7367223249
 21
-70.8763351388
 31
0.0
  0
ARC
  5
1F0
330
1F
100
AcDbEntity
  8
0
  6
Continuous
 62
     7
100
AcDbCircle
 10
2017.7367261431
 20
-70.871548773
 30
0.0
 40
2.499999999999947
100
AcDbArc
 50
359.9085871072
 51
179.9085871072
  0
ARC
  5
1F1
330
1F
100
AcDbEntity
  8
0
  6
Continuous
 62
     7
100
AcDbCircle
 10
2017.7367261431
 20
-70.871548773
 30
0.0
 40
3.000000000000163
100
AcDbArc
 50
359.9085871072
 51
179.9085871072
  0
LINE
  5
1F2
330
1F
100
AcDbEntity
  8
0
  6
Continuous
 62
     7
100
AcDbLine
 10
2304.0311334969
 20
-71.8643704565
 30
0.0
 11
2304.4900149676
 21
-72.0629347932
 31
0.0
  0
ARC
  5
1F3
330
1F
100
AcDbEntity
  8
0
  6
Continuous
 62
     7
100
AcDbCircle
 10
2301.7367261431
 20
-70.871548773
 30
0.0
 40
3.000000000000232
100
AcDbArc
 50
156.601199734
 51
336.601199734
  0
LINE
  5
1F4
330
1F
100
AcDbEntity
  8
0
  6
Continuous
 62
     7
100
AcDbLine
 10
2299.4423187894
 20
-69.8787270895
 30
0.0
 11
2298.9834373187
 21
-69.6801627528
 31
0.0
  0
ARC
  5
1F5
330
1F
100
AcDbEntity
  8
0
  6
Continuous
 62
     7
100
AcDbCircle
 10
2301.7367261431
 20
-70.871548773
 30
0.0
 40
2.500000000000179
100
AcDbArc
 50
156.601199734
 51
336.601199734
  0
ARC
  5
1F6
330
1F
100
AcDbEntity
  8
0
  6
Continuous
 62
     7
100
AcDbCircle
 10
2301.7367261431
 20
-70.871548773
 30
0.0
 40
2.500000000000179
100
AcDbArc
 50
336.601199734
 51
156.601199734
  0
ARC
  5
1F7
330
1F
100
AcDbEntity
  8
0
  6
Continuous
 62
     7
100
AcDbCircle
 10
2301.7367261431
 20
-70.871548773
 30
0.0
 40
3.000000000000232
100
AcDbArc
 50
336.601199734
 51
156.601199734
  0
LINE
  5
1F8
330
1F
100
AcDbEntity
  8
0
  6
Continuous
 62
     7
100
AcDbLine
 10
1754.9867261431
 20
3.0929173211
 30
0.0
 11
1754.9867261431
 21
-79.871548773
 31
0.0
  0
LINE
  5
1F9
330
1F
100
AcDbEntity
  8
0
  6
Continuous
 62
     7
100
AcDbLine
 10
1754.9867261431
 20
3.0929173211
 30
0.0
 11
1754.9867261431
 21
4.128451227
 31
0.0
  0
LINE
  5
1FA
330
1F
100
AcDbEntity
  8
0
  6
Continuous
 62
     7
100
AcDbLine
 10
2564.4867261431
 20
4.128451227
 30
0.0
 11
1754.9867261431
 21
4.128451227
 31
0.0
  0
LINE
  5
1FB
330
1F
100
AcDbEntity
  8
0
  6
Continuous
 62
     7
100
AcDbLine
 10
2564.4867261431
 20
3.0929173211
 30
0.0
 11
2564.4867261431
 21
4.128451227
 31
0.0
  0
LINE
  5
1FC
330
1F
100
AcDbEntity
  8
0
  6
Continuous
 62
     7
100
AcDbLine
 10
2564.4867261431
 20
-79.871548773
 30
0.0
 11
2564.4867261431
 21
3.0929173211
 31
0.0
  0
LINE
  5
1FD
330
1F
100
AcDbEntity
  8
0
  6
Continuous
 62
     7
100
AcDbLine
 10
2564.4867261431
 20
-79.871548773
 30
0.0
 11
2564.4867261431
 21
-80.871548773
 31
0.0
  0
LINE
  5
1FE
330
1F
100
AcDbEntity
  8
0
  6
Continuous
 62
     7
100
AcDbLine
 10
1754.9867261431
 20
-79.871548773
 30
0.0
 11
1754.9867261431
 21
-80.871548773
 31
0.0
  0
LINE
  5
1FF
330
1F
100
AcDbEntity
  8
0
  6
Continuous
 62
     7
100
AcDbLine
 10
2564.4867261431
 20
4.8606842741
 30
0.0
 11
2564.4867261431
 21
4.128451227
 31
0.0
  0
LINE
  5
200
330
1F
100
AcDbEntity
  8
0
  6
Continuous
 62
     7
100
AcDbLine
 10
1754.9867261431
 20
4.8606842741
 30
0.0
 11
1754.9867261431
 21
5.3355580082
 31
0.0
  0
LINE
  5
201
330
1F
100
AcDbEntity
  8
0
  6
Continuous
 62
     7
100
AcDbLine
 10
1754.9867261431
 20
5.3355580082
 30
0.0
 11
1754.9867261431
 21
5.628451227
 31
0.0
  0
LINE
  5
202
330
1F
100
AcDbEntity
  8
0
  6
Continuous
 62
     7
100
AcDbLine
 10
1754.9867261431
 20
5.628451227
 30
0.0
 11
2564.4867261431
 21
5.628451227
 31
0.0
  0
LINE
  5
203
330
1F
100
AcDbEntity
  8
0
  6
Continuous
 62
     7
100
AcDbLine
 10
2564.4867261431
 20
5.3355580082
 30
0.0
 11
2564.4867261431
 21
5.628451227
 31
0.0
  0
LINE
  5
204
330
1F
100
AcDbEntity
  8
0
  6
Continuous
 62
     7
100
AcDbLine
 10
2564.4867261431
 20
5.3355580082
 30
0.0
 11
2564.4867261431
 21
4.8606842741
 31
0.0
  0
LINE
  5
205
330
1F
100
AcDbEntity
  8
0
  6
Continuous
 62
     7
100
AcDbLine
 10
1754.9867261431
 20
4.8606842741
 30
0.0
 11
1754.9867261431
 21
4.128451227
 31
0.0
  0
LINE
  5
206
330
1F
100
AcDbEntity
  8
0
  6
Continuous
 62
     7
100
AcDbLine
 10
2581.2367261431
 20
340.1284512294
 30
0.0
 11
1738.2367261431
 21
340.1284512294
 31
0.0
  0
LINE
  5
207
330
1F
100
AcDbEntity
  8
0
  6
Continuous
 62
     7
100
AcDbLine
 10
2599.2367261431
 20
322.1284512294
 30
0.0
 11
2581.2367261431
 21
340.1284512294
 31
0.0
  0
LINE
  5
208
330
1F
100
AcDbEntity
  8
0
  6
Continuous
 62
     7
100
AcDbLine
 10
2599.2367261431
 20
24.0426647894
 30
0.0
 11
2599.2367261431
 21
322.1284512294
 31
0.0
  0
LINE
  5
209
330
1F
100
AcDbEntity
  8
0
  6
Continuous
 62
     7
100
AcDbLine
 10
2581.2367261431
 20
6.0426647894
 30
0.0
 11
2599.2367261431
 21
24.0426647894
 31
0.0
  0
LINE
  5
20A
330
1F
100
AcDbEntity
  8
0
  6
Continuous
 62
     7
100
AcDbLine
 10
2564.4867261431
 20
6.0426647894
 30
0.0
 11
2581.2367261431
 21
6.0426647894
 31
0.0
  0
LINE
  5
20B
330
1F
100
AcDbEntity
  8
0
  6
Continuous
 62
     7
100
AcDbLine
 10
1738.2367261431
 20
6.0426647894
 30
0.0
 11
1754.9867261431
 21
6.0426647894
 31
0.0
  0
LINE
  5
20C
330
1F
100
AcDbEntity
  8
0
  6
Continuous
 62
     7
100
AcDbLine
 10
1720.2367261431
 20
322.1284512294
 30
0.0
 11
1720.2367261431
 21
24.0426647894
 31
0.0
  0
LINE
  5
20D
330
1F
100
AcDbEntity
  8
0
  6
Continuous
 62
     7
100
AcDbLine
 10
1738.2367261431
 20
340.1284512294
 30
0.0
 11
1720.2367261431
 21
322.1284512294
 31
0.0
  0
ARC
  5
20E
330
1F
100
AcDbEntity
  8
0
  6
Continuous
 62
     7
100
AcDbCircle
 10
2584.7367261431
 20
47.1284512294
 30
0.0
 40
3.5
100
AcDbArc
 50
0.0
 51
180.0
  0
ARC
  5
20F
330
1F
100
AcDbEntity
  8
0
  6
Continuous
 62
     7
100
AcDbCircle
 10
2584.7367261431
 20
47.1284512294
 30
0.0
 40
3.5
100
AcDbArc
 50
180.0
 51
0.0
  0
ARC
  5
210
330
1F
100
AcDbEntity
  8
0
  6
Continuous
 62
     7
100
AcDbCircle
 10
1734.7367261431
 20
47.1284512294
 30
0.0
 40
3.500000000000227
100
AcDbArc
 50
0.0
 51
180.0
  0
ARC
  5
211
330
1F
100
AcDbEntity
  8
0
  6
Continuous
 62
     7
100
AcDbCircle
 10
1734.7367261431
 20
47.1284512294
 30
0.0
 40
3.500000000000227
100
AcDbArc
 50
180.0
 51
0.0
  0
ARC
  5
212
330
1F
100
AcDbEntity
  8
0
  6
Continuous
 62
     7
100
AcDbCircle
 10
2584.7367261431
 20
314.1284512294
 30
0.0
 40
3.5
100
AcDbArc
 50
180.0
 51
0.0
  0
ARC
  5
213
330
1F
100
AcDbEntity
  8
0
  6
Continuous
 62
     7
100
AcDbCircle
 10
2584.7367261431
 20
314.1284512294
 30
0.0
 40
3.5
100
AcDbArc
 50
0.0
 51
180.0
  0
ARC
  5
214
330
1F
100
AcDbEntity
  8
0
  6
Continuous
 62
     7
100
AcDbCircle
 10
2301.7367261431
 20
329.1284512294
 30
0.0
 40
3.500000000000455
100
AcDbArc
 50
180.0
 51
0.0
  0
ARC
  5
215
330
1F
100
AcDbEntity
  8
0
  6
Continuous
 62
     7
100
AcDbCircle
 10
2301.7367261431
 20
329.1284512294
 30
0.0
 40
3.500000000000455
100
AcDbArc
 50
0.0
 51
180.0
  0
ARC
  5
216
330
1F
100
AcDbEntity
  8
0
  6
Continuous
 62
     7
100
AcDbCircle
 10
2017.7367261431
 20
329.1284512294
 30
0.0
 40
3.500000000000227
100
AcDbArc
 50
180.0
 51
0.0
  0
ARC
  5
217
330
1F
100
AcDbEntity
  8
0
  6
Continuous
 62
     7
100
AcDbCircle
 10
2017.7367261431
 20
329.1284512294
 30
0.0
 40
3.500000000000227
100
AcDbArc
 50
0.0
 51
180.0
  0
ARC
  5
218
330
1F
100
AcDbEntity
  8
0
  6
Continuous
 62
     7
100
AcDbCircle
 10
1734.7367261431
 20
314.1284512294
 30
0.0
 40
3.500000000000227
100
AcDbArc
 50
180.0
 51
0.0
  0
ARC
  5
219
330
1F
100
AcDbEntity
  8
0
  6
Continuous
 62
     7
100
AcDbCircle
 10
1734.7367261431
 20
314.1284512294
 30
0.0
 40
3.500000000000227
100
AcDbArc
 50
0.0
 51
180.0
  0
LINE
  5
21A
330
1F
100
AcDbEntity
  8
0
  6
Continuous
 62
     7
100
AcDbLine
 10
1720.2367261431
 20
24.0426647894
 30
0.0
 11
1738.2367261431
 21
6.0426647894
 31
0.0
  0
LINE
  5
21B
330
1F
100
AcDbEntity
  8
0
  6
Continuous
 62
     7
100
AcDbLine
 10
2564.4867261431
 20
6.0426647894
 30
0.0
 11
2564.4867261431
 21
5.628451227
 31
0.0
  0
LINE
  5
21C
330
1F
100
AcDbEntity
  8
0
  6
Continuous
 62
     7
100
AcDbLine
 10
1754.9867261431
 20
6.0426647894
 30
0.0
 11
1754.9867261431
 21
5.628451227
 31
0.0
  0
ENDSEC
  0
SECTION
  2
OBJECTS
  0
DICTIONARY
  5
C
330
0
100
AcDbDictionary
281
     1
  3
ACAD_GROUP
350
D
  3
ACAD_LAYOUT
350
1A
  3
ACAD_MLINESTYLE
350
17
  3
ACAD_PLOTSETTINGS
350
19
  3
ACAD_PLOTSTYLENAME
350
E
  3
ACAD_SCALELIST
350
47
  3
DWGPROPS
350
21D
  0
DICTIONARY
  5
D
102
{ACAD_REACTORS
330
C
102
}
330
C
100
AcDbDictionary
281
     1
  0
DICTIONARY
  5
1A
102
{ACAD_REACTORS
330
C
102
}
330
C
100
AcDbDictionary
281
     1
  3
Layout1
350
1E
  3
Layout2
350
26
  3
Model
350
22
  0
DICTIONARY
  5
17
102
{ACAD_REACTORS
330
C
102
}
330
C
100
AcDbDictionary
281
     1
  3
Standard
350
18
  0
DICTIONARY
  5
19
102
{ACAD_REACTORS
330
C
102
}
330
C
100
AcDbDictionary
281
     1
  0
ACDBDICTIONARYWDFLT
  5
E
102
{ACAD_REACTORS
330
C
102
}
330
C
100
AcDbDictionary
281
     1
  3
Normal
350
F
100
AcDbDictionaryWithDefault
340
F
  0
DICTIONARY
  5
47
102
{ACAD_REACTORS
330
C
102
}
330
C
100
AcDbDictionary
281
     1
  3
A0
350
48
  3
A1
350
49
  3
A2
350
4A
  3
A3
350
4B
  3
A4
350
4C
  3
A5
350
4D
  3
A6
350
4E
  3
A7
350
4F
  3
A8
350
50
  3
A9
350
51
  3
B0
350
52
  3
B1
350
53
  3
B2
350
54
  3
B3
350
55
  3
B4
350
56
  3
B5
350
57
  3
B6
350
58
  0
XRECORD
  5
21D
102
{ACAD_REACTORS
330
C
102
}
330
C
100
AcDbXrecord
280
     1
  1
DWGPROPS COOKIE
  2

  3

  4

  6

  7

  8
moskovchenkovapa
  9

300
=
301
=
302
=
303
=
304
=
305
=
306
=
307
=
308
=
309
=
 40
0.0
 41
2460697.58078625
 42
2460697.580786701
  1

 90
        0
  0
LAYOUT
  5
1E
102
{ACAD_REACTORS
330
1A
102
}
330
1A
100
AcDbPlotSettings
  1

  2
none_device
  4

  6

 40
0.0
 41
0.0
 42
0.0
 43
0.0
 44
0.0
 45
0.0
 46
0.0
 47
0.0
 48
0.0
 49
0.0
140
0.0
141
0.0
142
1.0
143
1.0
 70
   688
 72
     1
 73
     0
 74
     5
  7

 75
    16
147
1.0
148
0.0
149
0.0
100
AcDbLayout
  1
Layout1
 70
     1
 71
     1
 10
0.0
 20
0.0
 11
420.0
 21
297.0
 12
0.0
 22
0.0
 32
0.0
 14
1.0000000000E+20
 24
1.0000000000E+20
 34
1.0000000000E+20
 15
-1.0000000000E+20
 25
-1.0000000000E+20
 35
-1.0000000000E+20
146
0.0
 13
0.0
 23
0.0
 33
0.0
 16
1.0
 26
0.0
 36
0.0
 17
0.0
 27
1.0
 37
0.0
 76
     0
330
1B
  0
LAYOUT
  5
26
102
{ACAD_REACTORS
330
1A
102
}
330
1A
100
AcDbPlotSettings
  1

  2
none_device
  4

  6

 40
0.0
 41
0.0
 42
0.0
 43
0.0
 44
0.0
 45
0.0
 46
0.0
 47
0.0
 48
0.0
 49
0.0
140
0.0
141
0.0
142
1.0
143
1.0
 70
   688
 72
     1
 73
     0
 74
     5
  7

 75
    16
147
1.0
148
0.0
149
0.0
100
AcDbLayout
  1
Layout2
 70
     1
 71
     2
 10
0.0
 20
0.0
 11
0.0
 21
0.0
 12
0.0
 22
0.0
 32
0.0
 14
0.0
 24
0.0
 34
0.0
 15
0.0
 25
0.0
 35
0.0
146
0.0
 13
0.0
 23
0.0
 33
0.0
 16
1.0
 26
0.0
 36
0.0
 17
0.0
 27
1.0
 37
0.0
 76
     0
330
23
  0
LAYOUT
  5
22
102
{ACAD_REACTORS
330
1A
102
}
330
1A
100
AcDbPlotSettings
  1

  2
none_device
  4
Letter_(8.50_x_11.00_Inches)
  6

 40
6.35
 41
6.35
 42
6.35000508
 43
6.35000508
 44
215.9
 45
279.4
 46
0.0
 47
0.0
 48
0.0
 49
0.0
140
0.0
141
0.0
142
1.0
143
1.0
 70
  1712
 72
     1
 73
     0
 74
     0
  7

 75
     0
147
1.0
148
0.0
149
0.0
100
AcDbLayout
  1
Model
 70
     1
 71
     0
 10
0.0
 20
0.0
 11
420.0
 21
297.0
 12
0.0
 22
0.0
 32
0.0
 14
0.0
 24
0.0
 34
0.0
 15
420.0
 25
297.0
 35
0.0
146
0.0
 13
0.0
 23
0.0
 33
0.0
 16
1.0
 26
0.0
 36
0.0
 17
0.0
 27
1.0
 37
0.0
 76
     0
330
1F
331
29
  0
MLINESTYLE
  5
18
102
{ACAD_REACTORS
330
17
102
}
330
17
100
AcDbMlineStyle
  2
Standard
 70
     0
  3

 62
   256
 51
90.0
 52
90.0
 71
     2
 49
0.5
 62
   256
  6
BYLAYER
 49
-0.5
 62
   256
  6
BYLAYER
  0
ACDBPLACEHOLDER
  5
F
102
{ACAD_REACTORS
330
E
102
}
330
E
  0
SCALE
  5
48
102
{ACAD_REACTORS
330
47
102
}
330
47
100
AcDbScale
 70
     0
300
1:1
140
1.0
141
1.0
290
     1
  0
SCALE
  5
49
102
{ACAD_REACTORS
330
47
102
}
330
47
100
AcDbScale
 70
     0
300
1:2
140
1.0
141
2.0
290
     0
  0
SCALE
  5
4A
102
{ACAD_REACTORS
330
47
102
}
330
47
100
AcDbScale
 70
     0
300
1:4
140
1.0
141
4.0
290
     0
  0
SCALE
  5
4B
102
{ACAD_REACTORS
330
47
102
}
330
47
100
AcDbScale
 70
     0
300
1:5
140
1.0
141
5.0
290
     0
  0
SCALE
  5
4C
102
{ACAD_REACTORS
330
47
102
}
330
47
100
AcDbScale
 70
     0
300
1:8
140
1.0
141
8.0
290
     0
  0
SCALE
  5
4D
102
{ACAD_REACTORS
330
47
102
}
330
47
100
AcDbScale
 70
     0
300
1:10
140
1.0
141
10.0
290
     0
  0
SCALE
  5
4E
102
{ACAD_REACTORS
330
47
102
}
330
47
100
AcDbScale
 70
     0
300
1:16
140
1.0
141
16.0
290
     0
  0
SCALE
  5
4F
102
{ACAD_REACTORS
330
47
102
}
330
47
100
AcDbScale
 70
     0
300
1:20
140
1.0
141
20.0
290
     0
  0
SCALE
  5
50
102
{ACAD_REACTORS
330
47
102
}
330
47
100
AcDbScale
 70
     0
300
1:30
140
1.0
141
30.0
290
     0
  0
SCALE
  5
51
102
{ACAD_REACTORS
330
47
102
}
330
47
100
AcDbScale
 70
     0
300
1:40
140
1.0
141
40.0
290
     0
  0
SCALE
  5
52
102
{ACAD_REACTORS
330
47
102
}
330
47
100
AcDbScale
 70
     0
300
1:50
140
1.0
141
50.0
290
     0
  0
SCALE
  5
53
102
{ACAD_REACTORS
330
47
102
}
330
47
100
AcDbScale
 70
     0
300
1:100
140
1.0
141
100.0
290
     0
  0
SCALE
  5
54
102
{ACAD_REACTORS
330
47
102
}
330
47
100
AcDbScale
 70
     0
300
2:1
140
2.0
141
1.0
290
     0
  0
SCALE
  5
55
102
{ACAD_REACTORS
330
47
102
}
330
47
100
AcDbScale
 70
     0
300
4:1
140
4.0
141
1.0
290
     0
  0
SCALE
  5
56
102
{ACAD_REACTORS
330
47
102
}
330
47
100
AcDbScale
 70
     0
300
8:1
140
8.0
141
1.0
290
     0
  0
SCALE
  5
57
102
{ACAD_REACTORS
330
47
102
}
330
47
100
AcDbScale
 70
     0
300
10:1
140
10.0
141
1.0
290
     0
  0
SCALE
  5
58
102
{ACAD_REACTORS
330
47
102
}
330
47
100
AcDbScale
 70
     0
300
100:1
140
100.0
141
1.0
290
     0
  0
ENDSEC
  0
EOF
