  0
SECTION
  2
HEADER
  9
$ACADVER
  1
AC1015
  9
$ACADMAINTVER
 70
     6
  9
$DWGCODEPAGE
  3
ANSI_1251
  9
$INSBASE
 10
0.0
 20
0.0
 30
0.0
  9
$EXTMIN
 10
0.0
 20
0.0
 30
0.0
  9
$EXTMAX
 10
420.0
 20
297.0
 30
0.0
  9
$LIMMIN
 10
0.0
 20
0.0
  9
$LIMMAX
 10
420.0
 20
297.0
  9
$ORTHOMODE
 70
     0
  9
$REGENMODE
 70
     1
  9
$FILLMODE
 70
     1
  9
$QTEXTMODE
 70
     0
  9
$MIRRTEXT
 70
     1
  9
$LTSCALE
 40
1.0
  9
$ATTMODE
 70
     1
  9
$TEXTSIZE
 40
5.0
  9
$TRACEWID
 40
1.0
  9
$TEXTSTYLE
  7
Standard
  9
$CLAYER
  8
0
  9
$CELTYPE
  6
ByLayer
  9
$CECOLOR
 62
   256
  9
$CELTSCALE
 40
1.0
  9
$DISPSILH
 70
     0
  9
$DIMSCALE
 40
1.0
  9
$DIMASZ
 40
5.0
  9
$DIMEXO
 40
0.0
  9
$DIMDLI
 40
3.75
  9
$DIMRND
 40
0.0
  9
$DIMDLE
 40
0.0
  9
$DIMEXE
 40
1.0
  9
$DIMTP
 40
0.0
  9
$DIMTM
 40
0.0
  9
$DIMTXT
 40
3.5
  9
$DIMCEN
 40
2.5
  9
$DIMTSZ
 40
0.0
  9
$DIMTOL
 70
     0
  9
$DIMLIM
 70
     0
  9
$DIMTIH
 70
     1
  9
$DIMTOH
 70
     1
  9
$DIMSE1
 70
     0
  9
$DIMSE2
 70
     0
  9
$DIMTAD
 70
     1
  9
$DIMZIN
 70
     0
  9
$DIMBLK
  1

  9
$DIMASO
 70
     1
  9
$DIMSHO
 70
     1
  9
$DIMPOST
  1

  9
$DIMAPOST
  1

  9
$DIMALT
 70
     0
  9
$DIMALTD
 70
     3
  9
$DIMALTF
 40
0.0393700787
  9
$DIMLFAC
 40
1.0
  9
$DIMTOFL
 70
     1
  9
$DIMTVP
 40
0.0
  9
$DIMTIX
 70
     0
  9
$DIMSOXD
 70
     0
  9
$DIMSAH
 70
     0
  9
$DIMBLK1
  1

  9
$DIMBLK2
  1

  9
$DIMSTYLE
  2
ISO-25
  9
$DIMCLRD
 70
     0
  9
$DIMCLRE
 70
     0
  9
$DIMCLRT
 70
     0
  9
$DIMTFAC
 40
1.0
  9
$DIMGAP
 40
1.5
  9
$DIMJUST
 70
     0
  9
$DIMSD1
 70
     0
  9
$DIMSD2
 70
     0
  9
$DIMTOLJ
 70
     0
  9
$DIMTZIN
 70
     0
  9
$DIMALTZ
 70
     0
  9
$DIMALTTZ
 70
     0
  9
$DIMUPT
 70
     0
  9
$DIMDEC
 70
     1
  9
$DIMTDEC
 70
     1
  9
$DIMALTU
 70
     2
  9
$DIMALTTD
 70
     3
  9
$DIMTXSTY
  7
Standard
  9
$DIMAUNIT
 70
     0
  9
$DIMADEC
 70
     2
  9
$DIMALTRND
 40
0.0
  9
$DIMAZIN
 70
     0
  9
$DIMDSEP
 70
    44
  9
$DIMATFIT
 70
     3
  9
$DIMFRAC
 70
     0
  9
$DIMLDRBLK
  1

  9
$DIMLUNIT
 70
     2
  9
$DIMLWD
 70
    -2
  9
$DIMLWE
 70
    -2
  9
$DIMTMOVE
 70
     0
  9
$LUNITS
 70
     2
  9
$LUPREC
 70
     1
  9
$SKETCHINC
 40
1.0
  9
$FILLETRAD
 40
0.0
  9
$AUNITS
 70
     0
  9
$AUPREC
 70
     2
  9
$MENU
  1
.
  9
$ELEVATION
 40
0.0
  9
$PELEVATION
 40
0.0
  9
$THICKNESS
 40
0.0
  9
$LIMCHECK
 70
     0
  9
$CHAMFERA
 40
0.0
  9
$CHAMFERB
 40
0.0
  9
$CHAMFERC
 40
0.0
  9
$CHAMFERD
 40
0.0
  9
$SKPOLY
 70
     0
  9
$TDCREATE
 40
2460696.554122164
  9
$TDUCREATE
 40
2460696.429122164
  9
$TDUPDATE
 40
2460696.554122928
  9
$TDUUPDATE
 40
2460696.429122928
  9
$TDINDWG
 40
0.0000000116
  9
$TDUSRTIMER
 40
0.0000000116
  9
$USRTIMER
 70
     1
  9
$ANGBASE
 50
0.0
  9
$ANGDIR
 70
     0
  9
$PDMODE
 70
     0
  9
$PDSIZE
 40
-1.0
  9
$PLINEWID
 40
0.0
  9
$SPLFRAME
 70
     0
  9
$SPLINETYPE
 70
     6
  9
$SPLINESEGS
 70
     8
  9
$HANDSEED
  5
6F4
  9
$SURFTAB1
 70
     6
  9
$SURFTAB2
 70
     6
  9
$SURFTYPE
 70
     6
  9
$SURFU
 70
     6
  9
$SURFV
 70
     6
  9
$UCSBASE
  2

  9
$UCSNAME
  2

  9
$UCSORG
 10
0.0
 20
0.0
 30
0.0
  9
$UCSXDIR
 10
1.0
 20
0.0
 30
0.0
  9
$UCSYDIR
 10
0.0
 20
1.0
 30
0.0
  9
$UCSORTHOREF
  2

  9
$UCSORTHOVIEW
 70
     0
  9
$UCSORGTOP
 10
0.0
 20
0.0
 30
0.0
  9
$UCSORGBOTTOM
 10
0.0
 20
0.0
 30
0.0
  9
$UCSORGLEFT
 10
0.0
 20
0.0
 30
0.0
  9
$UCSORGRIGHT
 10
0.0
 20
0.0
 30
0.0
  9
$UCSORGFRONT
 10
0.0
 20
0.0
 30
0.0
  9
$UCSORGBACK
 10
0.0
 20
0.0
 30
0.0
  9
$PUCSBASE
  2

  9
$PUCSNAME
  2

  9
$PUCSORG
 10
0.0
 20
0.0
 30
0.0
  9
$PUCSXDIR
 10
1.0
 20
0.0
 30
0.0
  9
$PUCSYDIR
 10
0.0
 20
1.0
 30
0.0
  9
$PUCSORTHOREF
  2

  9
$PUCSORTHOVIEW
 70
     0
  9
$PUCSORGTOP
 10
0.0
 20
0.0
 30
0.0
  9
$PUCSORGBOTTOM
 10
0.0
 20
0.0
 30
0.0
  9
$PUCSORGLEFT
 10
0.0
 20
0.0
 30
0.0
  9
$PUCSORGRIGHT
 10
0.0
 20
0.0
 30
0.0
  9
$PUCSORGFRONT
 10
0.0
 20
0.0
 30
0.0
  9
$PUCSORGBACK
 10
0.0
 20
0.0
 30
0.0
  9
$USERI1
 70
     0
  9
$USERI2
 70
     0
  9
$USERI3
 70
     0
  9
$USERI4
 70
     0
  9
$USERI5
 70
     0
  9
$USERR1
 40
0.0
  9
$USERR2
 40
0.0
  9
$USERR3
 40
0.0
  9
$USERR4
 40
0.0
  9
$USERR5
 40
0.0
  9
$WORLDVIEW
 70
     1
  9
$SHADEDGE
 70
     3
  9
$SHADEDIF
 70
    70
  9
$TILEMODE
 70
     1
  9
$MAXACTVP
 70
    64
  9
$PINSBASE
 10
0.0
 20
0.0
 30
0.0
  9
$PLIMCHECK
 70
     0
  9
$PEXTMIN
 10
1.0000000000E+20
 20
1.0000000000E+20
 30
1.0000000000E+20
  9
$PEXTMAX
 10
-1.0000000000E+20
 20
-1.0000000000E+20
 30
-1.0000000000E+20
  9
$PLIMMIN
 10
0.0
 20
0.0
  9
$PLIMMAX
 10
420.0
 20
297.0
  9
$UNITMODE
 70
     0
  9
$VISRETAIN
 70
     1
  9
$PLINEGEN
 70
     0
  9
$PSLTSCALE
 70
     1
  9
$TREEDEPTH
 70
  3020
  9
$CMLSTYLE
  2
Standard
  9
$CMLJUST
 70
     0
  9
$CMLSCALE
 40
20.0
  9
$PROXYGRAPHICS
 70
     1
  9
$MEASUREMENT
 70
     1
  9
$CELWEIGHT
370
    -1
  9
$ENDCAPS
280
     0
  9
$JOINSTYLE
280
     0
  9
$LWDISPLAY
290
     1
  9
$INSUNITS
 70
     4
  9
$HYPERLINKBASE
  1

  9
$STYLESHEET
  1

  9
$XEDIT
290
     1
  9
$CEPSNTYPE
380
     0
  9
$PSTYLEMODE
290
     1
  9
$FINGERPRINTGUID
  2
{27cc89e8-b35c-48b2-9e3f-741576ea741c}
  9
$VERSIONGUID
  2
{FAEB1C32-E019-11D5-929B-00C0DF256EC4}
  9
$EXTNAMES
290
     1
  9
$PSVPSCALE
 40
0.0
  9
$OLESTARTUP
290
     0
  0
ENDSEC
  0
SECTION
  2
CLASSES
  0
CLASS
  1
ACDBDICTIONARYWDFLT
  2
AcDbDictionaryWithDefault
  3
ObjectDBX Classes
 90
        0
280
     0
281
     0
  0
CLASS
  1
VISUALSTYLE
  2
AcDbVisualStyle
  3
ObjectDBX Classes
 90
     4095
280
     0
281
     0
  0
CLASS
  1
MATERIAL
  2
AcDbMaterial
  3
ObjectDBX Classes
 90
     1153
280
     0
281
     0
  0
CLASS
  1
SCALE
  2
AcDbScale
  3
ObjectDBX Classes
 90
     1153
280
     0
281
     0
  0
CLASS
  1
TABLESTYLE
  2
AcDbTableStyle
  3
ObjectDBX Classes
 90
     4095
280
     0
281
     0
  0
CLASS
  1
MLEADERSTYLE
  2
AcDbMLeaderStyle
  3
ACDB_MLEADERSTYLE_CLASS
 90
     4095
280
     0
281
     0
  0
CLASS
  1
SUN
  2
AcDbSun
  3
SCENEOE
 90
     1153
280
     0
281
     0
  0
CLASS
  1
ACDBPLACEHOLDER
  2
AcDbPlaceHolder
  3
ObjectDBX Classes
 90
        0
280
     0
281
     0
  0
CLASS
  1
LAYOUT
  2
AcDbLayout
  3
ObjectDBX Classes
 90
        0
280
     0
281
     0
  0
ENDSEC
  0
SECTION
  2
TABLES
  0
TABLE
  2
VPORT
  5
8
330
0
100
AcDbSymbolTable
 70
     1
  0
VPORT
  5
29
330
8
100
AcDbSymbolTableRecord
100
AcDbViewportTableRecord
  2
*Active
 70
     0
 10
0.0
 20
0.0
 11
1.0
 21
1.0
 12
210.0
 22
148.5
 13
0.0
 23
0.0
 14
10.0
 24
10.0
 15
10.0
 25
10.0
 16
0.0
 26
0.0
 36
1.0
 17
0.0
 27
0.0
 37
0.0
 40
297.0
 41
1.4141414141
 42
50.0
 43
0.0
 44
0.0
 50
0.0
 51
0.0
 71
     0
 72
  2000
 73
     1
 74
     3
 75
     0
 76
     0
 77
     0
 78
     0
281
     0
 65
     1
110
0.0
120
0.0
130
0.0
111
1.0
121
0.0
131
0.0
112
0.0
122
1.0
132
0.0
 79
     0
146
0.0
  0
ENDTAB
  0
TABLE
  2
LTYPE
  5
5
330
0
100
AcDbSymbolTable
 70
     6
  0
LTYPE
  5
14
330
5
100
AcDbSymbolTableRecord
100
AcDbLinetypeTableRecord
  2
ByBlock
 70
     0
  3

 72
    65
 73
     0
 40
0.0
  0
LTYPE
  5
15
330
5
100
AcDbSymbolTableRecord
100
AcDbLinetypeTableRecord
  2
ByLayer
 70
     0
  3

 72
    65
 73
     0
 40
0.0
  0
LTYPE
  5
16
330
5
100
AcDbSymbolTableRecord
100
AcDbLinetypeTableRecord
  2
Continuous
 70
     0
  3
Solid line
 72
    65
 73
     0
 40
0.0
  0
LTYPE
  5
5E
330
5
100
AcDbSymbolTableRecord
100
AcDbLinetypeTableRecord
  2
HIDDEN
 70
     0
  3
Hidden __ __ __ __ __ __ __ __ __ __ __ __ __ __
 72
    65
 73
     2
 40
1.905
 49
1.27
 74
     0
 49
-0.635
 74
     0
  0
LTYPE
  5
5F
330
5
100
AcDbSymbolTableRecord
100
AcDbLinetypeTableRecord
  2
PHANTOM
 70
     0
  3
Phantom ______  __  __  ______  __  __  ______
 72
    65
 73
     6
 40
12.7
 49
6.35
 74
     0
 49
-1.27
 74
     0
 49
1.27
 74
     0
 49
-1.27
 74
     0
 49
1.27
 74
     0
 49
-1.27
 74
     0
  0
LTYPE
  5
60
330
5
100
AcDbSymbolTableRecord
100
AcDbLinetypeTableRecord
  2
CENTER
 70
     0
  3
Center ____ _ ____ _ ____ _ ____ _ ____ _ ____
 72
    65
 73
     4
 40
10.16
 49
6.35
 74
     0
 49
-1.27
 74
     0
 49
1.27
 74
     0
 49
-1.27
 74
     0
  0
LTYPE
  5
61
330
5
100
AcDbSymbolTableRecord
100
AcDbLinetypeTableRecord
  2
CENTERX2
 70
     0
  3
Center (2x) ________  __  ________  __  _____
 72
    65
 73
     4
 40
20.32
 49
12.7
 74
     0
 49
-2.54
 74
     0
 49
2.54
 74
     0
 49
-2.54
 74
     0
  0
LTYPE
  5
62
330
5
100
AcDbSymbolTableRecord
100
AcDbLinetypeTableRecord
  2
DOT2
 70
     0
  3
Dot (.5x) ........................................
 72
    65
 73
     2
 40
0.635
 49
0.0
 74
     0
 49
-0.635
 74
     0
  0
ENDTAB
  0
TABLE
  2
LAYER
  5
2
330
0
100
AcDbSymbolTable
 70
     3
  0
LAYER
  5
10
330
2
100
AcDbSymbolTableRecord
100
AcDbLayerTableRecord
  2
0
 70
     0
 62
     7
  6
Continuous
370
    -3
390
F
  0
LAYER
  5
63
330
2
100
AcDbSymbolTableRecord
100
AcDbLayerTableRecord
  2
ВОДЯНОЙ_ЗНАК
 70
     0
 62
    11
  6
Continuous
370
    -3
390
F
  0
LAYER
  5
64
330
2
100
AcDbSymbolTableRecord
100
AcDbLayerTableRecord
  2
ОСНОВНОЙ
 70
     0
 62
     7
  6
Continuous
370
    -3
390
F
  0
ENDTAB
  0
TABLE
  2
STYLE
  5
3
330
0
100
AcDbSymbolTable
 70
     1
  0
STYLE
  5
11
330
3
100
AcDbSymbolTableRecord
100
AcDbTextStyleTableRecord
  2
Standard
 70
     0
 40
0.0
 41
1.0
 50
0.0
 71
     0
 42
5.0
  3
txt
  4

  0
ENDTAB
  0
TABLE
  2
VIEW
  5
6
330
0
100
AcDbSymbolTable
 70
     0
  0
ENDTAB
  0
TABLE
  2
UCS
  5
7
330
0
100
AcDbSymbolTable
 70
     0
  0
ENDTAB
  0
TABLE
  2
APPID
  5
9
330
0
100
AcDbSymbolTable
 70
     1
  0
APPID
  5
12
330
9
100
AcDbSymbolTableRecord
100
AcDbRegAppTableRecord
  2
ACAD
 70
     0
  0
ENDTAB
  0
TABLE
  2
DIMSTYLE
  5
A
330
0
100
AcDbSymbolTable
 70
     1
100
AcDbDimStyleTable
  0
DIMSTYLE
105
27
330
A
100
AcDbSymbolTableRecord
100
AcDbDimStyleTableRecord
  2
ISO-25
 70
     0
 41
2.5
 42
0.625
 43
3.75
 44
1.25
 73
     0
 74
     0
 77
     1
 78
     8
140
2.5
141
2.5
143
0.0393700787
147
0.625
171
     3
172
     1
178
     0
271
     2
272
     2
274
     3
278
    44
283
     0
284
     8
340
11
  0
ENDTAB
  0
TABLE
  2
BLOCK_RECORD
  5
1
330
0
100
AcDbSymbolTable
 70
     1
  0
BLOCK_RECORD
  5
1F
330
1
100
AcDbSymbolTableRecord
100
AcDbBlockTableRecord
  2
*Model_Space
340
22
  0
BLOCK_RECORD
  5
1B
330
1
100
AcDbSymbolTableRecord
100
AcDbBlockTableRecord
  2
*Paper_Space
340
1E
  0
BLOCK_RECORD
  5
23
330
1
100
AcDbSymbolTableRecord
100
AcDbBlockTableRecord
  2
*Paper_Space0
340
26
  0
ENDTAB
  0
ENDSEC
  0
SECTION
  2
BLOCKS
  0
BLOCK
  5
20
330
1F
100
AcDbEntity
  8
0
100
AcDbBlockBegin
  2
*Model_Space
 70
     0
 10
0.0
 20
0.0
 30
0.0
  3
*Model_Space
  1

  0
ENDBLK
  5
21
330
1F
100
AcDbEntity
  8
0
100
AcDbBlockEnd
  0
BLOCK
  5
1C
330
1B
100
AcDbEntity
 67
     1
  8
0
100
AcDbBlockBegin
  2
*Paper_Space
 70
     0
 10
0.0
 20
0.0
 30
0.0
  3
*Paper_Space
  1

  0
ENDBLK
  5
1D
330
1B
100
AcDbEntity
 67
     1
  8
0
100
AcDbBlockEnd
  0
BLOCK
  5
24
330
23
100
AcDbEntity
  8
0
100
AcDbBlockBegin
  2
*Paper_Space0
 70
     0
 10
0.0
 20
0.0
 30
0.0
  3
*Paper_Space0
  1

  0
ENDBLK
  5
25
330
23
100
AcDbEntity
  8
0
100
AcDbBlockEnd
  0
ENDSEC
  0
SECTION
  2
ENTITIES
  0
LINE
  5
65
330
1F
100
AcDbEntity
  8
0
  6
Continuous
 62
     7
100
AcDbLine
 10
562.9265681087
 20
274.1964848642
 30
0.0
 11
565.7665607177
 21
274.1964848642
 31
0.0
  0
LINE
  5
66
330
1F
100
AcDbEntity
  8
0
  6
Continuous
 62
     7
100
AcDbLine
 10
565.7665607177
 20
285.9964848642
 30
0.0
 11
562.9265681087
 21
285.9964848642
 31
0.0
  0
ARC
  5
67
330
1F
100
AcDbEntity
  8
0
  6
Continuous
 62
     7
100
AcDbCircle
 10
565.7665607177
 20
275.6964848642
 30
0.0
 40
1.5
100
AcDbArc
 50
270.0
 51
332.4879973761
  0
ARC
  5
68
330
1F
100
AcDbEntity
  8
0
  6
Continuous
 62
     7
100
AcDbCircle
 10
565.7665607177
 20
284.4964848642
 30
0.0
 40
1.499999999999943
100
AcDbArc
 50
27.5120026239
 51
90.0
  0
LINE
  5
69
330
1F
100
AcDbEntity
  8
0
  6
Continuous
 62
     7
100
AcDbLine
 10
567.096931844
 20
275.003583236
 30
0.0
 11
567.7569392349
 21
276.2707974266
 31
0.0
  0
LINE
  5
6A
330
1F
100
AcDbEntity
  8
0
  6
Continuous
 62
     7
100
AcDbLine
 10
567.7569392349
 20
283.9221723018
 30
0.0
 11
567.096931844
 21
285.1893864925
 31
0.0
  0
ARC
  5
6B
330
1F
100
AcDbEntity
  8
0
  6
Continuous
 62
     7
100
AcDbCircle
 10
566.4265681087
 20
276.9636990549
 30
0.0
 40
1.5
100
AcDbArc
 50
332.4879973761
 51
0.0
  0
ARC
  5
6C
330
1F
100
AcDbEntity
  8
0
  6
Continuous
 62
     7
100
AcDbCircle
 10
566.4265681087
 20
283.2292706736
 30
0.0
 40
1.5
100
AcDbArc
 50
0.0
 51
27.5120026239
  0
LINE
  5
6D
330
1F
100
AcDbEntity
  8
0
  6
Continuous
 62
     7
100
AcDbLine
 10
561.4265681087
 20
283.0964848642
 30
0.0
 11
554.2265681087
 21
283.0964848642
 31
0.0
  0
LINE
  5
6E
330
1F
100
AcDbEntity
  8
0
  6
Continuous
 62
     7
100
AcDbLine
 10
554.2265681087
 20
277.0964848642
 30
0.0
 11
561.4265681087
 21
277.0964848642
 31
0.0
  0
LINE
  5
6F
330
1F
100
AcDbEntity
  8
0
  6
Continuous
 62
     7
100
AcDbLine
 10
554.2265681087
 20
283.0964848642
 30
0.0
 11
553.7265681087
 21
282.5964848642
 31
0.0
  0
LINE
  5
70
330
1F
100
AcDbEntity
  8
0
  6
Continuous
 62
     7
100
AcDbLine
 10
553.7265681087
 20
277.5964848642
 30
0.0
 11
554.2265681087
 21
277.0964848642
 31
0.0
  0
ARC
  5
71
330
1F
100
AcDbEntity
  8
0
  6
Continuous
 62
     7
100
AcDbCircle
 10
1462.5865754997
 20
284.4964848642
 30
0.0
 40
1.499999999999943
100
AcDbArc
 50
90.0
 51
152.4879973761
  0
ARC
  5
72
330
1F
100
AcDbEntity
  8
0
  6
Continuous
 62
     7
100
AcDbCircle
 10
1462.5865754997
 20
275.6964848642
 30
0.0
 40
1.5
100
AcDbArc
 50
207.5120026239
 51
270.0
  0
LINE
  5
73
330
1F
100
AcDbEntity
  8
0
  6
Continuous
 62
     7
100
AcDbLine
 10
1465.4265681087
 20
285.9964848642
 30
0.0
 11
1462.5865754997
 21
285.9964848642
 31
0.0
  0
LINE
  5
74
330
1F
100
AcDbEntity
  8
0
  6
Continuous
 62
     7
100
AcDbLine
 10
1462.5865754997
 20
274.1964848642
 30
0.0
 11
1465.4265681087
 21
274.1964848642
 31
0.0
  0
LINE
  5
75
330
1F
100
AcDbEntity
  8
0
  6
Continuous
 62
     7
100
AcDbLine
 10
1461.2562043734
 20
285.1893864925
 30
0.0
 11
1460.5961969824
 21
283.9221723018
 31
0.0
  0
LINE
  5
76
330
1F
100
AcDbEntity
  8
0
  6
Continuous
 62
     7
100
AcDbLine
 10
1460.5961969824
 20
276.2707974266
 30
0.0
 11
1461.2562043734
 21
275.003583236
 31
0.0
  0
ARC
  5
77
330
1F
100
AcDbEntity
  8
0
  6
Continuous
 62
     7
100
AcDbCircle
 10
1461.9265681087
 20
283.2292706736
 30
0.0
 40
1.500000000000309
100
AcDbArc
 50
152.4879973762
 51
180.0
  0
ARC
  5
78
330
1F
100
AcDbEntity
  8
0
  6
Continuous
 62
     7
100
AcDbCircle
 10
1461.9265681087
 20
276.9636990549
 30
0.0
 40
1.500000000000227
100
AcDbArc
 50
180.0
 51
207.5120026238
  0
LINE
  5
79
330
1F
100
AcDbEntity
  8
0
  6
Continuous
 62
     7
100
AcDbLine
 10
1466.9265681087
 20
277.0964848642
 30
0.0
 11
1474.1265681087
 21
277.0964848642
 31
0.0
  0
LINE
  5
7A
330
1F
100
AcDbEntity
  8
0
  6
Continuous
 62
     7
100
AcDbLine
 10
1474.1265681087
 20
283.0964848642
 30
0.0
 11
1466.9265681087
 21
283.0964848642
 31
0.0
  0
LINE
  5
7B
330
1F
100
AcDbEntity
  8
0
  6
Continuous
 62
     7
100
AcDbLine
 10
1474.1265681087
 20
277.0964848642
 30
0.0
 11
1474.6265681087
 21
277.5964848642
 31
0.0
  0
LINE
  5
7C
330
1F
100
AcDbEntity
  8
0
  6
Continuous
 62
     7
100
AcDbLine
 10
1474.6265681087
 20
282.5964848642
 30
0.0
 11
1474.1265681087
 21
283.0964848642
 31
0.0
  0
LINE
  5
7D
330
1F
100
AcDbEntity
  8
0
  6
Continuous
 62
     7
100
AcDbLine
 10
562.9265681087
 20
24.1964848642
 30
0.0
 11
565.7665607177
 21
24.1964848642
 31
0.0
  0
LINE
  5
7E
330
1F
100
AcDbEntity
  8
0
  6
Continuous
 62
     7
100
AcDbLine
 10
565.7665607177
 20
35.9964848642
 30
0.0
 11
562.9265681087
 21
35.9964848642
 31
0.0
  0
ARC
  5
7F
330
1F
100
AcDbEntity
  8
0
  6
Continuous
 62
     7
100
AcDbCircle
 10
565.7665607177
 20
25.6964848642
 30
0.0
 40
1.5
100
AcDbArc
 50
270.0
 51
332.4879973761
  0
ARC
  5
80
330
1F
100
AcDbEntity
  8
0
  6
Continuous
 62
     7
100
AcDbCircle
 10
565.7665607177
 20
34.4964848642
 30
0.0
 40
1.5
100
AcDbArc
 50
27.5120026239
 51
90.0
  0
LINE
  5
81
330
1F
100
AcDbEntity
  8
0
  6
Continuous
 62
     7
100
AcDbLine
 10
567.096931844
 20
25.003583236
 30
0.0
 11
567.7569392349
 21
26.2707974266
 31
0.0
  0
LINE
  5
82
330
1F
100
AcDbEntity
  8
0
  6
Continuous
 62
     7
100
AcDbLine
 10
567.7569392349
 20
33.9221723018
 30
0.0
 11
567.096931844
 21
35.1893864925
 31
0.0
  0
ARC
  5
83
330
1F
100
AcDbEntity
  8
0
  6
Continuous
 62
     7
100
AcDbCircle
 10
566.4265681087
 20
26.9636990549
 30
0.0
 40
1.5
100
AcDbArc
 50
332.4879973761
 51
0.0
  0
ARC
  5
84
330
1F
100
AcDbEntity
  8
0
  6
Continuous
 62
     7
100
AcDbCircle
 10
566.4265681087
 20
33.2292706736
 30
0.0
 40
1.5
100
AcDbArc
 50
360.0
 51
27.5120026239
  0
LINE
  5
85
330
1F
100
AcDbEntity
  8
0
  6
Continuous
 62
     7
100
AcDbLine
 10
561.4265681087
 20
33.0964848642
 30
0.0
 11
554.2265681087
 21
33.0964848642
 31
0.0
  0
LINE
  5
86
330
1F
100
AcDbEntity
  8
0
  6
Continuous
 62
     7
100
AcDbLine
 10
554.2265681087
 20
27.0964848642
 30
0.0
 11
561.4265681087
 21
27.0964848642
 31
0.0
  0
LINE
  5
87
330
1F
100
AcDbEntity
  8
0
  6
Continuous
 62
     7
100
AcDbLine
 10
554.2265681087
 20
33.0964848642
 30
0.0
 11
553.7265681087
 21
32.5964848642
 31
0.0
  0
LINE
  5
88
330
1F
100
AcDbEntity
  8
0
  6
Continuous
 62
     7
100
AcDbLine
 10
553.7265681087
 20
27.5964848642
 30
0.0
 11
554.2265681087
 21
27.0964848642
 31
0.0
  0
LINE
  5
89
330
1F
100
AcDbEntity
  8
0
  6
Continuous
 62
     7
100
AcDbLine
 10
1465.4265681087
 20
35.9964848642
 30
0.0
 11
1462.5865754996
 21
35.9964848642
 31
0.0
  0
LINE
  5
8A
330
1F
100
AcDbEntity
  8
0
  6
Continuous
 62
     7
100
AcDbLine
 10
1462.5865754996
 20
24.1964848642
 30
0.0
 11
1465.4265681087
 21
24.1964848642
 31
0.0
  0
ARC
  5
8B
330
1F
100
AcDbEntity
  8
0
  6
Continuous
 62
     7
100
AcDbCircle
 10
1462.5865754996
 20
34.4964848642
 30
0.0
 40
1.5
100
AcDbArc
 50
90.0
 51
152.4879973761
  0
ARC
  5
8C
330
1F
100
AcDbEntity
  8
0
  6
Continuous
 62
     7
100
AcDbCircle
 10
1462.5865754996
 20
25.6964848642
 30
0.0
 40
1.5
100
AcDbArc
 50
207.5120026239
 51
270.0
  0
LINE
  5
8D
330
1F
100
AcDbEntity
  8
0
  6
Continuous
 62
     7
100
AcDbLine
 10
1461.2562043734
 20
35.1893864925
 30
0.0
 11
1460.5961969824
 21
33.9221723018
 31
0.0
  0
LINE
  5
8E
330
1F
100
AcDbEntity
  8
0
  6
Continuous
 62
     7
100
AcDbLine
 10
1460.5961969824
 20
26.2707974266
 30
0.0
 11
1461.2562043734
 21
25.003583236
 31
0.0
  0
ARC
  5
8F
330
1F
100
AcDbEntity
  8
0
  6
Continuous
 62
     7
100
AcDbCircle
 10
1461.9265681087
 20
33.2292706736
 30
0.0
 40
1.500000000000107
100
AcDbArc
 50
152.4879973762
 51
180.0
  0
ARC
  5
90
330
1F
100
AcDbEntity
  8
0
  6
Continuous
 62
     7
100
AcDbCircle
 10
1461.9265681087
 20
26.9636990549
 30
0.0
 40
1.500000000000109
100
AcDbArc
 50
180.0
 51
207.5120026238
  0
LINE
  5
91
330
1F
100
AcDbEntity
  8
0
  6
Continuous
 62
     7
100
AcDbLine
 10
1466.9265681087
 20
27.0964848642
 30
0.0
 11
1474.1265681087
 21
27.0964848642
 31
0.0
  0
LINE
  5
92
330
1F
100
AcDbEntity
  8
0
  6
Continuous
 62
     7
100
AcDbLine
 10
1474.1265681087
 20
33.0964848642
 30
0.0
 11
1466.9265681087
 21
33.0964848642
 31
0.0
  0
LINE
  5
93
330
1F
100
AcDbEntity
  8
0
  6
Continuous
 62
     7
100
AcDbLine
 10
1474.1265681087
 20
27.0964848642
 30
0.0
 11
1474.6265681087
 21
27.5964848642
 31
0.0
  0
LINE
  5
94
330
1F
100
AcDbEntity
  8
0
  6
Continuous
 62
     7
100
AcDbLine
 10
1474.6265681087
 20
32.5964848642
 30
0.0
 11
1474.1265681087
 21
33.0964848642
 31
0.0
  0
LINE
  5
95
330
1F
100
AcDbEntity
  8
0
  6
Continuous
 62
     7
100
AcDbLine
 10
567.9265681087
 20
277.7602842517
 30
0.0
 11
567.9265681087
 21
283.2292706736
 31
0.0
  0
LINE
  5
96
330
1F
100
AcDbEntity
  8
0
  6
Continuous
 62
     7
100
AcDbLine
 10
567.9265681087
 20
276.9636990549
 30
0.0
 11
567.9265681087
 21
277.7602842517
 31
0.0
  0
LINE
  5
97
330
1F
100
AcDbEntity
  8
0
  6
Continuous
 62
     7
100
AcDbLine
 10
554.2265681087
 20
277.8593061153
 30
0.0
 11
554.2265681087
 21
283.0964848642
 31
0.0
  0
LINE
  5
98
330
1F
100
AcDbEntity
  8
0
  6
Continuous
 62
     7
100
AcDbLine
 10
554.2265681087
 20
277.0964848642
 30
0.0
 11
554.2265681087
 21
277.8593061153
 31
0.0
  0
LINE
  5
99
330
1F
100
AcDbEntity
  8
0
  6
Continuous
 62
     7
100
AcDbLine
 10
553.7265681087
 20
278.2321692401
 30
0.0
 11
553.7265681087
 21
282.5964848642
 31
0.0
  0
LINE
  5
9A
330
1F
100
AcDbEntity
  8
0
  6
Continuous
 62
     7
100
AcDbLine
 10
553.7265681087
 20
277.5964848642
 30
0.0
 11
553.7265681087
 21
278.2321692401
 31
0.0
  0
LINE
  5
9B
330
1F
100
AcDbEntity
  8
0
  6
Continuous
 62
     7
100
AcDbLine
 10
1460.4265681087
 20
283.2292706736
 30
0.0
 11
1460.4265681087
 21
276.9639162012
 31
0.0
  0
LINE
  5
9C
330
1F
100
AcDbEntity
  8
0
  6
Continuous
 62
     7
100
AcDbLine
 10
1474.1265681087
 20
283.0964848642
 30
0.0
 11
1474.1265681087
 21
277.0966928066
 31
0.0
  0
LINE
  5
9D
330
1F
100
AcDbEntity
  8
0
  6
Continuous
 62
     7
100
AcDbLine
 10
1474.6265681087
 20
282.5964848642
 30
0.0
 11
1474.6265681087
 21
277.5966581496
 31
0.0
  0
LINE
  5
9E
330
1F
100
AcDbEntity
  8
0
  6
Continuous
 62
     7
100
AcDbLine
 10
567.9265681087
 20
28.7304090885
 30
0.0
 11
567.9265681087
 21
33.2292706736
 31
0.0
  0
LINE
  5
9F
330
1F
100
AcDbEntity
  8
0
  6
Continuous
 62
     7
100
AcDbLine
 10
567.9265681087
 20
26.9636990549
 30
0.0
 11
567.9265681087
 21
28.7304090885
 31
0.0
  0
LINE
  5
A0
330
1F
100
AcDbEntity
  8
0
  6
Continuous
 62
     7
100
AcDbLine
 10
554.2265681087
 20
28.7883113801
 30
0.0
 11
554.2265681087
 21
33.0964848642
 31
0.0
  0
LINE
  5
A1
330
1F
100
AcDbEntity
  8
0
  6
Continuous
 62
     7
100
AcDbLine
 10
554.2265681087
 20
27.0964848642
 30
0.0
 11
554.2265681087
 21
28.7883113801
 31
0.0
  0
LINE
  5
A2
330
1F
100
AcDbEntity
  8
0
  6
Continuous
 62
     7
100
AcDbLine
 10
553.7265681087
 20
29.0063402941
 30
0.0
 11
553.7265681087
 21
32.5964848642
 31
0.0
  0
LINE
  5
A3
330
1F
100
AcDbEntity
  8
0
  6
Continuous
 62
     7
100
AcDbLine
 10
553.7265681087
 20
27.5964848642
 30
0.0
 11
553.7265681087
 21
29.0063402941
 31
0.0
  0
LINE
  5
A4
330
1F
100
AcDbEntity
  8
0
  6
Continuous
 62
     7
100
AcDbLine
 10
1460.4265681087
 20
31.902191186
 30
0.0
 11
1460.4265681087
 21
26.9636990549
 31
0.0
  0
LINE
  5
A5
330
1F
100
AcDbEntity
  8
0
  6
Continuous
 62
     7
100
AcDbLine
 10
1460.4265681087
 20
33.2292706736
 30
0.0
 11
1460.4265681087
 21
31.902191186
 31
0.0
  0
LINE
  5
A6
330
1F
100
AcDbEntity
  8
0
  6
Continuous
 62
     7
100
AcDbLine
 10
1474.1265681087
 20
31.8256547772
 30
0.0
 11
1474.1265681087
 21
27.0964848642
 31
0.0
  0
LINE
  5
A7
330
1F
100
AcDbEntity
  8
0
  6
Continuous
 62
     7
100
AcDbLine
 10
1474.1265681087
 20
33.0964848642
 30
0.0
 11
1474.1265681087
 21
31.8256547772
 31
0.0
  0
LINE
  5
A8
330
1F
100
AcDbEntity
  8
0
  6
Continuous
 62
     7
100
AcDbLine
 10
1474.6265681087
 20
31.5374597917
 30
0.0
 11
1474.6265681087
 21
27.5964848642
 31
0.0
  0
LINE
  5
A9
330
1F
100
AcDbEntity
  8
0
  6
Continuous
 62
     7
100
AcDbLine
 10
1474.6265681087
 20
32.5964848642
 30
0.0
 11
1474.6265681087
 21
31.5374597917
 31
0.0
  0
LINE
  5
AA
330
1F
100
AcDbEntity
  8
0
  6
Continuous
 62
     7
100
AcDbLine
 10
561.4265681087
 20
286.0964848642
 30
0.0
 11
562.9265681087
 21
286.0964848642
 31
0.0
  0
LINE
  5
AB
330
1F
100
AcDbEntity
  8
0
  6
Continuous
 62
     7
100
AcDbLine
 10
562.9265681087
 20
286.0964848642
 30
0.0
 11
562.9265681087
 21
283.0964848642
 31
0.0
  0
LINE
  5
AC
330
1F
100
AcDbEntity
  8
0
  6
Continuous
 62
     7
100
AcDbLine
 10
562.9265681087
 20
283.0964848642
 30
0.0
 11
561.4265681087
 21
283.0964848642
 31
0.0
  0
LINE
  5
AD
330
1F
100
AcDbEntity
  8
0
  6
Continuous
 62
     7
100
AcDbLine
 10
561.4265681087
 20
283.0964848642
 30
0.0
 11
561.4265681087
 21
286.0964848642
 31
0.0
  0
LINE
  5
AE
330
1F
100
AcDbEntity
  8
0
  6
Continuous
 62
     7
100
AcDbLine
 10
1466.9265681087
 20
283.0964848642
 30
0.0
 11
1465.4265681087
 21
283.0964848642
 31
0.0
  0
LINE
  5
AF
330
1F
100
AcDbEntity
  8
0
  6
Continuous
 62
     7
100
AcDbLine
 10
1466.9265681087
 20
283.0964848642
 30
0.0
 11
1466.9265681087
 21
27.0964848642
 31
0.0
  0
LINE
  5
B0
330
1F
100
AcDbEntity
  8
0
  6
Continuous
 62
     7
100
AcDbLine
 10
1465.4265681087
 20
27.0964848642
 30
0.0
 11
1466.9265681087
 21
27.0964848642
 31
0.0
  0
LINE
  5
B1
330
1F
100
AcDbEntity
  8
0
  6
Continuous
 62
     7
100
AcDbLine
 10
1465.4265681087
 20
283.0964848642
 30
0.0
 11
1465.4265681087
 21
27.0964848642
 31
0.0
  0
LINE
  5
B2
330
1F
100
AcDbEntity
  8
0
  6
Continuous
 62
     7
100
AcDbLine
 10
561.4265681087
 20
27.0964848642
 30
0.0
 11
562.9265681087
 21
27.0964848642
 31
0.0
  0
LINE
  5
B3
330
1F
100
AcDbEntity
  8
0
  6
Continuous
 62
     7
100
AcDbLine
 10
561.4265681087
 20
283.0964848642
 30
0.0
 11
561.4265681087
 21
27.0964848642
 31
0.0
  0
LINE
  5
B4
330
1F
100
AcDbEntity
  8
0
  6
Continuous
 62
     7
100
AcDbLine
 10
562.9265681087
 20
283.0964848642
 30
0.0
 11
562.9265681087
 21
27.0964848642
 31
0.0
  0
LINE
  5
B5
330
1F
100
AcDbEntity
  8
0
  6
Continuous
 62
     7
100
AcDbLine
 10
1465.4265681087
 20
286.0964848642
 30
0.0
 11
1466.9265681087
 21
286.0964848642
 31
0.0
  0
LINE
  5
B6
330
1F
100
AcDbEntity
  8
0
  6
Continuous
 62
     7
100
AcDbLine
 10
1466.9265681087
 20
286.0964848642
 30
0.0
 11
1466.9265681087
 21
283.0964848642
 31
0.0
  0
LINE
  5
B7
330
1F
100
AcDbEntity
  8
0
  6
Continuous
 62
     7
100
AcDbLine
 10
1465.4265681087
 20
283.0964848642
 30
0.0
 11
1465.4265681087
 21
286.0964848642
 31
0.0
  0
LINE
  5
B8
330
1F
100
AcDbEntity
  8
0
  6
Continuous
 62
     7
100
AcDbLine
 10
562.9265681087
 20
24.0964848642
 30
0.0
 11
561.4265681087
 21
24.0964848642
 31
0.0
  0
LINE
  5
B9
330
1F
100
AcDbEntity
  8
0
  6
Continuous
 62
     7
100
AcDbLine
 10
561.4265681087
 20
24.0964848642
 30
0.0
 11
561.4265681087
 21
27.0964848642
 31
0.0
  0
LINE
  5
BA
330
1F
100
AcDbEntity
  8
0
  6
Continuous
 62
     7
100
AcDbLine
 10
562.9265681087
 20
27.0964848642
 30
0.0
 11
562.9265681087
 21
24.0964848642
 31
0.0
  0
LINE
  5
BB
330
1F
100
AcDbEntity
  8
0
  6
Continuous
 62
     7
100
AcDbLine
 10
1466.9265681087
 20
24.0964848642
 30
0.0
 11
1465.4265681087
 21
24.0964848642
 31
0.0
  0
LINE
  5
BC
330
1F
100
AcDbEntity
  8
0
  6
Continuous
 62
     7
100
AcDbLine
 10
1466.9265681087
 20
27.0964848642
 30
0.0
 11
1466.9265681087
 21
24.0964848642
 31
0.0
  0
LINE
  5
BD
330
1F
100
AcDbEntity
  8
0
  6
Continuous
 62
     7
100
AcDbLine
 10
1465.4265681087
 20
24.0964848642
 30
0.0
 11
1465.4265681087
 21
27.0964848642
 31
0.0
  0
LINE
  5
BE
330
1F
100
AcDbEntity
  8
0
  6
Continuous
 62
     7
100
AcDbLine
 10
1421.9265681087
 20
322.4110674265
 30
0.0
 11
1421.9265681087
 21
323.7101055322
 31
0.0
  0
LINE
  5
BF
330
1F
100
AcDbEntity
  8
0
  6
Continuous
 62
     7
100
AcDbLine
 10
606.4265681087
 20
322.4110674265
 30
0.0
 11
1421.9265681087
 21
322.4110674265
 31
0.0
  0
LINE
  5
C0
330
1F
100
AcDbEntity
  8
0
  6
Continuous
 62
     7
100
AcDbLine
 10
606.4265681087
 20
323.7101055322
 30
0.0
 11
606.4265681087
 21
322.4110674265
 31
0.0
  0
LINE
  5
C1
330
1F
100
AcDbEntity
  8
0
  6
Continuous
 62
     7
100
AcDbLine
 10
606.4265681087
 20
323.7101055322
 30
0.0
 11
1421.9265681087
 21
323.7101055322
 31
0.0
  0
LINE
  5
C2
330
1F
100
AcDbEntity
  8
0
  6
Continuous
 62
     7
100
AcDbLine
 10
606.4265681087
 20
322.4110674265
 30
0.0
 11
603.4265681087
 21
323.9110674265
 31
0.0
  0
LINE
  5
C3
330
1F
100
AcDbEntity
  8
0
  6
Continuous
 62
     7
100
AcDbLine
 10
603.4265681087
 20
323.9110674265
 30
0.0
 11
603.4265681087
 21
325.2101055322
 31
0.0
  0
LINE
  5
C4
330
1F
100
AcDbEntity
  8
0
  6
Continuous
 62
     7
100
AcDbLine
 10
603.4265681087
 20
325.2101055322
 30
0.0
 11
606.4265681087
 21
323.7101055322
 31
0.0
  0
LINE
  5
C5
330
1F
100
AcDbEntity
  8
0
  6
Continuous
 62
     7
100
AcDbLine
 10
1424.9265681087
 20
325.2101055322
 30
0.0
 11
1424.9265681087
 21
327.6945610756
 31
0.0
  0
LINE
  5
C6
330
1F
100
AcDbEntity
  8
0
  6
Continuous
 62
     7
100
AcDbLine
 10
1421.9265681087
 20
323.7101055322
 30
0.0
 11
1424.9265681087
 21
325.2101055322
 31
0.0
  0
LINE
  5
C7
330
1F
100
AcDbEntity
  8
0
  6
Continuous
 62
     7
100
AcDbLine
 10
603.4265681087
 20
327.6945610756
 30
0.0
 11
603.4265681087
 21
325.2101055322
 31
0.0
  0
LINE
  5
C8
330
1F
100
AcDbEntity
  8
0
  6
Continuous
 62
     7
100
AcDbLine
 10
603.4265681087
 20
327.6945610756
 30
0.0
 11
603.4265681087
 21
329.5605864794
 31
0.0
  0
LINE
  5
C9
330
1F
100
AcDbEntity
  8
0
  6
Continuous
 62
     7
100
AcDbLine
 10
1424.9265681087
 20
329.5605864794
 30
0.0
 11
603.4265681087
 21
329.5605864794
 31
0.0
  0
LINE
  5
CA
330
1F
100
AcDbEntity
  8
0
  6
Continuous
 62
     7
100
AcDbLine
 10
1424.9265681087
 20
327.6945610756
 30
0.0
 11
1424.9265681087
 21
329.5605864794
 31
0.0
  0
LINE
  5
CB
330
1F
100
AcDbEntity
  8
0
  6
Continuous
 62
     7
100
AcDbLine
 10
1424.9265681087
 20
325.2101055322
 30
0.0
 11
1424.9265681087
 21
323.9110674265
 31
0.0
  0
LINE
  5
CC
330
1F
100
AcDbEntity
  8
0
  6
Continuous
 62
     7
100
AcDbLine
 10
1424.9265681087
 20
323.9110674265
 30
0.0
 11
1421.9265681087
 21
322.4110674265
 31
0.0
  0
LINE
  5
CD
330
1F
100
AcDbEntity
  8
0
  6
Continuous
 62
     7
100
AcDbLine
 10
606.4265681087
 20
-12.2180976981
 30
0.0
 11
606.4265681087
 21
-13.5171358038
 31
0.0
  0
LINE
  5
CE
330
1F
100
AcDbEntity
  8
0
  6
Continuous
 62
     7
100
AcDbLine
 10
606.4265681087
 20
-12.2180976981
 30
0.0
 11
1421.9265681087
 21
-12.2180976981
 31
0.0
  0
LINE
  5
CF
330
1F
100
AcDbEntity
  8
0
  6
Continuous
 62
     7
100
AcDbLine
 10
1421.9265681087
 20
-13.5171358038
 30
0.0
 11
1421.9265681087
 21
-12.2180976981
 31
0.0
  0
LINE
  5
D0
330
1F
100
AcDbEntity
  8
0
  6
Continuous
 62
     7
100
AcDbLine
 10
606.4265681087
 20
-13.5171358038
 30
0.0
 11
1421.9265681087
 21
-13.5171358038
 31
0.0
  0
LINE
  5
D1
330
1F
100
AcDbEntity
  8
0
  6
Continuous
 62
     7
100
AcDbLine
 10
603.4265681087
 20
-15.0171358038
 30
0.0
 11
603.4265681087
 21
-13.7180976981
 31
0.0
  0
LINE
  5
D2
330
1F
100
AcDbEntity
  8
0
  6
Continuous
 62
     7
100
AcDbLine
 10
603.4265681087
 20
-13.7180976981
 30
0.0
 11
606.4265681087
 21
-12.2180976981
 31
0.0
  0
LINE
  5
D3
330
1F
100
AcDbEntity
  8
0
  6
Continuous
 62
     7
100
AcDbLine
 10
606.4265681087
 20
-13.5171358038
 30
0.0
 11
603.4265681087
 21
-15.0171358038
 31
0.0
  0
LINE
  5
D4
330
1F
100
AcDbEntity
  8
0
  6
Continuous
 62
     7
100
AcDbLine
 10
603.4265681087
 20
-17.5015913471
 30
0.0
 11
603.4265681087
 21
-15.0171358038
 31
0.0
  0
LINE
  5
D5
330
1F
100
AcDbEntity
  8
0
  6
Continuous
 62
     7
100
AcDbLine
 10
1424.9265681087
 20
-15.0171358038
 30
0.0
 11
1421.9265681087
 21
-13.5171358038
 31
0.0
  0
LINE
  5
D6
330
1F
100
AcDbEntity
  8
0
  6
Continuous
 62
     7
100
AcDbLine
 10
1424.9265681087
 20
-15.0171358038
 30
0.0
 11
1424.9265681087
 21
-17.5015913471
 31
0.0
  0
LINE
  5
D7
330
1F
100
AcDbEntity
  8
0
  6
Continuous
 62
     7
100
AcDbLine
 10
1424.9265681087
 20
-17.5015913471
 30
0.0
 11
1424.9265681087
 21
-19.3676167509
 31
0.0
  0
LINE
  5
D8
330
1F
100
AcDbEntity
  8
0
  6
Continuous
 62
     7
100
AcDbLine
 10
603.4265681087
 20
-19.3676167509
 30
0.0
 11
1424.9265681087
 21
-19.3676167509
 31
0.0
  0
LINE
  5
D9
330
1F
100
AcDbEntity
  8
0
  6
Continuous
 62
     7
100
AcDbLine
 10
603.4265681087
 20
-17.5015913471
 30
0.0
 11
603.4265681087
 21
-19.3676167509
 31
0.0
  0
LINE
  5
DA
330
1F
100
AcDbEntity
  8
0
  6
Continuous
 62
     7
100
AcDbLine
 10
1421.9265681087
 20
-12.2180976981
 30
0.0
 11
1424.9265681087
 21
-13.7180976981
 31
0.0
  0
LINE
  5
DB
330
1F
100
AcDbEntity
  8
0
  6
Continuous
 62
     7
100
AcDbLine
 10
1424.9265681087
 20
-13.7180976981
 30
0.0
 11
1424.9265681087
 21
-15.0171358038
 31
0.0
  0
CIRCLE
  5
DC
330
1F
100
AcDbEntity
  8
0
  6
Continuous
 62
     7
100
AcDbCircle
 10
1214.2265681087
 20
315.0964848642
 30
0.0
 40
3.249999999999943
  0
CIRCLE
  5
DD
330
1F
100
AcDbEntity
  8
0
  6
Continuous
 62
     7
100
AcDbCircle
 10
1114.2265681087
 20
315.0964848642
 30
0.0
 40
3.249999999999943
  0
CIRCLE
  5
DE
330
1F
100
AcDbEntity
  8
0
  6
Continuous
 62
     7
100
AcDbCircle
 10
1014.2265681087
 20
315.0964848642
 30
0.0
 40
3.249999999999943
  0
CIRCLE
  5
DF
330
1F
100
AcDbEntity
  8
0
  6
Continuous
 62
     7
100
AcDbCircle
 10
914.2265681087
 20
315.0964848642
 30
0.0
 40
3.25
  0
CIRCLE
  5
E0
330
1F
100
AcDbEntity
  8
0
  6
Continuous
 62
     7
100
AcDbCircle
 10
814.2265681087
 20
315.0964848642
 30
0.0
 40
3.25
  0
LINE
  5
E1
330
1F
100
AcDbEntity
  8
0
  6
Continuous
 62
     7
100
AcDbLine
 10
1424.6765681087
 20
257.5964848642
 30
0.0
 11
1403.6765681087
 21
257.5964848642
 31
0.0
  0
ARC
  5
E2
330
1F
100
AcDbEntity
  8
0
  6
Continuous
 62
     7
100
AcDbCircle
 10
1424.6765681087
 20
261.5964848642
 30
0.0
 40
4.000000000000057
100
AcDbArc
 50
270.0
 51
90.0
  0
LINE
  5
E3
330
1F
100
AcDbEntity
  8
0
  6
Continuous
 62
     7
100
AcDbLine
 10
1374.6765681087
 20
257.5964848642
 30
0.0
 11
1353.6765681087
 21
257.5964848642
 31
0.0
  0
ARC
  5
E4
330
1F
100
AcDbEntity
  8
0
  6
Continuous
 62
     7
100
AcDbCircle
 10
1374.6765681087
 20
261.5964848642
 30
0.0
 40
4.000000000000057
100
AcDbArc
 50
270.0
 51
90.0
  0
LINE
  5
E5
330
1F
100
AcDbEntity
  8
0
  6
Continuous
 62
     7
100
AcDbLine
 10
1353.6765681087
 20
265.5964848642
 30
0.0
 11
1374.6765681087
 21
265.5964848642
 31
0.0
  0
ARC
  5
E6
330
1F
100
AcDbEntity
  8
0
  6
Continuous
 62
     7
100
AcDbCircle
 10
1353.6765681087
 20
261.5964848642
 30
0.0
 40
4.0
100
AcDbArc
 50
90.0
 51
270.0
  0
LINE
  5
E7
330
1F
100
AcDbEntity
  8
0
  6
Continuous
 62
     7
100
AcDbLine
 10
1324.6765681087
 20
257.5964848642
 30
0.0
 11
1303.6765681087
 21
257.5964848642
 31
0.0
  0
ARC
  5
E8
330
1F
100
AcDbEntity
  8
0
  6
Continuous
 62
     7
100
AcDbCircle
 10
1324.6765681087
 20
261.5964848642
 30
0.0
 40
4.0
100
AcDbArc
 50
270.0
 51
90.0
  0
LINE
  5
E9
330
1F
100
AcDbEntity
  8
0
  6
Continuous
 62
     7
100
AcDbLine
 10
1303.6765681087
 20
265.5964848642
 30
0.0
 11
1324.6765681087
 21
265.5964848642
 31
0.0
  0
ARC
  5
EA
330
1F
100
AcDbEntity
  8
0
  6
Continuous
 62
     7
100
AcDbCircle
 10
1303.6765681087
 20
261.5964848642
 30
0.0
 40
4.0
100
AcDbArc
 50
90.0
 51
270.0
  0
LINE
  5
EB
330
1F
100
AcDbEntity
  8
0
  6
Continuous
 62
     7
100
AcDbLine
 10
1274.6765681087
 20
257.5964848642
 30
0.0
 11
1253.6765681087
 21
257.5964848642
 31
0.0
  0
ARC
  5
EC
330
1F
100
AcDbEntity
  8
0
  6
Continuous
 62
     7
100
AcDbCircle
 10
1274.6765681087
 20
261.5964848642
 30
0.0
 40
4.000000000000057
100
AcDbArc
 50
270.0
 51
90.0
  0
LINE
  5
ED
330
1F
100
AcDbEntity
  8
0
  6
Continuous
 62
     7
100
AcDbLine
 10
1253.6765681087
 20
265.5964848642
 30
0.0
 11
1274.6765681087
 21
265.5964848642
 31
0.0
  0
ARC
  5
EE
330
1F
100
AcDbEntity
  8
0
  6
Continuous
 62
     7
100
AcDbCircle
 10
1253.6765681087
 20
261.5964848642
 30
0.0
 40
4.0
100
AcDbArc
 50
90.0
 51
270.0
  0
LINE
  5
EF
330
1F
100
AcDbEntity
  8
0
  6
Continuous
 62
     7
100
AcDbLine
 10
1224.6765681087
 20
257.5964848642
 30
0.0
 11
1203.6765681087
 21
257.5964848642
 31
0.0
  0
ARC
  5
F0
330
1F
100
AcDbEntity
  8
0
  6
Continuous
 62
     7
100
AcDbCircle
 10
1224.6765681087
 20
261.5964848642
 30
0.0
 40
4.000000000000057
100
AcDbArc
 50
270.0
 51
90.0
  0
LINE
  5
F1
330
1F
100
AcDbEntity
  8
0
  6
Continuous
 62
     7
100
AcDbLine
 10
1203.6765681087
 20
265.5964848642
 30
0.0
 11
1224.6765681087
 21
265.5964848642
 31
0.0
  0
ARC
  5
F2
330
1F
100
AcDbEntity
  8
0
  6
Continuous
 62
     7
100
AcDbCircle
 10
1203.6765681087
 20
261.5964848642
 30
0.0
 40
4.0
100
AcDbArc
 50
90.0
 51
270.0
  0
LINE
  5
F3
330
1F
100
AcDbEntity
  8
0
  6
Continuous
 62
     7
100
AcDbLine
 10
1174.6765681087
 20
257.5964848642
 30
0.0
 11
1153.6765681087
 21
257.5964848642
 31
0.0
  0
ARC
  5
F4
330
1F
100
AcDbEntity
  8
0
  6
Continuous
 62
     7
100
AcDbCircle
 10
1174.6765681087
 20
261.5964848642
 30
0.0
 40
4.000000000000057
100
AcDbArc
 50
270.0
 51
90.0
  0
LINE
  5
F5
330
1F
100
AcDbEntity
  8
0
  6
Continuous
 62
     7
100
AcDbLine
 10
1153.6765681087
 20
265.5964848642
 30
0.0
 11
1174.6765681087
 21
265.5964848642
 31
0.0
  0
ARC
  5
F6
330
1F
100
AcDbEntity
  8
0
  6
Continuous
 62
     7
100
AcDbCircle
 10
1153.6765681087
 20
261.5964848642
 30
0.0
 40
4.0
100
AcDbArc
 50
90.0
 51
270.0
  0
LINE
  5
F7
330
1F
100
AcDbEntity
  8
0
  6
Continuous
 62
     7
100
AcDbLine
 10
1124.6765681087
 20
257.5964848642
 30
0.0
 11
1103.6765681087
 21
257.5964848642
 31
0.0
  0
ARC
  5
F8
330
1F
100
AcDbEntity
  8
0
  6
Continuous
 62
     7
100
AcDbCircle
 10
1124.6765681087
 20
261.5964848642
 30
0.0
 40
4.0
100
AcDbArc
 50
270.0
 51
90.0
  0
LINE
  5
F9
330
1F
100
AcDbEntity
  8
0
  6
Continuous
 62
     7
100
AcDbLine
 10
1103.6765681087
 20
265.5964848642
 30
0.0
 11
1124.6765681087
 21
265.5964848642
 31
0.0
  0
ARC
  5
FA
330
1F
100
AcDbEntity
  8
0
  6
Continuous
 62
     7
100
AcDbCircle
 10
1103.6765681087
 20
261.5964848642
 30
0.0
 40
4.0
100
AcDbArc
 50
90.0
 51
270.0
  0
LINE
  5
FB
330
1F
100
AcDbEntity
  8
0
  6
Continuous
 62
     7
100
AcDbLine
 10
1074.6765681087
 20
257.5964848642
 30
0.0
 11
1053.6765681087
 21
257.5964848642
 31
0.0
  0
ARC
  5
FC
330
1F
100
AcDbEntity
  8
0
  6
Continuous
 62
     7
100
AcDbCircle
 10
1074.6765681087
 20
261.5964848642
 30
0.0
 40
4.0
100
AcDbArc
 50
270.0
 51
90.0
  0
LINE
  5
FD
330
1F
100
AcDbEntity
  8
0
  6
Continuous
 62
     7
100
AcDbLine
 10
1053.6765681087
 20
265.5964848642
 30
0.0
 11
1074.6765681087
 21
265.5964848642
 31
0.0
  0
ARC
  5
FE
330
1F
100
AcDbEntity
  8
0
  6
Continuous
 62
     7
100
AcDbCircle
 10
1053.6765681087
 20
261.5964848642
 30
0.0
 40
4.0
100
AcDbArc
 50
90.0
 51
270.0
  0
LINE
  5
FF
330
1F
100
AcDbEntity
  8
0
  6
Continuous
 62
     7
100
AcDbLine
 10
1024.6765681087
 20
257.5964848642
 30
0.0
 11
1003.6765681087
 21
257.5964848642
 31
0.0
  0
ARC
  5
100
330
1F
100
AcDbEntity
  8
0
  6
Continuous
 62
     7
100
AcDbCircle
 10
1024.6765681087
 20
261.5964848642
 30
0.0
 40
4.000000000000057
100
AcDbArc
 50
270.0
 51
90.0
  0
LINE
  5
101
330
1F
100
AcDbEntity
  8
0
  6
Continuous
 62
     7
100
AcDbLine
 10
1003.6765681087
 20
265.5964848642
 30
0.0
 11
1024.6765681087
 21
265.5964848642
 31
0.0
  0
ARC
  5
102
330
1F
100
AcDbEntity
  8
0
  6
Continuous
 62
     7
100
AcDbCircle
 10
1003.6765681087
 20
261.5964848642
 30
0.0
 40
4.0
100
AcDbArc
 50
90.0
 51
270.0
  0
LINE
  5
103
330
1F
100
AcDbEntity
  8
0
  6
Continuous
 62
     7
100
AcDbLine
 10
974.6765681087
 20
257.5964848642
 30
0.0
 11
953.6765681087
 21
257.5964848642
 31
0.0
  0
ARC
  5
104
330
1F
100
AcDbEntity
  8
0
  6
Continuous
 62
     7
100
AcDbCircle
 10
974.6765681087
 20
261.5964848642
 30
0.0
 40
4.000000000000057
100
AcDbArc
 50
270.0
 51
90.0
  0
LINE
  5
105
330
1F
100
AcDbEntity
  8
0
  6
Continuous
 62
     7
100
AcDbLine
 10
953.6765681087
 20
265.5964848642
 30
0.0
 11
974.6765681087
 21
265.5964848642
 31
0.0
  0
ARC
  5
106
330
1F
100
AcDbEntity
  8
0
  6
Continuous
 62
     7
100
AcDbCircle
 10
953.6765681087
 20
261.5964848642
 30
0.0
 40
4.0
100
AcDbArc
 50
90.0
 51
270.0
  0
LINE
  5
107
330
1F
100
AcDbEntity
  8
0
  6
Continuous
 62
     7
100
AcDbLine
 10
924.6765681087
 20
257.5964848642
 30
0.0
 11
903.6765681087
 21
257.5964848642
 31
0.0
  0
ARC
  5
108
330
1F
100
AcDbEntity
  8
0
  6
Continuous
 62
     7
100
AcDbCircle
 10
924.6765681087
 20
261.5964848642
 30
0.0
 40
4.0
100
AcDbArc
 50
270.0
 51
90.0
  0
LINE
  5
109
330
1F
100
AcDbEntity
  8
0
  6
Continuous
 62
     7
100
AcDbLine
 10
903.6765681087
 20
265.5964848642
 30
0.0
 11
924.6765681087
 21
265.5964848642
 31
0.0
  0
ARC
  5
10A
330
1F
100
AcDbEntity
  8
0
  6
Continuous
 62
     7
100
AcDbCircle
 10
903.6765681087
 20
261.5964848642
 30
0.0
 40
4.0
100
AcDbArc
 50
90.0
 51
270.0
  0
LINE
  5
10B
330
1F
100
AcDbEntity
  8
0
  6
Continuous
 62
     7
100
AcDbLine
 10
874.6765681087
 20
257.5964848642
 30
0.0
 11
853.6765681087
 21
257.5964848642
 31
0.0
  0
ARC
  5
10C
330
1F
100
AcDbEntity
  8
0
  6
Continuous
 62
     7
100
AcDbCircle
 10
874.6765681087
 20
261.5964848642
 30
0.0
 40
4.000000000000057
100
AcDbArc
 50
270.0
 51
90.0
  0
LINE
  5
10D
330
1F
100
AcDbEntity
  8
0
  6
Continuous
 62
     7
100
AcDbLine
 10
853.6765681087
 20
265.5964848642
 30
0.0
 11
874.6765681087
 21
265.5964848642
 31
0.0
  0
ARC
  5
10E
330
1F
100
AcDbEntity
  8
0
  6
Continuous
 62
     7
100
AcDbCircle
 10
853.6765681087
 20
261.5964848642
 30
0.0
 40
4.0
100
AcDbArc
 50
90.0
 51
270.0
  0
LINE
  5
10F
330
1F
100
AcDbEntity
  8
0
  6
Continuous
 62
     7
100
AcDbLine
 10
824.6765681087
 20
257.5964848642
 30
0.0
 11
803.6765681087
 21
257.5964848642
 31
0.0
  0
ARC
  5
110
330
1F
100
AcDbEntity
  8
0
  6
Continuous
 62
     7
100
AcDbCircle
 10
824.6765681087
 20
261.5964848642
 30
0.0
 40
4.0
100
AcDbArc
 50
270.0
 51
90.0
  0
LINE
  5
111
330
1F
100
AcDbEntity
  8
0
  6
Continuous
 62
     7
100
AcDbLine
 10
803.6765681087
 20
265.5964848642
 30
0.0
 11
824.6765681087
 21
265.5964848642
 31
0.0
  0
ARC
  5
112
330
1F
100
AcDbEntity
  8
0
  6
Continuous
 62
     7
100
AcDbCircle
 10
803.6765681087
 20
261.5964848642
 30
0.0
 40
4.0
100
AcDbArc
 50
90.0
 51
270.0
  0
LINE
  5
113
330
1F
100
AcDbEntity
  8
0
  6
Continuous
 62
     7
100
AcDbLine
 10
774.6765681087
 20
257.5964848642
 30
0.0
 11
753.6765681087
 21
257.5964848642
 31
0.0
  0
ARC
  5
114
330
1F
100
AcDbEntity
  8
0
  6
Continuous
 62
     7
100
AcDbCircle
 10
774.6765681087
 20
261.5964848642
 30
0.0
 40
4.000000000000057
100
AcDbArc
 50
270.0
 51
90.0
  0
LINE
  5
115
330
1F
100
AcDbEntity
  8
0
  6
Continuous
 62
     7
100
AcDbLine
 10
753.6765681087
 20
265.5964848642
 30
0.0
 11
774.6765681087
 21
265.5964848642
 31
0.0
  0
ARC
  5
116
330
1F
100
AcDbEntity
  8
0
  6
Continuous
 62
     7
100
AcDbCircle
 10
753.6765681087
 20
261.5964848642
 30
0.0
 40
4.0
100
AcDbArc
 50
90.0
 51
270.0
  0
LINE
  5
117
330
1F
100
AcDbEntity
  8
0
  6
Continuous
 62
     7
100
AcDbLine
 10
724.6765681087
 20
257.5964848642
 30
0.0
 11
703.6765681087
 21
257.5964848642
 31
0.0
  0
ARC
  5
118
330
1F
100
AcDbEntity
  8
0
  6
Continuous
 62
     7
100
AcDbCircle
 10
724.6765681087
 20
261.5964848642
 30
0.0
 40
4.0
100
AcDbArc
 50
270.0
 51
90.0
  0
LINE
  5
119
330
1F
100
AcDbEntity
  8
0
  6
Continuous
 62
     7
100
AcDbLine
 10
703.6765681087
 20
265.5964848642
 30
0.0
 11
724.6765681087
 21
265.5964848642
 31
0.0
  0
ARC
  5
11A
330
1F
100
AcDbEntity
  8
0
  6
Continuous
 62
     7
100
AcDbCircle
 10
703.6765681087
 20
261.5964848642
 30
0.0
 40
4.0
100
AcDbArc
 50
90.0
 51
270.0
  0
LINE
  5
11B
330
1F
100
AcDbEntity
  8
0
  6
Continuous
 62
     7
100
AcDbLine
 10
674.6765681087
 20
257.5964848642
 30
0.0
 11
653.6765681087
 21
257.5964848642
 31
0.0
  0
ARC
  5
11C
330
1F
100
AcDbEntity
  8
0
  6
Continuous
 62
     7
100
AcDbCircle
 10
674.6765681087
 20
261.5964848642
 30
0.0
 40
4.0
100
AcDbArc
 50
270.0
 51
90.0
  0
LINE
  5
11D
330
1F
100
AcDbEntity
  8
0
  6
Continuous
 62
     7
100
AcDbLine
 10
653.6765681087
 20
265.5964848642
 30
0.0
 11
674.6765681087
 21
265.5964848642
 31
0.0
  0
ARC
  5
11E
330
1F
100
AcDbEntity
  8
0
  6
Continuous
 62
     7
100
AcDbCircle
 10
653.6765681087
 20
261.5964848642
 30
0.0
 40
4.0
100
AcDbArc
 50
90.0
 51
270.0
  0
LINE
  5
11F
330
1F
100
AcDbEntity
  8
0
  6
Continuous
 62
     7
100
AcDbLine
 10
624.6765681087
 20
257.5964848642
 30
0.0
 11
603.6765681087
 21
257.5964848642
 31
0.0
  0
ARC
  5
120
330
1F
100
AcDbEntity
  8
0
  6
Continuous
 62
     7
100
AcDbCircle
 10
624.6765681087
 20
261.5964848642
 30
0.0
 40
4.000000000000114
100
AcDbArc
 50
270.0
 51
90.0
  0
LINE
  5
121
330
1F
100
AcDbEntity
  8
0
  6
Continuous
 62
     7
100
AcDbLine
 10
603.6765681087
 20
265.5964848642
 30
0.0
 11
624.6765681087
 21
265.5964848642
 31
0.0
  0
ARC
  5
122
330
1F
100
AcDbEntity
  8
0
  6
Continuous
 62
     7
100
AcDbCircle
 10
603.6765681087
 20
261.5964848642
 30
0.0
 40
4.000000000000057
100
AcDbArc
 50
90.0
 51
270.0
  0
LINE
  5
123
330
1F
100
AcDbEntity
  8
0
  6
Continuous
 62
     7
100
AcDbLine
 10
1424.6765681087
 20
222.0964848642
 30
0.0
 11
1403.6765681087
 21
222.0964848642
 31
0.0
  0
ARC
  5
124
330
1F
100
AcDbEntity
  8
0
  6
Continuous
 62
     7
100
AcDbCircle
 10
1424.6765681087
 20
226.0964848642
 30
0.0
 40
4.000000000000057
100
AcDbArc
 50
270.0
 51
90.0
  0
LINE
  5
125
330
1F
100
AcDbEntity
  8
0
  6
Continuous
 62
     7
100
AcDbLine
 10
1403.6765681087
 20
230.0964848642
 30
0.0
 11
1424.6765681087
 21
230.0964848642
 31
0.0
  0
ARC
  5
126
330
1F
100
AcDbEntity
  8
0
  6
Continuous
 62
     7
100
AcDbCircle
 10
1403.6765681087
 20
226.0964848642
 30
0.0
 40
4.000000000000028
100
AcDbArc
 50
90.0
 51
270.0
  0
LINE
  5
127
330
1F
100
AcDbEntity
  8
0
  6
Continuous
 62
     7
100
AcDbLine
 10
1374.6765681087
 20
222.0964848642
 30
0.0
 11
1353.6765681087
 21
222.0964848642
 31
0.0
  0
ARC
  5
128
330
1F
100
AcDbEntity
  8
0
  6
Continuous
 62
     7
100
AcDbCircle
 10
1374.6765681087
 20
226.0964848642
 30
0.0
 40
4.000000000000057
100
AcDbArc
 50
270.0
 51
90.0
  0
LINE
  5
129
330
1F
100
AcDbEntity
  8
0
  6
Continuous
 62
     7
100
AcDbLine
 10
1353.6765681087
 20
230.0964848642
 30
0.0
 11
1374.6765681087
 21
230.0964848642
 31
0.0
  0
ARC
  5
12A
330
1F
100
AcDbEntity
  8
0
  6
Continuous
 62
     7
100
AcDbCircle
 10
1353.6765681087
 20
226.0964848642
 30
0.0
 40
4.0
100
AcDbArc
 50
90.0
 51
270.0
  0
LINE
  5
12B
330
1F
100
AcDbEntity
  8
0
  6
Continuous
 62
     7
100
AcDbLine
 10
1324.6765681087
 20
222.0964848642
 30
0.0
 11
1303.6765681087
 21
222.0964848642
 31
0.0
  0
ARC
  5
12C
330
1F
100
AcDbEntity
  8
0
  6
Continuous
 62
     7
100
AcDbCircle
 10
1324.6765681087
 20
226.0964848642
 30
0.0
 40
4.000000000000028
100
AcDbArc
 50
270.0
 51
90.0
  0
LINE
  5
12D
330
1F
100
AcDbEntity
  8
0
  6
Continuous
 62
     7
100
AcDbLine
 10
1303.6765681087
 20
230.0964848642
 30
0.0
 11
1324.6765681087
 21
230.0964848642
 31
0.0
  0
ARC
  5
12E
330
1F
100
AcDbEntity
  8
0
  6
Continuous
 62
     7
100
AcDbCircle
 10
1303.6765681087
 20
226.0964848642
 30
0.0
 40
4.0
100
AcDbArc
 50
90.0
 51
270.0
  0
LINE
  5
12F
330
1F
100
AcDbEntity
  8
0
  6
Continuous
 62
     7
100
AcDbLine
 10
1274.6765681087
 20
222.0964848642
 30
0.0
 11
1253.6765681087
 21
222.0964848642
 31
0.0
  0
ARC
  5
130
330
1F
100
AcDbEntity
  8
0
  6
Continuous
 62
     7
100
AcDbCircle
 10
1274.6765681087
 20
226.0964848642
 30
0.0
 40
4.000000000000028
100
AcDbArc
 50
270.0
 51
90.0
  0
LINE
  5
131
330
1F
100
AcDbEntity
  8
0
  6
Continuous
 62
     7
100
AcDbLine
 10
1253.6765681087
 20
230.0964848642
 30
0.0
 11
1274.6765681087
 21
230.0964848642
 31
0.0
  0
ARC
  5
132
330
1F
100
AcDbEntity
  8
0
  6
Continuous
 62
     7
100
AcDbCircle
 10
1253.6765681087
 20
226.0964848642
 30
0.0
 40
4.0
100
AcDbArc
 50
90.0
 51
270.0
  0
LINE
  5
133
330
1F
100
AcDbEntity
  8
0
  6
Continuous
 62
     7
100
AcDbLine
 10
1224.6765681087
 20
222.0964848642
 30
0.0
 11
1203.6765681087
 21
222.0964848642
 31
0.0
  0
ARC
  5
134
330
1F
100
AcDbEntity
  8
0
  6
Continuous
 62
     7
100
AcDbCircle
 10
1224.6765681087
 20
226.0964848642
 30
0.0
 40
4.000000000000057
100
AcDbArc
 50
270.0
 51
90.0
  0
LINE
  5
135
330
1F
100
AcDbEntity
  8
0
  6
Continuous
 62
     7
100
AcDbLine
 10
1203.6765681087
 20
230.0964848642
 30
0.0
 11
1224.6765681087
 21
230.0964848642
 31
0.0
  0
ARC
  5
136
330
1F
100
AcDbEntity
  8
0
  6
Continuous
 62
     7
100
AcDbCircle
 10
1203.6765681087
 20
226.0964848642
 30
0.0
 40
4.0
100
AcDbArc
 50
90.0
 51
270.0
  0
LINE
  5
137
330
1F
100
AcDbEntity
  8
0
  6
Continuous
 62
     7
100
AcDbLine
 10
1174.6765681087
 20
222.0964848642
 30
0.0
 11
1153.6765681087
 21
222.0964848642
 31
0.0
  0
ARC
  5
138
330
1F
100
AcDbEntity
  8
0
  6
Continuous
 62
     7
100
AcDbCircle
 10
1174.6765681087
 20
226.0964848642
 30
0.0
 40
4.000000000000057
100
AcDbArc
 50
270.0
 51
90.0
  0
LINE
  5
139
330
1F
100
AcDbEntity
  8
0
  6
Continuous
 62
     7
100
AcDbLine
 10
1153.6765681087
 20
230.0964848642
 30
0.0
 11
1174.6765681087
 21
230.0964848642
 31
0.0
  0
ARC
  5
13A
330
1F
100
AcDbEntity
  8
0
  6
Continuous
 62
     7
100
AcDbCircle
 10
1153.6765681087
 20
226.0964848642
 30
0.0
 40
4.0
100
AcDbArc
 50
90.0
 51
270.0
  0
LINE
  5
13B
330
1F
100
AcDbEntity
  8
0
  6
Continuous
 62
     7
100
AcDbLine
 10
1124.6765681087
 20
222.0964848642
 30
0.0
 11
1103.6765681087
 21
222.0964848642
 31
0.0
  0
ARC
  5
13C
330
1F
100
AcDbEntity
  8
0
  6
Continuous
 62
     7
100
AcDbCircle
 10
1124.6765681087
 20
226.0964848642
 30
0.0
 40
4.0
100
AcDbArc
 50
270.0
 51
90.0
  0
LINE
  5
13D
330
1F
100
AcDbEntity
  8
0
  6
Continuous
 62
     7
100
AcDbLine
 10
1103.6765681087
 20
230.0964848642
 30
0.0
 11
1124.6765681087
 21
230.0964848642
 31
0.0
  0
ARC
  5
13E
330
1F
100
AcDbEntity
  8
0
  6
Continuous
 62
     7
100
AcDbCircle
 10
1103.6765681087
 20
226.0964848642
 30
0.0
 40
4.0
100
AcDbArc
 50
90.0
 51
270.0
  0
LINE
  5
13F
330
1F
100
AcDbEntity
  8
0
  6
Continuous
 62
     7
100
AcDbLine
 10
1074.6765681087
 20
222.0964848642
 30
0.0
 11
1053.6765681087
 21
222.0964848642
 31
0.0
  0
ARC
  5
140
330
1F
100
AcDbEntity
  8
0
  6
Continuous
 62
     7
100
AcDbCircle
 10
1074.6765681087
 20
226.0964848642
 30
0.0
 40
4.000000000000057
100
AcDbArc
 50
270.0
 51
90.0
  0
LINE
  5
141
330
1F
100
AcDbEntity
  8
0
  6
Continuous
 62
     7
100
AcDbLine
 10
1053.6765681087
 20
230.0964848642
 30
0.0
 11
1074.6765681087
 21
230.0964848642
 31
0.0
  0
ARC
  5
142
330
1F
100
AcDbEntity
  8
0
  6
Continuous
 62
     7
100
AcDbCircle
 10
1053.6765681087
 20
226.0964848642
 30
0.0
 40
4.000000000000028
100
AcDbArc
 50
90.0
 51
270.0
  0
LINE
  5
143
330
1F
100
AcDbEntity
  8
0
  6
Continuous
 62
     7
100
AcDbLine
 10
1024.6765681087
 20
222.0964848642
 30
0.0
 11
1003.6765681087
 21
222.0964848642
 31
0.0
  0
ARC
  5
144
330
1F
100
AcDbEntity
  8
0
  6
Continuous
 62
     7
100
AcDbCircle
 10
1024.6765681087
 20
226.0964848642
 30
0.0
 40
4.000000000000028
100
AcDbArc
 50
270.0
 51
90.0
  0
LINE
  5
145
330
1F
100
AcDbEntity
  8
0
  6
Continuous
 62
     7
100
AcDbLine
 10
1003.6765681087
 20
230.0964848642
 30
0.0
 11
1024.6765681087
 21
230.0964848642
 31
0.0
  0
ARC
  5
146
330
1F
100
AcDbEntity
  8
0
  6
Continuous
 62
     7
100
AcDbCircle
 10
1003.6765681087
 20
226.0964848642
 30
0.0
 40
4.0
100
AcDbArc
 50
90.0
 51
270.0
  0
LINE
  5
147
330
1F
100
AcDbEntity
  8
0
  6
Continuous
 62
     7
100
AcDbLine
 10
974.6765681087
 20
222.0964848642
 30
0.0
 11
953.6765681087
 21
222.0964848642
 31
0.0
  0
ARC
  5
148
330
1F
100
AcDbEntity
  8
0
  6
Continuous
 62
     7
100
AcDbCircle
 10
974.6765681087
 20
226.0964848642
 30
0.0
 40
4.000000000000057
100
AcDbArc
 50
270.0
 51
90.0
  0
LINE
  5
149
330
1F
100
AcDbEntity
  8
0
  6
Continuous
 62
     7
100
AcDbLine
 10
953.6765681087
 20
230.0964848642
 30
0.0
 11
974.6765681087
 21
230.0964848642
 31
0.0
  0
ARC
  5
14A
330
1F
100
AcDbEntity
  8
0
  6
Continuous
 62
     7
100
AcDbCircle
 10
953.6765681087
 20
226.0964848642
 30
0.0
 40
4.0
100
AcDbArc
 50
90.0
 51
270.0
  0
LINE
  5
14B
330
1F
100
AcDbEntity
  8
0
  6
Continuous
 62
     7
100
AcDbLine
 10
924.6765681087
 20
222.0964848642
 30
0.0
 11
903.6765681087
 21
222.0964848642
 31
0.0
  0
ARC
  5
14C
330
1F
100
AcDbEntity
  8
0
  6
Continuous
 62
     7
100
AcDbCircle
 10
924.6765681087
 20
226.0964848642
 30
0.0
 40
4.0
100
AcDbArc
 50
270.0
 51
90.0
  0
LINE
  5
14D
330
1F
100
AcDbEntity
  8
0
  6
Continuous
 62
     7
100
AcDbLine
 10
903.6765681087
 20
230.0964848642
 30
0.0
 11
924.6765681087
 21
230.0964848642
 31
0.0
  0
ARC
  5
14E
330
1F
100
AcDbEntity
  8
0
  6
Continuous
 62
     7
100
AcDbCircle
 10
903.6765681087
 20
226.0964848642
 30
0.0
 40
4.0
100
AcDbArc
 50
90.0
 51
270.0
  0
LINE
  5
14F
330
1F
100
AcDbEntity
  8
0
  6
Continuous
 62
     7
100
AcDbLine
 10
874.6765681087
 20
222.0964848642
 30
0.0
 11
853.6765681087
 21
222.0964848642
 31
0.0
  0
ARC
  5
150
330
1F
100
AcDbEntity
  8
0
  6
Continuous
 62
     7
100
AcDbCircle
 10
874.6765681087
 20
226.0964848642
 30
0.0
 40
4.000000000000028
100
AcDbArc
 50
270.0
 51
90.0
  0
LINE
  5
151
330
1F
100
AcDbEntity
  8
0
  6
Continuous
 62
     7
100
AcDbLine
 10
853.6765681087
 20
230.0964848642
 30
0.0
 11
874.6765681087
 21
230.0964848642
 31
0.0
  0
ARC
  5
152
330
1F
100
AcDbEntity
  8
0
  6
Continuous
 62
     7
100
AcDbCircle
 10
853.6765681087
 20
226.0964848642
 30
0.0
 40
4.0
100
AcDbArc
 50
90.0
 51
270.0
  0
LINE
  5
153
330
1F
100
AcDbEntity
  8
0
  6
Continuous
 62
     7
100
AcDbLine
 10
824.6765681087
 20
222.0964848642
 30
0.0
 11
803.6765681087
 21
222.0964848642
 31
0.0
  0
ARC
  5
154
330
1F
100
AcDbEntity
  8
0
  6
Continuous
 62
     7
100
AcDbCircle
 10
824.6765681087
 20
226.0964848642
 30
0.0
 40
4.000000000000028
100
AcDbArc
 50
270.0
 51
90.0
  0
LINE
  5
155
330
1F
100
AcDbEntity
  8
0
  6
Continuous
 62
     7
100
AcDbLine
 10
803.6765681087
 20
230.0964848642
 30
0.0
 11
824.6765681087
 21
230.0964848642
 31
0.0
  0
ARC
  5
156
330
1F
100
AcDbEntity
  8
0
  6
Continuous
 62
     7
100
AcDbCircle
 10
803.6765681087
 20
226.0964848642
 30
0.0
 40
4.0
100
AcDbArc
 50
90.0
 51
270.0
  0
LINE
  5
157
330
1F
100
AcDbEntity
  8
0
  6
Continuous
 62
     7
100
AcDbLine
 10
774.6765681087
 20
222.0964848642
 30
0.0
 11
753.6765681087
 21
222.0964848642
 31
0.0
  0
ARC
  5
158
330
1F
100
AcDbEntity
  8
0
  6
Continuous
 62
     7
100
AcDbCircle
 10
774.6765681087
 20
226.0964848642
 30
0.0
 40
4.000000000000028
100
AcDbArc
 50
270.0
 51
90.0
  0
LINE
  5
159
330
1F
100
AcDbEntity
  8
0
  6
Continuous
 62
     7
100
AcDbLine
 10
753.6765681087
 20
230.0964848642
 30
0.0
 11
774.6765681087
 21
230.0964848642
 31
0.0
  0
ARC
  5
15A
330
1F
100
AcDbEntity
  8
0
  6
Continuous
 62
     7
100
AcDbCircle
 10
753.6765681087
 20
226.0964848642
 30
0.0
 40
4.0
100
AcDbArc
 50
90.0
 51
270.0
  0
LINE
  5
15B
330
1F
100
AcDbEntity
  8
0
  6
Continuous
 62
     7
100
AcDbLine
 10
724.6765681087
 20
222.0964848642
 30
0.0
 11
703.6765681087
 21
222.0964848642
 31
0.0
  0
ARC
  5
15C
330
1F
100
AcDbEntity
  8
0
  6
Continuous
 62
     7
100
AcDbCircle
 10
724.6765681087
 20
226.0964848642
 30
0.0
 40
4.000000000000028
100
AcDbArc
 50
270.0
 51
90.0
  0
LINE
  5
15D
330
1F
100
AcDbEntity
  8
0
  6
Continuous
 62
     7
100
AcDbLine
 10
703.6765681087
 20
230.0964848642
 30
0.0
 11
724.6765681087
 21
230.0964848642
 31
0.0
  0
ARC
  5
15E
330
1F
100
AcDbEntity
  8
0
  6
Continuous
 62
     7
100
AcDbCircle
 10
703.6765681087
 20
226.0964848642
 30
0.0
 40
4.000000000000028
100
AcDbArc
 50
90.0
 51
270.0
  0
LINE
  5
15F
330
1F
100
AcDbEntity
  8
0
  6
Continuous
 62
     7
100
AcDbLine
 10
674.6765681087
 20
222.0964848642
 30
0.0
 11
653.6765681087
 21
222.0964848642
 31
0.0
  0
ARC
  5
160
330
1F
100
AcDbEntity
  8
0
  6
Continuous
 62
     7
100
AcDbCircle
 10
674.6765681087
 20
226.0964848642
 30
0.0
 40
4.0
100
AcDbArc
 50
270.0
 51
90.0
  0
LINE
  5
161
330
1F
100
AcDbEntity
  8
0
  6
Continuous
 62
     7
100
AcDbLine
 10
653.6765681087
 20
230.0964848642
 30
0.0
 11
674.6765681087
 21
230.0964848642
 31
0.0
  0
ARC
  5
162
330
1F
100
AcDbEntity
  8
0
  6
Continuous
 62
     7
100
AcDbCircle
 10
653.6765681087
 20
226.0964848642
 30
0.0
 40
4.0
100
AcDbArc
 50
90.0
 51
270.0
  0
LINE
  5
163
330
1F
100
AcDbEntity
  8
0
  6
Continuous
 62
     7
100
AcDbLine
 10
624.6765681087
 20
222.0964848642
 30
0.0
 11
603.6765681087
 21
222.0964848642
 31
0.0
  0
ARC
  5
164
330
1F
100
AcDbEntity
  8
0
  6
Continuous
 62
     7
100
AcDbCircle
 10
624.6765681087
 20
226.0964848642
 30
0.0
 40
4.000000000000028
100
AcDbArc
 50
270.0
 51
90.0
  0
LINE
  5
165
330
1F
100
AcDbEntity
  8
0
  6
Continuous
 62
     7
100
AcDbLine
 10
603.6765681087
 20
230.0964848642
 30
0.0
 11
624.6765681087
 21
230.0964848642
 31
0.0
  0
ARC
  5
166
330
1F
100
AcDbEntity
  8
0
  6
Continuous
 62
     7
100
AcDbCircle
 10
603.6765681087
 20
226.0964848642
 30
0.0
 40
4.0
100
AcDbArc
 50
90.0
 51
270.0
  0
LINE
  5
167
330
1F
100
AcDbEntity
  8
0
  6
Continuous
 62
     7
100
AcDbLine
 10
1424.6765681087
 20
186.5964848642
 30
0.0
 11
1403.6765681087
 21
186.5964848642
 31
0.0
  0
ARC
  5
168
330
1F
100
AcDbEntity
  8
0
  6
Continuous
 62
     7
100
AcDbCircle
 10
1424.6765681087
 20
190.5964848642
 30
0.0
 40
4.0
100
AcDbArc
 50
270.0
 51
90.0
  0
LINE
  5
169
330
1F
100
AcDbEntity
  8
0
  6
Continuous
 62
     7
100
AcDbLine
 10
1403.6765681087
 20
194.5964848642
 30
0.0
 11
1424.6765681087
 21
194.5964848642
 31
0.0
  0
ARC
  5
16A
330
1F
100
AcDbEntity
  8
0
  6
Continuous
 62
     7
100
AcDbCircle
 10
1403.6765681087
 20
190.5964848642
 30
0.0
 40
4.0
100
AcDbArc
 50
90.0
 51
270.0
  0
LINE
  5
16B
330
1F
100
AcDbEntity
  8
0
  6
Continuous
 62
     7
100
AcDbLine
 10
1374.6765681087
 20
186.5964848642
 30
0.0
 11
1353.6765681087
 21
186.5964848642
 31
0.0
  0
ARC
  5
16C
330
1F
100
AcDbEntity
  8
0
  6
Continuous
 62
     7
100
AcDbCircle
 10
1374.6765681087
 20
190.5964848642
 30
0.0
 40
4.0
100
AcDbArc
 50
270.0
 51
90.0
  0
LINE
  5
16D
330
1F
100
AcDbEntity
  8
0
  6
Continuous
 62
     7
100
AcDbLine
 10
1353.6765681087
 20
194.5964848642
 30
0.0
 11
1374.6765681087
 21
194.5964848642
 31
0.0
  0
ARC
  5
16E
330
1F
100
AcDbEntity
  8
0
  6
Continuous
 62
     7
100
AcDbCircle
 10
1353.6765681087
 20
190.5964848642
 30
0.0
 40
4.000000000000028
100
AcDbArc
 50
90.0
 51
270.0
  0
LINE
  5
16F
330
1F
100
AcDbEntity
  8
0
  6
Continuous
 62
     7
100
AcDbLine
 10
1324.6765681087
 20
186.5964848642
 30
0.0
 11
1303.6765681087
 21
186.5964848642
 31
0.0
  0
ARC
  5
170
330
1F
100
AcDbEntity
  8
0
  6
Continuous
 62
     7
100
AcDbCircle
 10
1324.6765681087
 20
190.5964848642
 30
0.0
 40
4.000000000000028
100
AcDbArc
 50
270.0
 51
90.0
  0
LINE
  5
171
330
1F
100
AcDbEntity
  8
0
  6
Continuous
 62
     7
100
AcDbLine
 10
1303.6765681087
 20
194.5964848642
 30
0.0
 11
1324.6765681087
 21
194.5964848642
 31
0.0
  0
ARC
  5
172
330
1F
100
AcDbEntity
  8
0
  6
Continuous
 62
     7
100
AcDbCircle
 10
1303.6765681087
 20
190.5964848642
 30
0.0
 40
4.0
100
AcDbArc
 50
90.0
 51
270.0
  0
LINE
  5
173
330
1F
100
AcDbEntity
  8
0
  6
Continuous
 62
     7
100
AcDbLine
 10
1274.6765681087
 20
186.5964848642
 30
0.0
 11
1253.6765681087
 21
186.5964848642
 31
0.0
  0
ARC
  5
174
330
1F
100
AcDbEntity
  8
0
  6
Continuous
 62
     7
100
AcDbCircle
 10
1274.6765681087
 20
190.5964848642
 30
0.0
 40
4.000000000000028
100
AcDbArc
 50
270.0
 51
90.0
  0
LINE
  5
175
330
1F
100
AcDbEntity
  8
0
  6
Continuous
 62
     7
100
AcDbLine
 10
1253.6765681087
 20
194.5964848642
 30
0.0
 11
1274.6765681087
 21
194.5964848642
 31
0.0
  0
ARC
  5
176
330
1F
100
AcDbEntity
  8
0
  6
Continuous
 62
     7
100
AcDbCircle
 10
1253.6765681087
 20
190.5964848642
 30
0.0
 40
4.0
100
AcDbArc
 50
90.0
 51
270.0
  0
LINE
  5
177
330
1F
100
AcDbEntity
  8
0
  6
Continuous
 62
     7
100
AcDbLine
 10
1224.6765681087
 20
186.5964848642
 30
0.0
 11
1203.6765681087
 21
186.5964848642
 31
0.0
  0
ARC
  5
178
330
1F
100
AcDbEntity
  8
0
  6
Continuous
 62
     7
100
AcDbCircle
 10
1224.6765681087
 20
190.5964848642
 30
0.0
 40
4.000000000000028
100
AcDbArc
 50
270.0
 51
90.0
  0
LINE
  5
179
330
1F
100
AcDbEntity
  8
0
  6
Continuous
 62
     7
100
AcDbLine
 10
1203.6765681087
 20
194.5964848642
 30
0.0
 11
1224.6765681087
 21
194.5964848642
 31
0.0
  0
ARC
  5
17A
330
1F
100
AcDbEntity
  8
0
  6
Continuous
 62
     7
100
AcDbCircle
 10
1203.6765681087
 20
190.5964848642
 30
0.0
 40
4.0
100
AcDbArc
 50
90.0
 51
270.0
  0
LINE
  5
17B
330
1F
100
AcDbEntity
  8
0
  6
Continuous
 62
     7
100
AcDbLine
 10
1174.6765681087
 20
186.5964848642
 30
0.0
 11
1153.6765681087
 21
186.5964848642
 31
0.0
  0
ARC
  5
17C
330
1F
100
AcDbEntity
  8
0
  6
Continuous
 62
     7
100
AcDbCircle
 10
1174.6765681087
 20
190.5964848642
 30
0.0
 40
4.0
100
AcDbArc
 50
270.0
 51
90.0
  0
LINE
  5
17D
330
1F
100
AcDbEntity
  8
0
  6
Continuous
 62
     7
100
AcDbLine
 10
1153.6765681087
 20
194.5964848642
 30
0.0
 11
1174.6765681087
 21
194.5964848642
 31
0.0
  0
ARC
  5
17E
330
1F
100
AcDbEntity
  8
0
  6
Continuous
 62
     7
100
AcDbCircle
 10
1153.6765681087
 20
190.5964848642
 30
0.0
 40
4.0
100
AcDbArc
 50
90.0
 51
270.0
  0
LINE
  5
17F
330
1F
100
AcDbEntity
  8
0
  6
Continuous
 62
     7
100
AcDbLine
 10
1124.6765681087
 20
186.5964848642
 30
0.0
 11
1103.6765681087
 21
186.5964848642
 31
0.0
  0
ARC
  5
180
330
1F
100
AcDbEntity
  8
0
  6
Continuous
 62
     7
100
AcDbCircle
 10
1124.6765681087
 20
190.5964848642
 30
0.0
 40
4.000000000000028
100
AcDbArc
 50
270.0
 51
90.0
  0
LINE
  5
181
330
1F
100
AcDbEntity
  8
0
  6
Continuous
 62
     7
100
AcDbLine
 10
1103.6765681087
 20
194.5964848642
 30
0.0
 11
1124.6765681087
 21
194.5964848642
 31
0.0
  0
ARC
  5
182
330
1F
100
AcDbEntity
  8
0
  6
Continuous
 62
     7
100
AcDbCircle
 10
1103.6765681087
 20
190.5964848642
 30
0.0
 40
4.0
100
AcDbArc
 50
90.0
 51
270.0
  0
LINE
  5
183
330
1F
100
AcDbEntity
  8
0
  6
Continuous
 62
     7
100
AcDbLine
 10
1074.6765681087
 20
186.5964848642
 30
0.0
 11
1053.6765681087
 21
186.5964848642
 31
0.0
  0
ARC
  5
184
330
1F
100
AcDbEntity
  8
0
  6
Continuous
 62
     7
100
AcDbCircle
 10
1074.6765681087
 20
190.5964848642
 30
0.0
 40
4.000000000000028
100
AcDbArc
 50
270.0
 51
90.0
  0
LINE
  5
185
330
1F
100
AcDbEntity
  8
0
  6
Continuous
 62
     7
100
AcDbLine
 10
1053.6765681087
 20
194.5964848642
 30
0.0
 11
1074.6765681087
 21
194.5964848642
 31
0.0
  0
ARC
  5
186
330
1F
100
AcDbEntity
  8
0
  6
Continuous
 62
     7
100
AcDbCircle
 10
1053.6765681087
 20
190.5964848642
 30
0.0
 40
4.0
100
AcDbArc
 50
90.0
 51
270.0
  0
LINE
  5
187
330
1F
100
AcDbEntity
  8
0
  6
Continuous
 62
     7
100
AcDbLine
 10
1024.6765681087
 20
186.5964848642
 30
0.0
 11
1003.6765681087
 21
186.5964848642
 31
0.0
  0
ARC
  5
188
330
1F
100
AcDbEntity
  8
0
  6
Continuous
 62
     7
100
AcDbCircle
 10
1024.6765681087
 20
190.5964848642
 30
0.0
 40
4.000000000000057
100
AcDbArc
 50
270.0
 51
90.0
  0
LINE
  5
189
330
1F
100
AcDbEntity
  8
0
  6
Continuous
 62
     7
100
AcDbLine
 10
1003.6765681087
 20
194.5964848642
 30
0.0
 11
1024.6765681087
 21
194.5964848642
 31
0.0
  0
ARC
  5
18A
330
1F
100
AcDbEntity
  8
0
  6
Continuous
 62
     7
100
AcDbCircle
 10
1003.6765681087
 20
190.5964848642
 30
0.0
 40
4.000000000000028
100
AcDbArc
 50
90.0
 51
270.0
  0
LINE
  5
18B
330
1F
100
AcDbEntity
  8
0
  6
Continuous
 62
     7
100
AcDbLine
 10
974.6765681087
 20
186.5964848642
 30
0.0
 11
953.6765681087
 21
186.5964848642
 31
0.0
  0
ARC
  5
18C
330
1F
100
AcDbEntity
  8
0
  6
Continuous
 62
     7
100
AcDbCircle
 10
974.6765681087
 20
190.5964848642
 30
0.0
 40
4.000000000000028
100
AcDbArc
 50
270.0
 51
90.0
  0
LINE
  5
18D
330
1F
100
AcDbEntity
  8
0
  6
Continuous
 62
     7
100
AcDbLine
 10
953.6765681087
 20
194.5964848642
 30
0.0
 11
974.6765681087
 21
194.5964848642
 31
0.0
  0
ARC
  5
18E
330
1F
100
AcDbEntity
  8
0
  6
Continuous
 62
     7
100
AcDbCircle
 10
953.6765681087
 20
190.5964848642
 30
0.0
 40
4.0
100
AcDbArc
 50
90.0
 51
270.0
  0
LINE
  5
18F
330
1F
100
AcDbEntity
  8
0
  6
Continuous
 62
     7
100
AcDbLine
 10
924.6765681087
 20
186.5964848642
 30
0.0
 11
903.6765681087
 21
186.5964848642
 31
0.0
  0
ARC
  5
190
330
1F
100
AcDbEntity
  8
0
  6
Continuous
 62
     7
100
AcDbCircle
 10
924.6765681087
 20
190.5964848642
 30
0.0
 40
4.000000000000057
100
AcDbArc
 50
270.0
 51
90.0
  0
LINE
  5
191
330
1F
100
AcDbEntity
  8
0
  6
Continuous
 62
     7
100
AcDbLine
 10
903.6765681087
 20
194.5964848642
 30
0.0
 11
924.6765681087
 21
194.5964848642
 31
0.0
  0
ARC
  5
192
330
1F
100
AcDbEntity
  8
0
  6
Continuous
 62
     7
100
AcDbCircle
 10
903.6765681087
 20
190.5964848642
 30
0.0
 40
4.0
100
AcDbArc
 50
90.0
 51
270.0
  0
LINE
  5
193
330
1F
100
AcDbEntity
  8
0
  6
Continuous
 62
     7
100
AcDbLine
 10
874.6765681087
 20
186.5964848642
 30
0.0
 11
853.6765681087
 21
186.5964848642
 31
0.0
  0
ARC
  5
194
330
1F
100
AcDbEntity
  8
0
  6
Continuous
 62
     7
100
AcDbCircle
 10
874.6765681087
 20
190.5964848642
 30
0.0
 40
4.000000000000028
100
AcDbArc
 50
270.0
 51
90.0
  0
LINE
  5
195
330
1F
100
AcDbEntity
  8
0
  6
Continuous
 62
     7
100
AcDbLine
 10
853.6765681087
 20
194.5964848642
 30
0.0
 11
874.6765681087
 21
194.5964848642
 31
0.0
  0
ARC
  5
196
330
1F
100
AcDbEntity
  8
0
  6
Continuous
 62
     7
100
AcDbCircle
 10
853.6765681087
 20
190.5964848642
 30
0.0
 40
4.0
100
AcDbArc
 50
90.0
 51
270.0
  0
LINE
  5
197
330
1F
100
AcDbEntity
  8
0
  6
Continuous
 62
     7
100
AcDbLine
 10
824.6765681087
 20
186.5964848642
 30
0.0
 11
803.6765681087
 21
186.5964848642
 31
0.0
  0
ARC
  5
198
330
1F
100
AcDbEntity
  8
0
  6
Continuous
 62
     7
100
AcDbCircle
 10
824.6765681087
 20
190.5964848642
 30
0.0
 40
4.000000000000028
100
AcDbArc
 50
270.0
 51
90.0
  0
LINE
  5
199
330
1F
100
AcDbEntity
  8
0
  6
Continuous
 62
     7
100
AcDbLine
 10
803.6765681087
 20
194.5964848642
 30
0.0
 11
824.6765681087
 21
194.5964848642
 31
0.0
  0
ARC
  5
19A
330
1F
100
AcDbEntity
  8
0
  6
Continuous
 62
     7
100
AcDbCircle
 10
803.6765681087
 20
190.5964848642
 30
0.0
 40
4.0
100
AcDbArc
 50
90.0
 51
270.0
  0
LINE
  5
19B
330
1F
100
AcDbEntity
  8
0
  6
Continuous
 62
     7
100
AcDbLine
 10
774.6765681087
 20
186.5964848642
 30
0.0
 11
753.6765681087
 21
186.5964848642
 31
0.0
  0
ARC
  5
19C
330
1F
100
AcDbEntity
  8
0
  6
Continuous
 62
     7
100
AcDbCircle
 10
774.6765681087
 20
190.5964848642
 30
0.0
 40
4.000000000000028
100
AcDbArc
 50
270.0
 51
90.0
  0
LINE
  5
19D
330
1F
100
AcDbEntity
  8
0
  6
Continuous
 62
     7
100
AcDbLine
 10
753.6765681087
 20
194.5964848642
 30
0.0
 11
774.6765681087
 21
194.5964848642
 31
0.0
  0
ARC
  5
19E
330
1F
100
AcDbEntity
  8
0
  6
Continuous
 62
     7
100
AcDbCircle
 10
753.6765681087
 20
190.5964848642
 30
0.0
 40
4.0
100
AcDbArc
 50
90.0
 51
270.0
  0
LINE
  5
19F
330
1F
100
AcDbEntity
  8
0
  6
Continuous
 62
     7
100
AcDbLine
 10
724.6765681087
 20
186.5964848642
 30
0.0
 11
703.6765681087
 21
186.5964848642
 31
0.0
  0
ARC
  5
1A0
330
1F
100
AcDbEntity
  8
0
  6
Continuous
 62
     7
100
AcDbCircle
 10
724.6765681087
 20
190.5964848642
 30
0.0
 40
4.000000000000057
100
AcDbArc
 50
270.0
 51
90.0
  0
LINE
  5
1A1
330
1F
100
AcDbEntity
  8
0
  6
Continuous
 62
     7
100
AcDbLine
 10
703.6765681087
 20
194.5964848642
 30
0.0
 11
724.6765681087
 21
194.5964848642
 31
0.0
  0
ARC
  5
1A2
330
1F
100
AcDbEntity
  8
0
  6
Continuous
 62
     7
100
AcDbCircle
 10
703.6765681087
 20
190.5964848642
 30
0.0
 40
4.0
100
AcDbArc
 50
90.0
 51
270.0
  0
LINE
  5
1A3
330
1F
100
AcDbEntity
  8
0
  6
Continuous
 62
     7
100
AcDbLine
 10
674.6765681087
 20
186.5964848642
 30
0.0
 11
653.6765681087
 21
186.5964848642
 31
0.0
  0
ARC
  5
1A4
330
1F
100
AcDbEntity
  8
0
  6
Continuous
 62
     7
100
AcDbCircle
 10
674.6765681087
 20
190.5964848642
 30
0.0
 40
4.000000000000028
100
AcDbArc
 50
270.0
 51
90.0
  0
LINE
  5
1A5
330
1F
100
AcDbEntity
  8
0
  6
Continuous
 62
     7
100
AcDbLine
 10
653.6765681087
 20
194.5964848642
 30
0.0
 11
674.6765681087
 21
194.5964848642
 31
0.0
  0
ARC
  5
1A6
330
1F
100
AcDbEntity
  8
0
  6
Continuous
 62
     7
100
AcDbCircle
 10
653.6765681087
 20
190.5964848642
 30
0.0
 40
4.0
100
AcDbArc
 50
90.0
 51
270.0
  0
LINE
  5
1A7
330
1F
100
AcDbEntity
  8
0
  6
Continuous
 62
     7
100
AcDbLine
 10
624.6765681087
 20
186.5964848642
 30
0.0
 11
603.6765681087
 21
186.5964848642
 31
0.0
  0
ARC
  5
1A8
330
1F
100
AcDbEntity
  8
0
  6
Continuous
 62
     7
100
AcDbCircle
 10
624.6765681087
 20
190.5964848642
 30
0.0
 40
4.000000000000028
100
AcDbArc
 50
270.0
 51
90.0
  0
LINE
  5
1A9
330
1F
100
AcDbEntity
  8
0
  6
Continuous
 62
     7
100
AcDbLine
 10
603.6765681087
 20
194.5964848642
 30
0.0
 11
624.6765681087
 21
194.5964848642
 31
0.0
  0
ARC
  5
1AA
330
1F
100
AcDbEntity
  8
0
  6
Continuous
 62
     7
100
AcDbCircle
 10
603.6765681087
 20
190.5964848642
 30
0.0
 40
4.0
100
AcDbArc
 50
90.0
 51
270.0
  0
LINE
  5
1AB
330
1F
100
AcDbEntity
  8
0
  6
Continuous
 62
     7
100
AcDbLine
 10
1424.6765681087
 20
151.0964848642
 30
0.0
 11
1403.6765681087
 21
151.0964848642
 31
0.0
  0
ARC
  5
1AC
330
1F
100
AcDbEntity
  8
0
  6
Continuous
 62
     7
100
AcDbCircle
 10
1424.6765681087
 20
155.0964848642
 30
0.0
 40
4.000000000000028
100
AcDbArc
 50
270.0
 51
90.0
  0
LINE
  5
1AD
330
1F
100
AcDbEntity
  8
0
  6
Continuous
 62
     7
100
AcDbLine
 10
1403.6765681087
 20
159.0964848642
 30
0.0
 11
1424.6765681087
 21
159.0964848642
 31
0.0
  0
ARC
  5
1AE
330
1F
100
AcDbEntity
  8
0
  6
Continuous
 62
     7
100
AcDbCircle
 10
1403.6765681087
 20
155.0964848642
 30
0.0
 40
4.0
100
AcDbArc
 50
90.0
 51
270.0
  0
LINE
  5
1AF
330
1F
100
AcDbEntity
  8
0
  6
Continuous
 62
     7
100
AcDbLine
 10
1374.6765681087
 20
151.0964848642
 30
0.0
 11
1353.6765681087
 21
151.0964848642
 31
0.0
  0
ARC
  5
1B0
330
1F
100
AcDbEntity
  8
0
  6
Continuous
 62
     7
100
AcDbCircle
 10
1374.6765681087
 20
155.0964848642
 30
0.0
 40
4.000000000000028
100
AcDbArc
 50
270.0
 51
90.0
  0
LINE
  5
1B1
330
1F
100
AcDbEntity
  8
0
  6
Continuous
 62
     7
100
AcDbLine
 10
1353.6765681087
 20
159.0964848642
 30
0.0
 11
1374.6765681087
 21
159.0964848642
 31
0.0
  0
ARC
  5
1B2
330
1F
100
AcDbEntity
  8
0
  6
Continuous
 62
     7
100
AcDbCircle
 10
1353.6765681087
 20
155.0964848642
 30
0.0
 40
4.0
100
AcDbArc
 50
90.0
 51
270.0
  0
LINE
  5
1B3
330
1F
100
AcDbEntity
  8
0
  6
Continuous
 62
     7
100
AcDbLine
 10
1324.6765681087
 20
151.0964848642
 30
0.0
 11
1303.6765681087
 21
151.0964848642
 31
0.0
  0
ARC
  5
1B4
330
1F
100
AcDbEntity
  8
0
  6
Continuous
 62
     7
100
AcDbCircle
 10
1324.6765681087
 20
155.0964848642
 30
0.0
 40
4.000000000000028
100
AcDbArc
 50
270.0
 51
90.0
  0
LINE
  5
1B5
330
1F
100
AcDbEntity
  8
0
  6
Continuous
 62
     7
100
AcDbLine
 10
1303.6765681087
 20
159.0964848642
 30
0.0
 11
1324.6765681087
 21
159.0964848642
 31
0.0
  0
ARC
  5
1B6
330
1F
100
AcDbEntity
  8
0
  6
Continuous
 62
     7
100
AcDbCircle
 10
1303.6765681087
 20
155.0964848642
 30
0.0
 40
4.000000000000028
100
AcDbArc
 50
90.0
 51
270.0
  0
LINE
  5
1B7
330
1F
100
AcDbEntity
  8
0
  6
Continuous
 62
     7
100
AcDbLine
 10
1274.6765681087
 20
151.0964848642
 30
0.0
 11
1253.6765681087
 21
151.0964848642
 31
0.0
  0
ARC
  5
1B8
330
1F
100
AcDbEntity
  8
0
  6
Continuous
 62
     7
100
AcDbCircle
 10
1274.6765681087
 20
155.0964848642
 30
0.0
 40
4.000000000000028
100
AcDbArc
 50
270.0
 51
90.0
  0
LINE
  5
1B9
330
1F
100
AcDbEntity
  8
0
  6
Continuous
 62
     7
100
AcDbLine
 10
1253.6765681087
 20
159.0964848642
 30
0.0
 11
1274.6765681087
 21
159.0964848642
 31
0.0
  0
ARC
  5
1BA
330
1F
100
AcDbEntity
  8
0
  6
Continuous
 62
     7
100
AcDbCircle
 10
1253.6765681087
 20
155.0964848642
 30
0.0
 40
4.0
100
AcDbArc
 50
90.0
 51
270.0
  0
LINE
  5
1BB
330
1F
100
AcDbEntity
  8
0
  6
Continuous
 62
     7
100
AcDbLine
 10
1224.6765681087
 20
151.0964848642
 30
0.0
 11
1203.6765681087
 21
151.0964848642
 31
0.0
  0
ARC
  5
1BC
330
1F
100
AcDbEntity
  8
0
  6
Continuous
 62
     7
100
AcDbCircle
 10
1224.6765681087
 20
155.0964848642
 30
0.0
 40
4.000000000000028
100
AcDbArc
 50
270.0
 51
90.0
  0
LINE
  5
1BD
330
1F
100
AcDbEntity
  8
0
  6
Continuous
 62
     7
100
AcDbLine
 10
1203.6765681087
 20
159.0964848642
 30
0.0
 11
1224.6765681087
 21
159.0964848642
 31
0.0
  0
ARC
  5
1BE
330
1F
100
AcDbEntity
  8
0
  6
Continuous
 62
     7
100
AcDbCircle
 10
1203.6765681087
 20
155.0964848642
 30
0.0
 40
4.0
100
AcDbArc
 50
90.0
 51
270.0
  0
LINE
  5
1BF
330
1F
100
AcDbEntity
  8
0
  6
Continuous
 62
     7
100
AcDbLine
 10
1174.6765681087
 20
151.0964848642
 30
0.0
 11
1153.6765681087
 21
151.0964848642
 31
0.0
  0
ARC
  5
1C0
330
1F
100
AcDbEntity
  8
0
  6
Continuous
 62
     7
100
AcDbCircle
 10
1174.6765681087
 20
155.0964848642
 30
0.0
 40
4.000000000000028
100
AcDbArc
 50
270.0
 51
90.0
  0
LINE
  5
1C1
330
1F
100
AcDbEntity
  8
0
  6
Continuous
 62
     7
100
AcDbLine
 10
1153.6765681087
 20
159.0964848642
 30
0.0
 11
1174.6765681087
 21
159.0964848642
 31
0.0
  0
ARC
  5
1C2
330
1F
100
AcDbEntity
  8
0
  6
Continuous
 62
     7
100
AcDbCircle
 10
1153.6765681087
 20
155.0964848642
 30
0.0
 40
4.0
100
AcDbArc
 50
90.0
 51
270.0
  0
LINE
  5
1C3
330
1F
100
AcDbEntity
  8
0
  6
Continuous
 62
     7
100
AcDbLine
 10
1124.6765681087
 20
151.0964848642
 30
0.0
 11
1103.6765681087
 21
151.0964848642
 31
0.0
  0
ARC
  5
1C4
330
1F
100
AcDbEntity
  8
0
  6
Continuous
 62
     7
100
AcDbCircle
 10
1124.6765681087
 20
155.0964848642
 30
0.0
 40
4.000000000000028
100
AcDbArc
 50
270.0
 51
90.0
  0
LINE
  5
1C5
330
1F
100
AcDbEntity
  8
0
  6
Continuous
 62
     7
100
AcDbLine
 10
1103.6765681087
 20
159.0964848642
 30
0.0
 11
1124.6765681087
 21
159.0964848642
 31
0.0
  0
ARC
  5
1C6
330
1F
100
AcDbEntity
  8
0
  6
Continuous
 62
     7
100
AcDbCircle
 10
1103.6765681087
 20
155.0964848642
 30
0.0
 40
4.0
100
AcDbArc
 50
90.0
 51
270.0
  0
LINE
  5
1C7
330
1F
100
AcDbEntity
  8
0
  6
Continuous
 62
     7
100
AcDbLine
 10
1074.6765681087
 20
151.0964848642
 30
0.0
 11
1053.6765681087
 21
151.0964848642
 31
0.0
  0
ARC
  5
1C8
330
1F
100
AcDbEntity
  8
0
  6
Continuous
 62
     7
100
AcDbCircle
 10
1074.6765681087
 20
155.0964848642
 30
0.0
 40
4.000000000000028
100
AcDbArc
 50
270.0
 51
90.0
  0
LINE
  5
1C9
330
1F
100
AcDbEntity
  8
0
  6
Continuous
 62
     7
100
AcDbLine
 10
1053.6765681087
 20
159.0964848642
 30
0.0
 11
1074.6765681087
 21
159.0964848642
 31
0.0
  0
ARC
  5
1CA
330
1F
100
AcDbEntity
  8
0
  6
Continuous
 62
     7
100
AcDbCircle
 10
1053.6765681087
 20
155.0964848642
 30
0.0
 40
4.0
100
AcDbArc
 50
90.0
 51
270.0
  0
LINE
  5
1CB
330
1F
100
AcDbEntity
  8
0
  6
Continuous
 62
     7
100
AcDbLine
 10
1024.6765681087
 20
151.0964848642
 30
0.0
 11
1003.6765681087
 21
151.0964848642
 31
0.0
  0
ARC
  5
1CC
330
1F
100
AcDbEntity
  8
0
  6
Continuous
 62
     7
100
AcDbCircle
 10
1024.6765681087
 20
155.0964848642
 30
0.0
 40
4.000000000000028
100
AcDbArc
 50
270.0
 51
90.0
  0
LINE
  5
1CD
330
1F
100
AcDbEntity
  8
0
  6
Continuous
 62
     7
100
AcDbLine
 10
1003.6765681087
 20
159.0964848642
 30
0.0
 11
1024.6765681087
 21
159.0964848642
 31
0.0
  0
ARC
  5
1CE
330
1F
100
AcDbEntity
  8
0
  6
Continuous
 62
     7
100
AcDbCircle
 10
1003.6765681087
 20
155.0964848642
 30
0.0
 40
4.0
100
AcDbArc
 50
90.0
 51
270.0
  0
LINE
  5
1CF
330
1F
100
AcDbEntity
  8
0
  6
Continuous
 62
     7
100
AcDbLine
 10
974.6765681087
 20
151.0964848642
 30
0.0
 11
953.6765681087
 21
151.0964848642
 31
0.0
  0
ARC
  5
1D0
330
1F
100
AcDbEntity
  8
0
  6
Continuous
 62
     7
100
AcDbCircle
 10
974.6765681087
 20
155.0964848642
 30
0.0
 40
4.000000000000057
100
AcDbArc
 50
270.0
 51
90.0
  0
LINE
  5
1D1
330
1F
100
AcDbEntity
  8
0
  6
Continuous
 62
     7
100
AcDbLine
 10
953.6765681087
 20
159.0964848642
 30
0.0
 11
974.6765681087
 21
159.0964848642
 31
0.0
  0
ARC
  5
1D2
330
1F
100
AcDbEntity
  8
0
  6
Continuous
 62
     7
100
AcDbCircle
 10
953.6765681087
 20
155.0964848642
 30
0.0
 40
4.000000000000028
100
AcDbArc
 50
90.0
 51
270.0
  0
LINE
  5
1D3
330
1F
100
AcDbEntity
  8
0
  6
Continuous
 62
     7
100
AcDbLine
 10
924.6765681087
 20
151.0964848642
 30
0.0
 11
903.6765681087
 21
151.0964848642
 31
0.0
  0
ARC
  5
1D4
330
1F
100
AcDbEntity
  8
0
  6
Continuous
 62
     7
100
AcDbCircle
 10
924.6765681087
 20
155.0964848642
 30
0.0
 40
4.000000000000028
100
AcDbArc
 50
270.0
 51
90.0
  0
LINE
  5
1D5
330
1F
100
AcDbEntity
  8
0
  6
Continuous
 62
     7
100
AcDbLine
 10
903.6765681087
 20
159.0964848642
 30
0.0
 11
924.6765681087
 21
159.0964848642
 31
0.0
  0
ARC
  5
1D6
330
1F
100
AcDbEntity
  8
0
  6
Continuous
 62
     7
100
AcDbCircle
 10
903.6765681087
 20
155.0964848642
 30
0.0
 40
4.0
100
AcDbArc
 50
90.0
 51
270.0
  0
LINE
  5
1D7
330
1F
100
AcDbEntity
  8
0
  6
Continuous
 62
     7
100
AcDbLine
 10
874.6765681087
 20
151.0964848642
 30
0.0
 11
853.6765681087
 21
151.0964848642
 31
0.0
  0
ARC
  5
1D8
330
1F
100
AcDbEntity
  8
0
  6
Continuous
 62
     7
100
AcDbCircle
 10
874.6765681087
 20
155.0964848642
 30
0.0
 40
4.000000000000028
100
AcDbArc
 50
270.0
 51
90.0
  0
LINE
  5
1D9
330
1F
100
AcDbEntity
  8
0
  6
Continuous
 62
     7
100
AcDbLine
 10
853.6765681087
 20
159.0964848642
 30
0.0
 11
874.6765681087
 21
159.0964848642
 31
0.0
  0
ARC
  5
1DA
330
1F
100
AcDbEntity
  8
0
  6
Continuous
 62
     7
100
AcDbCircle
 10
853.6765681087
 20
155.0964848642
 30
0.0
 40
4.0
100
AcDbArc
 50
90.0
 51
270.0
  0
LINE
  5
1DB
330
1F
100
AcDbEntity
  8
0
  6
Continuous
 62
     7
100
AcDbLine
 10
824.6765681087
 20
151.0964848642
 30
0.0
 11
803.6765681087
 21
151.0964848642
 31
0.0
  0
ARC
  5
1DC
330
1F
100
AcDbEntity
  8
0
  6
Continuous
 62
     7
100
AcDbCircle
 10
824.6765681087
 20
155.0964848642
 30
0.0
 40
4.000000000000028
100
AcDbArc
 50
270.0
 51
90.0
  0
LINE
  5
1DD
330
1F
100
AcDbEntity
  8
0
  6
Continuous
 62
     7
100
AcDbLine
 10
803.6765681087
 20
159.0964848642
 30
0.0
 11
824.6765681087
 21
159.0964848642
 31
0.0
  0
ARC
  5
1DE
330
1F
100
AcDbEntity
  8
0
  6
Continuous
 62
     7
100
AcDbCircle
 10
803.6765681087
 20
155.0964848642
 30
0.0
 40
4.0
100
AcDbArc
 50
90.0
 51
270.0
  0
LINE
  5
1DF
330
1F
100
AcDbEntity
  8
0
  6
Continuous
 62
     7
100
AcDbLine
 10
774.6765681087
 20
151.0964848642
 30
0.0
 11
753.6765681087
 21
151.0964848642
 31
0.0
  0
ARC
  5
1E0
330
1F
100
AcDbEntity
  8
0
  6
Continuous
 62
     7
100
AcDbCircle
 10
774.6765681087
 20
155.0964848642
 30
0.0
 40
4.000000000000028
100
AcDbArc
 50
270.0
 51
90.0
  0
LINE
  5
1E1
330
1F
100
AcDbEntity
  8
0
  6
Continuous
 62
     7
100
AcDbLine
 10
753.6765681087
 20
159.0964848642
 30
0.0
 11
774.6765681087
 21
159.0964848642
 31
0.0
  0
ARC
  5
1E2
330
1F
100
AcDbEntity
  8
0
  6
Continuous
 62
     7
100
AcDbCircle
 10
753.6765681087
 20
155.0964848642
 30
0.0
 40
4.0
100
AcDbArc
 50
90.0
 51
270.0
  0
LINE
  5
1E3
330
1F
100
AcDbEntity
  8
0
  6
Continuous
 62
     7
100
AcDbLine
 10
724.6765681087
 20
151.0964848642
 30
0.0
 11
703.6765681087
 21
151.0964848642
 31
0.0
  0
ARC
  5
1E4
330
1F
100
AcDbEntity
  8
0
  6
Continuous
 62
     7
100
AcDbCircle
 10
724.6765681087
 20
155.0964848642
 30
0.0
 40
4.000000000000028
100
AcDbArc
 50
270.0
 51
90.0
  0
LINE
  5
1E5
330
1F
100
AcDbEntity
  8
0
  6
Continuous
 62
     7
100
AcDbLine
 10
703.6765681087
 20
159.0964848642
 30
0.0
 11
724.6765681087
 21
159.0964848642
 31
0.0
  0
ARC
  5
1E6
330
1F
100
AcDbEntity
  8
0
  6
Continuous
 62
     7
100
AcDbCircle
 10
703.6765681087
 20
155.0964848642
 30
0.0
 40
4.0
100
AcDbArc
 50
90.0
 51
270.0
  0
LINE
  5
1E7
330
1F
100
AcDbEntity
  8
0
  6
Continuous
 62
     7
100
AcDbLine
 10
674.6765681087
 20
151.0964848642
 30
0.0
 11
653.6765681087
 21
151.0964848642
 31
0.0
  0
ARC
  5
1E8
330
1F
100
AcDbEntity
  8
0
  6
Continuous
 62
     7
100
AcDbCircle
 10
674.6765681087
 20
155.0964848642
 30
0.0
 40
4.000000000000028
100
AcDbArc
 50
270.0
 51
90.0
  0
LINE
  5
1E9
330
1F
100
AcDbEntity
  8
0
  6
Continuous
 62
     7
100
AcDbLine
 10
653.6765681087
 20
159.0964848642
 30
0.0
 11
674.6765681087
 21
159.0964848642
 31
0.0
  0
ARC
  5
1EA
330
1F
100
AcDbEntity
  8
0
  6
Continuous
 62
     7
100
AcDbCircle
 10
653.6765681087
 20
155.0964848642
 30
0.0
 40
4.000000000000028
100
AcDbArc
 50
90.0
 51
270.0
  0
LINE
  5
1EB
330
1F
100
AcDbEntity
  8
0
  6
Continuous
 62
     7
100
AcDbLine
 10
624.6765681087
 20
151.0964848642
 30
0.0
 11
603.6765681087
 21
151.0964848642
 31
0.0
  0
ARC
  5
1EC
330
1F
100
AcDbEntity
  8
0
  6
Continuous
 62
     7
100
AcDbCircle
 10
624.6765681087
 20
155.0964848642
 30
0.0
 40
4.000000000000028
100
AcDbArc
 50
270.0
 51
90.0
  0
LINE
  5
1ED
330
1F
100
AcDbEntity
  8
0
  6
Continuous
 62
     7
100
AcDbLine
 10
603.6765681087
 20
159.0964848642
 30
0.0
 11
624.6765681087
 21
159.0964848642
 31
0.0
  0
ARC
  5
1EE
330
1F
100
AcDbEntity
  8
0
  6
Continuous
 62
     7
100
AcDbCircle
 10
603.6765681087
 20
155.0964848642
 30
0.0
 40
4.0
100
AcDbArc
 50
90.0
 51
270.0
  0
LINE
  5
1EF
330
1F
100
AcDbEntity
  8
0
  6
Continuous
 62
     7
100
AcDbLine
 10
1424.6765681087
 20
115.5964848642
 30
0.0
 11
1403.6765681087
 21
115.5964848642
 31
0.0
  0
ARC
  5
1F0
330
1F
100
AcDbEntity
  8
0
  6
Continuous
 62
     7
100
AcDbCircle
 10
1424.6765681087
 20
119.5964848642
 30
0.0
 40
4.000000000000028
100
AcDbArc
 50
270.0
 51
90.0
  0
LINE
  5
1F1
330
1F
100
AcDbEntity
  8
0
  6
Continuous
 62
     7
100
AcDbLine
 10
1403.6765681087
 20
123.5964848642
 30
0.0
 11
1424.6765681087
 21
123.5964848642
 31
0.0
  0
ARC
  5
1F2
330
1F
100
AcDbEntity
  8
0
  6
Continuous
 62
     7
100
AcDbCircle
 10
1403.6765681087
 20
119.5964848642
 30
0.0
 40
4.0
100
AcDbArc
 50
90.0
 51
270.0
  0
LINE
  5
1F3
330
1F
100
AcDbEntity
  8
0
  6
Continuous
 62
     7
100
AcDbLine
 10
1374.6765681087
 20
115.5964848642
 30
0.0
 11
1353.6765681087
 21
115.5964848642
 31
0.0
  0
ARC
  5
1F4
330
1F
100
AcDbEntity
  8
0
  6
Continuous
 62
     7
100
AcDbCircle
 10
1374.6765681087
 20
119.5964848642
 30
0.0
 40
4.000000000000057
100
AcDbArc
 50
270.0
 51
90.0
  0
LINE
  5
1F5
330
1F
100
AcDbEntity
  8
0
  6
Continuous
 62
     7
100
AcDbLine
 10
1353.6765681087
 20
123.5964848642
 30
0.0
 11
1374.6765681087
 21
123.5964848642
 31
0.0
  0
ARC
  5
1F6
330
1F
100
AcDbEntity
  8
0
  6
Continuous
 62
     7
100
AcDbCircle
 10
1353.6765681087
 20
119.5964848642
 30
0.0
 40
4.0
100
AcDbArc
 50
90.0
 51
270.0
  0
LINE
  5
1F7
330
1F
100
AcDbEntity
  8
0
  6
Continuous
 62
     7
100
AcDbLine
 10
1324.6765681087
 20
115.5964848642
 30
0.0
 11
1303.6765681087
 21
115.5964848642
 31
0.0
  0
ARC
  5
1F8
330
1F
100
AcDbEntity
  8
0
  6
Continuous
 62
     7
100
AcDbCircle
 10
1324.6765681087
 20
119.5964848642
 30
0.0
 40
4.000000000000028
100
AcDbArc
 50
270.0
 51
90.0
  0
LINE
  5
1F9
330
1F
100
AcDbEntity
  8
0
  6
Continuous
 62
     7
100
AcDbLine
 10
1303.6765681087
 20
123.5964848642
 30
0.0
 11
1324.6765681087
 21
123.5964848642
 31
0.0
  0
ARC
  5
1FA
330
1F
100
AcDbEntity
  8
0
  6
Continuous
 62
     7
100
AcDbCircle
 10
1303.6765681087
 20
119.5964848642
 30
0.0
 40
4.0
100
AcDbArc
 50
90.0
 51
270.0
  0
LINE
  5
1FB
330
1F
100
AcDbEntity
  8
0
  6
Continuous
 62
     7
100
AcDbLine
 10
1274.6765681087
 20
115.5964848642
 30
0.0
 11
1253.6765681087
 21
115.5964848642
 31
0.0
  0
ARC
  5
1FC
330
1F
100
AcDbEntity
  8
0
  6
Continuous
 62
     7
100
AcDbCircle
 10
1274.6765681087
 20
119.5964848642
 30
0.0
 40
4.0
100
AcDbArc
 50
270.0
 51
90.0
  0
LINE
  5
1FD
330
1F
100
AcDbEntity
  8
0
  6
Continuous
 62
     7
100
AcDbLine
 10
1253.6765681087
 20
123.5964848642
 30
0.0
 11
1274.6765681087
 21
123.5964848642
 31
0.0
  0
ARC
  5
1FE
330
1F
100
AcDbEntity
  8
0
  6
Continuous
 62
     7
100
AcDbCircle
 10
1253.6765681087
 20
119.5964848642
 30
0.0
 40
4.0
100
AcDbArc
 50
90.0
 51
270.0
  0
LINE
  5
1FF
330
1F
100
AcDbEntity
  8
0
  6
Continuous
 62
     7
100
AcDbLine
 10
1224.6765681087
 20
115.5964848642
 30
0.0
 11
1203.6765681087
 21
115.5964848642
 31
0.0
  0
ARC
  5
200
330
1F
100
AcDbEntity
  8
0
  6
Continuous
 62
     7
100
AcDbCircle
 10
1224.6765681087
 20
119.5964848642
 30
0.0
 40
4.000000000000028
100
AcDbArc
 50
270.0
 51
90.0
  0
LINE
  5
201
330
1F
100
AcDbEntity
  8
0
  6
Continuous
 62
     7
100
AcDbLine
 10
1203.6765681087
 20
123.5964848642
 30
0.0
 11
1224.6765681087
 21
123.5964848642
 31
0.0
  0
ARC
  5
202
330
1F
100
AcDbEntity
  8
0
  6
Continuous
 62
     7
100
AcDbCircle
 10
1203.6765681087
 20
119.5964848642
 30
0.0
 40
4.0
100
AcDbArc
 50
90.0
 51
270.0
  0
LINE
  5
203
330
1F
100
AcDbEntity
  8
0
  6
Continuous
 62
     7
100
AcDbLine
 10
1174.6765681087
 20
115.5964848642
 30
0.0
 11
1153.6765681087
 21
115.5964848642
 31
0.0
  0
ARC
  5
204
330
1F
100
AcDbEntity
  8
0
  6
Continuous
 62
     7
100
AcDbCircle
 10
1174.6765681087
 20
119.5964848642
 30
0.0
 40
4.000000000000071
100
AcDbArc
 50
270.0
 51
90.0
  0
LINE
  5
205
330
1F
100
AcDbEntity
  8
0
  6
Continuous
 62
     7
100
AcDbLine
 10
1153.6765681087
 20
123.5964848642
 30
0.0
 11
1174.6765681087
 21
123.5964848642
 31
0.0
  0
ARC
  5
206
330
1F
100
AcDbEntity
  8
0
  6
Continuous
 62
     7
100
AcDbCircle
 10
1153.6765681087
 20
119.5964848642
 30
0.0
 40
4.000000000000014
100
AcDbArc
 50
90.0
 51
270.0
  0
LINE
  5
207
330
1F
100
AcDbEntity
  8
0
  6
Continuous
 62
     7
100
AcDbLine
 10
1124.6765681087
 20
115.5964848642
 30
0.0
 11
1103.6765681087
 21
115.5964848642
 31
0.0
  0
ARC
  5
208
330
1F
100
AcDbEntity
  8
0
  6
Continuous
 62
     7
100
AcDbCircle
 10
1124.6765681087
 20
119.5964848642
 30
0.0
 40
4.000000000000028
100
AcDbArc
 50
270.0
 51
90.0
  0
LINE
  5
209
330
1F
100
AcDbEntity
  8
0
  6
Continuous
 62
     7
100
AcDbLine
 10
1103.6765681087
 20
123.5964848642
 30
0.0
 11
1124.6765681087
 21
123.5964848642
 31
0.0
  0
ARC
  5
20A
330
1F
100
AcDbEntity
  8
0
  6
Continuous
 62
     7
100
AcDbCircle
 10
1103.6765681087
 20
119.5964848642
 30
0.0
 40
4.0
100
AcDbArc
 50
90.0
 51
270.0
  0
LINE
  5
20B
330
1F
100
AcDbEntity
  8
0
  6
Continuous
 62
     7
100
AcDbLine
 10
1074.6765681087
 20
115.5964848642
 30
0.0
 11
1053.6765681087
 21
115.5964848642
 31
0.0
  0
ARC
  5
20C
330
1F
100
AcDbEntity
  8
0
  6
Continuous
 62
     7
100
AcDbCircle
 10
1074.6765681087
 20
119.5964848642
 30
0.0
 40
4.0
100
AcDbArc
 50
270.0
 51
90.0
  0
LINE
  5
20D
330
1F
100
AcDbEntity
  8
0
  6
Continuous
 62
     7
100
AcDbLine
 10
1053.6765681087
 20
123.5964848642
 30
0.0
 11
1074.6765681087
 21
123.5964848642
 31
0.0
  0
ARC
  5
20E
330
1F
100
AcDbEntity
  8
0
  6
Continuous
 62
     7
100
AcDbCircle
 10
1053.6765681087
 20
119.5964848642
 30
0.0
 40
4.0
100
AcDbArc
 50
90.0
 51
270.0
  0
LINE
  5
20F
330
1F
100
AcDbEntity
  8
0
  6
Continuous
 62
     7
100
AcDbLine
 10
1024.6765681087
 20
115.5964848642
 30
0.0
 11
1003.6765681087
 21
115.5964848642
 31
0.0
  0
ARC
  5
210
330
1F
100
AcDbEntity
  8
0
  6
Continuous
 62
     7
100
AcDbCircle
 10
1024.6765681087
 20
119.5964848642
 30
0.0
 40
4.000000000000043
100
AcDbArc
 50
270.0
 51
90.0
  0
LINE
  5
211
330
1F
100
AcDbEntity
  8
0
  6
Continuous
 62
     7
100
AcDbLine
 10
1003.6765681087
 20
123.5964848642
 30
0.0
 11
1024.6765681087
 21
123.5964848642
 31
0.0
  0
ARC
  5
212
330
1F
100
AcDbEntity
  8
0
  6
Continuous
 62
     7
100
AcDbCircle
 10
1003.6765681087
 20
119.5964848642
 30
0.0
 40
4.000000000000014
100
AcDbArc
 50
90.0
 51
270.0
  0
LINE
  5
213
330
1F
100
AcDbEntity
  8
0
  6
Continuous
 62
     7
100
AcDbLine
 10
974.6765681087
 20
115.5964848642
 30
0.0
 11
953.6765681087
 21
115.5964848642
 31
0.0
  0
ARC
  5
214
330
1F
100
AcDbEntity
  8
0
  6
Continuous
 62
     7
100
AcDbCircle
 10
974.6765681087
 20
119.5964848642
 30
0.0
 40
4.000000000000028
100
AcDbArc
 50
270.0
 51
90.0
  0
LINE
  5
215
330
1F
100
AcDbEntity
  8
0
  6
Continuous
 62
     7
100
AcDbLine
 10
953.6765681087
 20
123.5964848642
 30
0.0
 11
974.6765681087
 21
123.5964848642
 31
0.0
  0
ARC
  5
216
330
1F
100
AcDbEntity
  8
0
  6
Continuous
 62
     7
100
AcDbCircle
 10
953.6765681087
 20
119.5964848642
 30
0.0
 40
4.0
100
AcDbArc
 50
90.0
 51
270.0
  0
LINE
  5
217
330
1F
100
AcDbEntity
  8
0
  6
Continuous
 62
     7
100
AcDbLine
 10
924.6765681087
 20
115.5964848642
 30
0.0
 11
903.6765681087
 21
115.5964848642
 31
0.0
  0
ARC
  5
218
330
1F
100
AcDbEntity
  8
0
  6
Continuous
 62
     7
100
AcDbCircle
 10
924.6765681087
 20
119.5964848642
 30
0.0
 40
4.000000000000057
100
AcDbArc
 50
270.0
 51
90.0
  0
LINE
  5
219
330
1F
100
AcDbEntity
  8
0
  6
Continuous
 62
     7
100
AcDbLine
 10
903.6765681087
 20
123.5964848642
 30
0.0
 11
924.6765681087
 21
123.5964848642
 31
0.0
  0
ARC
  5
21A
330
1F
100
AcDbEntity
  8
0
  6
Continuous
 62
     7
100
AcDbCircle
 10
903.6765681087
 20
119.5964848642
 30
0.0
 40
4.0
100
AcDbArc
 50
90.0
 51
270.0
  0
LINE
  5
21B
330
1F
100
AcDbEntity
  8
0
  6
Continuous
 62
     7
100
AcDbLine
 10
874.6765681087
 20
115.5964848642
 30
0.0
 11
853.6765681087
 21
115.5964848642
 31
0.0
  0
ARC
  5
21C
330
1F
100
AcDbEntity
  8
0
  6
Continuous
 62
     7
100
AcDbCircle
 10
874.6765681087
 20
119.5964848642
 30
0.0
 40
4.000000000000028
100
AcDbArc
 50
270.0
 51
90.0
  0
LINE
  5
21D
330
1F
100
AcDbEntity
  8
0
  6
Continuous
 62
     7
100
AcDbLine
 10
853.6765681087
 20
123.5964848642
 30
0.0
 11
874.6765681087
 21
123.5964848642
 31
0.0
  0
ARC
  5
21E
330
1F
100
AcDbEntity
  8
0
  6
Continuous
 62
     7
100
AcDbCircle
 10
853.6765681087
 20
119.5964848642
 30
0.0
 40
4.0
100
AcDbArc
 50
90.0
 51
270.0
  0
LINE
  5
21F
330
1F
100
AcDbEntity
  8
0
  6
Continuous
 62
     7
100
AcDbLine
 10
824.6765681087
 20
115.5964848642
 30
0.0
 11
803.6765681087
 21
115.5964848642
 31
0.0
  0
ARC
  5
220
330
1F
100
AcDbEntity
  8
0
  6
Continuous
 62
     7
100
AcDbCircle
 10
824.6765681087
 20
119.5964848642
 30
0.0
 40
4.0
100
AcDbArc
 50
270.0
 51
90.0
  0
LINE
  5
221
330
1F
100
AcDbEntity
  8
0
  6
Continuous
 62
     7
100
AcDbLine
 10
803.6765681087
 20
123.5964848642
 30
0.0
 11
824.6765681087
 21
123.5964848642
 31
0.0
  0
ARC
  5
222
330
1F
100
AcDbEntity
  8
0
  6
Continuous
 62
     7
100
AcDbCircle
 10
803.6765681087
 20
119.5964848642
 30
0.0
 40
4.0
100
AcDbArc
 50
90.0
 51
270.0
  0
LINE
  5
223
330
1F
100
AcDbEntity
  8
0
  6
Continuous
 62
     7
100
AcDbLine
 10
774.6765681087
 20
115.5964848642
 30
0.0
 11
753.6765681087
 21
115.5964848642
 31
0.0
  0
ARC
  5
224
330
1F
100
AcDbEntity
  8
0
  6
Continuous
 62
     7
100
AcDbCircle
 10
774.6765681087
 20
119.5964848642
 30
0.0
 40
4.000000000000028
100
AcDbArc
 50
270.0
 51
90.0
  0
LINE
  5
225
330
1F
100
AcDbEntity
  8
0
  6
Continuous
 62
     7
100
AcDbLine
 10
753.6765681087
 20
123.5964848642
 30
0.0
 11
774.6765681087
 21
123.5964848642
 31
0.0
  0
ARC
  5
226
330
1F
100
AcDbEntity
  8
0
  6
Continuous
 62
     7
100
AcDbCircle
 10
753.6765681087
 20
119.5964848642
 30
0.0
 40
4.0
100
AcDbArc
 50
90.0
 51
270.0
  0
LINE
  5
227
330
1F
100
AcDbEntity
  8
0
  6
Continuous
 62
     7
100
AcDbLine
 10
724.6765681087
 20
115.5964848642
 30
0.0
 11
703.6765681087
 21
115.5964848642
 31
0.0
  0
ARC
  5
228
330
1F
100
AcDbEntity
  8
0
  6
Continuous
 62
     7
100
AcDbCircle
 10
724.6765681087
 20
119.5964848642
 30
0.0
 40
4.000000000000057
100
AcDbArc
 50
270.0
 51
90.0
  0
LINE
  5
229
330
1F
100
AcDbEntity
  8
0
  6
Continuous
 62
     7
100
AcDbLine
 10
703.6765681087
 20
123.5964848642
 30
0.0
 11
724.6765681087
 21
123.5964848642
 31
0.0
  0
ARC
  5
22A
330
1F
100
AcDbEntity
  8
0
  6
Continuous
 62
     7
100
AcDbCircle
 10
703.6765681087
 20
119.5964848642
 30
0.0
 40
4.0
100
AcDbArc
 50
90.0
 51
270.0
  0
LINE
  5
22B
330
1F
100
AcDbEntity
  8
0
  6
Continuous
 62
     7
100
AcDbLine
 10
674.6765681087
 20
115.5964848642
 30
0.0
 11
653.6765681087
 21
115.5964848642
 31
0.0
  0
ARC
  5
22C
330
1F
100
AcDbEntity
  8
0
  6
Continuous
 62
     7
100
AcDbCircle
 10
674.6765681087
 20
119.5964848642
 30
0.0
 40
4.000000000000043
100
AcDbArc
 50
270.0
 51
90.0
  0
LINE
  5
22D
330
1F
100
AcDbEntity
  8
0
  6
Continuous
 62
     7
100
AcDbLine
 10
653.6765681087
 20
123.5964848642
 30
0.0
 11
674.6765681087
 21
123.5964848642
 31
0.0
  0
ARC
  5
22E
330
1F
100
AcDbEntity
  8
0
  6
Continuous
 62
     7
100
AcDbCircle
 10
653.6765681087
 20
119.5964848642
 30
0.0
 40
4.000000000000014
100
AcDbArc
 50
90.0
 51
270.0
  0
LINE
  5
22F
330
1F
100
AcDbEntity
  8
0
  6
Continuous
 62
     7
100
AcDbLine
 10
624.6765681087
 20
115.5964848642
 30
0.0
 11
603.6765681087
 21
115.5964848642
 31
0.0
  0
ARC
  5
230
330
1F
100
AcDbEntity
  8
0
  6
Continuous
 62
     7
100
AcDbCircle
 10
624.6765681087
 20
119.5964848642
 30
0.0
 40
4.0
100
AcDbArc
 50
270.0
 51
90.0
  0
LINE
  5
231
330
1F
100
AcDbEntity
  8
0
  6
Continuous
 62
     7
100
AcDbLine
 10
603.6765681087
 20
123.5964848642
 30
0.0
 11
624.6765681087
 21
123.5964848642
 31
0.0
  0
ARC
  5
232
330
1F
100
AcDbEntity
  8
0
  6
Continuous
 62
     7
100
AcDbCircle
 10
603.6765681087
 20
119.5964848642
 30
0.0
 40
4.0
100
AcDbArc
 50
90.0
 51
270.0
  0
LINE
  5
233
330
1F
100
AcDbEntity
  8
0
  6
Continuous
 62
     7
100
AcDbLine
 10
1424.6765681087
 20
80.0964848642
 30
0.0
 11
1403.6765681087
 21
80.0964848642
 31
0.0
  0
ARC
  5
234
330
1F
100
AcDbEntity
  8
0
  6
Continuous
 62
     7
100
AcDbCircle
 10
1424.6765681087
 20
84.0964848642
 30
0.0
 40
4.000000000000028
100
AcDbArc
 50
270.0
 51
90.0
  0
LINE
  5
235
330
1F
100
AcDbEntity
  8
0
  6
Continuous
 62
     7
100
AcDbLine
 10
1403.6765681087
 20
88.0964848642
 30
0.0
 11
1424.6765681087
 21
88.0964848642
 31
0.0
  0
ARC
  5
236
330
1F
100
AcDbEntity
  8
0
  6
Continuous
 62
     7
100
AcDbCircle
 10
1403.6765681087
 20
84.0964848642
 30
0.0
 40
4.0
100
AcDbArc
 50
90.0
 51
270.0
  0
LINE
  5
237
330
1F
100
AcDbEntity
  8
0
  6
Continuous
 62
     7
100
AcDbLine
 10
1374.6765681087
 20
80.0964848642
 30
0.0
 11
1353.6765681087
 21
80.0964848642
 31
0.0
  0
ARC
  5
238
330
1F
100
AcDbEntity
  8
0
  6
Continuous
 62
     7
100
AcDbCircle
 10
1374.6765681087
 20
84.0964848642
 30
0.0
 40
4.0
100
AcDbArc
 50
270.0
 51
90.0
  0
LINE
  5
239
330
1F
100
AcDbEntity
  8
0
  6
Continuous
 62
     7
100
AcDbLine
 10
1353.6765681087
 20
88.0964848642
 30
0.0
 11
1374.6765681087
 21
88.0964848642
 31
0.0
  0
ARC
  5
23A
330
1F
100
AcDbEntity
  8
0
  6
Continuous
 62
     7
100
AcDbCircle
 10
1353.6765681087
 20
84.0964848642
 30
0.0
 40
4.0
100
AcDbArc
 50
90.0
 51
270.0
  0
LINE
  5
23B
330
1F
100
AcDbEntity
  8
0
  6
Continuous
 62
     7
100
AcDbLine
 10
1324.6765681087
 20
80.0964848642
 30
0.0
 11
1303.6765681087
 21
80.0964848642
 31
0.0
  0
ARC
  5
23C
330
1F
100
AcDbEntity
  8
0
  6
Continuous
 62
     7
100
AcDbCircle
 10
1324.6765681087
 20
84.0964848642
 30
0.0
 40
4.000000000000028
100
AcDbArc
 50
270.0
 51
90.0
  0
LINE
  5
23D
330
1F
100
AcDbEntity
  8
0
  6
Continuous
 62
     7
100
AcDbLine
 10
1303.6765681087
 20
88.0964848642
 30
0.0
 11
1324.6765681087
 21
88.0964848642
 31
0.0
  0
ARC
  5
23E
330
1F
100
AcDbEntity
  8
0
  6
Continuous
 62
     7
100
AcDbCircle
 10
1303.6765681087
 20
84.0964848642
 30
0.0
 40
4.0
100
AcDbArc
 50
90.0
 51
270.0
  0
LINE
  5
23F
330
1F
100
AcDbEntity
  8
0
  6
Continuous
 62
     7
100
AcDbLine
 10
1274.6765681087
 20
80.0964848642
 30
0.0
 11
1253.6765681087
 21
80.0964848642
 31
0.0
  0
ARC
  5
240
330
1F
100
AcDbEntity
  8
0
  6
Continuous
 62
     7
100
AcDbCircle
 10
1274.6765681087
 20
84.0964848642
 30
0.0
 40
4.000000000000028
100
AcDbArc
 50
270.0
 51
90.0
  0
LINE
  5
241
330
1F
100
AcDbEntity
  8
0
  6
Continuous
 62
     7
100
AcDbLine
 10
1253.6765681087
 20
88.0964848642
 30
0.0
 11
1274.6765681087
 21
88.0964848642
 31
0.0
  0
ARC
  5
242
330
1F
100
AcDbEntity
  8
0
  6
Continuous
 62
     7
100
AcDbCircle
 10
1253.6765681087
 20
84.0964848642
 30
0.0
 40
4.0
100
AcDbArc
 50
90.0
 51
270.0
  0
LINE
  5
243
330
1F
100
AcDbEntity
  8
0
  6
Continuous
 62
     7
100
AcDbLine
 10
1224.6765681087
 20
80.0964848642
 30
0.0
 11
1203.6765681087
 21
80.0964848642
 31
0.0
  0
ARC
  5
244
330
1F
100
AcDbEntity
  8
0
  6
Continuous
 62
     7
100
AcDbCircle
 10
1224.6765681087
 20
84.0964848642
 30
0.0
 40
4.000000000000028
100
AcDbArc
 50
270.0
 51
90.0
  0
LINE
  5
245
330
1F
100
AcDbEntity
  8
0
  6
Continuous
 62
     7
100
AcDbLine
 10
1203.6765681087
 20
88.0964848642
 30
0.0
 11
1224.6765681087
 21
88.0964848642
 31
0.0
  0
ARC
  5
246
330
1F
100
AcDbEntity
  8
0
  6
Continuous
 62
     7
100
AcDbCircle
 10
1203.6765681087
 20
84.0964848642
 30
0.0
 40
4.0
100
AcDbArc
 50
90.0
 51
270.0
  0
LINE
  5
247
330
1F
100
AcDbEntity
  8
0
  6
Continuous
 62
     7
100
AcDbLine
 10
1174.6765681087
 20
80.0964848642
 30
0.0
 11
1153.6765681087
 21
80.0964848642
 31
0.0
  0
ARC
  5
248
330
1F
100
AcDbEntity
  8
0
  6
Continuous
 62
     7
100
AcDbCircle
 10
1174.6765681087
 20
84.0964848642
 30
0.0
 40
4.0
100
AcDbArc
 50
270.0
 51
90.0
  0
LINE
  5
249
330
1F
100
AcDbEntity
  8
0
  6
Continuous
 62
     7
100
AcDbLine
 10
1153.6765681087
 20
88.0964848642
 30
0.0
 11
1174.6765681087
 21
88.0964848642
 31
0.0
  0
ARC
  5
24A
330
1F
100
AcDbEntity
  8
0
  6
Continuous
 62
     7
100
AcDbCircle
 10
1153.6765681087
 20
84.0964848642
 30
0.0
 40
4.0
100
AcDbArc
 50
90.0
 51
270.0
  0
LINE
  5
24B
330
1F
100
AcDbEntity
  8
0
  6
Continuous
 62
     7
100
AcDbLine
 10
1124.6765681087
 20
80.0964848642
 30
0.0
 11
1103.6765681087
 21
80.0964848642
 31
0.0
  0
ARC
  5
24C
330
1F
100
AcDbEntity
  8
0
  6
Continuous
 62
     7
100
AcDbCircle
 10
1124.6765681087
 20
84.0964848642
 30
0.0
 40
4.000000000000014
100
AcDbArc
 50
270.0
 51
90.0
  0
LINE
  5
24D
330
1F
100
AcDbEntity
  8
0
  6
Continuous
 62
     7
100
AcDbLine
 10
1103.6765681087
 20
88.0964848642
 30
0.0
 11
1124.6765681087
 21
88.0964848642
 31
0.0
  0
ARC
  5
24E
330
1F
100
AcDbEntity
  8
0
  6
Continuous
 62
     7
100
AcDbCircle
 10
1103.6765681087
 20
84.0964848642
 30
0.0
 40
4.000000000000014
100
AcDbArc
 50
90.0
 51
270.0
  0
LINE
  5
24F
330
1F
100
AcDbEntity
  8
0
  6
Continuous
 62
     7
100
AcDbLine
 10
1074.6765681087
 20
80.0964848642
 30
0.0
 11
1053.6765681087
 21
80.0964848642
 31
0.0
  0
ARC
  5
250
330
1F
100
AcDbEntity
  8
0
  6
Continuous
 62
     7
100
AcDbCircle
 10
1074.6765681087
 20
84.0964848642
 30
0.0
 40
4.000000000000028
100
AcDbArc
 50
270.0
 51
90.0
  0
LINE
  5
251
330
1F
100
AcDbEntity
  8
0
  6
Continuous
 62
     7
100
AcDbLine
 10
1053.6765681087
 20
88.0964848642
 30
0.0
 11
1074.6765681087
 21
88.0964848642
 31
0.0
  0
ARC
  5
252
330
1F
100
AcDbEntity
  8
0
  6
Continuous
 62
     7
100
AcDbCircle
 10
1053.6765681087
 20
84.0964848642
 30
0.0
 40
4.0
100
AcDbArc
 50
90.0
 51
270.0
  0
LINE
  5
253
330
1F
100
AcDbEntity
  8
0
  6
Continuous
 62
     7
100
AcDbLine
 10
1024.6765681087
 20
80.0964848642
 30
0.0
 11
1003.6765681087
 21
80.0964848642
 31
0.0
  0
ARC
  5
254
330
1F
100
AcDbEntity
  8
0
  6
Continuous
 62
     7
100
AcDbCircle
 10
1024.6765681087
 20
84.0964848642
 30
0.0
 40
4.000000000000057
100
AcDbArc
 50
270.0
 51
90.0
  0
LINE
  5
255
330
1F
100
AcDbEntity
  8
0
  6
Continuous
 62
     7
100
AcDbLine
 10
1003.6765681087
 20
88.0964848642
 30
0.0
 11
1024.6765681087
 21
88.0964848642
 31
0.0
  0
ARC
  5
256
330
1F
100
AcDbEntity
  8
0
  6
Continuous
 62
     7
100
AcDbCircle
 10
1003.6765681087
 20
84.0964848642
 30
0.0
 40
4.0
100
AcDbArc
 50
90.0
 51
270.0
  0
LINE
  5
257
330
1F
100
AcDbEntity
  8
0
  6
Continuous
 62
     7
100
AcDbLine
 10
974.6765681087
 20
80.0964848642
 30
0.0
 11
953.6765681087
 21
80.0964848642
 31
0.0
  0
ARC
  5
258
330
1F
100
AcDbEntity
  8
0
  6
Continuous
 62
     7
100
AcDbCircle
 10
974.6765681087
 20
84.0964848642
 30
0.0
 40
4.000000000000014
100
AcDbArc
 50
270.0
 51
90.0
  0
LINE
  5
259
330
1F
100
AcDbEntity
  8
0
  6
Continuous
 62
     7
100
AcDbLine
 10
953.6765681087
 20
88.0964848642
 30
0.0
 11
974.6765681087
 21
88.0964848642
 31
0.0
  0
ARC
  5
25A
330
1F
100
AcDbEntity
  8
0
  6
Continuous
 62
     7
100
AcDbCircle
 10
953.6765681087
 20
84.0964848642
 30
0.0
 40
4.000000000000014
100
AcDbArc
 50
90.0
 51
270.0
  0
LINE
  5
25B
330
1F
100
AcDbEntity
  8
0
  6
Continuous
 62
     7
100
AcDbLine
 10
924.6765681087
 20
80.0964848642
 30
0.0
 11
903.6765681087
 21
80.0964848642
 31
0.0
  0
ARC
  5
25C
330
1F
100
AcDbEntity
  8
0
  6
Continuous
 62
     7
100
AcDbCircle
 10
924.6765681087
 20
84.0964848642
 30
0.0
 40
4.0
100
AcDbArc
 50
270.0
 51
90.0
  0
LINE
  5
25D
330
1F
100
AcDbEntity
  8
0
  6
Continuous
 62
     7
100
AcDbLine
 10
903.6765681087
 20
88.0964848642
 30
0.0
 11
924.6765681087
 21
88.0964848642
 31
0.0
  0
ARC
  5
25E
330
1F
100
AcDbEntity
  8
0
  6
Continuous
 62
     7
100
AcDbCircle
 10
903.6765681087
 20
84.0964848642
 30
0.0
 40
4.0
100
AcDbArc
 50
90.0
 51
270.0
  0
LINE
  5
25F
330
1F
100
AcDbEntity
  8
0
  6
Continuous
 62
     7
100
AcDbLine
 10
874.6765681087
 20
80.0964848642
 30
0.0
 11
853.6765681087
 21
80.0964848642
 31
0.0
  0
ARC
  5
260
330
1F
100
AcDbEntity
  8
0
  6
Continuous
 62
     7
100
AcDbCircle
 10
874.6765681087
 20
84.0964848642
 30
0.0
 40
4.000000000000028
100
AcDbArc
 50
270.0
 51
90.0
  0
LINE
  5
261
330
1F
100
AcDbEntity
  8
0
  6
Continuous
 62
     7
100
AcDbLine
 10
853.6765681087
 20
88.0964848642
 30
0.0
 11
874.6765681087
 21
88.0964848642
 31
0.0
  0
ARC
  5
262
330
1F
100
AcDbEntity
  8
0
  6
Continuous
 62
     7
100
AcDbCircle
 10
853.6765681087
 20
84.0964848642
 30
0.0
 40
4.0
100
AcDbArc
 50
90.0
 51
270.0
  0
LINE
  5
263
330
1F
100
AcDbEntity
  8
0
  6
Continuous
 62
     7
100
AcDbLine
 10
824.6765681087
 20
80.0964848642
 30
0.0
 11
803.6765681087
 21
80.0964848642
 31
0.0
  0
ARC
  5
264
330
1F
100
AcDbEntity
  8
0
  6
Continuous
 62
     7
100
AcDbCircle
 10
824.6765681087
 20
84.0964848642
 30
0.0
 40
4.000000000000057
100
AcDbArc
 50
270.0
 51
90.0
  0
LINE
  5
265
330
1F
100
AcDbEntity
  8
0
  6
Continuous
 62
     7
100
AcDbLine
 10
803.6765681087
 20
88.0964848642
 30
0.0
 11
824.6765681087
 21
88.0964848642
 31
0.0
  0
ARC
  5
266
330
1F
100
AcDbEntity
  8
0
  6
Continuous
 62
     7
100
AcDbCircle
 10
803.6765681087
 20
84.0964848642
 30
0.0
 40
4.000000000000014
100
AcDbArc
 50
90.0
 51
270.0
  0
LINE
  5
267
330
1F
100
AcDbEntity
  8
0
  6
Continuous
 62
     7
100
AcDbLine
 10
774.6765681087
 20
80.0964848642
 30
0.0
 11
753.6765681087
 21
80.0964848642
 31
0.0
  0
ARC
  5
268
330
1F
100
AcDbEntity
  8
0
  6
Continuous
 62
     7
100
AcDbCircle
 10
774.6765681087
 20
84.0964848642
 30
0.0
 40
4.000000000000028
100
AcDbArc
 50
270.0
 51
90.0
  0
LINE
  5
269
330
1F
100
AcDbEntity
  8
0
  6
Continuous
 62
     7
100
AcDbLine
 10
753.6765681087
 20
88.0964848642
 30
0.0
 11
774.6765681087
 21
88.0964848642
 31
0.0
  0
ARC
  5
26A
330
1F
100
AcDbEntity
  8
0
  6
Continuous
 62
     7
100
AcDbCircle
 10
753.6765681087
 20
84.0964848642
 30
0.0
 40
4.0
100
AcDbArc
 50
90.0
 51
270.0
  0
LINE
  5
26B
330
1F
100
AcDbEntity
  8
0
  6
Continuous
 62
     7
100
AcDbLine
 10
724.6765681087
 20
80.0964848642
 30
0.0
 11
703.6765681087
 21
80.0964848642
 31
0.0
  0
ARC
  5
26C
330
1F
100
AcDbEntity
  8
0
  6
Continuous
 62
     7
100
AcDbCircle
 10
724.6765681087
 20
84.0964848642
 30
0.0
 40
4.0
100
AcDbArc
 50
270.0
 51
90.0
  0
LINE
  5
26D
330
1F
100
AcDbEntity
  8
0
  6
Continuous
 62
     7
100
AcDbLine
 10
703.6765681087
 20
88.0964848642
 30
0.0
 11
724.6765681087
 21
88.0964848642
 31
0.0
  0
ARC
  5
26E
330
1F
100
AcDbEntity
  8
0
  6
Continuous
 62
     7
100
AcDbCircle
 10
703.6765681087
 20
84.0964848642
 30
0.0
 40
4.0
100
AcDbArc
 50
90.0
 51
270.0
  0
LINE
  5
26F
330
1F
100
AcDbEntity
  8
0
  6
Continuous
 62
     7
100
AcDbLine
 10
674.6765681087
 20
80.0964848642
 30
0.0
 11
653.6765681087
 21
80.0964848642
 31
0.0
  0
ARC
  5
270
330
1F
100
AcDbEntity
  8
0
  6
Continuous
 62
     7
100
AcDbCircle
 10
674.6765681087
 20
84.0964848642
 30
0.0
 40
4.0
100
AcDbArc
 50
270.0
 51
90.0
  0
LINE
  5
271
330
1F
100
AcDbEntity
  8
0
  6
Continuous
 62
     7
100
AcDbLine
 10
653.6765681087
 20
88.0964848642
 30
0.0
 11
674.6765681087
 21
88.0964848642
 31
0.0
  0
ARC
  5
272
330
1F
100
AcDbEntity
  8
0
  6
Continuous
 62
     7
100
AcDbCircle
 10
653.6765681087
 20
84.0964848642
 30
0.0
 40
4.0
100
AcDbArc
 50
90.0
 51
270.0
  0
LINE
  5
273
330
1F
100
AcDbEntity
  8
0
  6
Continuous
 62
     7
100
AcDbLine
 10
624.6765681087
 20
80.0964848642
 30
0.0
 11
603.6765681087
 21
80.0964848642
 31
0.0
  0
ARC
  5
274
330
1F
100
AcDbEntity
  8
0
  6
Continuous
 62
     7
100
AcDbCircle
 10
624.6765681087
 20
84.0964848642
 30
0.0
 40
4.000000000000057
100
AcDbArc
 50
270.0
 51
90.0
  0
LINE
  5
275
330
1F
100
AcDbEntity
  8
0
  6
Continuous
 62
     7
100
AcDbLine
 10
603.6765681087
 20
88.0964848642
 30
0.0
 11
624.6765681087
 21
88.0964848642
 31
0.0
  0
ARC
  5
276
330
1F
100
AcDbEntity
  8
0
  6
Continuous
 62
     7
100
AcDbCircle
 10
603.6765681087
 20
84.0964848642
 30
0.0
 40
4.0
100
AcDbArc
 50
90.0
 51
270.0
  0
LINE
  5
277
330
1F
100
AcDbEntity
  8
0
  6
Continuous
 62
     7
100
AcDbLine
 10
1424.6765681087
 20
44.5964848642
 30
0.0
 11
1403.6765681087
 21
44.5964848642
 31
0.0
  0
ARC
  5
278
330
1F
100
AcDbEntity
  8
0
  6
Continuous
 62
     7
100
AcDbCircle
 10
1424.6765681087
 20
48.5964848642
 30
0.0
 40
4.000000000000028
100
AcDbArc
 50
270.0
 51
90.0
  0
LINE
  5
279
330
1F
100
AcDbEntity
  8
0
  6
Continuous
 62
     7
100
AcDbLine
 10
1403.6765681087
 20
52.5964848642
 30
0.0
 11
1424.6765681087
 21
52.5964848642
 31
0.0
  0
ARC
  5
27A
330
1F
100
AcDbEntity
  8
0
  6
Continuous
 62
     7
100
AcDbCircle
 10
1403.6765681087
 20
48.5964848642
 30
0.0
 40
4.0
100
AcDbArc
 50
90.0
 51
270.0
  0
LINE
  5
27B
330
1F
100
AcDbEntity
  8
0
  6
Continuous
 62
     7
100
AcDbLine
 10
1374.6765681087
 20
44.5964848642
 30
0.0
 11
1353.6765681087
 21
44.5964848642
 31
0.0
  0
ARC
  5
27C
330
1F
100
AcDbEntity
  8
0
  6
Continuous
 62
     7
100
AcDbCircle
 10
1374.6765681087
 20
48.5964848642
 30
0.0
 40
4.000000000000036
100
AcDbArc
 50
270.0
 51
90.0
  0
LINE
  5
27D
330
1F
100
AcDbEntity
  8
0
  6
Continuous
 62
     7
100
AcDbLine
 10
1353.6765681087
 20
52.5964848642
 30
0.0
 11
1374.6765681087
 21
52.5964848642
 31
0.0
  0
ARC
  5
27E
330
1F
100
AcDbEntity
  8
0
  6
Continuous
 62
     7
100
AcDbCircle
 10
1353.6765681087
 20
48.5964848642
 30
0.0
 40
4.000000000000007
100
AcDbArc
 50
90.0
 51
270.0
  0
LINE
  5
27F
330
1F
100
AcDbEntity
  8
0
  6
Continuous
 62
     7
100
AcDbLine
 10
1324.6765681087
 20
44.5964848642
 30
0.0
 11
1303.6765681087
 21
44.5964848642
 31
0.0
  0
ARC
  5
280
330
1F
100
AcDbEntity
  8
0
  6
Continuous
 62
     7
100
AcDbCircle
 10
1324.6765681087
 20
48.5964848642
 30
0.0
 40
4.000000000000028
100
AcDbArc
 50
270.0
 51
90.0
  0
LINE
  5
281
330
1F
100
AcDbEntity
  8
0
  6
Continuous
 62
     7
100
AcDbLine
 10
1303.6765681087
 20
52.5964848642
 30
0.0
 11
1324.6765681087
 21
52.5964848642
 31
0.0
  0
ARC
  5
282
330
1F
100
AcDbEntity
  8
0
  6
Continuous
 62
     7
100
AcDbCircle
 10
1303.6765681087
 20
48.5964848642
 30
0.0
 40
4.0
100
AcDbArc
 50
90.0
 51
270.0
  0
LINE
  5
283
330
1F
100
AcDbEntity
  8
0
  6
Continuous
 62
     7
100
AcDbLine
 10
1274.6765681087
 20
44.5964848642
 30
0.0
 11
1253.6765681087
 21
44.5964848642
 31
0.0
  0
ARC
  5
284
330
1F
100
AcDbEntity
  8
0
  6
Continuous
 62
     7
100
AcDbCircle
 10
1274.6765681087
 20
48.5964848642
 30
0.0
 40
4.000000000000028
100
AcDbArc
 50
270.0
 51
90.0
  0
LINE
  5
285
330
1F
100
AcDbEntity
  8
0
  6
Continuous
 62
     7
100
AcDbLine
 10
1253.6765681087
 20
52.5964848642
 30
0.0
 11
1274.6765681087
 21
52.5964848642
 31
0.0
  0
ARC
  5
286
330
1F
100
AcDbEntity
  8
0
  6
Continuous
 62
     7
100
AcDbCircle
 10
1253.6765681087
 20
48.5964848642
 30
0.0
 40
4.0
100
AcDbArc
 50
90.0
 51
270.0
  0
LINE
  5
287
330
1F
100
AcDbEntity
  8
0
  6
Continuous
 62
     7
100
AcDbLine
 10
1224.6765681087
 20
44.5964848642
 30
0.0
 11
1203.6765681087
 21
44.5964848642
 31
0.0
  0
ARC
  5
288
330
1F
100
AcDbEntity
  8
0
  6
Continuous
 62
     7
100
AcDbCircle
 10
1224.6765681087
 20
48.5964848642
 30
0.0
 40
4.000000000000036
100
AcDbArc
 50
270.0
 51
90.0
  0
LINE
  5
289
330
1F
100
AcDbEntity
  8
0
  6
Continuous
 62
     7
100
AcDbLine
 10
1203.6765681087
 20
52.5964848642
 30
0.0
 11
1224.6765681087
 21
52.5964848642
 31
0.0
  0
ARC
  5
28A
330
1F
100
AcDbEntity
  8
0
  6
Continuous
 62
     7
100
AcDbCircle
 10
1203.6765681087
 20
48.5964848642
 30
0.0
 40
4.000000000000007
100
AcDbArc
 50
90.0
 51
270.0
  0
LINE
  5
28B
330
1F
100
AcDbEntity
  8
0
  6
Continuous
 62
     7
100
AcDbLine
 10
1174.6765681087
 20
44.5964848642
 30
0.0
 11
1153.6765681087
 21
44.5964848642
 31
0.0
  0
ARC
  5
28C
330
1F
100
AcDbEntity
  8
0
  6
Continuous
 62
     7
100
AcDbCircle
 10
1174.6765681087
 20
48.5964848642
 30
0.0
 40
4.000000000000028
100
AcDbArc
 50
270.0
 51
90.0
  0
LINE
  5
28D
330
1F
100
AcDbEntity
  8
0
  6
Continuous
 62
     7
100
AcDbLine
 10
1153.6765681087
 20
52.5964848642
 30
0.0
 11
1174.6765681087
 21
52.5964848642
 31
0.0
  0
ARC
  5
28E
330
1F
100
AcDbEntity
  8
0
  6
Continuous
 62
     7
100
AcDbCircle
 10
1153.6765681087
 20
48.5964848642
 30
0.0
 40
4.0
100
AcDbArc
 50
90.0
 51
270.0
  0
LINE
  5
28F
330
1F
100
AcDbEntity
  8
0
  6
Continuous
 62
     7
100
AcDbLine
 10
1124.6765681087
 20
44.5964848642
 30
0.0
 11
1103.6765681087
 21
44.5964848642
 31
0.0
  0
ARC
  5
290
330
1F
100
AcDbEntity
  8
0
  6
Continuous
 62
     7
100
AcDbCircle
 10
1124.6765681087
 20
48.5964848642
 30
0.0
 40
4.000000000000064
100
AcDbArc
 50
270.0
 51
90.0
  0
LINE
  5
291
330
1F
100
AcDbEntity
  8
0
  6
Continuous
 62
     7
100
AcDbLine
 10
1103.6765681087
 20
52.5964848642
 30
0.0
 11
1124.6765681087
 21
52.5964848642
 31
0.0
  0
ARC
  5
292
330
1F
100
AcDbEntity
  8
0
  6
Continuous
 62
     7
100
AcDbCircle
 10
1103.6765681087
 20
48.5964848642
 30
0.0
 40
4.000000000000007
100
AcDbArc
 50
90.0
 51
270.0
  0
LINE
  5
293
330
1F
100
AcDbEntity
  8
0
  6
Continuous
 62
     7
100
AcDbLine
 10
1074.6765681087
 20
44.5964848642
 30
0.0
 11
1053.6765681087
 21
44.5964848642
 31
0.0
  0
ARC
  5
294
330
1F
100
AcDbEntity
  8
0
  6
Continuous
 62
     7
100
AcDbCircle
 10
1074.6765681087
 20
48.5964848642
 30
0.0
 40
4.000000000000028
100
AcDbArc
 50
270.0
 51
90.0
  0
LINE
  5
295
330
1F
100
AcDbEntity
  8
0
  6
Continuous
 62
     7
100
AcDbLine
 10
1053.6765681087
 20
52.5964848642
 30
0.0
 11
1074.6765681087
 21
52.5964848642
 31
0.0
  0
ARC
  5
296
330
1F
100
AcDbEntity
  8
0
  6
Continuous
 62
     7
100
AcDbCircle
 10
1053.6765681087
 20
48.5964848642
 30
0.0
 40
4.0
100
AcDbArc
 50
90.0
 51
270.0
  0
LINE
  5
297
330
1F
100
AcDbEntity
  8
0
  6
Continuous
 62
     7
100
AcDbLine
 10
1024.6765681087
 20
44.5964848642
 30
0.0
 11
1003.6765681087
 21
44.5964848642
 31
0.0
  0
ARC
  5
298
330
1F
100
AcDbEntity
  8
0
  6
Continuous
 62
     7
100
AcDbCircle
 10
1024.6765681087
 20
48.5964848642
 30
0.0
 40
4.0
100
AcDbArc
 50
270.0
 51
90.0
  0
LINE
  5
299
330
1F
100
AcDbEntity
  8
0
  6
Continuous
 62
     7
100
AcDbLine
 10
1003.6765681087
 20
52.5964848642
 30
0.0
 11
1024.6765681087
 21
52.5964848642
 31
0.0
  0
ARC
  5
29A
330
1F
100
AcDbEntity
  8
0
  6
Continuous
 62
     7
100
AcDbCircle
 10
1003.6765681087
 20
48.5964848642
 30
0.0
 40
4.0
100
AcDbArc
 50
90.0
 51
270.0
  0
LINE
  5
29B
330
1F
100
AcDbEntity
  8
0
  6
Continuous
 62
     7
100
AcDbLine
 10
974.6765681087
 20
44.5964848642
 30
0.0
 11
953.6765681087
 21
44.5964848642
 31
0.0
  0
ARC
  5
29C
330
1F
100
AcDbEntity
  8
0
  6
Continuous
 62
     7
100
AcDbCircle
 10
974.6765681087
 20
48.5964848642
 30
0.0
 40
4.000000000000036
100
AcDbArc
 50
270.0
 51
90.0
  0
LINE
  5
29D
330
1F
100
AcDbEntity
  8
0
  6
Continuous
 62
     7
100
AcDbLine
 10
953.6765681087
 20
52.5964848642
 30
0.0
 11
974.6765681087
 21
52.5964848642
 31
0.0
  0
ARC
  5
29E
330
1F
100
AcDbEntity
  8
0
  6
Continuous
 62
     7
100
AcDbCircle
 10
953.6765681087
 20
48.5964848642
 30
0.0
 40
4.000000000000007
100
AcDbArc
 50
90.0
 51
270.0
  0
LINE
  5
29F
330
1F
100
AcDbEntity
  8
0
  6
Continuous
 62
     7
100
AcDbLine
 10
924.6765681087
 20
44.5964848642
 30
0.0
 11
903.6765681087
 21
44.5964848642
 31
0.0
  0
ARC
  5
2A0
330
1F
100
AcDbEntity
  8
0
  6
Continuous
 62
     7
100
AcDbCircle
 10
924.6765681087
 20
48.5964848642
 30
0.0
 40
4.000000000000057
100
AcDbArc
 50
270.0
 51
90.0
  0
LINE
  5
2A1
330
1F
100
AcDbEntity
  8
0
  6
Continuous
 62
     7
100
AcDbLine
 10
903.6765681087
 20
52.5964848642
 30
0.0
 11
924.6765681087
 21
52.5964848642
 31
0.0
  0
ARC
  5
2A2
330
1F
100
AcDbEntity
  8
0
  6
Continuous
 62
     7
100
AcDbCircle
 10
903.6765681087
 20
48.5964848642
 30
0.0
 40
4.0
100
AcDbArc
 50
90.0
 51
270.0
  0
LINE
  5
2A3
330
1F
100
AcDbEntity
  8
0
  6
Continuous
 62
     7
100
AcDbLine
 10
874.6765681087
 20
44.5964848642
 30
0.0
 11
853.6765681087
 21
44.5964848642
 31
0.0
  0
ARC
  5
2A4
330
1F
100
AcDbEntity
  8
0
  6
Continuous
 62
     7
100
AcDbCircle
 10
874.6765681087
 20
48.5964848642
 30
0.0
 40
4.000000000000036
100
AcDbArc
 50
270.0
 51
90.0
  0
LINE
  5
2A5
330
1F
100
AcDbEntity
  8
0
  6
Continuous
 62
     7
100
AcDbLine
 10
853.6765681087
 20
52.5964848642
 30
0.0
 11
874.6765681087
 21
52.5964848642
 31
0.0
  0
ARC
  5
2A6
330
1F
100
AcDbEntity
  8
0
  6
Continuous
 62
     7
100
AcDbCircle
 10
853.6765681087
 20
48.5964848642
 30
0.0
 40
4.000000000000007
100
AcDbArc
 50
90.0
 51
270.0
  0
LINE
  5
2A7
330
1F
100
AcDbEntity
  8
0
  6
Continuous
 62
     7
100
AcDbLine
 10
824.6765681087
 20
44.5964848642
 30
0.0
 11
803.6765681087
 21
44.5964848642
 31
0.0
  0
ARC
  5
2A8
330
1F
100
AcDbEntity
  8
0
  6
Continuous
 62
     7
100
AcDbCircle
 10
824.6765681087
 20
48.5964848642
 30
0.0
 40
4.0
100
AcDbArc
 50
270.0
 51
90.0
  0
LINE
  5
2A9
330
1F
100
AcDbEntity
  8
0
  6
Continuous
 62
     7
100
AcDbLine
 10
803.6765681087
 20
52.5964848642
 30
0.0
 11
824.6765681087
 21
52.5964848642
 31
0.0
  0
ARC
  5
2AA
330
1F
100
AcDbEntity
  8
0
  6
Continuous
 62
     7
100
AcDbCircle
 10
803.6765681087
 20
48.5964848642
 30
0.0
 40
4.0
100
AcDbArc
 50
90.0
 51
270.0
  0
LINE
  5
2AB
330
1F
100
AcDbEntity
  8
0
  6
Continuous
 62
     7
100
AcDbLine
 10
774.6765681087
 20
44.5964848642
 30
0.0
 11
753.6765681087
 21
44.5964848642
 31
0.0
  0
ARC
  5
2AC
330
1F
100
AcDbEntity
  8
0
  6
Continuous
 62
     7
100
AcDbCircle
 10
774.6765681087
 20
48.5964848642
 30
0.0
 40
4.0
100
AcDbArc
 50
270.0
 51
90.0
  0
LINE
  5
2AD
330
1F
100
AcDbEntity
  8
0
  6
Continuous
 62
     7
100
AcDbLine
 10
753.6765681087
 20
52.5964848642
 30
0.0
 11
774.6765681087
 21
52.5964848642
 31
0.0
  0
ARC
  5
2AE
330
1F
100
AcDbEntity
  8
0
  6
Continuous
 62
     7
100
AcDbCircle
 10
753.6765681087
 20
48.5964848642
 30
0.0
 40
4.0
100
AcDbArc
 50
90.0
 51
270.0
  0
LINE
  5
2AF
330
1F
100
AcDbEntity
  8
0
  6
Continuous
 62
     7
100
AcDbLine
 10
724.6765681087
 20
44.5964848642
 30
0.0
 11
703.6765681087
 21
44.5964848642
 31
0.0
  0
ARC
  5
2B0
330
1F
100
AcDbEntity
  8
0
  6
Continuous
 62
     7
100
AcDbCircle
 10
724.6765681087
 20
48.5964848642
 30
0.0
 40
4.000000000000064
100
AcDbArc
 50
270.0
 51
90.0
  0
LINE
  5
2B1
330
1F
100
AcDbEntity
  8
0
  6
Continuous
 62
     7
100
AcDbLine
 10
703.6765681087
 20
52.5964848642
 30
0.0
 11
724.6765681087
 21
52.5964848642
 31
0.0
  0
ARC
  5
2B2
330
1F
100
AcDbEntity
  8
0
  6
Continuous
 62
     7
100
AcDbCircle
 10
703.6765681087
 20
48.5964848642
 30
0.0
 40
4.000000000000007
100
AcDbArc
 50
90.0
 51
270.0
  0
LINE
  5
2B3
330
1F
100
AcDbEntity
  8
0
  6
Continuous
 62
     7
100
AcDbLine
 10
624.6765681087
 20
44.5964848642
 30
0.0
 11
603.6765681087
 21
44.5964848642
 31
0.0
  0
ARC
  5
2B4
330
1F
100
AcDbEntity
  8
0
  6
Continuous
 62
     7
100
AcDbCircle
 10
624.6765681087
 20
48.5964848642
 30
0.0
 40
4.000000000000036
100
AcDbArc
 50
270.0
 51
90.0
  0
LINE
  5
2B5
330
1F
100
AcDbEntity
  8
0
  6
Continuous
 62
     7
100
AcDbLine
 10
603.6765681087
 20
52.5964848642
 30
0.0
 11
624.6765681087
 21
52.5964848642
 31
0.0
  0
ARC
  5
2B6
330
1F
100
AcDbEntity
  8
0
  6
Continuous
 62
     7
100
AcDbCircle
 10
603.6765681087
 20
48.5964848642
 30
0.0
 40
4.000000000000007
100
AcDbArc
 50
90.0
 51
270.0
  0
LINE
  5
2B7
330
1F
100
AcDbEntity
  8
0
  6
Continuous
 62
     7
100
AcDbLine
 10
674.6765681087
 20
44.5964848642
 30
0.0
 11
653.6765681087
 21
44.5964848642
 31
0.0
  0
ARC
  5
2B8
330
1F
100
AcDbEntity
  8
0
  6
Continuous
 62
     7
100
AcDbCircle
 10
674.6765681087
 20
48.5964848642
 30
0.0
 40
4.000000000000057
100
AcDbArc
 50
270.0
 51
90.0
  0
LINE
  5
2B9
330
1F
100
AcDbEntity
  8
0
  6
Continuous
 62
     7
100
AcDbLine
 10
653.6765681087
 20
52.5964848642
 30
0.0
 11
674.6765681087
 21
52.5964848642
 31
0.0
  0
ARC
  5
2BA
330
1F
100
AcDbEntity
  8
0
  6
Continuous
 62
     7
100
AcDbCircle
 10
653.6765681087
 20
48.5964848642
 30
0.0
 40
4.0
100
AcDbArc
 50
90.0
 51
270.0
  0
LINE
  5
2BB
330
1F
100
AcDbEntity
  8
0
  6
Continuous
 62
     7
100
AcDbLine
 10
568.8265681087
 20
217.0964848642
 30
0.0
 11
568.8265681087
 21
177.0964848642
 31
0.0
  0
LINE
  5
2BC
330
1F
100
AcDbEntity
  8
0
  6
Continuous
 62
     7
100
AcDbLine
 10
568.8265681087
 20
177.0964848642
 30
0.0
 11
570.8265681087
 21
177.0964848642
 31
0.0
  0
LINE
  5
2BD
330
1F
100
AcDbEntity
  8
0
  6
Continuous
 62
     7
100
AcDbLine
 10
570.8265681087
 20
177.0964848642
 30
0.0
 11
570.8265681087
 21
217.0964848642
 31
0.0
  0
LINE
  5
2BE
330
1F
100
AcDbEntity
  8
0
  6
Continuous
 62
     7
100
AcDbLine
 10
570.8265681087
 20
217.0964848642
 30
0.0
 11
568.8265681087
 21
217.0964848642
 31
0.0
  0
LINE
  5
2BF
330
1F
100
AcDbEntity
  8
0
  6
Continuous
 62
     7
100
AcDbLine
 10
1459.5265681087
 20
217.0964848642
 30
0.0
 11
1457.5265681087
 21
217.0964848642
 31
0.0
  0
LINE
  5
2C0
330
1F
100
AcDbEntity
  8
0
  6
Continuous
 62
     7
100
AcDbLine
 10
1457.5265681087
 20
217.0964848642
 30
0.0
 11
1457.5265681087
 21
177.0964848642
 31
0.0
  0
LINE
  5
2C1
330
1F
100
AcDbEntity
  8
0
  6
Continuous
 62
     7
100
AcDbLine
 10
1457.5265681087
 20
177.0964848642
 30
0.0
 11
1459.5265681087
 21
177.0964848642
 31
0.0
  0
LINE
  5
2C2
330
1F
100
AcDbEntity
  8
0
  6
Continuous
 62
     7
100
AcDbLine
 10
1459.5265681087
 20
177.0964848642
 30
0.0
 11
1459.5265681087
 21
217.0964848642
 31
0.0
  0
LINE
  5
2C3
330
1F
100
AcDbEntity
  8
0
  6
Continuous
 62
     7
100
AcDbLine
 10
1459.5265681087
 20
175.0964848642
 30
0.0
 11
1457.5265681087
 21
175.0964848642
 31
0.0
  0
LINE
  5
2C4
330
1F
100
AcDbEntity
  8
0
  6
Continuous
 62
     7
100
AcDbLine
 10
1457.5265681087
 20
175.0964848642
 30
0.0
 11
1457.5265681087
 21
135.0964848642
 31
0.0
  0
LINE
  5
2C5
330
1F
100
AcDbEntity
  8
0
  6
Continuous
 62
     7
100
AcDbLine
 10
1457.5265681087
 20
135.0964848642
 30
0.0
 11
1459.5265681087
 21
135.0964848642
 31
0.0
  0
LINE
  5
2C6
330
1F
100
AcDbEntity
  8
0
  6
Continuous
 62
     7
100
AcDbLine
 10
1459.5265681087
 20
135.0964848642
 30
0.0
 11
1459.5265681087
 21
175.0964848642
 31
0.0
  0
LINE
  5
2C7
330
1F
100
AcDbEntity
  8
0
  6
Continuous
 62
     7
100
AcDbLine
 10
1459.5265681087
 20
133.0964848642
 30
0.0
 11
1457.5265681087
 21
133.0964848642
 31
0.0
  0
LINE
  5
2C8
330
1F
100
AcDbEntity
  8
0
  6
Continuous
 62
     7
100
AcDbLine
 10
1457.5265681087
 20
133.0964848642
 30
0.0
 11
1457.5265681087
 21
93.0964848642
 31
0.0
  0
LINE
  5
2C9
330
1F
100
AcDbEntity
  8
0
  6
Continuous
 62
     7
100
AcDbLine
 10
1457.5265681087
 20
93.0964848642
 30
0.0
 11
1459.5265681087
 21
93.0964848642
 31
0.0
  0
LINE
  5
2CA
330
1F
100
AcDbEntity
  8
0
  6
Continuous
 62
     7
100
AcDbLine
 10
1459.5265681087
 20
93.0964848642
 30
0.0
 11
1459.5265681087
 21
133.0964848642
 31
0.0
  0
LINE
  5
2CB
330
1F
100
AcDbEntity
  8
0
  6
Continuous
 62
     7
100
AcDbLine
 10
563.9265681087
 20
286.0964848642
 30
0.0
 11
568.4265681087
 21
286.0964848642
 31
0.0
  0
LINE
  5
2CC
330
1F
100
AcDbEntity
  8
0
  6
Continuous
 62
     7
100
AcDbLine
 10
568.4265681087
 20
322.0964848642
 30
0.0
 11
568.4265681087
 21
286.0964848642
 31
0.0
  0
LINE
  5
2CD
330
1F
100
AcDbEntity
  8
0
  6
Continuous
 62
     7
100
AcDbLine
 10
571.4265681087
 20
325.0964848642
 30
0.0
 11
568.4265681087
 21
322.0964848642
 31
0.0
  0
LINE
  5
2CE
330
1F
100
AcDbEntity
  8
0
  6
Continuous
 62
     7
100
AcDbLine
 10
603.4265681087
 20
325.0964848642
 30
0.0
 11
571.4265681087
 21
325.0964848642
 31
0.0
  0
LINE
  5
2CF
330
1F
100
AcDbEntity
  8
0
  6
Continuous
 62
     7
100
AcDbLine
 10
1456.9265681087
 20
325.0964848642
 30
0.0
 11
1424.9265681087
 21
325.0964848642
 31
0.0
  0
LINE
  5
2D0
330
1F
100
AcDbEntity
  8
0
  6
Continuous
 62
     7
100
AcDbLine
 10
1459.9265681087
 20
322.0964848642
 30
0.0
 11
1456.9265681087
 21
325.0964848642
 31
0.0
  0
LINE
  5
2D1
330
1F
100
AcDbEntity
  8
0
  6
Continuous
 62
     7
100
AcDbLine
 10
1459.9265681087
 20
286.0964848642
 30
0.0
 11
1459.9265681087
 21
322.0964848642
 31
0.0
  0
LINE
  5
2D2
330
1F
100
AcDbEntity
  8
0
  6
Continuous
 62
     7
100
AcDbLine
 10
1464.4265681087
 20
286.0964848642
 30
0.0
 11
1459.9265681087
 21
286.0964848642
 31
0.0
  0
LINE
  5
2D3
330
1F
100
AcDbEntity
  8
0
  6
Continuous
 62
     7
100
AcDbLine
 10
1464.4265681087
 20
217.0964848642
 30
0.0
 11
1461.5265681087
 21
217.0964848642
 31
0.0
  0
LINE
  5
2D4
330
1F
100
AcDbEntity
  8
0
  6
Continuous
 62
     7
100
AcDbLine
 10
1461.5265681087
 20
217.0964848642
 30
0.0
 11
1461.5265681087
 21
215.0964848642
 31
0.0
  0
LINE
  5
2D5
330
1F
100
AcDbEntity
  8
0
  6
Continuous
 62
     7
100
AcDbLine
 10
1461.5265681087
 20
215.0964848642
 30
0.0
 11
1464.4265681087
 21
215.0964848642
 31
0.0
  0
LINE
  5
2D6
330
1F
100
AcDbEntity
  8
0
  6
Continuous
 62
     7
100
AcDbLine
 10
1464.4265681087
 20
95.0964848642
 30
0.0
 11
1461.5265681087
 21
95.0964848642
 31
0.0
  0
LINE
  5
2D7
330
1F
100
AcDbEntity
  8
0
  6
Continuous
 62
     7
100
AcDbLine
 10
1461.5265681087
 20
95.0964848642
 30
0.0
 11
1461.5265681087
 21
93.0964848642
 31
0.0
  0
LINE
  5
2D8
330
1F
100
AcDbEntity
  8
0
  6
Continuous
 62
     7
100
AcDbLine
 10
1461.5265681087
 20
93.0964848642
 30
0.0
 11
1464.4265681087
 21
93.0964848642
 31
0.0
  0
LINE
  5
2D9
330
1F
100
AcDbEntity
  8
0
  6
Continuous
 62
     7
100
AcDbLine
 10
1464.4265681087
 20
24.0964848642
 30
0.0
 11
1459.9265681087
 21
24.0964848642
 31
0.0
  0
LINE
  5
2DA
330
1F
100
AcDbEntity
  8
0
  6
Continuous
 62
     7
100
AcDbLine
 10
1459.9265681087
 20
-11.9035151358
 30
0.0
 11
1459.9265681087
 21
24.0964848642
 31
0.0
  0
LINE
  5
2DB
330
1F
100
AcDbEntity
  8
0
  6
Continuous
 62
     7
100
AcDbLine
 10
1456.9265681087
 20
-14.9035151358
 30
0.0
 11
1459.9265681087
 21
-11.9035151358
 31
0.0
  0
LINE
  5
2DC
330
1F
100
AcDbEntity
  8
0
  6
Continuous
 62
     7
100
AcDbLine
 10
1424.9265681087
 20
-14.9035151358
 30
0.0
 11
1456.9265681087
 21
-14.9035151358
 31
0.0
  0
LINE
  5
2DD
330
1F
100
AcDbEntity
  8
0
  6
Continuous
 62
     7
100
AcDbLine
 10
571.4265681087
 20
-14.9035151358
 30
0.0
 11
603.4265681087
 21
-14.9035151358
 31
0.0
  0
LINE
  5
2DE
330
1F
100
AcDbEntity
  8
0
  6
Continuous
 62
     7
100
AcDbLine
 10
568.4265681087
 20
-11.9035151358
 30
0.0
 11
571.4265681087
 21
-14.9035151358
 31
0.0
  0
LINE
  5
2DF
330
1F
100
AcDbEntity
  8
0
  6
Continuous
 62
     7
100
AcDbLine
 10
568.4265681087
 20
24.0964848642
 30
0.0
 11
568.4265681087
 21
-11.9035151358
 31
0.0
  0
LINE
  5
2E0
330
1F
100
AcDbEntity
  8
0
  6
Continuous
 62
     7
100
AcDbLine
 10
563.9265681087
 20
24.0964848642
 30
0.0
 11
568.4265681087
 21
24.0964848642
 31
0.0
  0
LINE
  5
2E1
330
1F
100
AcDbEntity
  8
0
  6
Continuous
 62
     7
100
AcDbLine
 10
563.9265681087
 20
93.0964848642
 30
0.0
 11
566.8265681087
 21
93.0964848642
 31
0.0
  0
LINE
  5
2E2
330
1F
100
AcDbEntity
  8
0
  6
Continuous
 62
     7
100
AcDbLine
 10
566.8265681087
 20
93.0964848642
 30
0.0
 11
566.8265681087
 21
95.0964848642
 31
0.0
  0
LINE
  5
2E3
330
1F
100
AcDbEntity
  8
0
  6
Continuous
 62
     7
100
AcDbLine
 10
566.8265681087
 20
95.0964848642
 30
0.0
 11
563.9265681087
 21
95.0964848642
 31
0.0
  0
LINE
  5
2E4
330
1F
100
AcDbEntity
  8
0
  6
Continuous
 62
     7
100
AcDbLine
 10
563.9265681087
 20
215.0964848642
 30
0.0
 11
566.8265681087
 21
215.0964848642
 31
0.0
  0
LINE
  5
2E5
330
1F
100
AcDbEntity
  8
0
  6
Continuous
 62
     7
100
AcDbLine
 10
566.8265681087
 20
215.0964848642
 30
0.0
 11
566.8265681087
 21
217.0964848642
 31
0.0
  0
LINE
  5
2E6
330
1F
100
AcDbEntity
  8
0
  6
Continuous
 62
     7
100
AcDbLine
 10
566.8265681087
 20
217.0964848642
 30
0.0
 11
563.9265681087
 21
217.0964848642
 31
0.0
  0
LINE
  5
2E7
330
1F
100
AcDbEntity
  8
0
  6
Continuous
 62
     7
100
AcDbLine
 10
568.8265681087
 20
133.0964848642
 30
0.0
 11
568.8265681087
 21
93.0964848642
 31
0.0
  0
LINE
  5
2E8
330
1F
100
AcDbEntity
  8
0
  6
Continuous
 62
     7
100
AcDbLine
 10
568.8265681087
 20
93.0964848642
 30
0.0
 11
570.8265681087
 21
93.0964848642
 31
0.0
  0
LINE
  5
2E9
330
1F
100
AcDbEntity
  8
0
  6
Continuous
 62
     7
100
AcDbLine
 10
570.8265681087
 20
93.0964848642
 30
0.0
 11
570.8265681087
 21
133.0964848642
 31
0.0
  0
LINE
  5
2EA
330
1F
100
AcDbEntity
  8
0
  6
Continuous
 62
     7
100
AcDbLine
 10
570.8265681087
 20
133.0964848642
 30
0.0
 11
568.8265681087
 21
133.0964848642
 31
0.0
  0
LINE
  5
2EB
330
1F
100
AcDbEntity
  8
0
  6
Continuous
 62
     7
100
AcDbLine
 10
568.8265681087
 20
175.0964848642
 30
0.0
 11
568.8265681087
 21
135.0964848642
 31
0.0
  0
LINE
  5
2EC
330
1F
100
AcDbEntity
  8
0
  6
Continuous
 62
     7
100
AcDbLine
 10
568.8265681087
 20
135.0964848642
 30
0.0
 11
570.8265681087
 21
135.0964848642
 31
0.0
  0
LINE
  5
2ED
330
1F
100
AcDbEntity
  8
0
  6
Continuous
 62
     7
100
AcDbLine
 10
570.8265681087
 20
135.0964848642
 30
0.0
 11
570.8265681087
 21
175.0964848642
 31
0.0
  0
LINE
  5
2EE
330
1F
100
AcDbEntity
  8
0
  6
Continuous
 62
     7
100
AcDbLine
 10
570.8265681087
 20
175.0964848642
 30
0.0
 11
568.8265681087
 21
175.0964848642
 31
0.0
  0
LINE
  5
2EF
330
1F
100
AcDbEntity
  8
0
  6
Continuous
 62
     7
100
AcDbLine
 10
570.4265681087
 20
22.0964848642
 30
0.0
 11
570.4265681087
 21
24.0964848642
 31
0.0
  0
LINE
  5
2F0
330
1F
100
AcDbEntity
  8
0
  6
Continuous
 62
     7
100
AcDbLine
 10
603.4265681087
 20
22.0964848642
 30
0.0
 11
570.4265681087
 21
22.0964848642
 31
0.0
  0
LINE
  5
2F1
330
1F
100
AcDbEntity
  8
0
  6
Continuous
 62
     7
100
AcDbLine
 10
603.4265681087
 20
24.0964848642
 30
0.0
 11
603.4265681087
 21
22.0964848642
 31
0.0
  0
LINE
  5
2F2
330
1F
100
AcDbEntity
  8
0
  6
Continuous
 62
     7
100
AcDbLine
 10
570.4265681087
 20
24.0964848642
 30
0.0
 11
603.4265681087
 21
24.0964848642
 31
0.0
  0
LINE
  5
2F3
330
1F
100
AcDbEntity
  8
0
  6
Continuous
 62
     7
100
AcDbLine
 10
603.4265681087
 20
286.0964848642
 30
0.0
 11
570.4265681087
 21
286.0964848642
 31
0.0
  0
LINE
  5
2F4
330
1F
100
AcDbEntity
  8
0
  6
Continuous
 62
     7
100
AcDbLine
 10
603.4265681087
 20
288.0964848642
 30
0.0
 11
603.4265681087
 21
286.0964848642
 31
0.0
  0
LINE
  5
2F5
330
1F
100
AcDbEntity
  8
0
  6
Continuous
 62
     7
100
AcDbLine
 10
570.4265681087
 20
288.0964848642
 30
0.0
 11
603.4265681087
 21
288.0964848642
 31
0.0
  0
LINE
  5
2F6
330
1F
100
AcDbEntity
  8
0
  6
Continuous
 62
     7
100
AcDbLine
 10
570.4265681087
 20
286.0964848642
 30
0.0
 11
570.4265681087
 21
288.0964848642
 31
0.0
  0
LINE
  5
2F7
330
1F
100
AcDbEntity
  8
0
  6
Continuous
 62
     7
100
AcDbLine
 10
603.4265681087
 20
290.0964848642
 30
0.0
 11
601.4265681087
 21
290.0964848642
 31
0.0
  0
LINE
  5
2F8
330
1F
100
AcDbEntity
  8
0
  6
Continuous
 62
     7
100
AcDbLine
 10
603.4265681087
 20
323.0964848642
 30
0.0
 11
603.4265681087
 21
290.0964848642
 31
0.0
  0
LINE
  5
2F9
330
1F
100
AcDbEntity
  8
0
  6
Continuous
 62
     7
100
AcDbLine
 10
601.4265681087
 20
323.0964848642
 30
0.0
 11
603.4265681087
 21
323.0964848642
 31
0.0
  0
LINE
  5
2FA
330
1F
100
AcDbEntity
  8
0
  6
Continuous
 62
     7
100
AcDbLine
 10
601.4265681087
 20
290.0964848642
 30
0.0
 11
601.4265681087
 21
323.0964848642
 31
0.0
  0
LINE
  5
2FB
330
1F
100
AcDbEntity
  8
0
  6
Continuous
 62
     7
100
AcDbLine
 10
601.4265681087
 20
-12.9035151358
 30
0.0
 11
601.4265681087
 21
20.0964848642
 31
0.0
  0
LINE
  5
2FC
330
1F
100
AcDbEntity
  8
0
  6
Continuous
 62
     7
100
AcDbLine
 10
603.4265681087
 20
-12.9035151358
 30
0.0
 11
601.4265681087
 21
-12.9035151358
 31
0.0
  0
LINE
  5
2FD
330
1F
100
AcDbEntity
  8
0
  6
Continuous
 62
     7
100
AcDbLine
 10
603.4265681087
 20
20.0964848642
 30
0.0
 11
603.4265681087
 21
-12.9035151358
 31
0.0
  0
LINE
  5
2FE
330
1F
100
AcDbEntity
  8
0
  6
Continuous
 62
     7
100
AcDbLine
 10
601.4265681087
 20
20.0964848642
 30
0.0
 11
603.4265681087
 21
20.0964848642
 31
0.0
  0
CIRCLE
  5
2FF
330
1F
100
AcDbEntity
  8
0
  6
Continuous
 62
     7
100
AcDbCircle
 10
614.2265681087
 20
315.0964848642
 30
0.0
 40
3.25
  0
CIRCLE
  5
300
330
1F
100
AcDbEntity
  8
0
  6
Continuous
 62
     7
100
AcDbCircle
 10
714.2265681087
 20
315.0964848642
 30
0.0
 40
3.25
  0
CIRCLE
  5
301
330
1F
100
AcDbEntity
  8
0
  6
Continuous
 62
     7
100
AcDbCircle
 10
894.2265681087
 20
315.0964848642
 30
0.0
 40
2.75
  0
CIRCLE
  5
302
330
1F
100
AcDbEntity
  8
0
  6
Continuous
 62
     7
100
AcDbCircle
 10
864.2265681087
 20
315.0964848642
 30
0.0
 40
2.75
  0
CIRCLE
  5
303
330
1F
100
AcDbEntity
  8
0
  6
Continuous
 62
     7
100
AcDbCircle
 10
764.2265681087
 20
315.0964848642
 30
0.0
 40
2.75
  0
CIRCLE
  5
304
330
1F
100
AcDbEntity
  8
0
  6
Continuous
 62
     7
100
AcDbCircle
 10
664.2265681087
 20
315.0964848642
 30
0.0
 40
2.75
  0
CIRCLE
  5
305
330
1F
100
AcDbEntity
  8
0
  6
Continuous
 62
     7
100
AcDbCircle
 10
1134.1265681087
 20
315.0964848642
 30
0.0
 40
2.75
  0
CIRCLE
  5
306
330
1F
100
AcDbEntity
  8
0
  6
Continuous
 62
     7
100
AcDbCircle
 10
1164.1265681087
 20
315.0964848642
 30
0.0
 40
2.75
  0
CIRCLE
  5
307
330
1F
100
AcDbEntity
  8
0
  6
Continuous
 62
     7
100
AcDbCircle
 10
1264.1265681087
 20
315.0964848642
 30
0.0
 40
2.750000000000057
  0
CIRCLE
  5
308
330
1F
100
AcDbEntity
  8
0
  6
Continuous
 62
     7
100
AcDbCircle
 10
1364.1265681087
 20
315.0964848642
 30
0.0
 40
2.75
  0
CIRCLE
  5
309
330
1F
100
AcDbEntity
  8
0
  6
Continuous
 62
     7
100
AcDbCircle
 10
614.2265681087
 20
-4.9035151358
 30
0.0
 40
3.25000000000003
  0
CIRCLE
  5
30A
330
1F
100
AcDbEntity
  8
0
  6
Continuous
 62
     7
100
AcDbCircle
 10
1214.2265681087
 20
-4.9035151358
 30
0.0
 40
3.250000000000031
  0
CIRCLE
  5
30B
330
1F
100
AcDbEntity
  8
0
  6
Continuous
 62
     7
100
AcDbCircle
 10
1114.2265681087
 20
-4.9035151358
 30
0.0
 40
3.25000000000003
  0
CIRCLE
  5
30C
330
1F
100
AcDbEntity
  8
0
  6
Continuous
 62
     7
100
AcDbCircle
 10
1014.2265681087
 20
-4.9035151358
 30
0.0
 40
3.25000000000003
  0
CIRCLE
  5
30D
330
1F
100
AcDbEntity
  8
0
  6
Continuous
 62
     7
100
AcDbCircle
 10
914.2265681087
 20
-4.9035151358
 30
0.0
 40
3.25000000000003
  0
CIRCLE
  5
30E
330
1F
100
AcDbEntity
  8
0
  6
Continuous
 62
     7
100
AcDbCircle
 10
814.2265681087
 20
-4.9035151358
 30
0.0
 40
3.25000000000003
  0
CIRCLE
  5
30F
330
1F
100
AcDbEntity
  8
0
  6
Continuous
 62
     7
100
AcDbCircle
 10
714.2265681087
 20
-4.9035151358
 30
0.0
 40
3.25000000000003
  0
CIRCLE
  5
310
330
1F
100
AcDbEntity
  8
0
  6
Continuous
 62
     7
100
AcDbCircle
 10
1134.1265681087
 20
-4.9035151358
 30
0.0
 40
2.75000000000003
  0
CIRCLE
  5
311
330
1F
100
AcDbEntity
  8
0
  6
Continuous
 62
     7
100
AcDbCircle
 10
1164.1265681087
 20
-4.9035151358
 30
0.0
 40
2.75000000000003
  0
CIRCLE
  5
312
330
1F
100
AcDbEntity
  8
0
  6
Continuous
 62
     7
100
AcDbCircle
 10
1264.1265681087
 20
-4.9035151358
 30
0.0
 40
2.75000000000003
  0
CIRCLE
  5
313
330
1F
100
AcDbEntity
  8
0
  6
Continuous
 62
     7
100
AcDbCircle
 10
1364.1265681087
 20
-4.9035151358
 30
0.0
 40
2.75000000000003
  0
CIRCLE
  5
314
330
1F
100
AcDbEntity
  8
0
  6
Continuous
 62
     7
100
AcDbCircle
 10
894.2265681087
 20
-4.9035151358
 30
0.0
 40
2.75000000000003
  0
CIRCLE
  5
315
330
1F
100
AcDbEntity
  8
0
  6
Continuous
 62
     7
100
AcDbCircle
 10
864.2265681087
 20
-4.9035151358
 30
0.0
 40
2.75000000000003
  0
CIRCLE
  5
316
330
1F
100
AcDbEntity
  8
0
  6
Continuous
 62
     7
100
AcDbCircle
 10
764.2265681087
 20
-4.9035151358
 30
0.0
 40
2.75000000000003
  0
CIRCLE
  5
317
330
1F
100
AcDbEntity
  8
0
  6
Continuous
 62
     7
100
AcDbCircle
 10
664.2265681087
 20
-4.9035151358
 30
0.0
 40
2.75000000000003
  0
ARC
  5
318
330
1F
100
AcDbEntity
  8
0
  6
Continuous
 62
     7
100
AcDbCircle
 10
1403.6765681087
 20
261.5964848642
 30
0.0
 40
4.0
100
AcDbArc
 50
90.0
 51
270.0
  0
LINE
  5
319
330
1F
100
AcDbEntity
  8
0
  6
Continuous
 62
     7
100
AcDbLine
 10
1403.6765681087
 20
265.5964848642
 30
0.0
 11
1424.6765681087
 21
265.5964848642
 31
0.0
  0
LINE
  5
31A
330
1F
100
AcDbEntity
  8
0
  6
Continuous
 62
     7
100
AcDbLine
 10
1464.4265681087
 20
24.0964848642
 30
0.0
 11
1465.4265681087
 21
24.0964848642
 31
0.0
  0
LINE
  5
31B
330
1F
100
AcDbEntity
  8
0
  6
Continuous
 62
     7
100
AcDbLine
 10
563.9265681087
 20
24.0964848642
 30
0.0
 11
562.9265681087
 21
24.0964848642
 31
0.0
  0
LINE
  5
31C
330
1F
100
AcDbEntity
  8
0
  6
Continuous
 62
     7
100
AcDbLine
 10
563.9265681087
 20
93.0964848642
 30
0.0
 11
562.9265681087
 21
93.0964848642
 31
0.0
  0
LINE
  5
31D
330
1F
100
AcDbEntity
  8
0
  6
Continuous
 62
     7
100
AcDbLine
 10
1464.4265681087
 20
93.0964848642
 30
0.0
 11
1465.4265681087
 21
93.0964848642
 31
0.0
  0
LINE
  5
31E
330
1F
100
AcDbEntity
  8
0
  6
Continuous
 62
     7
100
AcDbLine
 10
563.9265681087
 20
95.0964848642
 30
0.0
 11
562.9265681087
 21
95.0964848642
 31
0.0
  0
LINE
  5
31F
330
1F
100
AcDbEntity
  8
0
  6
Continuous
 62
     7
100
AcDbLine
 10
1464.4265681087
 20
95.0964848642
 30
0.0
 11
1465.4265681087
 21
95.0964848642
 31
0.0
  0
LINE
  5
320
330
1F
100
AcDbEntity
  8
0
  6
Continuous
 62
     7
100
AcDbLine
 10
563.9265681087
 20
215.0964848642
 30
0.0
 11
562.9265681087
 21
215.0964848642
 31
0.0
  0
LINE
  5
321
330
1F
100
AcDbEntity
  8
0
  6
Continuous
 62
     7
100
AcDbLine
 10
1464.4265681087
 20
215.0964848642
 30
0.0
 11
1465.4265681087
 21
215.0964848642
 31
0.0
  0
LINE
  5
322
330
1F
100
AcDbEntity
  8
0
  6
Continuous
 62
     7
100
AcDbLine
 10
563.9265681087
 20
217.0964848642
 30
0.0
 11
562.9265681087
 21
217.0964848642
 31
0.0
  0
LINE
  5
323
330
1F
100
AcDbEntity
  8
0
  6
Continuous
 62
     7
100
AcDbLine
 10
1464.4265681087
 20
217.0964848642
 30
0.0
 11
1465.4265681087
 21
217.0964848642
 31
0.0
  0
LINE
  5
324
330
1F
100
AcDbEntity
  8
0
  6
Continuous
 62
     7
100
AcDbLine
 10
563.9265681087
 20
286.0964848642
 30
0.0
 11
562.9265681087
 21
286.0964848642
 31
0.0
  0
LINE
  5
325
330
1F
100
AcDbEntity
  8
0
  6
Continuous
 62
     7
100
AcDbLine
 10
1464.4265681087
 20
286.0964848642
 30
0.0
 11
1465.4265681087
 21
286.0964848642
 31
0.0
  0
LINE
  5
326
330
1F
100
AcDbEntity
  8
0
  6
Continuous
 62
     7
100
AcDbLine
 10
565.7665607177
 20
275.6966999913
 30
0.0
 11
565.7665607177
 21
285.9964848642
 31
0.0
  0
LINE
  5
327
330
1F
100
AcDbEntity
  8
0
  6
Continuous
 62
     7
100
AcDbLine
 10
565.7665607177
 20
274.1964848642
 30
0.0
 11
565.7665607177
 21
275.6966999913
 31
0.0
  0
LINE
  5
328
330
1F
100
AcDbEntity
  8
0
  6
Continuous
 62
     7
100
AcDbLine
 10
567.096931844
 20
276.2985744332
 30
0.0
 11
567.096931844
 21
285.1893864925
 31
0.0
  0
LINE
  5
329
330
1F
100
AcDbEntity
  8
0
  6
Continuous
 62
     7
100
AcDbLine
 10
567.096931844
 20
275.003583236
 30
0.0
 11
567.096931844
 21
276.2985744332
 31
0.0
  0
LINE
  5
32A
330
1F
100
AcDbEntity
  8
0
  6
Continuous
 62
     7
100
AcDbLine
 10
567.7569392349
 20
277.2435693191
 30
0.0
 11
567.7569392349
 21
283.9221723018
 31
0.0
  0
LINE
  5
32B
330
1F
100
AcDbEntity
  8
0
  6
Continuous
 62
     7
100
AcDbLine
 10
567.7569392349
 20
276.2707974266
 30
0.0
 11
567.7569392349
 21
277.2435693191
 31
0.0
  0
LINE
  5
32C
330
1F
100
AcDbEntity
  8
0
  6
Continuous
 62
     7
100
AcDbLine
 10
1462.5865754997
 20
285.9964848642
 30
0.0
 11
1462.5865754997
 21
274.1968938176
 31
0.0
  0
LINE
  5
32D
330
1F
100
AcDbEntity
  8
0
  6
Continuous
 62
     7
100
AcDbLine
 10
1461.2562043734
 20
285.1893864925
 30
0.0
 11
1461.2562043734
 21
275.0039362461
 31
0.0
  0
LINE
  5
32E
330
1F
100
AcDbEntity
  8
0
  6
Continuous
 62
     7
100
AcDbLine
 10
1460.5961969824
 20
283.9221723018
 30
0.0
 11
1460.5961969824
 21
276.2710626008
 31
0.0
  0
LINE
  5
32F
330
1F
100
AcDbEntity
  8
0
  6
Continuous
 62
     7
100
AcDbLine
 10
565.7665607177
 20
27.5237436788
 30
0.0
 11
565.7665607177
 21
35.9964848642
 31
0.0
  0
LINE
  5
330
330
1F
100
AcDbEntity
  8
0
  6
Continuous
 62
     7
100
AcDbLine
 10
565.7665607177
 20
24.1964848642
 30
0.0
 11
565.7665607177
 21
27.5237436788
 31
0.0
  0
LINE
  5
331
330
1F
100
AcDbEntity
  8
0
  6
Continuous
 62
     7
100
AcDbLine
 10
567.096931844
 20
27.8756852418
 30
0.0
 11
567.096931844
 21
35.1893864925
 31
0.0
  0
LINE
  5
332
330
1F
100
AcDbEntity
  8
0
  6
Continuous
 62
     7
100
AcDbLine
 10
567.096931844
 20
25.003583236
 30
0.0
 11
567.096931844
 21
27.8756852418
 31
0.0
  0
LINE
  5
333
330
1F
100
AcDbEntity
  8
0
  6
Continuous
 62
     7
100
AcDbLine
 10
567.7569392349
 20
28.4282639094
 30
0.0
 11
567.7569392349
 21
33.9221723018
 31
0.0
  0
LINE
  5
334
330
1F
100
AcDbEntity
  8
0
  6
Continuous
 62
     7
100
AcDbLine
 10
567.7569392349
 20
26.2707974266
 30
0.0
 11
567.7569392349
 21
28.4282639094
 31
0.0
  0
LINE
  5
335
330
1F
100
AcDbEntity
  8
0
  6
Continuous
 62
     7
100
AcDbLine
 10
1462.5865754996
 20
33.4971856931
 30
0.0
 11
1462.5865754996
 21
24.1964848642
 31
0.0
  0
LINE
  5
336
330
1F
100
AcDbEntity
  8
0
  6
Continuous
 62
     7
100
AcDbLine
 10
1462.5865754996
 20
35.9964848642
 30
0.0
 11
1462.5865754996
 21
33.4971856931
 31
0.0
  0
LINE
  5
337
330
1F
100
AcDbEntity
  8
0
  6
Continuous
 62
     7
100
AcDbLine
 10
1461.2562043734
 20
33.031982286
 30
0.0
 11
1461.2562043734
 21
25.003583236
 31
0.0
  0
LINE
  5
338
330
1F
100
AcDbEntity
  8
0
  6
Continuous
 62
     7
100
AcDbLine
 10
1461.2562043734
 20
35.1893864925
 30
0.0
 11
1461.2562043734
 21
33.031982286
 31
0.0
  0
LINE
  5
339
330
1F
100
AcDbEntity
  8
0
  6
Continuous
 62
     7
100
AcDbLine
 10
1460.5961969824
 20
32.3015727354
 30
0.0
 11
1460.5961969824
 21
26.2707974266
 31
0.0
  0
LINE
  5
33A
330
1F
100
AcDbEntity
  8
0
  6
Continuous
 62
     7
100
AcDbLine
 10
1460.5961969824
 20
33.9221723018
 30
0.0
 11
1460.5961969824
 21
32.3015727354
 31
0.0
  0
CIRCLE
  5
33B
330
1F
100
AcDbEntity
  8
0
  6
Continuous
 62
     7
100
AcDbCircle
 10
511.289471632
 20
280.0964848642
 30
0.0
 40
3.000000000000023
  0
CIRCLE
  5
33C
330
1F
100
AcDbEntity
  8
0
  6
Continuous
 62
     7
100
AcDbCircle
 10
511.289471632
 20
280.0964848642
 30
0.0
 40
2.499999999999981
  0
CIRCLE
  5
33D
330
1F
100
AcDbEntity
  8
0
  6
Continuous
 62
     7
100
AcDbCircle
 10
511.289471632
 20
30.0964848642
 30
0.0
 40
3.000000000000008
  0
CIRCLE
  5
33E
330
1F
100
AcDbEntity
  8
0
  6
Continuous
 62
     7
100
AcDbCircle
 10
511.289471632
 20
30.0964848642
 30
0.0
 40
2.500000000000027
  0
LINE
  5
33F
330
1F
100
AcDbEntity
  8
0
  6
Continuous
 62
     7
100
AcDbLine
 10
506.289471632
 20
93.0964848642
 30
0.0
 11
519.289471632
 21
93.0964848642
 31
0.0
  0
LINE
  5
340
330
1F
100
AcDbEntity
  8
0
  6
Continuous
 62
     7
100
AcDbLine
 10
519.289471632
 20
93.0964848642
 30
0.0
 11
521.789471632
 21
93.0964848642
 31
0.0
  0
LINE
  5
341
330
1F
100
AcDbEntity
  8
0
  6
Continuous
 62
     7
100
AcDbLine
 10
521.789471632
 20
24.0964848642
 30
0.0
 11
521.789471632
 21
93.0964848642
 31
0.0
  0
LINE
  5
342
330
1F
100
AcDbEntity
  8
0
  6
Continuous
 62
     7
100
AcDbLine
 10
507.289471632
 20
24.0964848642
 30
0.0
 11
519.289471632
 21
24.0964848642
 31
0.0
  0
LINE
  5
343
330
1F
100
AcDbEntity
  8
0
  6
Continuous
 62
     7
100
AcDbLine
 10
504.289471632
 20
27.0964848642
 30
0.0
 11
507.289471632
 21
24.0964848642
 31
0.0
  0
LINE
  5
344
330
1F
100
AcDbEntity
  8
0
  6
Continuous
 62
     7
100
AcDbLine
 10
504.289471632
 20
283.0964848642
 30
0.0
 11
504.289471632
 21
27.0964848642
 31
0.0
  0
LINE
  5
345
330
1F
100
AcDbEntity
  8
0
  6
Continuous
 62
     7
100
AcDbLine
 10
507.289471632
 20
286.0964848642
 30
0.0
 11
504.289471632
 21
283.0964848642
 31
0.0
  0
LINE
  5
346
330
1F
100
AcDbEntity
  8
0
  6
Continuous
 62
     7
100
AcDbLine
 10
519.289471632
 20
286.0964848642
 30
0.0
 11
507.289471632
 21
286.0964848642
 31
0.0
  0
LINE
  5
347
330
1F
100
AcDbEntity
  8
0
  6
Continuous
 62
     7
100
AcDbLine
 10
519.289471632
 20
286.0964848642
 30
0.0
 11
521.789471632
 21
286.0964848642
 31
0.0
  0
LINE
  5
348
330
1F
100
AcDbEntity
  8
0
  6
Continuous
 62
     7
100
AcDbLine
 10
521.789471632
 20
286.0964848642
 30
0.0
 11
521.789471632
 21
217.0964848642
 31
0.0
  0
LINE
  5
349
330
1F
100
AcDbEntity
  8
0
  6
Continuous
 62
     7
100
AcDbLine
 10
519.289471632
 20
217.0964848642
 30
0.0
 11
521.789471632
 21
217.0964848642
 31
0.0
  0
LINE
  5
34A
330
1F
100
AcDbEntity
  8
0
  6
Continuous
 62
     7
100
AcDbLine
 10
506.289471632
 20
217.0964848642
 30
0.0
 11
519.289471632
 21
217.0964848642
 31
0.0
  0
LINE
  5
34B
330
1F
100
AcDbEntity
  8
0
  6
Continuous
 62
     7
100
AcDbLine
 10
506.289471632
 20
217.0964848642
 30
0.0
 11
506.289471632
 21
215.0964848642
 31
0.0
  0
LINE
  5
34C
330
1F
100
AcDbEntity
  8
0
  6
Continuous
 62
     7
100
AcDbLine
 10
506.289471632
 20
215.0964848642
 30
0.0
 11
519.289471632
 21
215.0964848642
 31
0.0
  0
LINE
  5
34D
330
1F
100
AcDbEntity
  8
0
  6
Continuous
 62
     7
100
AcDbLine
 10
519.289471632
 20
215.0964848642
 30
0.0
 11
521.789471632
 21
215.0964848642
 31
0.0
  0
LINE
  5
34E
330
1F
100
AcDbEntity
  8
0
  6
Continuous
 62
     7
100
AcDbLine
 10
521.789471632
 20
215.0964848642
 30
0.0
 11
521.789471632
 21
95.0964848642
 31
0.0
  0
LINE
  5
34F
330
1F
100
AcDbEntity
  8
0
  6
Continuous
 62
     7
100
AcDbLine
 10
519.289471632
 20
95.0964848642
 30
0.0
 11
521.789471632
 21
95.0964848642
 31
0.0
  0
LINE
  5
350
330
1F
100
AcDbEntity
  8
0
  6
Continuous
 62
     7
100
AcDbLine
 10
506.289471632
 20
95.0964848642
 30
0.0
 11
519.289471632
 21
95.0964848642
 31
0.0
  0
LINE
  5
351
330
1F
100
AcDbEntity
  8
0
  6
Continuous
 62
     7
100
AcDbLine
 10
506.289471632
 20
95.0964848642
 30
0.0
 11
506.289471632
 21
93.0964848642
 31
0.0
  0
CIRCLE
  5
352
330
1F
100
AcDbEntity
  8
0
  6
Continuous
 62
     7
100
AcDbCircle
 10
511.289471632
 20
30.0964848642
 30
0.0
 40
3.250000000000057
  0
CIRCLE
  5
353
330
1F
100
AcDbEntity
  8
0
  6
Continuous
 62
     7
100
AcDbCircle
 10
511.289471632
 20
42.5964848642
 30
0.0
 40
3.249999999999943
  0
CIRCLE
  5
354
330
1F
100
AcDbEntity
  8
0
  6
Continuous
 62
     7
100
AcDbCircle
 10
511.289471632
 20
280.0964848642
 30
0.0
 40
3.25
  0
CIRCLE
  5
355
330
1F
100
AcDbEntity
  8
0
  6
Continuous
 62
     7
100
AcDbCircle
 10
511.289471632
 20
267.5964848642
 30
0.0
 40
3.250000000000057
  0
LINE
  5
356
330
1F
100
AcDbEntity
  8
0
  6
Continuous
 62
     7
100
AcDbLine
 10
519.289471632
 20
24.0964848642
 30
0.0
 11
521.789471632
 21
24.0964848642
 31
0.0
  0
LINE
  5
357
330
1F
100
AcDbEntity
  8
0
  6
Continuous
 62
     7
100
AcDbLine
 10
520.289471632
 20
95.0964848642
 30
0.0
 11
520.289471632
 21
93.0964848642
 31
0.0
  0
LINE
  5
358
330
1F
100
AcDbEntity
  8
0
  6
Continuous
 62
     7
100
AcDbLine
 10
521.789471632
 20
95.0964848642
 30
0.0
 11
521.789471632
 21
93.0964848642
 31
0.0
  0
LINE
  5
359
330
1F
100
AcDbEntity
  8
0
  6
Continuous
 62
     7
100
AcDbLine
 10
520.289471632
 20
217.0964848642
 30
0.0
 11
520.289471632
 21
215.0964848642
 31
0.0
  0
LINE
  5
35A
330
1F
100
AcDbEntity
  8
0
  6
Continuous
 62
     7
100
AcDbLine
 10
521.789471632
 20
217.0964848642
 30
0.0
 11
521.789471632
 21
215.0964848642
 31
0.0
  0
LINE
  5
35B
330
1F
100
AcDbEntity
  8
0
  6
Continuous
 62
     7
100
AcDbLine
 10
521.789471632
 20
322.0964848642
 30
0.0
 11
520.289471632
 21
322.0964848642
 31
0.0
  0
LINE
  5
35C
330
1F
100
AcDbEntity
  8
0
  6
Continuous
 62
     7
100
AcDbLine
 10
520.289471632
 20
286.0964848642
 30
0.0
 11
520.289471632
 21
322.0964848642
 31
0.0
  0
LINE
  5
35D
330
1F
100
AcDbEntity
  8
0
  6
Continuous
 62
     7
100
AcDbLine
 10
521.789471632
 20
286.0964848642
 30
0.0
 11
521.789471632
 21
322.0964848642
 31
0.0
  0
LINE
  5
35E
330
1F
100
AcDbEntity
  8
0
  6
Continuous
 62
     7
100
AcDbLine
 10
521.789471632
 20
-14.9035151358
 30
0.0
 11
520.289471632
 21
-14.9035151358
 31
0.0
  0
LINE
  5
35F
330
1F
100
AcDbEntity
  8
0
  6
Continuous
 62
     7
100
AcDbLine
 10
520.289471632
 20
-11.9035151358
 30
0.0
 11
521.789471632
 21
-11.9035151358
 31
0.0
  0
LINE
  5
360
330
1F
100
AcDbEntity
  8
0
  6
Continuous
 62
     7
100
AcDbLine
 10
520.289471632
 20
-14.9035151358
 30
0.0
 11
520.289471632
 21
-11.9035151358
 31
0.0
  0
LINE
  5
361
330
1F
100
AcDbEntity
  8
0
  6
Continuous
 62
     7
100
AcDbLine
 10
521.789471632
 20
-11.9035151358
 30
0.0
 11
521.789471632
 21
-14.9035151358
 31
0.0
  0
LINE
  5
362
330
1F
100
AcDbEntity
  8
0
  6
Continuous
 62
     7
100
AcDbLine
 10
520.289471632
 20
325.0964848642
 30
0.0
 11
521.789471632
 21
325.0964848642
 31
0.0
  0
LINE
  5
363
330
1F
100
AcDbEntity
  8
0
  6
Continuous
 62
     7
100
AcDbLine
 10
520.289471632
 20
322.0964848642
 30
0.0
 11
520.289471632
 21
325.0964848642
 31
0.0
  0
LINE
  5
364
330
1F
100
AcDbEntity
  8
0
  6
Continuous
 62
     7
100
AcDbLine
 10
521.789471632
 20
325.0964848642
 30
0.0
 11
521.789471632
 21
322.0964848642
 31
0.0
  0
LINE
  5
365
330
1F
100
AcDbEntity
  8
0
  6
Continuous
 62
     7
100
AcDbLine
 10
520.289471632
 20
-11.9035151358
 30
0.0
 11
520.289471632
 21
24.0964848642
 31
0.0
  0
LINE
  5
366
330
1F
100
AcDbEntity
  8
0
  6
Continuous
 62
     7
100
AcDbLine
 10
521.789471632
 20
-11.9035151358
 30
0.0
 11
521.789471632
 21
24.0964848642
 31
0.0
  0
LINE
  5
367
330
1F
100
AcDbEntity
  8
0
  6
Continuous
 62
     7
100
AcDbLine
 10
518.039471632
 20
-16.2025532415
 30
0.0
 11
517.289471632
 21
-17.5015913471
 31
0.0
  0
LINE
  5
368
330
1F
100
AcDbEntity
  8
0
  6
Continuous
 62
     7
100
AcDbLine
 10
518.039471632
 20
-16.2025532415
 30
0.0
 11
520.289471632
 21
-17.5015913471
 31
0.0
  0
LINE
  5
369
330
1F
100
AcDbEntity
  8
0
  6
Continuous
 62
     7
100
AcDbLine
 10
517.289471632
 20
-17.5015913471
 30
0.0
 11
520.5215224396
 21
-19.3676167509
 31
0.0
  0
LINE
  5
36A
330
1F
100
AcDbEntity
  8
0
  6
Continuous
 62
     7
100
AcDbLine
 10
520.5215224396
 20
-19.3676167509
 30
0.0
 11
521.789471632
 21
-18.0996675585
 31
0.0
  0
LINE
  5
36B
330
1F
100
AcDbEntity
  8
0
  6
Continuous
 62
     7
100
AcDbLine
 10
520.289471632
 20
-14.9035151358
 30
0.0
 11
520.289471632
 21
-17.5015913471
 31
0.0
  0
LINE
  5
36C
330
1F
100
AcDbEntity
  8
0
  6
Continuous
 62
     7
100
AcDbLine
 10
521.789471632
 20
-14.9035151358
 30
0.0
 11
521.789471632
 21
-18.0996675585
 31
0.0
  0
LINE
  5
36D
330
1F
100
AcDbEntity
  8
0
  6
Continuous
 62
     7
100
AcDbLine
 10
518.039471632
 20
326.3955229699
 30
0.0
 11
520.289471632
 21
327.6945610756
 31
0.0
  0
LINE
  5
36E
330
1F
100
AcDbEntity
  8
0
  6
Continuous
 62
     7
100
AcDbLine
 10
518.039471632
 20
326.3955229699
 30
0.0
 11
517.289471632
 21
327.6945610756
 31
0.0
  0
LINE
  5
36F
330
1F
100
AcDbEntity
  8
0
  6
Continuous
 62
     7
100
AcDbLine
 10
517.289471632
 20
327.6945610756
 30
0.0
 11
520.5215224396
 21
329.5605864794
 31
0.0
  0
LINE
  5
370
330
1F
100
AcDbEntity
  8
0
  6
Continuous
 62
     7
100
AcDbLine
 10
521.789471632
 20
328.2926372869
 30
0.0
 11
520.5215224396
 21
329.5605864794
 31
0.0
  0
LINE
  5
371
330
1F
100
AcDbEntity
  8
0
  6
Continuous
 62
     7
100
AcDbLine
 10
520.289471632
 20
325.0964848642
 30
0.0
 11
520.289471632
 21
327.6945610756
 31
0.0
  0
LINE
  5
372
330
1F
100
AcDbEntity
  8
0
  6
Continuous
 62
     7
100
AcDbLine
 10
521.789471632
 20
325.0964848642
 30
0.0
 11
521.789471632
 21
328.2926372869
 31
0.0
  0
LINE
  5
373
330
1F
100
AcDbEntity
  8
0
  6
Continuous
 62
     7
100
AcDbLine
 10
513.7362684018
 20
-13.7180976981
 30
0.0
 11
512.9862684018
 21
-15.0171358038
 31
0.0
  0
LINE
  5
374
330
1F
100
AcDbEntity
  8
0
  6
Continuous
 62
     7
100
AcDbLine
 10
513.7362684018
 20
-13.7180976981
 30
0.0
 11
518.039471632
 21
-16.2025532415
 31
0.0
  0
LINE
  5
375
330
1F
100
AcDbEntity
  8
0
  6
Continuous
 62
     7
100
AcDbLine
 10
512.9862684018
 20
-15.0171358038
 30
0.0
 11
517.289471632
 21
-17.5015913471
 31
0.0
  0
LINE
  5
376
330
1F
100
AcDbEntity
  8
0
  6
Continuous
 62
     7
100
AcDbLine
 10
512.9862684018
 20
325.2101055322
 30
0.0
 11
513.7362684018
 21
323.9110674265
 31
0.0
  0
LINE
  5
377
330
1F
100
AcDbEntity
  8
0
  6
Continuous
 62
     7
100
AcDbLine
 10
513.7362684018
 20
323.9110674265
 30
0.0
 11
518.039471632
 21
326.3955229699
 31
0.0
  0
LINE
  5
378
330
1F
100
AcDbEntity
  8
0
  6
Continuous
 62
     7
100
AcDbLine
 10
512.9862684018
 20
325.2101055322
 30
0.0
 11
517.289471632
 21
327.6945610756
 31
0.0
  0
LINE
  5
379
330
1F
100
AcDbEntity
  8
0
  6
Continuous
 62
     7
100
AcDbLine
 10
511.1381921904
 20
322.4110674265
 30
0.0
 11
510.3881921904
 21
323.7101055322
 31
0.0
  0
LINE
  5
37A
330
1F
100
AcDbEntity
  8
0
  6
Continuous
 62
     7
100
AcDbLine
 10
513.7362684018
 20
323.9110674265
 30
0.0
 11
511.1381921904
 21
322.4110674265
 31
0.0
  0
LINE
  5
37B
330
1F
100
AcDbEntity
  8
0
  6
Continuous
 62
     7
100
AcDbLine
 10
510.3881921904
 20
323.7101055322
 30
0.0
 11
512.9862684018
 21
325.2101055322
 31
0.0
  0
LINE
  5
37C
330
1F
100
AcDbEntity
  8
0
  6
Continuous
 62
     7
100
AcDbLine
 10
510.3881921904
 20
-13.5171358038
 30
0.0
 11
511.1381921904
 21
-12.2180976981
 31
0.0
  0
LINE
  5
37D
330
1F
100
AcDbEntity
  8
0
  6
Continuous
 62
     7
100
AcDbLine
 10
511.1381921904
 20
-12.2180976981
 30
0.0
 11
513.7362684018
 21
-13.7180976981
 31
0.0
  0
LINE
  5
37E
330
1F
100
AcDbEntity
  8
0
  6
Continuous
 62
     7
100
AcDbLine
 10
512.9862684018
 20
-15.0171358038
 30
0.0
 11
510.3881921904
 21
-13.5171358038
 31
0.0
  0
CIRCLE
  5
37F
330
1F
100
AcDbEntity
  8
0
  6
Continuous
 62
     7
100
AcDbCircle
 10
1522.9942811117
 20
280.0964848642
 30
0.0
 40
3.000000000000146
  0
CIRCLE
  5
380
330
1F
100
AcDbEntity
  8
0
  6
Continuous
 62
     7
100
AcDbCircle
 10
1522.9942811117
 20
280.0964848642
 30
0.0
 40
2.500000000000071
  0
CIRCLE
  5
381
330
1F
100
AcDbEntity
  8
0
  6
Continuous
 62
     7
100
AcDbCircle
 10
1522.9942811117
 20
30.0964848642
 30
0.0
 40
3.000000000000054
  0
CIRCLE
  5
382
330
1F
100
AcDbEntity
  8
0
  6
Continuous
 62
     7
100
AcDbCircle
 10
1522.9942811117
 20
30.0964848642
 30
0.0
 40
2.499999999999969
  0
LINE
  5
383
330
1F
100
AcDbEntity
  8
0
  6
Continuous
 62
     7
100
AcDbLine
 10
1529.9942811117
 20
283.0964848642
 30
0.0
 11
1529.9942811117
 21
27.0964848642
 31
0.0
  0
LINE
  5
384
330
1F
100
AcDbEntity
  8
0
  6
Continuous
 62
     7
100
AcDbLine
 10
1512.4942811117
 20
24.0964848642
 30
0.0
 11
1512.4942811117
 21
93.0964848642
 31
0.0
  0
LINE
  5
385
330
1F
100
AcDbEntity
  8
0
  6
Continuous
 62
     7
100
AcDbLine
 10
1512.4942811117
 20
95.0964848642
 30
0.0
 11
1512.4942811117
 21
215.0964848642
 31
0.0
  0
LINE
  5
386
330
1F
100
AcDbEntity
  8
0
  6
Continuous
 62
     7
100
AcDbLine
 10
1514.9942811117
 20
217.0964848642
 30
0.0
 11
1512.4942811117
 21
217.0964848642
 31
0.0
  0
LINE
  5
387
330
1F
100
AcDbEntity
  8
0
  6
Continuous
 62
     7
100
AcDbLine
 10
1512.4942811117
 20
286.0964848642
 30
0.0
 11
1512.4942811117
 21
217.0964848642
 31
0.0
  0
LINE
  5
388
330
1F
100
AcDbEntity
  8
0
  6
Continuous
 62
     7
100
AcDbLine
 10
1514.9942811117
 20
286.0964848642
 30
0.0
 11
1526.9942811117
 21
286.0964848642
 31
0.0
  0
CIRCLE
  5
389
330
1F
100
AcDbEntity
  8
0
  6
Continuous
 62
     7
100
AcDbCircle
 10
1522.9942811117
 20
267.5964848642
 30
0.0
 40
3.25
  0
LINE
  5
38A
330
1F
100
AcDbEntity
  8
0
  6
Continuous
 62
     7
100
AcDbLine
 10
1514.9942811117
 20
95.0964848642
 30
0.0
 11
1512.4942811117
 21
95.0964848642
 31
0.0
  0
CIRCLE
  5
38B
330
1F
100
AcDbEntity
  8
0
  6
Continuous
 62
     7
100
AcDbCircle
 10
1522.9942811117
 20
42.5964848642
 30
0.0
 40
3.250000000000227
  0
CIRCLE
  5
38C
330
1F
100
AcDbEntity
  8
0
  6
Continuous
 62
     7
100
AcDbCircle
 10
1522.9942811117
 20
280.0964848642
 30
0.0
 40
3.25
  0
LINE
  5
38D
330
1F
100
AcDbEntity
  8
0
  6
Continuous
 62
     7
100
AcDbLine
 10
1527.9942811117
 20
93.0964848642
 30
0.0
 11
1514.9942811117
 21
93.0964848642
 31
0.0
  0
LINE
  5
38E
330
1F
100
AcDbEntity
  8
0
  6
Continuous
 62
     7
100
AcDbLine
 10
1527.9942811117
 20
93.0964848642
 30
0.0
 11
1527.9942811117
 21
95.0964848642
 31
0.0
  0
LINE
  5
38F
330
1F
100
AcDbEntity
  8
0
  6
Continuous
 62
     7
100
AcDbLine
 10
1527.9942811117
 20
215.0964848642
 30
0.0
 11
1527.9942811117
 21
217.0964848642
 31
0.0
  0
LINE
  5
390
330
1F
100
AcDbEntity
  8
0
  6
Continuous
 62
     7
100
AcDbLine
 10
1527.9942811117
 20
95.0964848642
 30
0.0
 11
1514.9942811117
 21
95.0964848642
 31
0.0
  0
LINE
  5
391
330
1F
100
AcDbEntity
  8
0
  6
Continuous
 62
     7
100
AcDbLine
 10
1514.9942811117
 20
215.0964848642
 30
0.0
 11
1512.4942811117
 21
215.0964848642
 31
0.0
  0
CIRCLE
  5
392
330
1F
100
AcDbEntity
  8
0
  6
Continuous
 62
     7
100
AcDbCircle
 10
1522.9942811117
 20
30.0964848642
 30
0.0
 40
3.250000000000227
  0
LINE
  5
393
330
1F
100
AcDbEntity
  8
0
  6
Continuous
 62
     7
100
AcDbLine
 10
1514.9942811117
 20
24.0964848642
 30
0.0
 11
1512.4942811117
 21
24.0964848642
 31
0.0
  0
LINE
  5
394
330
1F
100
AcDbEntity
  8
0
  6
Continuous
 62
     7
100
AcDbLine
 10
1527.9942811117
 20
217.0964848642
 30
0.0
 11
1514.9942811117
 21
217.0964848642
 31
0.0
  0
LINE
  5
395
330
1F
100
AcDbEntity
  8
0
  6
Continuous
 62
     7
100
AcDbLine
 10
1514.9942811117
 20
93.0964848642
 30
0.0
 11
1512.4942811117
 21
93.0964848642
 31
0.0
  0
LINE
  5
396
330
1F
100
AcDbEntity
  8
0
  6
Continuous
 62
     7
100
AcDbLine
 10
1527.9942811117
 20
215.0964848642
 30
0.0
 11
1514.9942811117
 21
215.0964848642
 31
0.0
  0
LINE
  5
397
330
1F
100
AcDbEntity
  8
0
  6
Continuous
 62
     7
100
AcDbLine
 10
1526.9942811117
 20
24.0964848642
 30
0.0
 11
1514.9942811117
 21
24.0964848642
 31
0.0
  0
LINE
  5
398
330
1F
100
AcDbEntity
  8
0
  6
Continuous
 62
     7
100
AcDbLine
 10
1529.9942811117
 20
283.0964848642
 30
0.0
 11
1526.9942811117
 21
286.0964848642
 31
0.0
  0
LINE
  5
399
330
1F
100
AcDbEntity
  8
0
  6
Continuous
 62
     7
100
AcDbLine
 10
1514.9942811117
 20
286.0964848642
 30
0.0
 11
1512.4942811117
 21
286.0964848642
 31
0.0
  0
LINE
  5
39A
330
1F
100
AcDbEntity
  8
0
  6
Continuous
 62
     7
100
AcDbLine
 10
1526.9942811117
 20
24.0964848642
 30
0.0
 11
1529.9942811117
 21
27.0964848642
 31
0.0
  0
LINE
  5
39B
330
1F
100
AcDbEntity
  8
0
  6
Continuous
 62
     7
100
AcDbLine
 10
1513.9942811117
 20
93.0964848642
 30
0.0
 11
1513.9942811117
 21
95.0964848642
 31
0.0
  0
LINE
  5
39C
330
1F
100
AcDbEntity
  8
0
  6
Continuous
 62
     7
100
AcDbLine
 10
1512.4942811117
 20
93.0964848642
 30
0.0
 11
1512.4942811117
 21
95.0964848642
 31
0.0
  0
LINE
  5
39D
330
1F
100
AcDbEntity
  8
0
  6
Continuous
 62
     7
100
AcDbLine
 10
1513.9942811117
 20
215.0964848642
 30
0.0
 11
1513.9942811117
 21
217.0964848642
 31
0.0
  0
LINE
  5
39E
330
1F
100
AcDbEntity
  8
0
  6
Continuous
 62
     7
100
AcDbLine
 10
1512.4942811117
 20
215.0964848642
 30
0.0
 11
1512.4942811117
 21
217.0964848642
 31
0.0
  0
LINE
  5
39F
330
1F
100
AcDbEntity
  8
0
  6
Continuous
 62
     7
100
AcDbLine
 10
1512.4942811117
 20
-11.9035151358
 30
0.0
 11
1513.9942811117
 21
-11.9035151358
 31
0.0
  0
LINE
  5
3A0
330
1F
100
AcDbEntity
  8
0
  6
Continuous
 62
     7
100
AcDbLine
 10
1513.9942811117
 20
24.0964848642
 30
0.0
 11
1513.9942811117
 21
-11.9035151358
 31
0.0
  0
LINE
  5
3A1
330
1F
100
AcDbEntity
  8
0
  6
Continuous
 62
     7
100
AcDbLine
 10
1512.4942811117
 20
24.0964848642
 30
0.0
 11
1512.4942811117
 21
-11.9035151358
 31
0.0
  0
LINE
  5
3A2
330
1F
100
AcDbEntity
  8
0
  6
Continuous
 62
     7
100
AcDbLine
 10
1513.9942811117
 20
322.0964848642
 30
0.0
 11
1512.4942811117
 21
322.0964848642
 31
0.0
  0
LINE
  5
3A3
330
1F
100
AcDbEntity
  8
0
  6
Continuous
 62
     7
100
AcDbLine
 10
1513.9942811117
 20
322.0964848642
 30
0.0
 11
1513.9942811117
 21
286.0964848642
 31
0.0
  0
LINE
  5
3A4
330
1F
100
AcDbEntity
  8
0
  6
Continuous
 62
     7
100
AcDbLine
 10
1512.4942811117
 20
322.0964848642
 30
0.0
 11
1512.4942811117
 21
286.0964848642
 31
0.0
  0
LINE
  5
3A5
330
1F
100
AcDbEntity
  8
0
  6
Continuous
 62
     7
100
AcDbLine
 10
1512.4942811117
 20
325.0964848642
 30
0.0
 11
1513.9942811117
 21
325.0964848642
 31
0.0
  0
LINE
  5
3A6
330
1F
100
AcDbEntity
  8
0
  6
Continuous
 62
     7
100
AcDbLine
 10
1513.9942811117
 20
325.0964848642
 30
0.0
 11
1513.9942811117
 21
322.0964848642
 31
0.0
  0
LINE
  5
3A7
330
1F
100
AcDbEntity
  8
0
  6
Continuous
 62
     7
100
AcDbLine
 10
1512.4942811117
 20
322.0964848642
 30
0.0
 11
1512.4942811117
 21
325.0964848642
 31
0.0
  0
LINE
  5
3A8
330
1F
100
AcDbEntity
  8
0
  6
Continuous
 62
     7
100
AcDbLine
 10
1513.9942811117
 20
-14.9035151358
 30
0.0
 11
1512.4942811117
 21
-14.9035151358
 31
0.0
  0
LINE
  5
3A9
330
1F
100
AcDbEntity
  8
0
  6
Continuous
 62
     7
100
AcDbLine
 10
1513.9942811117
 20
-11.9035151358
 30
0.0
 11
1513.9942811117
 21
-14.9035151358
 31
0.0
  0
LINE
  5
3AA
330
1F
100
AcDbEntity
  8
0
  6
Continuous
 62
     7
100
AcDbLine
 10
1512.4942811117
 20
-14.9035151358
 30
0.0
 11
1512.4942811117
 21
-11.9035151358
 31
0.0
  0
LINE
  5
3AB
330
1F
100
AcDbEntity
  8
0
  6
Continuous
 62
     7
100
AcDbLine
 10
1516.2442811117
 20
326.3955229699
 30
0.0
 11
1516.9942811117
 21
327.6945610756
 31
0.0
  0
LINE
  5
3AC
330
1F
100
AcDbEntity
  8
0
  6
Continuous
 62
     7
100
AcDbLine
 10
1516.9942811117
 20
327.6945610756
 30
0.0
 11
1521.2974843419
 21
325.2101055322
 31
0.0
  0
LINE
  5
3AD
330
1F
100
AcDbEntity
  8
0
  6
Continuous
 62
     7
100
AcDbLine
 10
1520.5474843419
 20
323.9110674265
 30
0.0
 11
1521.2974843419
 21
325.2101055322
 31
0.0
  0
LINE
  5
3AE
330
1F
100
AcDbEntity
  8
0
  6
Continuous
 62
     7
100
AcDbLine
 10
1516.2442811117
 20
326.3955229699
 30
0.0
 11
1520.5474843419
 21
323.9110674265
 31
0.0
  0
LINE
  5
3AF
330
1F
100
AcDbEntity
  8
0
  6
Continuous
 62
     7
100
AcDbLine
 10
1516.2442811117
 20
-16.2025532415
 30
0.0
 11
1513.9942811117
 21
-17.5015913471
 31
0.0
  0
LINE
  5
3B0
330
1F
100
AcDbEntity
  8
0
  6
Continuous
 62
     7
100
AcDbLine
 10
1516.2442811117
 20
-16.2025532415
 30
0.0
 11
1516.9942811117
 21
-17.5015913471
 31
0.0
  0
LINE
  5
3B1
330
1F
100
AcDbEntity
  8
0
  6
Continuous
 62
     7
100
AcDbLine
 10
1516.9942811117
 20
-17.5015913471
 30
0.0
 11
1513.7622303041
 21
-19.3676167509
 31
0.0
  0
LINE
  5
3B2
330
1F
100
AcDbEntity
  8
0
  6
Continuous
 62
     7
100
AcDbLine
 10
1512.4942811117
 20
-18.0996675585
 30
0.0
 11
1513.7622303041
 21
-19.3676167509
 31
0.0
  0
LINE
  5
3B3
330
1F
100
AcDbEntity
  8
0
  6
Continuous
 62
     7
100
AcDbLine
 10
1513.9942811117
 20
-14.9035151358
 30
0.0
 11
1513.9942811117
 21
-17.5015913471
 31
0.0
  0
LINE
  5
3B4
330
1F
100
AcDbEntity
  8
0
  6
Continuous
 62
     7
100
AcDbLine
 10
1512.4942811117
 20
-14.9035151358
 30
0.0
 11
1512.4942811117
 21
-18.0996675585
 31
0.0
  0
LINE
  5
3B5
330
1F
100
AcDbEntity
  8
0
  6
Continuous
 62
     7
100
AcDbLine
 10
1523.8955605533
 20
323.7101055322
 30
0.0
 11
1523.1455605533
 21
322.4110674265
 31
0.0
  0
LINE
  5
3B6
330
1F
100
AcDbEntity
  8
0
  6
Continuous
 62
     7
100
AcDbLine
 10
1523.1455605533
 20
322.4110674265
 30
0.0
 11
1520.5474843419
 21
323.9110674265
 31
0.0
  0
LINE
  5
3B7
330
1F
100
AcDbEntity
  8
0
  6
Continuous
 62
     7
100
AcDbLine
 10
1521.2974843419
 20
325.2101055322
 30
0.0
 11
1523.8955605533
 21
323.7101055322
 31
0.0
  0
LINE
  5
3B8
330
1F
100
AcDbEntity
  8
0
  6
Continuous
 62
     7
100
AcDbLine
 10
1516.2442811117
 20
326.3955229699
 30
0.0
 11
1513.9942811117
 21
327.6945610756
 31
0.0
  0
LINE
  5
3B9
330
1F
100
AcDbEntity
  8
0
  6
Continuous
 62
     7
100
AcDbLine
 10
1513.7622303041
 20
329.5605864794
 30
0.0
 11
1512.4942811117
 21
328.2926372869
 31
0.0
  0
LINE
  5
3BA
330
1F
100
AcDbEntity
  8
0
  6
Continuous
 62
     7
100
AcDbLine
 10
1516.9942811117
 20
327.6945610756
 30
0.0
 11
1513.7622303041
 21
329.5605864794
 31
0.0
  0
LINE
  5
3BB
330
1F
100
AcDbEntity
  8
0
  6
Continuous
 62
     7
100
AcDbLine
 10
1513.9942811117
 20
325.0964848642
 30
0.0
 11
1513.9942811117
 21
327.6945610756
 31
0.0
  0
LINE
  5
3BC
330
1F
100
AcDbEntity
  8
0
  6
Continuous
 62
     7
100
AcDbLine
 10
1512.4942811117
 20
325.0964848642
 30
0.0
 11
1512.4942811117
 21
328.2926372869
 31
0.0
  0
LINE
  5
3BD
330
1F
100
AcDbEntity
  8
0
  6
Continuous
 62
     7
100
AcDbLine
 10
1521.2974843419
 20
-15.0171358038
 30
0.0
 11
1520.5474843419
 21
-13.7180976981
 31
0.0
  0
LINE
  5
3BE
330
1F
100
AcDbEntity
  8
0
  6
Continuous
 62
     7
100
AcDbLine
 10
1523.1455605533
 20
-12.2180976981
 30
0.0
 11
1523.8955605533
 21
-13.5171358038
 31
0.0
  0
LINE
  5
3BF
330
1F
100
AcDbEntity
  8
0
  6
Continuous
 62
     7
100
AcDbLine
 10
1520.5474843419
 20
-13.7180976981
 30
0.0
 11
1523.1455605533
 21
-12.2180976981
 31
0.0
  0
LINE
  5
3C0
330
1F
100
AcDbEntity
  8
0
  6
Continuous
 62
     7
100
AcDbLine
 10
1523.8955605533
 20
-13.5171358038
 30
0.0
 11
1521.2974843419
 21
-15.0171358038
 31
0.0
  0
LINE
  5
3C1
330
1F
100
AcDbEntity
  8
0
  6
Continuous
 62
     7
100
AcDbLine
 10
1516.2442811117
 20
-16.2025532415
 30
0.0
 11
1520.5474843419
 21
-13.7180976981
 31
0.0
  0
LINE
  5
3C2
330
1F
100
AcDbEntity
  8
0
  6
Continuous
 62
     7
100
AcDbLine
 10
1516.9942811117
 20
-17.5015913471
 30
0.0
 11
1521.2974843419
 21
-15.0171358038
 31
0.0
  0
ARC
  5
3C3
330
1F
100
AcDbEntity
  8
0
  6
Continuous
 62
     7
100
AcDbCircle
 10
565.7665607177
 20
-76.4169431371
 30
0.0
 40
1.500000000000014
100
AcDbArc
 50
270.0
 51
332.4879973761
  0
ARC
  5
3C4
330
1F
100
AcDbEntity
  8
0
  6
Continuous
 62
     7
100
AcDbCircle
 10
565.7665607177
 20
-67.6169431371
 30
0.0
 40
1.499999999999986
100
AcDbArc
 50
27.5120026239
 51
90.0
  0
LINE
  5
3C5
330
1F
100
AcDbEntity
  8
0
  6
Continuous
 62
     7
100
AcDbLine
 10
562.9265681087
 20
-77.9169431371
 30
0.0
 11
565.7665607177
 21
-77.9169431371
 31
0.0
  0
LINE
  5
3C6
330
1F
100
AcDbEntity
  8
0
  6
Continuous
 62
     7
100
AcDbLine
 10
565.7665607177
 20
-66.1169431371
 30
0.0
 11
562.9265681087
 21
-66.1169431371
 31
0.0
  0
LINE
  5
3C7
330
1F
100
AcDbEntity
  8
0
  6
Continuous
 62
     7
100
AcDbLine
 10
567.096931844
 20
-77.1098447654
 30
0.0
 11
567.7569392349
 21
-75.8426305747
 31
0.0
  0
LINE
  5
3C8
330
1F
100
AcDbEntity
  8
0
  6
Continuous
 62
     7
100
AcDbLine
 10
567.7569392349
 20
-68.1912556995
 30
0.0
 11
567.096931844
 21
-66.9240415089
 31
0.0
  0
ARC
  5
3C9
330
1F
100
AcDbEntity
  8
0
  6
Continuous
 62
     7
100
AcDbCircle
 10
566.4265681087
 20
-75.1497289465
 30
0.0
 40
1.5
100
AcDbArc
 50
332.4879973761
 51
0.0
  0
ARC
  5
3CA
330
1F
100
AcDbEntity
  8
0
  6
Continuous
 62
     7
100
AcDbCircle
 10
566.4265681087
 20
-68.8841573278
 30
0.0
 40
1.5
100
AcDbArc
 50
0.0
 51
27.5120026239
  0
LINE
  5
3CB
330
1F
100
AcDbEntity
  8
0
  6
Continuous
 62
     7
100
AcDbLine
 10
561.4265681087
 20
-69.0169431371
 30
0.0
 11
554.2265681087
 21
-69.0169431371
 31
0.0
  0
LINE
  5
3CC
330
1F
100
AcDbEntity
  8
0
  6
Continuous
 62
     7
100
AcDbLine
 10
554.2265681087
 20
-75.0169431371
 30
0.0
 11
561.4265681087
 21
-75.0169431371
 31
0.0
  0
LINE
  5
3CD
330
1F
100
AcDbEntity
  8
0
  6
Continuous
 62
     7
100
AcDbLine
 10
554.2265681087
 20
-69.0169431371
 30
0.0
 11
553.7265681087
 21
-69.5169431371
 31
0.0
  0
LINE
  5
3CE
330
1F
100
AcDbEntity
  8
0
  6
Continuous
 62
     7
100
AcDbLine
 10
553.7265681087
 20
-74.5169431371
 30
0.0
 11
554.2265681087
 21
-75.0169431371
 31
0.0
  0
LINE
  5
3CF
330
1F
100
AcDbEntity
  8
0
  6
Continuous
 62
     7
100
AcDbLine
 10
1465.4265681087
 20
-66.1169431371
 30
0.0
 11
1462.5865754997
 21
-66.1169431371
 31
0.0
  0
LINE
  5
3D0
330
1F
100
AcDbEntity
  8
0
  6
Continuous
 62
     7
100
AcDbLine
 10
1462.5865754997
 20
-77.9169431371
 30
0.0
 11
1465.4265681087
 21
-77.9169431371
 31
0.0
  0
ARC
  5
3D1
330
1F
100
AcDbEntity
  8
0
  6
Continuous
 62
     7
100
AcDbCircle
 10
1462.5865754997
 20
-67.6169431371
 30
0.0
 40
1.500000000000114
100
AcDbArc
 50
90.0
 51
152.4879973762
  0
ARC
  5
3D2
330
1F
100
AcDbEntity
  8
0
  6
Continuous
 62
     7
100
AcDbCircle
 10
1462.5865754997
 20
-76.4169431371
 30
0.0
 40
1.5
100
AcDbArc
 50
207.5120026239
 51
270.0
  0
LINE
  5
3D3
330
1F
100
AcDbEntity
  8
0
  6
Continuous
 62
     7
100
AcDbLine
 10
1461.2562043734
 20
-66.9240415089
 30
0.0
 11
1460.5961969824
 21
-68.1912556995
 31
0.0
  0
LINE
  5
3D4
330
1F
100
AcDbEntity
  8
0
  6
Continuous
 62
     7
100
AcDbLine
 10
1460.5961969824
 20
-75.8426305747
 30
0.0
 11
1461.2562043734
 21
-77.1098447654
 31
0.0
  0
ARC
  5
3D5
330
1F
100
AcDbEntity
  8
0
  6
Continuous
 62
     7
100
AcDbCircle
 10
1461.9265681087
 20
-68.8841573278
 30
0.0
 40
1.500000000000322
100
AcDbArc
 50
152.4879973762
 51
180.0
  0
ARC
  5
3D6
330
1F
100
AcDbEntity
  8
0
  6
Continuous
 62
     7
100
AcDbCircle
 10
1461.9265681087
 20
-75.1497289465
 30
0.0
 40
1.500000000000227
100
AcDbArc
 50
180.0
 51
207.5120026238
  0
LINE
  5
3D7
330
1F
100
AcDbEntity
  8
0
  6
Continuous
 62
     7
100
AcDbLine
 10
1466.9265681087
 20
-75.0169431371
 30
0.0
 11
1474.1265681087
 21
-75.0169431371
 31
0.0
  0
LINE
  5
3D8
330
1F
100
AcDbEntity
  8
0
  6
Continuous
 62
     7
100
AcDbLine
 10
1474.1265681087
 20
-69.0169431371
 30
0.0
 11
1466.9265681087
 21
-69.0169431371
 31
0.0
  0
LINE
  5
3D9
330
1F
100
AcDbEntity
  8
0
  6
Continuous
 62
     7
100
AcDbLine
 10
1474.1265681087
 20
-75.0169431371
 30
0.0
 11
1474.6265681087
 21
-74.5169431371
 31
0.0
  0
LINE
  5
3DA
330
1F
100
AcDbEntity
  8
0
  6
Continuous
 62
     7
100
AcDbLine
 10
1474.6265681087
 20
-69.5169431371
 30
0.0
 11
1474.1265681087
 21
-69.0169431371
 31
0.0
  0
LINE
  5
3DB
330
1F
100
AcDbEntity
  8
0
  6
Continuous
 62
     7
100
AcDbLine
 10
567.9265681087
 20
-75.1497289465
 30
0.0
 11
567.9265681087
 21
-68.8841573278
 31
0.0
  0
LINE
  5
3DC
330
1F
100
AcDbEntity
  8
0
  6
Continuous
 62
     7
100
AcDbLine
 10
554.2265681087
 20
-75.0169431371
 30
0.0
 11
554.2265681087
 21
-69.0169431371
 31
0.0
  0
LINE
  5
3DD
330
1F
100
AcDbEntity
  8
0
  6
Continuous
 62
     7
100
AcDbLine
 10
553.7265681087
 20
-74.5169431371
 30
0.0
 11
553.7265681087
 21
-69.5169431371
 31
0.0
  0
LINE
  5
3DE
330
1F
100
AcDbEntity
  8
0
  6
Continuous
 62
     7
100
AcDbLine
 10
1460.4265681087
 20
-68.8841573278
 30
0.0
 11
1460.4265681087
 21
-75.1497289465
 31
0.0
  0
LINE
  5
3DF
330
1F
100
AcDbEntity
  8
0
  6
Continuous
 62
     7
100
AcDbLine
 10
1474.1265681087
 20
-69.0169431371
 30
0.0
 11
1474.1265681087
 21
-75.0169431371
 31
0.0
  0
LINE
  5
3E0
330
1F
100
AcDbEntity
  8
0
  6
Continuous
 62
     7
100
AcDbLine
 10
1474.6265681087
 20
-69.5169431371
 30
0.0
 11
1474.6265681087
 21
-74.5169431371
 31
0.0
  0
LINE
  5
3E1
330
1F
100
AcDbEntity
  8
0
  6
Continuous
 62
     7
100
AcDbLine
 10
1424.9265681087
 20
-62.7848923295
 30
0.0
 11
603.4265681087
 21
-62.7848923295
 31
0.0
  0
LINE
  5
3E2
330
1F
100
AcDbEntity
  8
0
  6
Continuous
 62
     7
100
AcDbLine
 10
603.4265681087
 20
-62.7848923295
 30
0.0
 11
603.4265681087
 21
-61.5169431371
 31
0.0
  0
LINE
  5
3E3
330
1F
100
AcDbEntity
  8
0
  6
Continuous
 62
     7
100
AcDbLine
 10
603.4265681087
 20
-61.5169431371
 30
0.0
 11
1424.9265681087
 21
-61.5169431371
 31
0.0
  0
LINE
  5
3E4
330
1F
100
AcDbEntity
  8
0
  6
Continuous
 62
     7
100
AcDbLine
 10
1424.9265681087
 20
-61.5169431371
 30
0.0
 11
1424.9265681087
 21
-62.7848923295
 31
0.0
  0
LINE
  5
3E5
330
1F
100
AcDbEntity
  8
0
  6
Continuous
 62
     7
100
AcDbLine
 10
1424.9265681087
 20
-70.3201463674
 30
0.0
 11
1424.9265681087
 21
-66.0169431371
 31
0.0
  0
LINE
  5
3E6
330
1F
100
AcDbEntity
  8
0
  6
Continuous
 62
     7
100
AcDbLine
 10
1421.9265681087
 20
-72.9182225787
 30
0.0
 11
1424.9265681087
 21
-70.3201463674
 31
0.0
  0
LINE
  5
3E7
330
1F
100
AcDbEntity
  8
0
  6
Continuous
 62
     7
100
AcDbLine
 10
606.4265681087
 20
-72.9182225787
 30
0.0
 11
1421.9265681087
 21
-72.9182225787
 31
0.0
  0
LINE
  5
3E8
330
1F
100
AcDbEntity
  8
0
  6
Continuous
 62
     7
100
AcDbLine
 10
603.4265681087
 20
-70.3201463674
 30
0.0
 11
606.4265681087
 21
-72.9182225787
 31
0.0
  0
LINE
  5
3E9
330
1F
100
AcDbEntity
  8
0
  6
Continuous
 62
     7
100
AcDbLine
 10
603.4265681087
 20
-66.0169431371
 30
0.0
 11
603.4265681087
 21
-70.3201463674
 31
0.0
  0
LINE
  5
3EA
330
1F
100
AcDbEntity
  8
0
  6
Continuous
 62
     7
100
AcDbLine
 10
603.4265681087
 20
-66.0169431371
 30
0.0
 11
603.4265681087
 21
-62.7848923295
 31
0.0
  0
LINE
  5
3EB
330
1F
100
AcDbEntity
  8
0
  6
Continuous
 62
     7
100
AcDbLine
 10
1424.9265681087
 20
-66.0169431371
 30
0.0
 11
1424.9265681087
 21
-62.7848923295
 31
0.0
  0
LINE
  5
3EC
330
1F
100
AcDbEntity
  8
0
  6
Continuous
 62
     7
100
AcDbLine
 10
1456.9265681087
 20
-63.0169431371
 30
0.0
 11
1456.9265681087
 21
-61.5169431371
 31
0.0
  0
LINE
  5
3ED
330
1F
100
AcDbEntity
  8
0
  6
Continuous
 62
     7
100
AcDbLine
 10
1456.9265681087
 20
-63.0169431371
 30
0.0
 11
1424.9265681087
 21
-63.0169431371
 31
0.0
  0
LINE
  5
3EE
330
1F
100
AcDbEntity
  8
0
  6
Continuous
 62
     7
100
AcDbLine
 10
1456.9265681087
 20
-61.5169431371
 30
0.0
 11
1424.9265681087
 21
-61.5169431371
 31
0.0
  0
LINE
  5
3EF
330
1F
100
AcDbEntity
  8
0
  6
Continuous
 62
     7
100
AcDbLine
 10
1459.9265681087
 20
-61.5169431371
 30
0.0
 11
1459.9265681087
 21
-63.0169431371
 31
0.0
  0
LINE
  5
3F0
330
1F
100
AcDbEntity
  8
0
  6
Continuous
 62
     7
100
AcDbLine
 10
1459.9265681087
 20
-63.0169431371
 30
0.0
 11
1456.9265681087
 21
-63.0169431371
 31
0.0
  0
LINE
  5
3F1
330
1F
100
AcDbEntity
  8
0
  6
Continuous
 62
     7
100
AcDbLine
 10
1456.9265681087
 20
-61.5169431371
 30
0.0
 11
1459.9265681087
 21
-61.5169431371
 31
0.0
  0
LINE
  5
3F2
330
1F
100
AcDbEntity
  8
0
  6
Continuous
 62
     7
100
AcDbLine
 10
571.4265681087
 20
-61.5169431371
 30
0.0
 11
571.4265681087
 21
-63.0169431371
 31
0.0
  0
LINE
  5
3F3
330
1F
100
AcDbEntity
  8
0
  6
Continuous
 62
     7
100
AcDbLine
 10
603.4265681087
 20
-63.0169431371
 30
0.0
 11
571.4265681087
 21
-63.0169431371
 31
0.0
  0
LINE
  5
3F4
330
1F
100
AcDbEntity
  8
0
  6
Continuous
 62
     7
100
AcDbLine
 10
603.4265681087
 20
-61.5169431371
 30
0.0
 11
571.4265681087
 21
-61.5169431371
 31
0.0
  0
LINE
  5
3F5
330
1F
100
AcDbEntity
  8
0
  6
Continuous
 62
     7
100
AcDbLine
 10
568.4265681087
 20
-63.0169431371
 30
0.0
 11
568.4265681087
 21
-61.5169431371
 31
0.0
  0
LINE
  5
3F6
330
1F
100
AcDbEntity
  8
0
  6
Continuous
 62
     7
100
AcDbLine
 10
571.4265681087
 20
-63.0169431371
 30
0.0
 11
568.4265681087
 21
-63.0169431371
 31
0.0
  0
LINE
  5
3F7
330
1F
100
AcDbEntity
  8
0
  6
Continuous
 62
     7
100
AcDbLine
 10
568.4265681087
 20
-61.5169431371
 30
0.0
 11
571.4265681087
 21
-61.5169431371
 31
0.0
  0
LINE
  5
3F8
330
1F
100
AcDbEntity
  8
0
  6
Continuous
 62
     7
100
AcDbLine
 10
1464.4265681087
 20
-63.0169431371
 30
0.0
 11
1464.4265681087
 21
-61.5169431371
 31
0.0
  0
LINE
  5
3F9
330
1F
100
AcDbEntity
  8
0
  6
Continuous
 62
     7
100
AcDbLine
 10
1464.4265681087
 20
-63.0169431371
 30
0.0
 11
1459.9265681087
 21
-63.0169431371
 31
0.0
  0
LINE
  5
3FA
330
1F
100
AcDbEntity
  8
0
  6
Continuous
 62
     7
100
AcDbLine
 10
1464.4265681087
 20
-61.5169431371
 30
0.0
 11
1459.9265681087
 21
-61.5169431371
 31
0.0
  0
LINE
  5
3FB
330
1F
100
AcDbEntity
  8
0
  6
Continuous
 62
     7
100
AcDbLine
 10
1466.9265681087
 20
-64.0169431371
 30
0.0
 11
1466.9265681087
 21
-61.5169431371
 31
0.0
  0
LINE
  5
3FC
330
1F
100
AcDbEntity
  8
0
  6
Continuous
 62
     7
100
AcDbLine
 10
1465.4265681087
 20
-64.0169431371
 30
0.0
 11
1466.9265681087
 21
-64.0169431371
 31
0.0
  0
LINE
  5
3FD
330
1F
100
AcDbEntity
  8
0
  6
Continuous
 62
     7
100
AcDbLine
 10
1465.4265681087
 20
-64.0169431371
 30
0.0
 11
1465.4265681087
 21
-63.0169431371
 31
0.0
  0
LINE
  5
3FE
330
1F
100
AcDbEntity
  8
0
  6
Continuous
 62
     7
100
AcDbLine
 10
1464.4265681087
 20
-63.0169431371
 30
0.0
 11
1465.4265681087
 21
-63.0169431371
 31
0.0
  0
LINE
  5
3FF
330
1F
100
AcDbEntity
  8
0
  6
Continuous
 62
     7
100
AcDbLine
 10
1464.4265681087
 20
-61.5169431371
 30
0.0
 11
1466.9265681087
 21
-61.5169431371
 31
0.0
  0
LINE
  5
400
330
1F
100
AcDbEntity
  8
0
  6
Continuous
 62
     7
100
AcDbLine
 10
1465.4265681087
 20
-76.0169431371
 30
0.0
 11
1466.9265681087
 21
-76.0169431371
 31
0.0
  0
LINE
  5
401
330
1F
100
AcDbEntity
  8
0
  6
Continuous
 62
     7
100
AcDbLine
 10
1465.4265681087
 20
-64.0169431371
 30
0.0
 11
1465.4265681087
 21
-76.0169431371
 31
0.0
  0
LINE
  5
402
330
1F
100
AcDbEntity
  8
0
  6
Continuous
 62
     7
100
AcDbLine
 10
1466.9265681087
 20
-64.0169431371
 30
0.0
 11
1466.9265681087
 21
-76.0169431371
 31
0.0
  0
LINE
  5
403
330
1F
100
AcDbEntity
  8
0
  6
Continuous
 62
     7
100
AcDbLine
 10
1466.9265681087
 20
-79.0169431371
 30
0.0
 11
1465.4265681087
 21
-79.0169431371
 31
0.0
  0
LINE
  5
404
330
1F
100
AcDbEntity
  8
0
  6
Continuous
 62
     7
100
AcDbLine
 10
1465.4265681087
 20
-79.0169431371
 30
0.0
 11
1465.4265681087
 21
-76.0169431371
 31
0.0
  0
LINE
  5
405
330
1F
100
AcDbEntity
  8
0
  6
Continuous
 62
     7
100
AcDbLine
 10
1466.9265681087
 20
-76.0169431371
 30
0.0
 11
1466.9265681087
 21
-79.0169431371
 31
0.0
  0
LINE
  5
406
330
1F
100
AcDbEntity
  8
0
  6
Continuous
 62
     7
100
AcDbLine
 10
563.9265681087
 20
-63.0169431371
 30
0.0
 11
563.9265681087
 21
-61.5169431371
 31
0.0
  0
LINE
  5
407
330
1F
100
AcDbEntity
  8
0
  6
Continuous
 62
     7
100
AcDbLine
 10
563.9265681087
 20
-63.0169431371
 30
0.0
 11
568.4265681087
 21
-63.0169431371
 31
0.0
  0
LINE
  5
408
330
1F
100
AcDbEntity
  8
0
  6
Continuous
 62
     7
100
AcDbLine
 10
563.9265681087
 20
-61.5169431371
 30
0.0
 11
568.4265681087
 21
-61.5169431371
 31
0.0
  0
LINE
  5
409
330
1F
100
AcDbEntity
  8
0
  6
Continuous
 62
     7
100
AcDbLine
 10
562.9265681087
 20
-64.0169431371
 30
0.0
 11
562.9265681087
 21
-63.0169431371
 31
0.0
  0
LINE
  5
40A
330
1F
100
AcDbEntity
  8
0
  6
Continuous
 62
     7
100
AcDbLine
 10
562.9265681087
 20
-64.0169431371
 30
0.0
 11
561.4265681087
 21
-64.0169431371
 31
0.0
  0
LINE
  5
40B
330
1F
100
AcDbEntity
  8
0
  6
Continuous
 62
     7
100
AcDbLine
 10
561.4265681087
 20
-64.0169431371
 30
0.0
 11
561.4265681087
 21
-61.5169431371
 31
0.0
  0
LINE
  5
40C
330
1F
100
AcDbEntity
  8
0
  6
Continuous
 62
     7
100
AcDbLine
 10
563.9265681087
 20
-63.0169431371
 30
0.0
 11
562.9265681087
 21
-63.0169431371
 31
0.0
  0
LINE
  5
40D
330
1F
100
AcDbEntity
  8
0
  6
Continuous
 62
     7
100
AcDbLine
 10
563.9265681087
 20
-61.5169431371
 30
0.0
 11
561.4265681087
 21
-61.5169431371
 31
0.0
  0
LINE
  5
40E
330
1F
100
AcDbEntity
  8
0
  6
Continuous
 62
     7
100
AcDbLine
 10
561.4265681087
 20
-76.0169431371
 30
0.0
 11
562.9265681087
 21
-76.0169431371
 31
0.0
  0
LINE
  5
40F
330
1F
100
AcDbEntity
  8
0
  6
Continuous
 62
     7
100
AcDbLine
 10
562.9265681087
 20
-64.0169431371
 30
0.0
 11
562.9265681087
 21
-76.0169431371
 31
0.0
  0
LINE
  5
410
330
1F
100
AcDbEntity
  8
0
  6
Continuous
 62
     7
100
AcDbLine
 10
561.4265681087
 20
-64.0169431371
 30
0.0
 11
561.4265681087
 21
-76.0169431371
 31
0.0
  0
LINE
  5
411
330
1F
100
AcDbEntity
  8
0
  6
Continuous
 62
     7
100
AcDbLine
 10
562.9265681087
 20
-79.0169431371
 30
0.0
 11
561.4265681087
 21
-79.0169431371
 31
0.0
  0
LINE
  5
412
330
1F
100
AcDbEntity
  8
0
  6
Continuous
 62
     7
100
AcDbLine
 10
562.9265681087
 20
-76.0169431371
 30
0.0
 11
562.9265681087
 21
-79.0169431371
 31
0.0
  0
LINE
  5
413
330
1F
100
AcDbEntity
  8
0
  6
Continuous
 62
     7
100
AcDbLine
 10
561.4265681087
 20
-79.0169431371
 30
0.0
 11
561.4265681087
 21
-76.0169431371
 31
0.0
  0
LINE
  5
414
330
1F
100
AcDbEntity
  8
0
  6
Continuous
 62
     7
100
AcDbLine
 10
565.7665607177
 20
-77.9169431371
 30
0.0
 11
565.7665607177
 21
-66.1169431371
 31
0.0
  0
LINE
  5
415
330
1F
100
AcDbEntity
  8
0
  6
Continuous
 62
     7
100
AcDbLine
 10
567.096931844
 20
-77.1098447654
 30
0.0
 11
567.096931844
 21
-66.9240415089
 31
0.0
  0
LINE
  5
416
330
1F
100
AcDbEntity
  8
0
  6
Continuous
 62
     7
100
AcDbLine
 10
567.7569392349
 20
-75.8426305747
 30
0.0
 11
567.7569392349
 21
-68.1912556995
 31
0.0
  0
LINE
  5
417
330
1F
100
AcDbEntity
  8
0
  6
Continuous
 62
     7
100
AcDbLine
 10
1462.5865754997
 20
-66.1169431371
 30
0.0
 11
1462.5865754997
 21
-77.9169431371
 31
0.0
  0
LINE
  5
418
330
1F
100
AcDbEntity
  8
0
  6
Continuous
 62
     7
100
AcDbLine
 10
1461.2562043734
 20
-66.9240415089
 30
0.0
 11
1461.2562043734
 21
-77.1098447654
 31
0.0
  0
LINE
  5
419
330
1F
100
AcDbEntity
  8
0
  6
Continuous
 62
     7
100
AcDbLine
 10
1460.5961969824
 20
-68.1912556995
 30
0.0
 11
1460.5961969824
 21
-75.8426305747
 31
0.0
  0
LINE
  5
41A
330
1F
100
AcDbEntity
  8
0
  6
Continuous
 62
     7
100
AcDbLine
 10
562.9265681087
 20
375.3214767778
 30
0.0
 11
565.7665607177
 21
375.3214767778
 31
0.0
  0
LINE
  5
41B
330
1F
100
AcDbEntity
  8
0
  6
Continuous
 62
     7
100
AcDbLine
 10
565.7665607177
 20
387.1214767778
 30
0.0
 11
562.9265681087
 21
387.1214767778
 31
0.0
  0
ARC
  5
41C
330
1F
100
AcDbEntity
  8
0
  6
Continuous
 62
     7
100
AcDbCircle
 10
565.7665607177
 20
376.8214767778
 30
0.0
 40
1.5
100
AcDbArc
 50
270.0
 51
332.4879973761
  0
ARC
  5
41D
330
1F
100
AcDbEntity
  8
0
  6
Continuous
 62
     7
100
AcDbCircle
 10
565.7665607177
 20
385.6214767778
 30
0.0
 40
1.5
100
AcDbArc
 50
27.5120026239
 51
90.0
  0
LINE
  5
41E
330
1F
100
AcDbEntity
  8
0
  6
Continuous
 62
     7
100
AcDbLine
 10
567.096931844
 20
376.1285751496
 30
0.0
 11
567.7569392349
 21
377.3957893402
 31
0.0
  0
LINE
  5
41F
330
1F
100
AcDbEntity
  8
0
  6
Continuous
 62
     7
100
AcDbLine
 10
567.7569392349
 20
385.0471642154
 30
0.0
 11
567.096931844
 21
386.3143784061
 31
0.0
  0
ARC
  5
420
330
1F
100
AcDbEntity
  8
0
  6
Continuous
 62
     7
100
AcDbCircle
 10
566.4265681087
 20
378.0886909685
 30
0.0
 40
1.5
100
AcDbArc
 50
332.4879973761
 51
0.0
  0
ARC
  5
421
330
1F
100
AcDbEntity
  8
0
  6
Continuous
 62
     7
100
AcDbCircle
 10
566.4265681087
 20
384.3542625872
 30
0.0
 40
1.5
100
AcDbArc
 50
0.0
 51
27.5120026239
  0
LINE
  5
422
330
1F
100
AcDbEntity
  8
0
  6
Continuous
 62
     7
100
AcDbLine
 10
561.4265681087
 20
384.2214767778
 30
0.0
 11
554.2265681087
 21
384.2214767778
 31
0.0
  0
LINE
  5
423
330
1F
100
AcDbEntity
  8
0
  6
Continuous
 62
     7
100
AcDbLine
 10
554.2265681087
 20
378.2214767778
 30
0.0
 11
561.4265681087
 21
378.2214767778
 31
0.0
  0
LINE
  5
424
330
1F
100
AcDbEntity
  8
0
  6
Continuous
 62
     7
100
AcDbLine
 10
554.2265681087
 20
384.2214767778
 30
0.0
 11
553.7265681087
 21
383.7214767778
 31
0.0
  0
LINE
  5
425
330
1F
100
AcDbEntity
  8
0
  6
Continuous
 62
     7
100
AcDbLine
 10
553.7265681087
 20
378.7214767778
 30
0.0
 11
554.2265681087
 21
378.2214767778
 31
0.0
  0
LINE
  5
426
330
1F
100
AcDbEntity
  8
0
  6
Continuous
 62
     7
100
AcDbLine
 10
1465.4265681087
 20
387.1214767778
 30
0.0
 11
1462.5865754996
 21
387.1214767778
 31
0.0
  0
LINE
  5
427
330
1F
100
AcDbEntity
  8
0
  6
Continuous
 62
     7
100
AcDbLine
 10
1462.5865754996
 20
375.3214767778
 30
0.0
 11
1465.4265681087
 21
375.3214767778
 31
0.0
  0
ARC
  5
428
330
1F
100
AcDbEntity
  8
0
  6
Continuous
 62
     7
100
AcDbCircle
 10
1462.5865754996
 20
385.6214767778
 30
0.0
 40
1.5
100
AcDbArc
 50
90.0
 51
152.4879973761
  0
ARC
  5
429
330
1F
100
AcDbEntity
  8
0
  6
Continuous
 62
     7
100
AcDbCircle
 10
1462.5865754996
 20
376.8214767778
 30
0.0
 40
1.5
100
AcDbArc
 50
207.5120026239
 51
270.0
  0
LINE
  5
42A
330
1F
100
AcDbEntity
  8
0
  6
Continuous
 62
     7
100
AcDbLine
 10
1461.2562043734
 20
386.3143784061
 30
0.0
 11
1460.5961969824
 21
385.0471642154
 31
0.0
  0
LINE
  5
42B
330
1F
100
AcDbEntity
  8
0
  6
Continuous
 62
     7
100
AcDbLine
 10
1460.5961969824
 20
377.3957893402
 30
0.0
 11
1461.2562043734
 21
376.1285751496
 31
0.0
  0
ARC
  5
42C
330
1F
100
AcDbEntity
  8
0
  6
Continuous
 62
     7
100
AcDbCircle
 10
1461.9265681087
 20
384.3542625872
 30
0.0
 40
1.500000000000134
100
AcDbArc
 50
152.4879973762
 51
180.0
  0
ARC
  5
42D
330
1F
100
AcDbEntity
  8
0
  6
Continuous
 62
     7
100
AcDbCircle
 10
1461.9265681087
 20
378.0886909685
 30
0.0
 40
1.500000000000134
100
AcDbArc
 50
180.0
 51
207.5120026239
  0
LINE
  5
42E
330
1F
100
AcDbEntity
  8
0
  6
Continuous
 62
     7
100
AcDbLine
 10
1466.9265681087
 20
378.2214767778
 30
0.0
 11
1474.1265681087
 21
378.2214767778
 31
0.0
  0
LINE
  5
42F
330
1F
100
AcDbEntity
  8
0
  6
Continuous
 62
     7
100
AcDbLine
 10
1474.1265681087
 20
384.2214767778
 30
0.0
 11
1466.9265681087
 21
384.2214767778
 31
0.0
  0
LINE
  5
430
330
1F
100
AcDbEntity
  8
0
  6
Continuous
 62
     7
100
AcDbLine
 10
1474.1265681087
 20
378.2214767778
 30
0.0
 11
1474.6265681087
 21
378.7214767778
 31
0.0
  0
LINE
  5
431
330
1F
100
AcDbEntity
  8
0
  6
Continuous
 62
     7
100
AcDbLine
 10
1474.6265681087
 20
383.7214767778
 30
0.0
 11
1474.1265681087
 21
384.2214767778
 31
0.0
  0
LINE
  5
432
330
1F
100
AcDbEntity
  8
0
  6
Continuous
 62
     7
100
AcDbLine
 10
567.9265681087
 20
384.0407291436
 30
0.0
 11
567.9265681087
 21
384.3542625872
 31
0.0
  0
LINE
  5
433
330
1F
100
AcDbEntity
  8
0
  6
Continuous
 62
     7
100
AcDbLine
 10
567.9265681087
 20
378.0886909685
 30
0.0
 11
567.9265681087
 21
384.0407291436
 31
0.0
  0
LINE
  5
434
330
1F
100
AcDbEntity
  8
0
  6
Continuous
 62
     7
100
AcDbLine
 10
554.2265681087
 20
383.9212327178
 30
0.0
 11
554.2265681087
 21
384.2214767778
 31
0.0
  0
LINE
  5
435
330
1F
100
AcDbEntity
  8
0
  6
Continuous
 62
     7
100
AcDbLine
 10
554.2265681087
 20
378.2214767778
 30
0.0
 11
554.2265681087
 21
383.9212327178
 31
0.0
  0
LINE
  5
436
330
1F
100
AcDbEntity
  8
0
  6
Continuous
 62
     7
100
AcDbLine
 10
553.7265681087
 20
383.4712733945
 30
0.0
 11
553.7265681087
 21
383.7214767778
 31
0.0
  0
LINE
  5
437
330
1F
100
AcDbEntity
  8
0
  6
Continuous
 62
     7
100
AcDbLine
 10
553.7265681087
 20
378.7214767778
 30
0.0
 11
553.7265681087
 21
383.4712733945
 31
0.0
  0
LINE
  5
438
330
1F
100
AcDbEntity
  8
0
  6
Continuous
 62
     7
100
AcDbLine
 10
1460.4265681087
 20
384.3542625872
 30
0.0
 11
1460.4265681087
 21
378.0886909685
 31
0.0
  0
LINE
  5
439
330
1F
100
AcDbEntity
  8
0
  6
Continuous
 62
     7
100
AcDbLine
 10
1474.1265681087
 20
384.2214767778
 30
0.0
 11
1474.1265681087
 21
378.2214767778
 31
0.0
  0
LINE
  5
43A
330
1F
100
AcDbEntity
  8
0
  6
Continuous
 62
     7
100
AcDbLine
 10
1474.6265681087
 20
383.7214767778
 30
0.0
 11
1474.6265681087
 21
378.7214767778
 31
0.0
  0
LINE
  5
43B
330
1F
100
AcDbEntity
  8
0
  6
Continuous
 62
     7
100
AcDbLine
 10
603.4265681087
 20
371.9894259703
 30
0.0
 11
1424.9265681087
 21
371.9894259703
 31
0.0
  0
LINE
  5
43C
330
1F
100
AcDbEntity
  8
0
  6
Continuous
 62
     7
100
AcDbLine
 10
1424.9265681087
 20
371.9894259703
 30
0.0
 11
1424.9265681087
 21
370.7214767778
 31
0.0
  0
LINE
  5
43D
330
1F
100
AcDbEntity
  8
0
  6
Continuous
 62
     7
100
AcDbLine
 10
1424.9265681087
 20
370.7214767778
 30
0.0
 11
603.4265681087
 21
370.7214767778
 31
0.0
  0
LINE
  5
43E
330
1F
100
AcDbEntity
  8
0
  6
Continuous
 62
     7
100
AcDbLine
 10
603.4265681087
 20
370.7214767778
 30
0.0
 11
603.4265681087
 21
371.9894259703
 31
0.0
  0
LINE
  5
43F
330
1F
100
AcDbEntity
  8
0
  6
Continuous
 62
     7
100
AcDbLine
 10
603.4265681087
 20
375.2214767778
 30
0.0
 11
603.4265681087
 21
379.5246800081
 31
0.0
  0
LINE
  5
440
330
1F
100
AcDbEntity
  8
0
  6
Continuous
 62
     7
100
AcDbLine
 10
606.4265681087
 20
382.1227562194
 30
0.0
 11
603.4265681087
 21
379.5246800081
 31
0.0
  0
LINE
  5
441
330
1F
100
AcDbEntity
  8
0
  6
Continuous
 62
     7
100
AcDbLine
 10
606.4265681087
 20
382.1227562194
 30
0.0
 11
1421.9265681087
 21
382.1227562194
 31
0.0
  0
LINE
  5
442
330
1F
100
AcDbEntity
  8
0
  6
Continuous
 62
     7
100
AcDbLine
 10
1424.9265681087
 20
379.5246800081
 30
0.0
 11
1421.9265681087
 21
382.1227562194
 31
0.0
  0
LINE
  5
443
330
1F
100
AcDbEntity
  8
0
  6
Continuous
 62
     7
100
AcDbLine
 10
1424.9265681087
 20
379.5246800081
 30
0.0
 11
1424.9265681087
 21
375.2214767778
 31
0.0
  0
LINE
  5
444
330
1F
100
AcDbEntity
  8
0
  6
Continuous
 62
     7
100
AcDbLine
 10
1424.9265681087
 20
375.2214767778
 30
0.0
 11
1424.9265681087
 21
371.9894259703
 31
0.0
  0
LINE
  5
445
330
1F
100
AcDbEntity
  8
0
  6
Continuous
 62
     7
100
AcDbLine
 10
603.4265681087
 20
375.2214767778
 30
0.0
 11
603.4265681087
 21
371.9894259703
 31
0.0
  0
LINE
  5
446
330
1F
100
AcDbEntity
  8
0
  6
Continuous
 62
     7
100
AcDbLine
 10
571.4265681087
 20
372.2214767778
 30
0.0
 11
571.4265681087
 21
370.7214767778
 31
0.0
  0
LINE
  5
447
330
1F
100
AcDbEntity
  8
0
  6
Continuous
 62
     7
100
AcDbLine
 10
571.4265681087
 20
372.2214767778
 30
0.0
 11
603.4265681087
 21
372.2214767778
 31
0.0
  0
LINE
  5
448
330
1F
100
AcDbEntity
  8
0
  6
Continuous
 62
     7
100
AcDbLine
 10
571.4265681087
 20
370.7214767778
 30
0.0
 11
603.4265681087
 21
370.7214767778
 31
0.0
  0
LINE
  5
449
330
1F
100
AcDbEntity
  8
0
  6
Continuous
 62
     7
100
AcDbLine
 10
568.4265681087
 20
370.7214767778
 30
0.0
 11
568.4265681087
 21
372.2214767778
 31
0.0
  0
LINE
  5
44A
330
1F
100
AcDbEntity
  8
0
  6
Continuous
 62
     7
100
AcDbLine
 10
568.4265681087
 20
372.2214767778
 30
0.0
 11
571.4265681087
 21
372.2214767778
 31
0.0
  0
LINE
  5
44B
330
1F
100
AcDbEntity
  8
0
  6
Continuous
 62
     7
100
AcDbLine
 10
571.4265681087
 20
370.7214767778
 30
0.0
 11
568.4265681087
 21
370.7214767778
 31
0.0
  0
LINE
  5
44C
330
1F
100
AcDbEntity
  8
0
  6
Continuous
 62
     7
100
AcDbLine
 10
1456.9265681087
 20
370.7214767778
 30
0.0
 11
1456.9265681087
 21
372.2214767778
 31
0.0
  0
LINE
  5
44D
330
1F
100
AcDbEntity
  8
0
  6
Continuous
 62
     7
100
AcDbLine
 10
1424.9265681087
 20
372.2214767778
 30
0.0
 11
1456.9265681087
 21
372.2214767778
 31
0.0
  0
LINE
  5
44E
330
1F
100
AcDbEntity
  8
0
  6
Continuous
 62
     7
100
AcDbLine
 10
1424.9265681087
 20
370.7214767778
 30
0.0
 11
1456.9265681087
 21
370.7214767778
 31
0.0
  0
LINE
  5
44F
330
1F
100
AcDbEntity
  8
0
  6
Continuous
 62
     7
100
AcDbLine
 10
1459.9265681087
 20
372.2214767778
 30
0.0
 11
1459.9265681087
 21
370.7214767778
 31
0.0
  0
LINE
  5
450
330
1F
100
AcDbEntity
  8
0
  6
Continuous
 62
     7
100
AcDbLine
 10
1456.9265681087
 20
372.2214767778
 30
0.0
 11
1459.9265681087
 21
372.2214767778
 31
0.0
  0
LINE
  5
451
330
1F
100
AcDbEntity
  8
0
  6
Continuous
 62
     7
100
AcDbLine
 10
1459.9265681087
 20
370.7214767778
 30
0.0
 11
1456.9265681087
 21
370.7214767778
 31
0.0
  0
LINE
  5
452
330
1F
100
AcDbEntity
  8
0
  6
Continuous
 62
     7
100
AcDbLine
 10
562.9265681087
 20
373.2214767778
 30
0.0
 11
561.4265681087
 21
373.2214767778
 31
0.0
  0
LINE
  5
453
330
1F
100
AcDbEntity
  8
0
  6
Continuous
 62
     7
100
AcDbLine
 10
562.9265681087
 20
385.2214767778
 30
0.0
 11
561.4265681087
 21
385.2214767778
 31
0.0
  0
LINE
  5
454
330
1F
100
AcDbEntity
  8
0
  6
Continuous
 62
     7
100
AcDbLine
 10
562.9265681087
 20
385.2214767778
 30
0.0
 11
562.9265681087
 21
373.2214767778
 31
0.0
  0
LINE
  5
455
330
1F
100
AcDbEntity
  8
0
  6
Continuous
 62
     7
100
AcDbLine
 10
561.4265681087
 20
385.2214767778
 30
0.0
 11
561.4265681087
 21
373.2214767778
 31
0.0
  0
LINE
  5
456
330
1F
100
AcDbEntity
  8
0
  6
Continuous
 62
     7
100
AcDbLine
 10
561.4265681087
 20
388.2214767778
 30
0.0
 11
562.9265681087
 21
388.2214767778
 31
0.0
  0
LINE
  5
457
330
1F
100
AcDbEntity
  8
0
  6
Continuous
 62
     7
100
AcDbLine
 10
562.9265681087
 20
388.2214767778
 30
0.0
 11
562.9265681087
 21
385.2214767778
 31
0.0
  0
LINE
  5
458
330
1F
100
AcDbEntity
  8
0
  6
Continuous
 62
     7
100
AcDbLine
 10
561.4265681087
 20
385.2214767778
 30
0.0
 11
561.4265681087
 21
388.2214767778
 31
0.0
  0
LINE
  5
459
330
1F
100
AcDbEntity
  8
0
  6
Continuous
 62
     7
100
AcDbLine
 10
563.9265681087
 20
372.2214767778
 30
0.0
 11
563.9265681087
 21
370.7214767778
 31
0.0
  0
LINE
  5
45A
330
1F
100
AcDbEntity
  8
0
  6
Continuous
 62
     7
100
AcDbLine
 10
563.9265681087
 20
372.2214767778
 30
0.0
 11
568.4265681087
 21
372.2214767778
 31
0.0
  0
LINE
  5
45B
330
1F
100
AcDbEntity
  8
0
  6
Continuous
 62
     7
100
AcDbLine
 10
563.9265681087
 20
370.7214767778
 30
0.0
 11
568.4265681087
 21
370.7214767778
 31
0.0
  0
LINE
  5
45C
330
1F
100
AcDbEntity
  8
0
  6
Continuous
 62
     7
100
AcDbLine
 10
562.9265681087
 20
373.2214767778
 30
0.0
 11
562.9265681087
 21
372.2214767778
 31
0.0
  0
LINE
  5
45D
330
1F
100
AcDbEntity
  8
0
  6
Continuous
 62
     7
100
AcDbLine
 10
561.4265681087
 20
373.2214767778
 30
0.0
 11
561.4265681087
 21
370.7214767778
 31
0.0
  0
LINE
  5
45E
330
1F
100
AcDbEntity
  8
0
  6
Continuous
 62
     7
100
AcDbLine
 10
563.9265681087
 20
372.2214767778
 30
0.0
 11
562.9265681087
 21
372.2214767778
 31
0.0
  0
LINE
  5
45F
330
1F
100
AcDbEntity
  8
0
  6
Continuous
 62
     7
100
AcDbLine
 10
563.9265681087
 20
370.7214767778
 30
0.0
 11
561.4265681087
 21
370.7214767778
 31
0.0
  0
LINE
  5
460
330
1F
100
AcDbEntity
  8
0
  6
Continuous
 62
     7
100
AcDbLine
 10
1465.4265681087
 20
373.2214767778
 30
0.0
 11
1466.9265681087
 21
373.2214767778
 31
0.0
  0
LINE
  5
461
330
1F
100
AcDbEntity
  8
0
  6
Continuous
 62
     7
100
AcDbLine
 10
1466.9265681087
 20
385.2214767778
 30
0.0
 11
1465.4265681087
 21
385.2214767778
 31
0.0
  0
LINE
  5
462
330
1F
100
AcDbEntity
  8
0
  6
Continuous
 62
     7
100
AcDbLine
 10
1465.4265681087
 20
385.2214767778
 30
0.0
 11
1465.4265681087
 21
373.2214767778
 31
0.0
  0
LINE
  5
463
330
1F
100
AcDbEntity
  8
0
  6
Continuous
 62
     7
100
AcDbLine
 10
1466.9265681087
 20
385.2214767778
 30
0.0
 11
1466.9265681087
 21
373.2214767778
 31
0.0
  0
LINE
  5
464
330
1F
100
AcDbEntity
  8
0
  6
Continuous
 62
     7
100
AcDbLine
 10
1465.4265681087
 20
388.2214767778
 30
0.0
 11
1466.9265681087
 21
388.2214767778
 31
0.0
  0
LINE
  5
465
330
1F
100
AcDbEntity
  8
0
  6
Continuous
 62
     7
100
AcDbLine
 10
1465.4265681087
 20
385.2214767778
 30
0.0
 11
1465.4265681087
 21
388.2214767778
 31
0.0
  0
LINE
  5
466
330
1F
100
AcDbEntity
  8
0
  6
Continuous
 62
     7
100
AcDbLine
 10
1466.9265681087
 20
388.2214767778
 30
0.0
 11
1466.9265681087
 21
385.2214767778
 31
0.0
  0
LINE
  5
467
330
1F
100
AcDbEntity
  8
0
  6
Continuous
 62
     7
100
AcDbLine
 10
1464.4265681087
 20
372.2214767778
 30
0.0
 11
1464.4265681087
 21
370.7214767778
 31
0.0
  0
LINE
  5
468
330
1F
100
AcDbEntity
  8
0
  6
Continuous
 62
     7
100
AcDbLine
 10
1464.4265681087
 20
372.2214767778
 30
0.0
 11
1459.9265681087
 21
372.2214767778
 31
0.0
  0
LINE
  5
469
330
1F
100
AcDbEntity
  8
0
  6
Continuous
 62
     7
100
AcDbLine
 10
1464.4265681087
 20
370.7214767778
 30
0.0
 11
1459.9265681087
 21
370.7214767778
 31
0.0
  0
LINE
  5
46A
330
1F
100
AcDbEntity
  8
0
  6
Continuous
 62
     7
100
AcDbLine
 10
1465.4265681087
 20
373.2214767778
 30
0.0
 11
1465.4265681087
 21
372.2214767778
 31
0.0
  0
LINE
  5
46B
330
1F
100
AcDbEntity
  8
0
  6
Continuous
 62
     7
100
AcDbLine
 10
1466.9265681087
 20
373.2214767778
 30
0.0
 11
1466.9265681087
 21
370.7214767778
 31
0.0
  0
LINE
  5
46C
330
1F
100
AcDbEntity
  8
0
  6
Continuous
 62
     7
100
AcDbLine
 10
1464.4265681087
 20
372.2214767778
 30
0.0
 11
1465.4265681087
 21
372.2214767778
 31
0.0
  0
LINE
  5
46D
330
1F
100
AcDbEntity
  8
0
  6
Continuous
 62
     7
100
AcDbLine
 10
1464.4265681087
 20
370.7214767778
 30
0.0
 11
1466.9265681087
 21
370.7214767778
 31
0.0
  0
LINE
  5
46E
330
1F
100
AcDbEntity
  8
0
  6
Continuous
 62
     7
100
AcDbLine
 10
565.7665607177
 20
386.5309967931
 30
0.0
 11
565.7665607177
 21
387.1214767778
 31
0.0
  0
LINE
  5
46F
330
1F
100
AcDbEntity
  8
0
  6
Continuous
 62
     7
100
AcDbLine
 10
565.7665607177
 20
375.3214767778
 30
0.0
 11
565.7665607177
 21
386.5309967931
 31
0.0
  0
LINE
  5
470
330
1F
100
AcDbEntity
  8
0
  6
Continuous
 62
     7
100
AcDbLine
 10
567.096931844
 20
385.8046739187
 30
0.0
 11
567.096931844
 21
386.3143784061
 31
0.0
  0
LINE
  5
471
330
1F
100
AcDbEntity
  8
0
  6
Continuous
 62
     7
100
AcDbLine
 10
567.096931844
 20
376.1285751496
 30
0.0
 11
567.096931844
 21
385.8046739187
 31
0.0
  0
LINE
  5
472
330
1F
100
AcDbEntity
  8
0
  6
Continuous
 62
     7
100
AcDbLine
 10
567.7569392349
 20
384.6642842392
 30
0.0
 11
567.7569392349
 21
385.0471642154
 31
0.0
  0
LINE
  5
473
330
1F
100
AcDbEntity
  8
0
  6
Continuous
 62
     7
100
AcDbLine
 10
567.7569392349
 20
377.3957893402
 30
0.0
 11
567.7569392349
 21
384.6642842392
 31
0.0
  0
LINE
  5
474
330
1F
100
AcDbEntity
  8
0
  6
Continuous
 62
     7
100
AcDbLine
 10
1462.5865754996
 20
387.1214767778
 30
0.0
 11
1462.5865754996
 21
375.3214767778
 31
0.0
  0
LINE
  5
475
330
1F
100
AcDbEntity
  8
0
  6
Continuous
 62
     7
100
AcDbLine
 10
1461.2562043734
 20
386.3143784061
 30
0.0
 11
1461.2562043734
 21
376.1285751496
 31
0.0
  0
LINE
  5
476
330
1F
100
AcDbEntity
  8
0
  6
Continuous
 62
     7
100
AcDbLine
 10
1460.5961969824
 20
385.0471642154
 30
0.0
 11
1460.5961969824
 21
377.3957893402
 31
0.0
  0
LINE
  5
477
330
1F
100
AcDbEntity
  8
0
  6
Continuous
 62
     7
100
AcDbLine
 10
2477.1082497638
 20
277.0964848642
 30
0.0
 11
2484.3082497638
 21
277.0964848642
 31
0.0
  0
LINE
  5
478
330
1F
100
AcDbEntity
  8
0
  6
Continuous
 62
     7
100
AcDbLine
 10
2484.3082497638
 20
283.0964848642
 30
0.0
 11
2477.1082497638
 21
283.0964848642
 31
0.0
  0
LINE
  5
479
330
1F
100
AcDbEntity
  8
0
  6
Continuous
 62
     7
100
AcDbLine
 10
2484.3082497638
 20
277.0964848642
 30
0.0
 11
2484.8082497638
 21
277.5964848642
 31
0.0
  0
LINE
  5
47A
330
1F
100
AcDbEntity
  8
0
  6
Continuous
 62
     7
100
AcDbLine
 10
2484.8082497638
 20
282.5964848642
 30
0.0
 11
2484.3082497638
 21
283.0964848642
 31
0.0
  0
LINE
  5
47B
330
1F
100
AcDbEntity
  8
0
  6
Continuous
 62
     7
100
AcDbLine
 10
1564.4082497638
 20
283.0964848642
 30
0.0
 11
1563.9082497638
 21
282.5964848642
 31
0.0
  0
LINE
  5
47C
330
1F
100
AcDbEntity
  8
0
  6
Continuous
 62
     7
100
AcDbLine
 10
1563.9082497638
 20
277.5964848642
 30
0.0
 11
1564.4082497638
 21
277.0964848642
 31
0.0
  0
LINE
  5
47D
330
1F
100
AcDbEntity
  8
0
  6
Continuous
 62
     7
100
AcDbLine
 10
1571.6082497638
 20
283.0964848642
 30
0.0
 11
1564.4082497638
 21
283.0964848642
 31
0.0
  0
LINE
  5
47E
330
1F
100
AcDbEntity
  8
0
  6
Continuous
 62
     7
100
AcDbLine
 10
1564.4082497638
 20
277.0964848642
 30
0.0
 11
1571.6082497638
 21
277.0964848642
 31
0.0
  0
LINE
  5
47F
330
1F
100
AcDbEntity
  8
0
  6
Continuous
 62
     7
100
AcDbLine
 10
2477.1082497638
 20
27.0964848642
 30
0.0
 11
2484.3082497638
 21
27.0964848642
 31
0.0
  0
LINE
  5
480
330
1F
100
AcDbEntity
  8
0
  6
Continuous
 62
     7
100
AcDbLine
 10
2484.3082497638
 20
33.0964848642
 30
0.0
 11
2477.1082497638
 21
33.0964848642
 31
0.0
  0
LINE
  5
481
330
1F
100
AcDbEntity
  8
0
  6
Continuous
 62
     7
100
AcDbLine
 10
2484.3082497638
 20
27.0964848642
 30
0.0
 11
2484.8082497638
 21
27.5964848642
 31
0.0
  0
LINE
  5
482
330
1F
100
AcDbEntity
  8
0
  6
Continuous
 62
     7
100
AcDbLine
 10
2484.8082497638
 20
32.5964848642
 30
0.0
 11
2484.3082497638
 21
33.0964848642
 31
0.0
  0
LINE
  5
483
330
1F
100
AcDbEntity
  8
0
  6
Continuous
 62
     7
100
AcDbLine
 10
1564.4082497638
 20
33.0964848642
 30
0.0
 11
1563.9082497638
 21
32.5964848642
 31
0.0
  0
LINE
  5
484
330
1F
100
AcDbEntity
  8
0
  6
Continuous
 62
     7
100
AcDbLine
 10
1563.9082497638
 20
27.5964848642
 30
0.0
 11
1564.4082497638
 21
27.0964848642
 31
0.0
  0
LINE
  5
485
330
1F
100
AcDbEntity
  8
0
  6
Continuous
 62
     7
100
AcDbLine
 10
1571.6082497638
 20
33.0964848642
 30
0.0
 11
1564.4082497638
 21
33.0964848642
 31
0.0
  0
LINE
  5
486
330
1F
100
AcDbEntity
  8
0
  6
Continuous
 62
     7
100
AcDbLine
 10
1564.4082497638
 20
27.0964848642
 30
0.0
 11
1571.6082497638
 21
27.0964848642
 31
0.0
  0
LINE
  5
487
330
1F
100
AcDbEntity
  8
0
  6
Continuous
 62
     7
100
AcDbLine
 10
2484.3082497638
 20
283.0964848642
 30
0.0
 11
2484.3082497638
 21
277.0964848642
 31
0.0
  0
LINE
  5
488
330
1F
100
AcDbEntity
  8
0
  6
Continuous
 62
     7
100
AcDbLine
 10
2484.8082497638
 20
282.5964848642
 30
0.0
 11
2484.8082497638
 21
277.5964848642
 31
0.0
  0
LINE
  5
489
330
1F
100
AcDbEntity
  8
0
  6
Continuous
 62
     7
100
AcDbLine
 10
1564.4082497638
 20
277.0966928066
 30
0.0
 11
1564.4082497638
 21
283.0964848642
 31
0.0
  0
LINE
  5
48A
330
1F
100
AcDbEntity
  8
0
  6
Continuous
 62
     7
100
AcDbLine
 10
1563.9082497638
 20
277.5966581496
 30
0.0
 11
1563.9082497638
 21
282.5964848642
 31
0.0
  0
LINE
  5
48B
330
1F
100
AcDbEntity
  8
0
  6
Continuous
 62
     7
100
AcDbLine
 10
2484.3082497638
 20
33.0964848642
 30
0.0
 11
2484.3082497638
 21
27.0964848642
 31
0.0
  0
LINE
  5
48C
330
1F
100
AcDbEntity
  8
0
  6
Continuous
 62
     7
100
AcDbLine
 10
2484.8082497638
 20
32.5964848642
 30
0.0
 11
2484.8082497638
 21
27.5964848642
 31
0.0
  0
LINE
  5
48D
330
1F
100
AcDbEntity
  8
0
  6
Continuous
 62
     7
100
AcDbLine
 10
1564.4082497638
 20
27.0964848642
 30
0.0
 11
1564.4082497638
 21
33.0964848642
 31
0.0
  0
LINE
  5
48E
330
1F
100
AcDbEntity
  8
0
  6
Continuous
 62
     7
100
AcDbLine
 10
1563.9082497638
 20
27.5964848642
 30
0.0
 11
1563.9082497638
 21
32.5964848642
 31
0.0
  0
CIRCLE
  5
48F
330
1F
100
AcDbEntity
  8
0
  6
Continuous
 62
     7
100
AcDbCircle
 10
1824.3082497638
 20
315.0964848642
 30
0.0
 40
3.25
  0
CIRCLE
  5
490
330
1F
100
AcDbEntity
  8
0
  6
Continuous
 62
     7
100
AcDbCircle
 10
1924.3082497638
 20
315.0964848642
 30
0.0
 40
3.249999999999943
  0
CIRCLE
  5
491
330
1F
100
AcDbEntity
  8
0
  6
Continuous
 62
     7
100
AcDbCircle
 10
2024.3082497638
 20
315.0964848642
 30
0.0
 40
3.249999999999943
  0
CIRCLE
  5
492
330
1F
100
AcDbEntity
  8
0
  6
Continuous
 62
     7
100
AcDbCircle
 10
2124.3082497638
 20
315.0964848642
 30
0.0
 40
3.249999999999943
  0
CIRCLE
  5
493
330
1F
100
AcDbEntity
  8
0
  6
Continuous
 62
     7
100
AcDbCircle
 10
2224.3082497638
 20
315.0964848642
 30
0.0
 40
3.249999999999943
  0
LINE
  5
494
330
1F
100
AcDbEntity
  8
0
  6
Continuous
 62
     7
100
AcDbLine
 10
1634.8582497638
 20
265.5964848642
 30
0.0
 11
1613.8582497638
 21
265.5964848642
 31
0.0
  0
ARC
  5
495
330
1F
100
AcDbEntity
  8
0
  6
Continuous
 62
     7
100
AcDbCircle
 10
1613.8582497638
 20
261.5964848642
 30
0.0
 40
4.000000000000057
100
AcDbArc
 50
90.0
 51
270.0
  0
LINE
  5
496
330
1F
100
AcDbEntity
  8
0
  6
Continuous
 62
     7
100
AcDbLine
 10
1613.8582497638
 20
257.5964848642
 30
0.0
 11
1634.8582497638
 21
257.5964848642
 31
0.0
  0
ARC
  5
497
330
1F
100
AcDbEntity
  8
0
  6
Continuous
 62
     7
100
AcDbCircle
 10
1634.8582497638
 20
261.5964848642
 30
0.0
 40
4.0
100
AcDbArc
 50
270.0
 51
90.0
  0
LINE
  5
498
330
1F
100
AcDbEntity
  8
0
  6
Continuous
 62
     7
100
AcDbLine
 10
1684.8582497638
 20
265.5964848642
 30
0.0
 11
1663.8582497638
 21
265.5964848642
 31
0.0
  0
ARC
  5
499
330
1F
100
AcDbEntity
  8
0
  6
Continuous
 62
     7
100
AcDbCircle
 10
1663.8582497638
 20
261.5964848642
 30
0.0
 40
4.0
100
AcDbArc
 50
90.0
 51
270.0
  0
LINE
  5
49A
330
1F
100
AcDbEntity
  8
0
  6
Continuous
 62
     7
100
AcDbLine
 10
1663.8582497638
 20
257.5964848642
 30
0.0
 11
1684.8582497638
 21
257.5964848642
 31
0.0
  0
ARC
  5
49B
330
1F
100
AcDbEntity
  8
0
  6
Continuous
 62
     7
100
AcDbCircle
 10
1684.8582497638
 20
261.5964848642
 30
0.0
 40
4.0
100
AcDbArc
 50
270.0
 51
90.0
  0
LINE
  5
49C
330
1F
100
AcDbEntity
  8
0
  6
Continuous
 62
     7
100
AcDbLine
 10
1734.8582497638
 20
265.5964848642
 30
0.0
 11
1713.8582497638
 21
265.5964848642
 31
0.0
  0
ARC
  5
49D
330
1F
100
AcDbEntity
  8
0
  6
Continuous
 62
     7
100
AcDbCircle
 10
1713.8582497638
 20
261.5964848642
 30
0.0
 40
4.000000000000057
100
AcDbArc
 50
90.0
 51
270.0
  0
LINE
  5
49E
330
1F
100
AcDbEntity
  8
0
  6
Continuous
 62
     7
100
AcDbLine
 10
1713.8582497638
 20
257.5964848642
 30
0.0
 11
1734.8582497638
 21
257.5964848642
 31
0.0
  0
ARC
  5
49F
330
1F
100
AcDbEntity
  8
0
  6
Continuous
 62
     7
100
AcDbCircle
 10
1734.8582497638
 20
261.5964848642
 30
0.0
 40
4.0
100
AcDbArc
 50
270.0
 51
90.0
  0
LINE
  5
4A0
330
1F
100
AcDbEntity
  8
0
  6
Continuous
 62
     7
100
AcDbLine
 10
1784.8582497638
 20
265.5964848642
 30
0.0
 11
1763.8582497638
 21
265.5964848642
 31
0.0
  0
ARC
  5
4A1
330
1F
100
AcDbEntity
  8
0
  6
Continuous
 62
     7
100
AcDbCircle
 10
1763.8582497638
 20
261.5964848642
 30
0.0
 40
4.000000000000114
100
AcDbArc
 50
90.0
 51
270.0
  0
LINE
  5
4A2
330
1F
100
AcDbEntity
  8
0
  6
Continuous
 62
     7
100
AcDbLine
 10
1763.8582497638
 20
257.5964848642
 30
0.0
 11
1784.8582497638
 21
257.5964848642
 31
0.0
  0
ARC
  5
4A3
330
1F
100
AcDbEntity
  8
0
  6
Continuous
 62
     7
100
AcDbCircle
 10
1784.8582497638
 20
261.5964848642
 30
0.0
 40
4.000000000000057
100
AcDbArc
 50
270.0
 51
90.0
  0
LINE
  5
4A4
330
1F
100
AcDbEntity
  8
0
  6
Continuous
 62
     7
100
AcDbLine
 10
1834.8582497638
 20
265.5964848642
 30
0.0
 11
1813.8582497638
 21
265.5964848642
 31
0.0
  0
ARC
  5
4A5
330
1F
100
AcDbEntity
  8
0
  6
Continuous
 62
     7
100
AcDbCircle
 10
1813.8582497638
 20
261.5964848642
 30
0.0
 40
4.0
100
AcDbArc
 50
90.0
 51
270.0
  0
LINE
  5
4A6
330
1F
100
AcDbEntity
  8
0
  6
Continuous
 62
     7
100
AcDbLine
 10
1813.8582497638
 20
257.5964848642
 30
0.0
 11
1834.8582497638
 21
257.5964848642
 31
0.0
  0
ARC
  5
4A7
330
1F
100
AcDbEntity
  8
0
  6
Continuous
 62
     7
100
AcDbCircle
 10
1834.8582497638
 20
261.5964848642
 30
0.0
 40
4.0
100
AcDbArc
 50
270.0
 51
90.0
  0
LINE
  5
4A8
330
1F
100
AcDbEntity
  8
0
  6
Continuous
 62
     7
100
AcDbLine
 10
1884.8582497638
 20
265.5964848642
 30
0.0
 11
1863.8582497638
 21
265.5964848642
 31
0.0
  0
ARC
  5
4A9
330
1F
100
AcDbEntity
  8
0
  6
Continuous
 62
     7
100
AcDbCircle
 10
1863.8582497638
 20
261.5964848642
 30
0.0
 40
4.0
100
AcDbArc
 50
90.0
 51
270.0
  0
LINE
  5
4AA
330
1F
100
AcDbEntity
  8
0
  6
Continuous
 62
     7
100
AcDbLine
 10
1863.8582497638
 20
257.5964848642
 30
0.0
 11
1884.8582497638
 21
257.5964848642
 31
0.0
  0
ARC
  5
4AB
330
1F
100
AcDbEntity
  8
0
  6
Continuous
 62
     7
100
AcDbCircle
 10
1884.8582497638
 20
261.5964848642
 30
0.0
 40
4.0
100
AcDbArc
 50
270.0
 51
90.0
  0
LINE
  5
4AC
330
1F
100
AcDbEntity
  8
0
  6
Continuous
 62
     7
100
AcDbLine
 10
1934.8582497638
 20
265.5964848642
 30
0.0
 11
1913.8582497638
 21
265.5964848642
 31
0.0
  0
ARC
  5
4AD
330
1F
100
AcDbEntity
  8
0
  6
Continuous
 62
     7
100
AcDbCircle
 10
1913.8582497638
 20
261.5964848642
 30
0.0
 40
4.000000000000057
100
AcDbArc
 50
90.0
 51
270.0
  0
LINE
  5
4AE
330
1F
100
AcDbEntity
  8
0
  6
Continuous
 62
     7
100
AcDbLine
 10
1913.8582497638
 20
257.5964848642
 30
0.0
 11
1934.8582497638
 21
257.5964848642
 31
0.0
  0
ARC
  5
4AF
330
1F
100
AcDbEntity
  8
0
  6
Continuous
 62
     7
100
AcDbCircle
 10
1934.8582497638
 20
261.5964848642
 30
0.0
 40
4.0
100
AcDbArc
 50
270.0
 51
90.0
  0
LINE
  5
4B0
330
1F
100
AcDbEntity
  8
0
  6
Continuous
 62
     7
100
AcDbLine
 10
1984.8582497638
 20
265.5964848642
 30
0.0
 11
1963.8582497638
 21
265.5964848642
 31
0.0
  0
ARC
  5
4B1
330
1F
100
AcDbEntity
  8
0
  6
Continuous
 62
     7
100
AcDbCircle
 10
1963.8582497638
 20
261.5964848642
 30
0.0
 40
4.000000000000057
100
AcDbArc
 50
90.0
 51
270.0
  0
LINE
  5
4B2
330
1F
100
AcDbEntity
  8
0
  6
Continuous
 62
     7
100
AcDbLine
 10
1963.8582497638
 20
257.5964848642
 30
0.0
 11
1984.8582497638
 21
257.5964848642
 31
0.0
  0
ARC
  5
4B3
330
1F
100
AcDbEntity
  8
0
  6
Continuous
 62
     7
100
AcDbCircle
 10
1984.8582497638
 20
261.5964848642
 30
0.0
 40
4.0
100
AcDbArc
 50
270.0
 51
90.0
  0
LINE
  5
4B4
330
1F
100
AcDbEntity
  8
0
  6
Continuous
 62
     7
100
AcDbLine
 10
2034.8582497638
 20
265.5964848642
 30
0.0
 11
2013.8582497638
 21
265.5964848642
 31
0.0
  0
ARC
  5
4B5
330
1F
100
AcDbEntity
  8
0
  6
Continuous
 62
     7
100
AcDbCircle
 10
2013.8582497638
 20
261.5964848642
 30
0.0
 40
4.000000000000057
100
AcDbArc
 50
90.0
 51
270.0
  0
LINE
  5
4B6
330
1F
100
AcDbEntity
  8
0
  6
Continuous
 62
     7
100
AcDbLine
 10
2013.8582497638
 20
257.5964848642
 30
0.0
 11
2034.8582497638
 21
257.5964848642
 31
0.0
  0
ARC
  5
4B7
330
1F
100
AcDbEntity
  8
0
  6
Continuous
 62
     7
100
AcDbCircle
 10
2034.8582497638
 20
261.5964848642
 30
0.0
 40
4.0
100
AcDbArc
 50
270.0
 51
90.0
  0
LINE
  5
4B8
330
1F
100
AcDbEntity
  8
0
  6
Continuous
 62
     7
100
AcDbLine
 10
2084.8582497638
 20
265.5964848642
 30
0.0
 11
2063.8582497638
 21
265.5964848642
 31
0.0
  0
ARC
  5
4B9
330
1F
100
AcDbEntity
  8
0
  6
Continuous
 62
     7
100
AcDbCircle
 10
2063.8582497638
 20
261.5964848642
 30
0.0
 40
4.0
100
AcDbArc
 50
90.0
 51
270.0
  0
LINE
  5
4BA
330
1F
100
AcDbEntity
  8
0
  6
Continuous
 62
     7
100
AcDbLine
 10
2063.8582497638
 20
257.5964848642
 30
0.0
 11
2084.8582497638
 21
257.5964848642
 31
0.0
  0
ARC
  5
4BB
330
1F
100
AcDbEntity
  8
0
  6
Continuous
 62
     7
100
AcDbCircle
 10
2084.8582497638
 20
261.5964848642
 30
0.0
 40
4.0
100
AcDbArc
 50
270.0
 51
90.0
  0
LINE
  5
4BC
330
1F
100
AcDbEntity
  8
0
  6
Continuous
 62
     7
100
AcDbLine
 10
2134.8582497638
 20
265.5964848642
 30
0.0
 11
2113.8582497638
 21
265.5964848642
 31
0.0
  0
ARC
  5
4BD
330
1F
100
AcDbEntity
  8
0
  6
Continuous
 62
     7
100
AcDbCircle
 10
2113.8582497638
 20
261.5964848642
 30
0.0
 40
4.000000000000057
100
AcDbArc
 50
90.0
 51
270.0
  0
LINE
  5
4BE
330
1F
100
AcDbEntity
  8
0
  6
Continuous
 62
     7
100
AcDbLine
 10
2113.8582497638
 20
257.5964848642
 30
0.0
 11
2134.8582497638
 21
257.5964848642
 31
0.0
  0
ARC
  5
4BF
330
1F
100
AcDbEntity
  8
0
  6
Continuous
 62
     7
100
AcDbCircle
 10
2134.8582497638
 20
261.5964848642
 30
0.0
 40
4.0
100
AcDbArc
 50
270.0
 51
90.0
  0
LINE
  5
4C0
330
1F
100
AcDbEntity
  8
0
  6
Continuous
 62
     7
100
AcDbLine
 10
2184.8582497638
 20
265.5964848642
 30
0.0
 11
2163.8582497638
 21
265.5964848642
 31
0.0
  0
ARC
  5
4C1
330
1F
100
AcDbEntity
  8
0
  6
Continuous
 62
     7
100
AcDbCircle
 10
2163.8582497638
 20
261.5964848642
 30
0.0
 40
4.000000000000057
100
AcDbArc
 50
90.0
 51
270.0
  0
LINE
  5
4C2
330
1F
100
AcDbEntity
  8
0
  6
Continuous
 62
     7
100
AcDbLine
 10
2163.8582497638
 20
257.5964848642
 30
0.0
 11
2184.8582497638
 21
257.5964848642
 31
0.0
  0
ARC
  5
4C3
330
1F
100
AcDbEntity
  8
0
  6
Continuous
 62
     7
100
AcDbCircle
 10
2184.8582497638
 20
261.5964848642
 30
0.0
 40
4.0
100
AcDbArc
 50
270.0
 51
90.0
  0
LINE
  5
4C4
330
1F
100
AcDbEntity
  8
0
  6
Continuous
 62
     7
100
AcDbLine
 10
2234.8582497638
 20
265.5964848642
 30
0.0
 11
2213.8582497638
 21
265.5964848642
 31
0.0
  0
ARC
  5
4C5
330
1F
100
AcDbEntity
  8
0
  6
Continuous
 62
     7
100
AcDbCircle
 10
2213.8582497638
 20
261.5964848642
 30
0.0
 40
4.0
100
AcDbArc
 50
90.0
 51
270.0
  0
LINE
  5
4C6
330
1F
100
AcDbEntity
  8
0
  6
Continuous
 62
     7
100
AcDbLine
 10
2213.8582497638
 20
257.5964848642
 30
0.0
 11
2234.8582497638
 21
257.5964848642
 31
0.0
  0
ARC
  5
4C7
330
1F
100
AcDbEntity
  8
0
  6
Continuous
 62
     7
100
AcDbCircle
 10
2234.8582497638
 20
261.5964848642
 30
0.0
 40
4.0
100
AcDbArc
 50
270.0
 51
90.0
  0
LINE
  5
4C8
330
1F
100
AcDbEntity
  8
0
  6
Continuous
 62
     7
100
AcDbLine
 10
2284.8582497638
 20
265.5964848642
 30
0.0
 11
2263.8582497638
 21
265.5964848642
 31
0.0
  0
ARC
  5
4C9
330
1F
100
AcDbEntity
  8
0
  6
Continuous
 62
     7
100
AcDbCircle
 10
2263.8582497638
 20
261.5964848642
 30
0.0
 40
4.000000000000057
100
AcDbArc
 50
90.0
 51
270.0
  0
LINE
  5
4CA
330
1F
100
AcDbEntity
  8
0
  6
Continuous
 62
     7
100
AcDbLine
 10
2263.8582497638
 20
257.5964848642
 30
0.0
 11
2284.8582497638
 21
257.5964848642
 31
0.0
  0
ARC
  5
4CB
330
1F
100
AcDbEntity
  8
0
  6
Continuous
 62
     7
100
AcDbCircle
 10
2284.8582497638
 20
261.5964848642
 30
0.0
 40
4.0
100
AcDbArc
 50
270.0
 51
90.0
  0
LINE
  5
4CC
330
1F
100
AcDbEntity
  8
0
  6
Continuous
 62
     7
100
AcDbLine
 10
2334.8582497638
 20
265.5964848642
 30
0.0
 11
2313.8582497638
 21
265.5964848642
 31
0.0
  0
ARC
  5
4CD
330
1F
100
AcDbEntity
  8
0
  6
Continuous
 62
     7
100
AcDbCircle
 10
2313.8582497638
 20
261.5964848642
 30
0.0
 40
4.000000000000057
100
AcDbArc
 50
90.0
 51
270.0
  0
LINE
  5
4CE
330
1F
100
AcDbEntity
  8
0
  6
Continuous
 62
     7
100
AcDbLine
 10
2313.8582497638
 20
257.5964848642
 30
0.0
 11
2334.8582497638
 21
257.5964848642
 31
0.0
  0
ARC
  5
4CF
330
1F
100
AcDbEntity
  8
0
  6
Continuous
 62
     7
100
AcDbCircle
 10
2334.8582497638
 20
261.5964848642
 30
0.0
 40
4.0
100
AcDbArc
 50
270.0
 51
90.0
  0
LINE
  5
4D0
330
1F
100
AcDbEntity
  8
0
  6
Continuous
 62
     7
100
AcDbLine
 10
2384.8582497638
 20
265.5964848642
 30
0.0
 11
2363.8582497638
 21
265.5964848642
 31
0.0
  0
ARC
  5
4D1
330
1F
100
AcDbEntity
  8
0
  6
Continuous
 62
     7
100
AcDbCircle
 10
2363.8582497638
 20
261.5964848642
 30
0.0
 40
4.000000000000057
100
AcDbArc
 50
90.0
 51
270.0
  0
LINE
  5
4D2
330
1F
100
AcDbEntity
  8
0
  6
Continuous
 62
     7
100
AcDbLine
 10
2363.8582497638
 20
257.5964848642
 30
0.0
 11
2384.8582497638
 21
257.5964848642
 31
0.0
  0
ARC
  5
4D3
330
1F
100
AcDbEntity
  8
0
  6
Continuous
 62
     7
100
AcDbCircle
 10
2384.8582497638
 20
261.5964848642
 30
0.0
 40
4.0
100
AcDbArc
 50
270.0
 51
90.0
  0
LINE
  5
4D4
330
1F
100
AcDbEntity
  8
0
  6
Continuous
 62
     7
100
AcDbLine
 10
2434.8582497638
 20
265.5964848642
 30
0.0
 11
2413.8582497638
 21
265.5964848642
 31
0.0
  0
ARC
  5
4D5
330
1F
100
AcDbEntity
  8
0
  6
Continuous
 62
     7
100
AcDbCircle
 10
2413.8582497638
 20
261.5964848642
 30
0.0
 40
4.000000000000057
100
AcDbArc
 50
90.0
 51
270.0
  0
LINE
  5
4D6
330
1F
100
AcDbEntity
  8
0
  6
Continuous
 62
     7
100
AcDbLine
 10
2413.8582497638
 20
257.5964848642
 30
0.0
 11
2434.8582497638
 21
257.5964848642
 31
0.0
  0
ARC
  5
4D7
330
1F
100
AcDbEntity
  8
0
  6
Continuous
 62
     7
100
AcDbCircle
 10
2434.8582497638
 20
261.5964848642
 30
0.0
 40
4.000000000000057
100
AcDbArc
 50
270.0
 51
90.0
  0
LINE
  5
4D8
330
1F
100
AcDbEntity
  8
0
  6
Continuous
 62
     7
100
AcDbLine
 10
1634.8582497638
 20
230.0964848642
 30
0.0
 11
1613.8582497638
 21
230.0964848642
 31
0.0
  0
ARC
  5
4D9
330
1F
100
AcDbEntity
  8
0
  6
Continuous
 62
     7
100
AcDbCircle
 10
1613.8582497638
 20
226.0964848642
 30
0.0
 40
4.000000000000028
100
AcDbArc
 50
90.0
 51
270.0
  0
LINE
  5
4DA
330
1F
100
AcDbEntity
  8
0
  6
Continuous
 62
     7
100
AcDbLine
 10
1613.8582497638
 20
222.0964848642
 30
0.0
 11
1634.8582497638
 21
222.0964848642
 31
0.0
  0
ARC
  5
4DB
330
1F
100
AcDbEntity
  8
0
  6
Continuous
 62
     7
100
AcDbCircle
 10
1634.8582497638
 20
226.0964848642
 30
0.0
 40
4.0
100
AcDbArc
 50
270.0
 51
90.0
  0
LINE
  5
4DC
330
1F
100
AcDbEntity
  8
0
  6
Continuous
 62
     7
100
AcDbLine
 10
1684.8582497638
 20
230.0964848642
 30
0.0
 11
1663.8582497638
 21
230.0964848642
 31
0.0
  0
ARC
  5
4DD
330
1F
100
AcDbEntity
  8
0
  6
Continuous
 62
     7
100
AcDbCircle
 10
1663.8582497638
 20
226.0964848642
 30
0.0
 40
4.000000000000028
100
AcDbArc
 50
90.0
 51
270.0
  0
LINE
  5
4DE
330
1F
100
AcDbEntity
  8
0
  6
Continuous
 62
     7
100
AcDbLine
 10
1663.8582497638
 20
222.0964848642
 30
0.0
 11
1684.8582497638
 21
222.0964848642
 31
0.0
  0
ARC
  5
4DF
330
1F
100
AcDbEntity
  8
0
  6
Continuous
 62
     7
100
AcDbCircle
 10
1684.8582497638
 20
226.0964848642
 30
0.0
 40
4.000000000000028
100
AcDbArc
 50
270.0
 51
90.0
  0
LINE
  5
4E0
330
1F
100
AcDbEntity
  8
0
  6
Continuous
 62
     7
100
AcDbLine
 10
1734.8582497638
 20
230.0964848642
 30
0.0
 11
1713.8582497638
 21
230.0964848642
 31
0.0
  0
ARC
  5
4E1
330
1F
100
AcDbEntity
  8
0
  6
Continuous
 62
     7
100
AcDbCircle
 10
1713.8582497638
 20
226.0964848642
 30
0.0
 40
4.000000000000057
100
AcDbArc
 50
90.0
 51
270.0
  0
LINE
  5
4E2
330
1F
100
AcDbEntity
  8
0
  6
Continuous
 62
     7
100
AcDbLine
 10
1713.8582497638
 20
222.0964848642
 30
0.0
 11
1734.8582497638
 21
222.0964848642
 31
0.0
  0
ARC
  5
4E3
330
1F
100
AcDbEntity
  8
0
  6
Continuous
 62
     7
100
AcDbCircle
 10
1734.8582497638
 20
226.0964848642
 30
0.0
 40
4.0
100
AcDbArc
 50
270.0
 51
90.0
  0
LINE
  5
4E4
330
1F
100
AcDbEntity
  8
0
  6
Continuous
 62
     7
100
AcDbLine
 10
1784.8582497638
 20
230.0964848642
 30
0.0
 11
1763.8582497638
 21
230.0964848642
 31
0.0
  0
ARC
  5
4E5
330
1F
100
AcDbEntity
  8
0
  6
Continuous
 62
     7
100
AcDbCircle
 10
1763.8582497638
 20
226.0964848642
 30
0.0
 40
4.000000000000028
100
AcDbArc
 50
90.0
 51
270.0
  0
LINE
  5
4E6
330
1F
100
AcDbEntity
  8
0
  6
Continuous
 62
     7
100
AcDbLine
 10
1763.8582497638
 20
222.0964848642
 30
0.0
 11
1784.8582497638
 21
222.0964848642
 31
0.0
  0
ARC
  5
4E7
330
1F
100
AcDbEntity
  8
0
  6
Continuous
 62
     7
100
AcDbCircle
 10
1784.8582497638
 20
226.0964848642
 30
0.0
 40
4.0
100
AcDbArc
 50
270.0
 51
90.0
  0
LINE
  5
4E8
330
1F
100
AcDbEntity
  8
0
  6
Continuous
 62
     7
100
AcDbLine
 10
1834.8582497638
 20
230.0964848642
 30
0.0
 11
1813.8582497638
 21
230.0964848642
 31
0.0
  0
ARC
  5
4E9
330
1F
100
AcDbEntity
  8
0
  6
Continuous
 62
     7
100
AcDbCircle
 10
1813.8582497638
 20
226.0964848642
 30
0.0
 40
4.000000000000028
100
AcDbArc
 50
90.0
 51
270.0
  0
LINE
  5
4EA
330
1F
100
AcDbEntity
  8
0
  6
Continuous
 62
     7
100
AcDbLine
 10
1813.8582497638
 20
222.0964848642
 30
0.0
 11
1834.8582497638
 21
222.0964848642
 31
0.0
  0
ARC
  5
4EB
330
1F
100
AcDbEntity
  8
0
  6
Continuous
 62
     7
100
AcDbCircle
 10
1834.8582497638
 20
226.0964848642
 30
0.0
 40
4.0
100
AcDbArc
 50
270.0
 51
90.0
  0
LINE
  5
4EC
330
1F
100
AcDbEntity
  8
0
  6
Continuous
 62
     7
100
AcDbLine
 10
1884.8582497638
 20
230.0964848642
 30
0.0
 11
1863.8582497638
 21
230.0964848642
 31
0.0
  0
ARC
  5
4ED
330
1F
100
AcDbEntity
  8
0
  6
Continuous
 62
     7
100
AcDbCircle
 10
1863.8582497638
 20
226.0964848642
 30
0.0
 40
4.0
100
AcDbArc
 50
90.0
 51
270.0
  0
LINE
  5
4EE
330
1F
100
AcDbEntity
  8
0
  6
Continuous
 62
     7
100
AcDbLine
 10
1863.8582497638
 20
222.0964848642
 30
0.0
 11
1884.8582497638
 21
222.0964848642
 31
0.0
  0
ARC
  5
4EF
330
1F
100
AcDbEntity
  8
0
  6
Continuous
 62
     7
100
AcDbCircle
 10
1884.8582497638
 20
226.0964848642
 30
0.0
 40
4.0
100
AcDbArc
 50
270.0
 51
90.0
  0
LINE
  5
4F0
330
1F
100
AcDbEntity
  8
0
  6
Continuous
 62
     7
100
AcDbLine
 10
1934.8582497638
 20
230.0964848642
 30
0.0
 11
1913.8582497638
 21
230.0964848642
 31
0.0
  0
ARC
  5
4F1
330
1F
100
AcDbEntity
  8
0
  6
Continuous
 62
     7
100
AcDbCircle
 10
1913.8582497638
 20
226.0964848642
 30
0.0
 40
4.000000000000057
100
AcDbArc
 50
90.0
 51
270.0
  0
LINE
  5
4F2
330
1F
100
AcDbEntity
  8
0
  6
Continuous
 62
     7
100
AcDbLine
 10
1913.8582497638
 20
222.0964848642
 30
0.0
 11
1934.8582497638
 21
222.0964848642
 31
0.0
  0
ARC
  5
4F3
330
1F
100
AcDbEntity
  8
0
  6
Continuous
 62
     7
100
AcDbCircle
 10
1934.8582497638
 20
226.0964848642
 30
0.0
 40
4.0
100
AcDbArc
 50
270.0
 51
90.0
  0
LINE
  5
4F4
330
1F
100
AcDbEntity
  8
0
  6
Continuous
 62
     7
100
AcDbLine
 10
1984.8582497638
 20
230.0964848642
 30
0.0
 11
1963.8582497638
 21
230.0964848642
 31
0.0
  0
ARC
  5
4F5
330
1F
100
AcDbEntity
  8
0
  6
Continuous
 62
     7
100
AcDbCircle
 10
1963.8582497638
 20
226.0964848642
 30
0.0
 40
4.000000000000057
100
AcDbArc
 50
90.0
 51
270.0
  0
LINE
  5
4F6
330
1F
100
AcDbEntity
  8
0
  6
Continuous
 62
     7
100
AcDbLine
 10
1963.8582497638
 20
222.0964848642
 30
0.0
 11
1984.8582497638
 21
222.0964848642
 31
0.0
  0
ARC
  5
4F7
330
1F
100
AcDbEntity
  8
0
  6
Continuous
 62
     7
100
AcDbCircle
 10
1984.8582497638
 20
226.0964848642
 30
0.0
 40
4.000000000000028
100
AcDbArc
 50
270.0
 51
90.0
  0
LINE
  5
4F8
330
1F
100
AcDbEntity
  8
0
  6
Continuous
 62
     7
100
AcDbLine
 10
2034.8582497638
 20
230.0964848642
 30
0.0
 11
2013.8582497638
 21
230.0964848642
 31
0.0
  0
ARC
  5
4F9
330
1F
100
AcDbEntity
  8
0
  6
Continuous
 62
     7
100
AcDbCircle
 10
2013.8582497638
 20
226.0964848642
 30
0.0
 40
4.000000000000028
100
AcDbArc
 50
90.0
 51
270.0
  0
LINE
  5
4FA
330
1F
100
AcDbEntity
  8
0
  6
Continuous
 62
     7
100
AcDbLine
 10
2013.8582497638
 20
222.0964848642
 30
0.0
 11
2034.8582497638
 21
222.0964848642
 31
0.0
  0
ARC
  5
4FB
330
1F
100
AcDbEntity
  8
0
  6
Continuous
 62
     7
100
AcDbCircle
 10
2034.8582497638
 20
226.0964848642
 30
0.0
 40
4.0
100
AcDbArc
 50
270.0
 51
90.0
  0
LINE
  5
4FC
330
1F
100
AcDbEntity
  8
0
  6
Continuous
 62
     7
100
AcDbLine
 10
2084.8582497638
 20
230.0964848642
 30
0.0
 11
2063.8582497638
 21
230.0964848642
 31
0.0
  0
ARC
  5
4FD
330
1F
100
AcDbEntity
  8
0
  6
Continuous
 62
     7
100
AcDbCircle
 10
2063.8582497638
 20
226.0964848642
 30
0.0
 40
4.000000000000028
100
AcDbArc
 50
90.0
 51
270.0
  0
LINE
  5
4FE
330
1F
100
AcDbEntity
  8
0
  6
Continuous
 62
     7
100
AcDbLine
 10
2063.8582497638
 20
222.0964848642
 30
0.0
 11
2084.8582497638
 21
222.0964848642
 31
0.0
  0
ARC
  5
4FF
330
1F
100
AcDbEntity
  8
0
  6
Continuous
 62
     7
100
AcDbCircle
 10
2084.8582497638
 20
226.0964848642
 30
0.0
 40
4.0
100
AcDbArc
 50
270.0
 51
90.0
  0
LINE
  5
500
330
1F
100
AcDbEntity
  8
0
  6
Continuous
 62
     7
100
AcDbLine
 10
2134.8582497638
 20
230.0964848642
 30
0.0
 11
2113.8582497638
 21
230.0964848642
 31
0.0
  0
ARC
  5
501
330
1F
100
AcDbEntity
  8
0
  6
Continuous
 62
     7
100
AcDbCircle
 10
2113.8582497638
 20
226.0964848642
 30
0.0
 40
4.000000000000057
100
AcDbArc
 50
90.0
 51
270.0
  0
LINE
  5
502
330
1F
100
AcDbEntity
  8
0
  6
Continuous
 62
     7
100
AcDbLine
 10
2113.8582497638
 20
222.0964848642
 30
0.0
 11
2134.8582497638
 21
222.0964848642
 31
0.0
  0
ARC
  5
503
330
1F
100
AcDbEntity
  8
0
  6
Continuous
 62
     7
100
AcDbCircle
 10
2134.8582497638
 20
226.0964848642
 30
0.0
 40
4.0
100
AcDbArc
 50
270.0
 51
90.0
  0
LINE
  5
504
330
1F
100
AcDbEntity
  8
0
  6
Continuous
 62
     7
100
AcDbLine
 10
2184.8582497638
 20
230.0964848642
 30
0.0
 11
2163.8582497638
 21
230.0964848642
 31
0.0
  0
ARC
  5
505
330
1F
100
AcDbEntity
  8
0
  6
Continuous
 62
     7
100
AcDbCircle
 10
2163.8582497638
 20
226.0964848642
 30
0.0
 40
4.000000000000057
100
AcDbArc
 50
90.0
 51
270.0
  0
LINE
  5
506
330
1F
100
AcDbEntity
  8
0
  6
Continuous
 62
     7
100
AcDbLine
 10
2163.8582497638
 20
222.0964848642
 30
0.0
 11
2184.8582497638
 21
222.0964848642
 31
0.0
  0
ARC
  5
507
330
1F
100
AcDbEntity
  8
0
  6
Continuous
 62
     7
100
AcDbCircle
 10
2184.8582497638
 20
226.0964848642
 30
0.0
 40
4.0
100
AcDbArc
 50
270.0
 51
90.0
  0
LINE
  5
508
330
1F
100
AcDbEntity
  8
0
  6
Continuous
 62
     7
100
AcDbLine
 10
2234.8582497638
 20
230.0964848642
 30
0.0
 11
2213.8582497638
 21
230.0964848642
 31
0.0
  0
ARC
  5
509
330
1F
100
AcDbEntity
  8
0
  6
Continuous
 62
     7
100
AcDbCircle
 10
2213.8582497638
 20
226.0964848642
 30
0.0
 40
4.000000000000028
100
AcDbArc
 50
90.0
 51
270.0
  0
LINE
  5
50A
330
1F
100
AcDbEntity
  8
0
  6
Continuous
 62
     7
100
AcDbLine
 10
2213.8582497638
 20
222.0964848642
 30
0.0
 11
2234.8582497638
 21
222.0964848642
 31
0.0
  0
ARC
  5
50B
330
1F
100
AcDbEntity
  8
0
  6
Continuous
 62
     7
100
AcDbCircle
 10
2234.8582497638
 20
226.0964848642
 30
0.0
 40
4.0
100
AcDbArc
 50
270.0
 51
90.0
  0
LINE
  5
50C
330
1F
100
AcDbEntity
  8
0
  6
Continuous
 62
     7
100
AcDbLine
 10
2284.8582497638
 20
230.0964848642
 30
0.0
 11
2263.8582497638
 21
230.0964848642
 31
0.0
  0
ARC
  5
50D
330
1F
100
AcDbEntity
  8
0
  6
Continuous
 62
     7
100
AcDbCircle
 10
2263.8582497638
 20
226.0964848642
 30
0.0
 40
4.000000000000028
100
AcDbArc
 50
90.0
 51
270.0
  0
LINE
  5
50E
330
1F
100
AcDbEntity
  8
0
  6
Continuous
 62
     7
100
AcDbLine
 10
2263.8582497638
 20
222.0964848642
 30
0.0
 11
2284.8582497638
 21
222.0964848642
 31
0.0
  0
ARC
  5
50F
330
1F
100
AcDbEntity
  8
0
  6
Continuous
 62
     7
100
AcDbCircle
 10
2284.8582497638
 20
226.0964848642
 30
0.0
 40
4.0
100
AcDbArc
 50
270.0
 51
90.0
  0
LINE
  5
510
330
1F
100
AcDbEntity
  8
0
  6
Continuous
 62
     7
100
AcDbLine
 10
2334.8582497638
 20
230.0964848642
 30
0.0
 11
2313.8582497638
 21
230.0964848642
 31
0.0
  0
ARC
  5
511
330
1F
100
AcDbEntity
  8
0
  6
Continuous
 62
     7
100
AcDbCircle
 10
2313.8582497638
 20
226.0964848642
 30
0.0
 40
4.000000000000085
100
AcDbArc
 50
90.0
 51
270.0
  0
LINE
  5
512
330
1F
100
AcDbEntity
  8
0
  6
Continuous
 62
     7
100
AcDbLine
 10
2313.8582497638
 20
222.0964848642
 30
0.0
 11
2334.8582497638
 21
222.0964848642
 31
0.0
  0
ARC
  5
513
330
1F
100
AcDbEntity
  8
0
  6
Continuous
 62
     7
100
AcDbCircle
 10
2334.8582497638
 20
226.0964848642
 30
0.0
 40
4.000000000000028
100
AcDbArc
 50
270.0
 51
90.0
  0
LINE
  5
514
330
1F
100
AcDbEntity
  8
0
  6
Continuous
 62
     7
100
AcDbLine
 10
2384.8582497638
 20
230.0964848642
 30
0.0
 11
2363.8582497638
 21
230.0964848642
 31
0.0
  0
ARC
  5
515
330
1F
100
AcDbEntity
  8
0
  6
Continuous
 62
     7
100
AcDbCircle
 10
2363.8582497638
 20
226.0964848642
 30
0.0
 40
4.000000000000057
100
AcDbArc
 50
90.0
 51
270.0
  0
LINE
  5
516
330
1F
100
AcDbEntity
  8
0
  6
Continuous
 62
     7
100
AcDbLine
 10
2363.8582497638
 20
222.0964848642
 30
0.0
 11
2384.8582497638
 21
222.0964848642
 31
0.0
  0
ARC
  5
517
330
1F
100
AcDbEntity
  8
0
  6
Continuous
 62
     7
100
AcDbCircle
 10
2384.8582497638
 20
226.0964848642
 30
0.0
 40
4.0
100
AcDbArc
 50
270.0
 51
90.0
  0
LINE
  5
518
330
1F
100
AcDbEntity
  8
0
  6
Continuous
 62
     7
100
AcDbLine
 10
2434.8582497638
 20
230.0964848642
 30
0.0
 11
2413.8582497638
 21
230.0964848642
 31
0.0
  0
ARC
  5
519
330
1F
100
AcDbEntity
  8
0
  6
Continuous
 62
     7
100
AcDbCircle
 10
2413.8582497638
 20
226.0964848642
 30
0.0
 40
4.000000000000057
100
AcDbArc
 50
90.0
 51
270.0
  0
LINE
  5
51A
330
1F
100
AcDbEntity
  8
0
  6
Continuous
 62
     7
100
AcDbLine
 10
2413.8582497638
 20
222.0964848642
 30
0.0
 11
2434.8582497638
 21
222.0964848642
 31
0.0
  0
ARC
  5
51B
330
1F
100
AcDbEntity
  8
0
  6
Continuous
 62
     7
100
AcDbCircle
 10
2434.8582497638
 20
226.0964848642
 30
0.0
 40
4.0
100
AcDbArc
 50
270.0
 51
90.0
  0
LINE
  5
51C
330
1F
100
AcDbEntity
  8
0
  6
Continuous
 62
     7
100
AcDbLine
 10
1634.8582497638
 20
194.5964848642
 30
0.0
 11
1613.8582497638
 21
194.5964848642
 31
0.0
  0
ARC
  5
51D
330
1F
100
AcDbEntity
  8
0
  6
Continuous
 62
     7
100
AcDbCircle
 10
1613.8582497638
 20
190.5964848642
 30
0.0
 40
4.000000000000028
100
AcDbArc
 50
90.0
 51
270.0
  0
LINE
  5
51E
330
1F
100
AcDbEntity
  8
0
  6
Continuous
 62
     7
100
AcDbLine
 10
1613.8582497638
 20
186.5964848642
 30
0.0
 11
1634.8582497638
 21
186.5964848642
 31
0.0
  0
ARC
  5
51F
330
1F
100
AcDbEntity
  8
0
  6
Continuous
 62
     7
100
AcDbCircle
 10
1634.8582497638
 20
190.5964848642
 30
0.0
 40
4.0
100
AcDbArc
 50
270.0
 51
90.0
  0
LINE
  5
520
330
1F
100
AcDbEntity
  8
0
  6
Continuous
 62
     7
100
AcDbLine
 10
1684.8582497638
 20
194.5964848642
 30
0.0
 11
1663.8582497638
 21
194.5964848642
 31
0.0
  0
ARC
  5
521
330
1F
100
AcDbEntity
  8
0
  6
Continuous
 62
     7
100
AcDbCircle
 10
1663.8582497638
 20
190.5964848642
 30
0.0
 40
4.000000000000057
100
AcDbArc
 50
90.0
 51
270.0
  0
LINE
  5
522
330
1F
100
AcDbEntity
  8
0
  6
Continuous
 62
     7
100
AcDbLine
 10
1663.8582497638
 20
186.5964848642
 30
0.0
 11
1684.8582497638
 21
186.5964848642
 31
0.0
  0
ARC
  5
523
330
1F
100
AcDbEntity
  8
0
  6
Continuous
 62
     7
100
AcDbCircle
 10
1684.8582497638
 20
190.5964848642
 30
0.0
 40
4.0
100
AcDbArc
 50
270.0
 51
90.0
  0
LINE
  5
524
330
1F
100
AcDbEntity
  8
0
  6
Continuous
 62
     7
100
AcDbLine
 10
1734.8582497638
 20
194.5964848642
 30
0.0
 11
1713.8582497638
 21
194.5964848642
 31
0.0
  0
ARC
  5
525
330
1F
100
AcDbEntity
  8
0
  6
Continuous
 62
     7
100
AcDbCircle
 10
1713.8582497638
 20
190.5964848642
 30
0.0
 40
4.000000000000028
100
AcDbArc
 50
90.0
 51
270.0
  0
LINE
  5
526
330
1F
100
AcDbEntity
  8
0
  6
Continuous
 62
     7
100
AcDbLine
 10
1713.8582497638
 20
186.5964848642
 30
0.0
 11
1734.8582497638
 21
186.5964848642
 31
0.0
  0
ARC
  5
527
330
1F
100
AcDbEntity
  8
0
  6
Continuous
 62
     7
100
AcDbCircle
 10
1734.8582497638
 20
190.5964848642
 30
0.0
 40
4.0
100
AcDbArc
 50
270.0
 51
90.0
  0
LINE
  5
528
330
1F
100
AcDbEntity
  8
0
  6
Continuous
 62
     7
100
AcDbLine
 10
1784.8582497638
 20
194.5964848642
 30
0.0
 11
1763.8582497638
 21
194.5964848642
 31
0.0
  0
ARC
  5
529
330
1F
100
AcDbEntity
  8
0
  6
Continuous
 62
     7
100
AcDbCircle
 10
1763.8582497638
 20
190.5964848642
 30
0.0
 40
4.000000000000028
100
AcDbArc
 50
90.0
 51
270.0
  0
LINE
  5
52A
330
1F
100
AcDbEntity
  8
0
  6
Continuous
 62
     7
100
AcDbLine
 10
1763.8582497638
 20
186.5964848642
 30
0.0
 11
1784.8582497638
 21
186.5964848642
 31
0.0
  0
ARC
  5
52B
330
1F
100
AcDbEntity
  8
0
  6
Continuous
 62
     7
100
AcDbCircle
 10
1784.8582497638
 20
190.5964848642
 30
0.0
 40
4.0
100
AcDbArc
 50
270.0
 51
90.0
  0
LINE
  5
52C
330
1F
100
AcDbEntity
  8
0
  6
Continuous
 62
     7
100
AcDbLine
 10
1834.8582497638
 20
194.5964848642
 30
0.0
 11
1813.8582497638
 21
194.5964848642
 31
0.0
  0
ARC
  5
52D
330
1F
100
AcDbEntity
  8
0
  6
Continuous
 62
     7
100
AcDbCircle
 10
1813.8582497638
 20
190.5964848642
 30
0.0
 40
4.000000000000028
100
AcDbArc
 50
90.0
 51
270.0
  0
LINE
  5
52E
330
1F
100
AcDbEntity
  8
0
  6
Continuous
 62
     7
100
AcDbLine
 10
1813.8582497638
 20
186.5964848642
 30
0.0
 11
1834.8582497638
 21
186.5964848642
 31
0.0
  0
ARC
  5
52F
330
1F
100
AcDbEntity
  8
0
  6
Continuous
 62
     7
100
AcDbCircle
 10
1834.8582497638
 20
190.5964848642
 30
0.0
 40
4.0
100
AcDbArc
 50
270.0
 51
90.0
  0
LINE
  5
530
330
1F
100
AcDbEntity
  8
0
  6
Continuous
 62
     7
100
AcDbLine
 10
1884.8582497638
 20
194.5964848642
 30
0.0
 11
1863.8582497638
 21
194.5964848642
 31
0.0
  0
ARC
  5
531
330
1F
100
AcDbEntity
  8
0
  6
Continuous
 62
     7
100
AcDbCircle
 10
1863.8582497638
 20
190.5964848642
 30
0.0
 40
4.000000000000028
100
AcDbArc
 50
90.0
 51
270.0
  0
LINE
  5
532
330
1F
100
AcDbEntity
  8
0
  6
Continuous
 62
     7
100
AcDbLine
 10
1863.8582497638
 20
186.5964848642
 30
0.0
 11
1884.8582497638
 21
186.5964848642
 31
0.0
  0
ARC
  5
533
330
1F
100
AcDbEntity
  8
0
  6
Continuous
 62
     7
100
AcDbCircle
 10
1884.8582497638
 20
190.5964848642
 30
0.0
 40
4.0
100
AcDbArc
 50
270.0
 51
90.0
  0
LINE
  5
534
330
1F
100
AcDbEntity
  8
0
  6
Continuous
 62
     7
100
AcDbLine
 10
1934.8582497638
 20
194.5964848642
 30
0.0
 11
1913.8582497638
 21
194.5964848642
 31
0.0
  0
ARC
  5
535
330
1F
100
AcDbEntity
  8
0
  6
Continuous
 62
     7
100
AcDbCircle
 10
1913.8582497638
 20
190.5964848642
 30
0.0
 40
4.0
100
AcDbArc
 50
90.0
 51
270.0
  0
LINE
  5
536
330
1F
100
AcDbEntity
  8
0
  6
Continuous
 62
     7
100
AcDbLine
 10
1913.8582497638
 20
186.5964848642
 30
0.0
 11
1934.8582497638
 21
186.5964848642
 31
0.0
  0
ARC
  5
537
330
1F
100
AcDbEntity
  8
0
  6
Continuous
 62
     7
100
AcDbCircle
 10
1934.8582497638
 20
190.5964848642
 30
0.0
 40
4.0
100
AcDbArc
 50
270.0
 51
90.0
  0
LINE
  5
538
330
1F
100
AcDbEntity
  8
0
  6
Continuous
 62
     7
100
AcDbLine
 10
1984.8582497638
 20
194.5964848642
 30
0.0
 11
1963.8582497638
 21
194.5964848642
 31
0.0
  0
ARC
  5
539
330
1F
100
AcDbEntity
  8
0
  6
Continuous
 62
     7
100
AcDbCircle
 10
1963.8582497638
 20
190.5964848642
 30
0.0
 40
4.000000000000028
100
AcDbArc
 50
90.0
 51
270.0
  0
LINE
  5
53A
330
1F
100
AcDbEntity
  8
0
  6
Continuous
 62
     7
100
AcDbLine
 10
1963.8582497638
 20
186.5964848642
 30
0.0
 11
1984.8582497638
 21
186.5964848642
 31
0.0
  0
ARC
  5
53B
330
1F
100
AcDbEntity
  8
0
  6
Continuous
 62
     7
100
AcDbCircle
 10
1984.8582497638
 20
190.5964848642
 30
0.0
 40
4.0
100
AcDbArc
 50
270.0
 51
90.0
  0
LINE
  5
53C
330
1F
100
AcDbEntity
  8
0
  6
Continuous
 62
     7
100
AcDbLine
 10
2034.8582497638
 20
194.5964848642
 30
0.0
 11
2013.8582497638
 21
194.5964848642
 31
0.0
  0
ARC
  5
53D
330
1F
100
AcDbEntity
  8
0
  6
Continuous
 62
     7
100
AcDbCircle
 10
2013.8582497638
 20
190.5964848642
 30
0.0
 40
4.000000000000057
100
AcDbArc
 50
90.0
 51
270.0
  0
LINE
  5
53E
330
1F
100
AcDbEntity
  8
0
  6
Continuous
 62
     7
100
AcDbLine
 10
2013.8582497638
 20
186.5964848642
 30
0.0
 11
2034.8582497638
 21
186.5964848642
 31
0.0
  0
ARC
  5
53F
330
1F
100
AcDbEntity
  8
0
  6
Continuous
 62
     7
100
AcDbCircle
 10
2034.8582497638
 20
190.5964848642
 30
0.0
 40
4.000000000000028
100
AcDbArc
 50
270.0
 51
90.0
  0
LINE
  5
540
330
1F
100
AcDbEntity
  8
0
  6
Continuous
 62
     7
100
AcDbLine
 10
2084.8582497638
 20
194.5964848642
 30
0.0
 11
2063.8582497638
 21
194.5964848642
 31
0.0
  0
ARC
  5
541
330
1F
100
AcDbEntity
  8
0
  6
Continuous
 62
     7
100
AcDbCircle
 10
2063.8582497638
 20
190.5964848642
 30
0.0
 40
4.000000000000028
100
AcDbArc
 50
90.0
 51
270.0
  0
LINE
  5
542
330
1F
100
AcDbEntity
  8
0
  6
Continuous
 62
     7
100
AcDbLine
 10
2063.8582497638
 20
186.5964848642
 30
0.0
 11
2084.8582497638
 21
186.5964848642
 31
0.0
  0
ARC
  5
543
330
1F
100
AcDbEntity
  8
0
  6
Continuous
 62
     7
100
AcDbCircle
 10
2084.8582497638
 20
190.5964848642
 30
0.0
 40
4.0
100
AcDbArc
 50
270.0
 51
90.0
  0
LINE
  5
544
330
1F
100
AcDbEntity
  8
0
  6
Continuous
 62
     7
100
AcDbLine
 10
2134.8582497638
 20
194.5964848642
 30
0.0
 11
2113.8582497638
 21
194.5964848642
 31
0.0
  0
ARC
  5
545
330
1F
100
AcDbEntity
  8
0
  6
Continuous
 62
     7
100
AcDbCircle
 10
2113.8582497638
 20
190.5964848642
 30
0.0
 40
4.0
100
AcDbArc
 50
90.0
 51
270.0
  0
LINE
  5
546
330
1F
100
AcDbEntity
  8
0
  6
Continuous
 62
     7
100
AcDbLine
 10
2113.8582497638
 20
186.5964848642
 30
0.0
 11
2134.8582497638
 21
186.5964848642
 31
0.0
  0
ARC
  5
547
330
1F
100
AcDbEntity
  8
0
  6
Continuous
 62
     7
100
AcDbCircle
 10
2134.8582497638
 20
190.5964848642
 30
0.0
 40
4.0
100
AcDbArc
 50
270.0
 51
90.0
  0
LINE
  5
548
330
1F
100
AcDbEntity
  8
0
  6
Continuous
 62
     7
100
AcDbLine
 10
2184.8582497638
 20
194.5964848642
 30
0.0
 11
2163.8582497638
 21
194.5964848642
 31
0.0
  0
ARC
  5
549
330
1F
100
AcDbEntity
  8
0
  6
Continuous
 62
     7
100
AcDbCircle
 10
2163.8582497638
 20
190.5964848642
 30
0.0
 40
4.0
100
AcDbArc
 50
90.0
 51
270.0
  0
LINE
  5
54A
330
1F
100
AcDbEntity
  8
0
  6
Continuous
 62
     7
100
AcDbLine
 10
2163.8582497638
 20
186.5964848642
 30
0.0
 11
2184.8582497638
 21
186.5964848642
 31
0.0
  0
ARC
  5
54B
330
1F
100
AcDbEntity
  8
0
  6
Continuous
 62
     7
100
AcDbCircle
 10
2184.8582497638
 20
190.5964848642
 30
0.0
 40
4.0
100
AcDbArc
 50
270.0
 51
90.0
  0
LINE
  5
54C
330
1F
100
AcDbEntity
  8
0
  6
Continuous
 62
     7
100
AcDbLine
 10
2234.8582497638
 20
194.5964848642
 30
0.0
 11
2213.8582497638
 21
194.5964848642
 31
0.0
  0
ARC
  5
54D
330
1F
100
AcDbEntity
  8
0
  6
Continuous
 62
     7
100
AcDbCircle
 10
2213.8582497638
 20
190.5964848642
 30
0.0
 40
4.000000000000028
100
AcDbArc
 50
90.0
 51
270.0
  0
LINE
  5
54E
330
1F
100
AcDbEntity
  8
0
  6
Continuous
 62
     7
100
AcDbLine
 10
2213.8582497638
 20
186.5964848642
 30
0.0
 11
2234.8582497638
 21
186.5964848642
 31
0.0
  0
ARC
  5
54F
330
1F
100
AcDbEntity
  8
0
  6
Continuous
 62
     7
100
AcDbCircle
 10
2234.8582497638
 20
190.5964848642
 30
0.0
 40
4.0
100
AcDbArc
 50
270.0
 51
90.0
  0
LINE
  5
550
330
1F
100
AcDbEntity
  8
0
  6
Continuous
 62
     7
100
AcDbLine
 10
2284.8582497638
 20
194.5964848642
 30
0.0
 11
2263.8582497638
 21
194.5964848642
 31
0.0
  0
ARC
  5
551
330
1F
100
AcDbEntity
  8
0
  6
Continuous
 62
     7
100
AcDbCircle
 10
2263.8582497638
 20
190.5964848642
 30
0.0
 40
4.000000000000028
100
AcDbArc
 50
90.0
 51
270.0
  0
LINE
  5
552
330
1F
100
AcDbEntity
  8
0
  6
Continuous
 62
     7
100
AcDbLine
 10
2263.8582497638
 20
186.5964848642
 30
0.0
 11
2284.8582497638
 21
186.5964848642
 31
0.0
  0
ARC
  5
553
330
1F
100
AcDbEntity
  8
0
  6
Continuous
 62
     7
100
AcDbCircle
 10
2284.8582497638
 20
190.5964848642
 30
0.0
 40
4.0
100
AcDbArc
 50
270.0
 51
90.0
  0
LINE
  5
554
330
1F
100
AcDbEntity
  8
0
  6
Continuous
 62
     7
100
AcDbLine
 10
2334.8582497638
 20
194.5964848642
 30
0.0
 11
2313.8582497638
 21
194.5964848642
 31
0.0
  0
ARC
  5
555
330
1F
100
AcDbEntity
  8
0
  6
Continuous
 62
     7
100
AcDbCircle
 10
2313.8582497638
 20
190.5964848642
 30
0.0
 40
4.000000000000028
100
AcDbArc
 50
90.0
 51
270.0
  0
LINE
  5
556
330
1F
100
AcDbEntity
  8
0
  6
Continuous
 62
     7
100
AcDbLine
 10
2313.8582497638
 20
186.5964848642
 30
0.0
 11
2334.8582497638
 21
186.5964848642
 31
0.0
  0
ARC
  5
557
330
1F
100
AcDbEntity
  8
0
  6
Continuous
 62
     7
100
AcDbCircle
 10
2334.8582497638
 20
190.5964848642
 30
0.0
 40
4.0
100
AcDbArc
 50
270.0
 51
90.0
  0
LINE
  5
558
330
1F
100
AcDbEntity
  8
0
  6
Continuous
 62
     7
100
AcDbLine
 10
2384.8582497638
 20
194.5964848642
 30
0.0
 11
2363.8582497638
 21
194.5964848642
 31
0.0
  0
ARC
  5
559
330
1F
100
AcDbEntity
  8
0
  6
Continuous
 62
     7
100
AcDbCircle
 10
2363.8582497638
 20
190.5964848642
 30
0.0
 40
4.000000000000028
100
AcDbArc
 50
90.0
 51
270.0
  0
LINE
  5
55A
330
1F
100
AcDbEntity
  8
0
  6
Continuous
 62
     7
100
AcDbLine
 10
2363.8582497638
 20
186.5964848642
 30
0.0
 11
2384.8582497638
 21
186.5964848642
 31
0.0
  0
ARC
  5
55B
330
1F
100
AcDbEntity
  8
0
  6
Continuous
 62
     7
100
AcDbCircle
 10
2384.8582497638
 20
190.5964848642
 30
0.0
 40
4.000000000000028
100
AcDbArc
 50
270.0
 51
90.0
  0
LINE
  5
55C
330
1F
100
AcDbEntity
  8
0
  6
Continuous
 62
     7
100
AcDbLine
 10
2434.8582497638
 20
194.5964848642
 30
0.0
 11
2413.8582497638
 21
194.5964848642
 31
0.0
  0
ARC
  5
55D
330
1F
100
AcDbEntity
  8
0
  6
Continuous
 62
     7
100
AcDbCircle
 10
2413.8582497638
 20
190.5964848642
 30
0.0
 40
4.000000000000028
100
AcDbArc
 50
90.0
 51
270.0
  0
LINE
  5
55E
330
1F
100
AcDbEntity
  8
0
  6
Continuous
 62
     7
100
AcDbLine
 10
2413.8582497638
 20
186.5964848642
 30
0.0
 11
2434.8582497638
 21
186.5964848642
 31
0.0
  0
ARC
  5
55F
330
1F
100
AcDbEntity
  8
0
  6
Continuous
 62
     7
100
AcDbCircle
 10
2434.8582497638
 20
190.5964848642
 30
0.0
 40
4.0
100
AcDbArc
 50
270.0
 51
90.0
  0
LINE
  5
560
330
1F
100
AcDbEntity
  8
0
  6
Continuous
 62
     7
100
AcDbLine
 10
1634.8582497638
 20
159.0964848642
 30
0.0
 11
1613.8582497638
 21
159.0964848642
 31
0.0
  0
ARC
  5
561
330
1F
100
AcDbEntity
  8
0
  6
Continuous
 62
     7
100
AcDbCircle
 10
1613.8582497638
 20
155.0964848642
 30
0.0
 40
4.000000000000028
100
AcDbArc
 50
90.0
 51
270.0
  0
LINE
  5
562
330
1F
100
AcDbEntity
  8
0
  6
Continuous
 62
     7
100
AcDbLine
 10
1613.8582497638
 20
151.0964848642
 30
0.0
 11
1634.8582497638
 21
151.0964848642
 31
0.0
  0
ARC
  5
563
330
1F
100
AcDbEntity
  8
0
  6
Continuous
 62
     7
100
AcDbCircle
 10
1634.8582497638
 20
155.0964848642
 30
0.0
 40
4.0
100
AcDbArc
 50
270.0
 51
90.0
  0
LINE
  5
564
330
1F
100
AcDbEntity
  8
0
  6
Continuous
 62
     7
100
AcDbLine
 10
1684.8582497638
 20
159.0964848642
 30
0.0
 11
1663.8582497638
 21
159.0964848642
 31
0.0
  0
ARC
  5
565
330
1F
100
AcDbEntity
  8
0
  6
Continuous
 62
     7
100
AcDbCircle
 10
1663.8582497638
 20
155.0964848642
 30
0.0
 40
4.000000000000028
100
AcDbArc
 50
90.0
 51
270.0
  0
LINE
  5
566
330
1F
100
AcDbEntity
  8
0
  6
Continuous
 62
     7
100
AcDbLine
 10
1663.8582497638
 20
151.0964848642
 30
0.0
 11
1684.8582497638
 21
151.0964848642
 31
0.0
  0
ARC
  5
567
330
1F
100
AcDbEntity
  8
0
  6
Continuous
 62
     7
100
AcDbCircle
 10
1684.8582497638
 20
155.0964848642
 30
0.0
 40
4.0
100
AcDbArc
 50
270.0
 51
90.0
  0
LINE
  5
568
330
1F
100
AcDbEntity
  8
0
  6
Continuous
 62
     7
100
AcDbLine
 10
1734.8582497638
 20
159.0964848642
 30
0.0
 11
1713.8582497638
 21
159.0964848642
 31
0.0
  0
ARC
  5
569
330
1F
100
AcDbEntity
  8
0
  6
Continuous
 62
     7
100
AcDbCircle
 10
1713.8582497638
 20
155.0964848642
 30
0.0
 40
4.000000000000028
100
AcDbArc
 50
90.0
 51
270.0
  0
LINE
  5
56A
330
1F
100
AcDbEntity
  8
0
  6
Continuous
 62
     7
100
AcDbLine
 10
1713.8582497638
 20
151.0964848642
 30
0.0
 11
1734.8582497638
 21
151.0964848642
 31
0.0
  0
ARC
  5
56B
330
1F
100
AcDbEntity
  8
0
  6
Continuous
 62
     7
100
AcDbCircle
 10
1734.8582497638
 20
155.0964848642
 30
0.0
 40
4.0
100
AcDbArc
 50
270.0
 51
90.0
  0
LINE
  5
56C
330
1F
100
AcDbEntity
  8
0
  6
Continuous
 62
     7
100
AcDbLine
 10
1784.8582497638
 20
159.0964848642
 30
0.0
 11
1763.8582497638
 21
159.0964848642
 31
0.0
  0
ARC
  5
56D
330
1F
100
AcDbEntity
  8
0
  6
Continuous
 62
     7
100
AcDbCircle
 10
1763.8582497638
 20
155.0964848642
 30
0.0
 40
4.000000000000028
100
AcDbArc
 50
90.0
 51
270.0
  0
LINE
  5
56E
330
1F
100
AcDbEntity
  8
0
  6
Continuous
 62
     7
100
AcDbLine
 10
1763.8582497638
 20
151.0964848642
 30
0.0
 11
1784.8582497638
 21
151.0964848642
 31
0.0
  0
ARC
  5
56F
330
1F
100
AcDbEntity
  8
0
  6
Continuous
 62
     7
100
AcDbCircle
 10
1784.8582497638
 20
155.0964848642
 30
0.0
 40
4.0
100
AcDbArc
 50
270.0
 51
90.0
  0
LINE
  5
570
330
1F
100
AcDbEntity
  8
0
  6
Continuous
 62
     7
100
AcDbLine
 10
1834.8582497638
 20
159.0964848642
 30
0.0
 11
1813.8582497638
 21
159.0964848642
 31
0.0
  0
ARC
  5
571
330
1F
100
AcDbEntity
  8
0
  6
Continuous
 62
     7
100
AcDbCircle
 10
1813.8582497638
 20
155.0964848642
 30
0.0
 40
4.000000000000028
100
AcDbArc
 50
90.0
 51
270.0
  0
LINE
  5
572
330
1F
100
AcDbEntity
  8
0
  6
Continuous
 62
     7
100
AcDbLine
 10
1813.8582497638
 20
151.0964848642
 30
0.0
 11
1834.8582497638
 21
151.0964848642
 31
0.0
  0
ARC
  5
573
330
1F
100
AcDbEntity
  8
0
  6
Continuous
 62
     7
100
AcDbCircle
 10
1834.8582497638
 20
155.0964848642
 30
0.0
 40
4.0
100
AcDbArc
 50
270.0
 51
90.0
  0
LINE
  5
574
330
1F
100
AcDbEntity
  8
0
  6
Continuous
 62
     7
100
AcDbLine
 10
1884.8582497638
 20
159.0964848642
 30
0.0
 11
1863.8582497638
 21
159.0964848642
 31
0.0
  0
ARC
  5
575
330
1F
100
AcDbEntity
  8
0
  6
Continuous
 62
     7
100
AcDbCircle
 10
1863.8582497638
 20
155.0964848642
 30
0.0
 40
4.000000000000028
100
AcDbArc
 50
90.0
 51
270.0
  0
LINE
  5
576
330
1F
100
AcDbEntity
  8
0
  6
Continuous
 62
     7
100
AcDbLine
 10
1863.8582497638
 20
151.0964848642
 30
0.0
 11
1884.8582497638
 21
151.0964848642
 31
0.0
  0
ARC
  5
577
330
1F
100
AcDbEntity
  8
0
  6
Continuous
 62
     7
100
AcDbCircle
 10
1884.8582497638
 20
155.0964848642
 30
0.0
 40
4.0
100
AcDbArc
 50
270.0
 51
90.0
  0
LINE
  5
578
330
1F
100
AcDbEntity
  8
0
  6
Continuous
 62
     7
100
AcDbLine
 10
1934.8582497638
 20
159.0964848642
 30
0.0
 11
1913.8582497638
 21
159.0964848642
 31
0.0
  0
ARC
  5
579
330
1F
100
AcDbEntity
  8
0
  6
Continuous
 62
     7
100
AcDbCircle
 10
1913.8582497638
 20
155.0964848642
 30
0.0
 40
4.000000000000028
100
AcDbArc
 50
90.0
 51
270.0
  0
LINE
  5
57A
330
1F
100
AcDbEntity
  8
0
  6
Continuous
 62
     7
100
AcDbLine
 10
1913.8582497638
 20
151.0964848642
 30
0.0
 11
1934.8582497638
 21
151.0964848642
 31
0.0
  0
ARC
  5
57B
330
1F
100
AcDbEntity
  8
0
  6
Continuous
 62
     7
100
AcDbCircle
 10
1934.8582497638
 20
155.0964848642
 30
0.0
 40
4.0
100
AcDbArc
 50
270.0
 51
90.0
  0
LINE
  5
57C
330
1F
100
AcDbEntity
  8
0
  6
Continuous
 62
     7
100
AcDbLine
 10
1984.8582497638
 20
159.0964848642
 30
0.0
 11
1963.8582497638
 21
159.0964848642
 31
0.0
  0
ARC
  5
57D
330
1F
100
AcDbEntity
  8
0
  6
Continuous
 62
     7
100
AcDbCircle
 10
1963.8582497638
 20
155.0964848642
 30
0.0
 40
4.000000000000028
100
AcDbArc
 50
90.0
 51
270.0
  0
LINE
  5
57E
330
1F
100
AcDbEntity
  8
0
  6
Continuous
 62
     7
100
AcDbLine
 10
1963.8582497638
 20
151.0964848642
 30
0.0
 11
1984.8582497638
 21
151.0964848642
 31
0.0
  0
ARC
  5
57F
330
1F
100
AcDbEntity
  8
0
  6
Continuous
 62
     7
100
AcDbCircle
 10
1984.8582497638
 20
155.0964848642
 30
0.0
 40
4.0
100
AcDbArc
 50
270.0
 51
90.0
  0
LINE
  5
580
330
1F
100
AcDbEntity
  8
0
  6
Continuous
 62
     7
100
AcDbLine
 10
2034.8582497638
 20
159.0964848642
 30
0.0
 11
2013.8582497638
 21
159.0964848642
 31
0.0
  0
ARC
  5
581
330
1F
100
AcDbEntity
  8
0
  6
Continuous
 62
     7
100
AcDbCircle
 10
2013.8582497638
 20
155.0964848642
 30
0.0
 40
4.000000000000028
100
AcDbArc
 50
90.0
 51
270.0
  0
LINE
  5
582
330
1F
100
AcDbEntity
  8
0
  6
Continuous
 62
     7
100
AcDbLine
 10
2013.8582497638
 20
151.0964848642
 30
0.0
 11
2034.8582497638
 21
151.0964848642
 31
0.0
  0
ARC
  5
583
330
1F
100
AcDbEntity
  8
0
  6
Continuous
 62
     7
100
AcDbCircle
 10
2034.8582497638
 20
155.0964848642
 30
0.0
 40
4.0
100
AcDbArc
 50
270.0
 51
90.0
  0
LINE
  5
584
330
1F
100
AcDbEntity
  8
0
  6
Continuous
 62
     7
100
AcDbLine
 10
2084.8582497638
 20
159.0964848642
 30
0.0
 11
2063.8582497638
 21
159.0964848642
 31
0.0
  0
ARC
  5
585
330
1F
100
AcDbEntity
  8
0
  6
Continuous
 62
     7
100
AcDbCircle
 10
2063.8582497638
 20
155.0964848642
 30
0.0
 40
4.000000000000057
100
AcDbArc
 50
90.0
 51
270.0
  0
LINE
  5
586
330
1F
100
AcDbEntity
  8
0
  6
Continuous
 62
     7
100
AcDbLine
 10
2063.8582497638
 20
151.0964848642
 30
0.0
 11
2084.8582497638
 21
151.0964848642
 31
0.0
  0
ARC
  5
587
330
1F
100
AcDbEntity
  8
0
  6
Continuous
 62
     7
100
AcDbCircle
 10
2084.8582497638
 20
155.0964848642
 30
0.0
 40
4.000000000000028
100
AcDbArc
 50
270.0
 51
90.0
  0
LINE
  5
588
330
1F
100
AcDbEntity
  8
0
  6
Continuous
 62
     7
100
AcDbLine
 10
2134.8582497638
 20
159.0964848642
 30
0.0
 11
2113.8582497638
 21
159.0964848642
 31
0.0
  0
ARC
  5
589
330
1F
100
AcDbEntity
  8
0
  6
Continuous
 62
     7
100
AcDbCircle
 10
2113.8582497638
 20
155.0964848642
 30
0.0
 40
4.000000000000028
100
AcDbArc
 50
90.0
 51
270.0
  0
LINE
  5
58A
330
1F
100
AcDbEntity
  8
0
  6
Continuous
 62
     7
100
AcDbLine
 10
2113.8582497638
 20
151.0964848642
 30
0.0
 11
2134.8582497638
 21
151.0964848642
 31
0.0
  0
ARC
  5
58B
330
1F
100
AcDbEntity
  8
0
  6
Continuous
 62
     7
100
AcDbCircle
 10
2134.8582497638
 20
155.0964848642
 30
0.0
 40
4.0
100
AcDbArc
 50
270.0
 51
90.0
  0
LINE
  5
58C
330
1F
100
AcDbEntity
  8
0
  6
Continuous
 62
     7
100
AcDbLine
 10
2184.8582497638
 20
159.0964848642
 30
0.0
 11
2163.8582497638
 21
159.0964848642
 31
0.0
  0
ARC
  5
58D
330
1F
100
AcDbEntity
  8
0
  6
Continuous
 62
     7
100
AcDbCircle
 10
2163.8582497638
 20
155.0964848642
 30
0.0
 40
4.000000000000028
100
AcDbArc
 50
90.0
 51
270.0
  0
LINE
  5
58E
330
1F
100
AcDbEntity
  8
0
  6
Continuous
 62
     7
100
AcDbLine
 10
2163.8582497638
 20
151.0964848642
 30
0.0
 11
2184.8582497638
 21
151.0964848642
 31
0.0
  0
ARC
  5
58F
330
1F
100
AcDbEntity
  8
0
  6
Continuous
 62
     7
100
AcDbCircle
 10
2184.8582497638
 20
155.0964848642
 30
0.0
 40
4.0
100
AcDbArc
 50
270.0
 51
90.0
  0
LINE
  5
590
330
1F
100
AcDbEntity
  8
0
  6
Continuous
 62
     7
100
AcDbLine
 10
2234.8582497638
 20
159.0964848642
 30
0.0
 11
2213.8582497638
 21
159.0964848642
 31
0.0
  0
ARC
  5
591
330
1F
100
AcDbEntity
  8
0
  6
Continuous
 62
     7
100
AcDbCircle
 10
2213.8582497638
 20
155.0964848642
 30
0.0
 40
4.000000000000028
100
AcDbArc
 50
90.0
 51
270.0
  0
LINE
  5
592
330
1F
100
AcDbEntity
  8
0
  6
Continuous
 62
     7
100
AcDbLine
 10
2213.8582497638
 20
151.0964848642
 30
0.0
 11
2234.8582497638
 21
151.0964848642
 31
0.0
  0
ARC
  5
593
330
1F
100
AcDbEntity
  8
0
  6
Continuous
 62
     7
100
AcDbCircle
 10
2234.8582497638
 20
155.0964848642
 30
0.0
 40
4.0
100
AcDbArc
 50
270.0
 51
90.0
  0
LINE
  5
594
330
1F
100
AcDbEntity
  8
0
  6
Continuous
 62
     7
100
AcDbLine
 10
2284.8582497638
 20
159.0964848642
 30
0.0
 11
2263.8582497638
 21
159.0964848642
 31
0.0
  0
ARC
  5
595
330
1F
100
AcDbEntity
  8
0
  6
Continuous
 62
     7
100
AcDbCircle
 10
2263.8582497638
 20
155.0964848642
 30
0.0
 40
4.000000000000028
100
AcDbArc
 50
90.0
 51
270.0
  0
LINE
  5
596
330
1F
100
AcDbEntity
  8
0
  6
Continuous
 62
     7
100
AcDbLine
 10
2263.8582497638
 20
151.0964848642
 30
0.0
 11
2284.8582497638
 21
151.0964848642
 31
0.0
  0
ARC
  5
597
330
1F
100
AcDbEntity
  8
0
  6
Continuous
 62
     7
100
AcDbCircle
 10
2284.8582497638
 20
155.0964848642
 30
0.0
 40
4.0
100
AcDbArc
 50
270.0
 51
90.0
  0
LINE
  5
598
330
1F
100
AcDbEntity
  8
0
  6
Continuous
 62
     7
100
AcDbLine
 10
2334.8582497638
 20
159.0964848642
 30
0.0
 11
2313.8582497638
 21
159.0964848642
 31
0.0
  0
ARC
  5
599
330
1F
100
AcDbEntity
  8
0
  6
Continuous
 62
     7
100
AcDbCircle
 10
2313.8582497638
 20
155.0964848642
 30
0.0
 40
4.000000000000028
100
AcDbArc
 50
90.0
 51
270.0
  0
LINE
  5
59A
330
1F
100
AcDbEntity
  8
0
  6
Continuous
 62
     7
100
AcDbLine
 10
2313.8582497638
 20
151.0964848642
 30
0.0
 11
2334.8582497638
 21
151.0964848642
 31
0.0
  0
ARC
  5
59B
330
1F
100
AcDbEntity
  8
0
  6
Continuous
 62
     7
100
AcDbCircle
 10
2334.8582497638
 20
155.0964848642
 30
0.0
 40
4.0
100
AcDbArc
 50
270.0
 51
90.0
  0
LINE
  5
59C
330
1F
100
AcDbEntity
  8
0
  6
Continuous
 62
     7
100
AcDbLine
 10
2384.8582497638
 20
159.0964848642
 30
0.0
 11
2363.8582497638
 21
159.0964848642
 31
0.0
  0
ARC
  5
59D
330
1F
100
AcDbEntity
  8
0
  6
Continuous
 62
     7
100
AcDbCircle
 10
2363.8582497638
 20
155.0964848642
 30
0.0
 40
4.000000000000057
100
AcDbArc
 50
90.0
 51
270.0
  0
LINE
  5
59E
330
1F
100
AcDbEntity
  8
0
  6
Continuous
 62
     7
100
AcDbLine
 10
2363.8582497638
 20
151.0964848642
 30
0.0
 11
2384.8582497638
 21
151.0964848642
 31
0.0
  0
ARC
  5
59F
330
1F
100
AcDbEntity
  8
0
  6
Continuous
 62
     7
100
AcDbCircle
 10
2384.8582497638
 20
155.0964848642
 30
0.0
 40
4.0
100
AcDbArc
 50
270.0
 51
90.0
  0
LINE
  5
5A0
330
1F
100
AcDbEntity
  8
0
  6
Continuous
 62
     7
100
AcDbLine
 10
2434.8582497638
 20
159.0964848642
 30
0.0
 11
2413.8582497638
 21
159.0964848642
 31
0.0
  0
ARC
  5
5A1
330
1F
100
AcDbEntity
  8
0
  6
Continuous
 62
     7
100
AcDbCircle
 10
2413.8582497638
 20
155.0964848642
 30
0.0
 40
4.000000000000028
100
AcDbArc
 50
90.0
 51
270.0
  0
LINE
  5
5A2
330
1F
100
AcDbEntity
  8
0
  6
Continuous
 62
     7
100
AcDbLine
 10
2413.8582497638
 20
151.0964848642
 30
0.0
 11
2434.8582497638
 21
151.0964848642
 31
0.0
  0
ARC
  5
5A3
330
1F
100
AcDbEntity
  8
0
  6
Continuous
 62
     7
100
AcDbCircle
 10
2434.8582497638
 20
155.0964848642
 30
0.0
 40
4.0
100
AcDbArc
 50
270.0
 51
90.0
  0
LINE
  5
5A4
330
1F
100
AcDbEntity
  8
0
  6
Continuous
 62
     7
100
AcDbLine
 10
1634.8582497638
 20
123.5964848642
 30
0.0
 11
1613.8582497638
 21
123.5964848642
 31
0.0
  0
ARC
  5
5A5
330
1F
100
AcDbEntity
  8
0
  6
Continuous
 62
     7
100
AcDbCircle
 10
1613.8582497638
 20
119.5964848642
 30
0.0
 40
4.000000000000028
100
AcDbArc
 50
90.0
 51
270.0
  0
LINE
  5
5A6
330
1F
100
AcDbEntity
  8
0
  6
Continuous
 62
     7
100
AcDbLine
 10
1613.8582497638
 20
115.5964848642
 30
0.0
 11
1634.8582497638
 21
115.5964848642
 31
0.0
  0
ARC
  5
5A7
330
1F
100
AcDbEntity
  8
0
  6
Continuous
 62
     7
100
AcDbCircle
 10
1634.8582497638
 20
119.5964848642
 30
0.0
 40
4.0
100
AcDbArc
 50
270.0
 51
90.0
  0
LINE
  5
5A8
330
1F
100
AcDbEntity
  8
0
  6
Continuous
 62
     7
100
AcDbLine
 10
1684.8582497638
 20
123.5964848642
 30
0.0
 11
1663.8582497638
 21
123.5964848642
 31
0.0
  0
ARC
  5
5A9
330
1F
100
AcDbEntity
  8
0
  6
Continuous
 62
     7
100
AcDbCircle
 10
1663.8582497638
 20
119.5964848642
 30
0.0
 40
4.000000000000057
100
AcDbArc
 50
90.0
 51
270.0
  0
LINE
  5
5AA
330
1F
100
AcDbEntity
  8
0
  6
Continuous
 62
     7
100
AcDbLine
 10
1663.8582497638
 20
115.5964848642
 30
0.0
 11
1684.8582497638
 21
115.5964848642
 31
0.0
  0
ARC
  5
5AB
330
1F
100
AcDbEntity
  8
0
  6
Continuous
 62
     7
100
AcDbCircle
 10
1684.8582497638
 20
119.5964848642
 30
0.0
 40
4.0
100
AcDbArc
 50
270.0
 51
90.0
  0
LINE
  5
5AC
330
1F
100
AcDbEntity
  8
0
  6
Continuous
 62
     7
100
AcDbLine
 10
1734.8582497638
 20
123.5964848642
 30
0.0
 11
1713.8582497638
 21
123.5964848642
 31
0.0
  0
ARC
  5
5AD
330
1F
100
AcDbEntity
  8
0
  6
Continuous
 62
     7
100
AcDbCircle
 10
1713.8582497638
 20
119.5964848642
 30
0.0
 40
4.000000000000043
100
AcDbArc
 50
90.0
 51
270.0
  0
LINE
  5
5AE
330
1F
100
AcDbEntity
  8
0
  6
Continuous
 62
     7
100
AcDbLine
 10
1713.8582497638
 20
115.5964848642
 30
0.0
 11
1734.8582497638
 21
115.5964848642
 31
0.0
  0
ARC
  5
5AF
330
1F
100
AcDbEntity
  8
0
  6
Continuous
 62
     7
100
AcDbCircle
 10
1734.8582497638
 20
119.5964848642
 30
0.0
 40
4.000000000000014
100
AcDbArc
 50
270.0
 51
90.0
  0
LINE
  5
5B0
330
1F
100
AcDbEntity
  8
0
  6
Continuous
 62
     7
100
AcDbLine
 10
1784.8582497638
 20
123.5964848642
 30
0.0
 11
1763.8582497638
 21
123.5964848642
 31
0.0
  0
ARC
  5
5B1
330
1F
100
AcDbEntity
  8
0
  6
Continuous
 62
     7
100
AcDbCircle
 10
1763.8582497638
 20
119.5964848642
 30
0.0
 40
4.000000000000028
100
AcDbArc
 50
90.0
 51
270.0
  0
LINE
  5
5B2
330
1F
100
AcDbEntity
  8
0
  6
Continuous
 62
     7
100
AcDbLine
 10
1763.8582497638
 20
115.5964848642
 30
0.0
 11
1784.8582497638
 21
115.5964848642
 31
0.0
  0
ARC
  5
5B3
330
1F
100
AcDbEntity
  8
0
  6
Continuous
 62
     7
100
AcDbCircle
 10
1784.8582497638
 20
119.5964848642
 30
0.0
 40
4.0
100
AcDbArc
 50
270.0
 51
90.0
  0
LINE
  5
5B4
330
1F
100
AcDbEntity
  8
0
  6
Continuous
 62
     7
100
AcDbLine
 10
1834.8582497638
 20
123.5964848642
 30
0.0
 11
1813.8582497638
 21
123.5964848642
 31
0.0
  0
ARC
  5
5B5
330
1F
100
AcDbEntity
  8
0
  6
Continuous
 62
     7
100
AcDbCircle
 10
1813.8582497638
 20
119.5964848642
 30
0.0
 40
4.000000000000014
100
AcDbArc
 50
90.0
 51
270.0
  0
LINE
  5
5B6
330
1F
100
AcDbEntity
  8
0
  6
Continuous
 62
     7
100
AcDbLine
 10
1813.8582497638
 20
115.5964848642
 30
0.0
 11
1834.8582497638
 21
115.5964848642
 31
0.0
  0
ARC
  5
5B7
330
1F
100
AcDbEntity
  8
0
  6
Continuous
 62
     7
100
AcDbCircle
 10
1834.8582497638
 20
119.5964848642
 30
0.0
 40
4.0
100
AcDbArc
 50
270.0
 51
90.0
  0
LINE
  5
5B8
330
1F
100
AcDbEntity
  8
0
  6
Continuous
 62
     7
100
AcDbLine
 10
1884.8582497638
 20
123.5964848642
 30
0.0
 11
1863.8582497638
 21
123.5964848642
 31
0.0
  0
ARC
  5
5B9
330
1F
100
AcDbEntity
  8
0
  6
Continuous
 62
     7
100
AcDbCircle
 10
1863.8582497638
 20
119.5964848642
 30
0.0
 40
4.000000000000043
100
AcDbArc
 50
90.0
 51
270.0
  0
LINE
  5
5BA
330
1F
100
AcDbEntity
  8
0
  6
Continuous
 62
     7
100
AcDbLine
 10
1863.8582497638
 20
115.5964848642
 30
0.0
 11
1884.8582497638
 21
115.5964848642
 31
0.0
  0
ARC
  5
5BB
330
1F
100
AcDbEntity
  8
0
  6
Continuous
 62
     7
100
AcDbCircle
 10
1884.8582497638
 20
119.5964848642
 30
0.0
 40
4.000000000000014
100
AcDbArc
 50
270.0
 51
90.0
  0
LINE
  5
5BC
330
1F
100
AcDbEntity
  8
0
  6
Continuous
 62
     7
100
AcDbLine
 10
1934.8582497638
 20
123.5964848642
 30
0.0
 11
1913.8582497638
 21
123.5964848642
 31
0.0
  0
ARC
  5
5BD
330
1F
100
AcDbEntity
  8
0
  6
Continuous
 62
     7
100
AcDbCircle
 10
1913.8582497638
 20
119.5964848642
 30
0.0
 40
4.000000000000057
100
AcDbArc
 50
90.0
 51
270.0
  0
LINE
  5
5BE
330
1F
100
AcDbEntity
  8
0
  6
Continuous
 62
     7
100
AcDbLine
 10
1913.8582497638
 20
115.5964848642
 30
0.0
 11
1934.8582497638
 21
115.5964848642
 31
0.0
  0
ARC
  5
5BF
330
1F
100
AcDbEntity
  8
0
  6
Continuous
 62
     7
100
AcDbCircle
 10
1934.8582497638
 20
119.5964848642
 30
0.0
 40
4.0
100
AcDbArc
 50
270.0
 51
90.0
  0
LINE
  5
5C0
330
1F
100
AcDbEntity
  8
0
  6
Continuous
 62
     7
100
AcDbLine
 10
1984.8582497638
 20
123.5964848642
 30
0.0
 11
1963.8582497638
 21
123.5964848642
 31
0.0
  0
ARC
  5
5C1
330
1F
100
AcDbEntity
  8
0
  6
Continuous
 62
     7
100
AcDbCircle
 10
1963.8582497638
 20
119.5964848642
 30
0.0
 40
4.000000000000028
100
AcDbArc
 50
90.0
 51
270.0
  0
LINE
  5
5C2
330
1F
100
AcDbEntity
  8
0
  6
Continuous
 62
     7
100
AcDbLine
 10
1963.8582497638
 20
115.5964848642
 30
0.0
 11
1984.8582497638
 21
115.5964848642
 31
0.0
  0
ARC
  5
5C3
330
1F
100
AcDbEntity
  8
0
  6
Continuous
 62
     7
100
AcDbCircle
 10
1984.8582497638
 20
119.5964848642
 30
0.0
 40
4.0
100
AcDbArc
 50
270.0
 51
90.0
  0
LINE
  5
5C4
330
1F
100
AcDbEntity
  8
0
  6
Continuous
 62
     7
100
AcDbLine
 10
2034.8582497638
 20
123.5964848642
 30
0.0
 11
2013.8582497638
 21
123.5964848642
 31
0.0
  0
ARC
  5
5C5
330
1F
100
AcDbEntity
  8
0
  6
Continuous
 62
     7
100
AcDbCircle
 10
2013.8582497638
 20
119.5964848642
 30
0.0
 40
4.000000000000014
100
AcDbArc
 50
90.0
 51
270.0
  0
LINE
  5
5C6
330
1F
100
AcDbEntity
  8
0
  6
Continuous
 62
     7
100
AcDbLine
 10
2013.8582497638
 20
115.5964848642
 30
0.0
 11
2034.8582497638
 21
115.5964848642
 31
0.0
  0
ARC
  5
5C7
330
1F
100
AcDbEntity
  8
0
  6
Continuous
 62
     7
100
AcDbCircle
 10
2034.8582497638
 20
119.5964848642
 30
0.0
 40
4.0
100
AcDbArc
 50
270.0
 51
90.0
  0
LINE
  5
5C8
330
1F
100
AcDbEntity
  8
0
  6
Continuous
 62
     7
100
AcDbLine
 10
2084.8582497638
 20
123.5964848642
 30
0.0
 11
2063.8582497638
 21
123.5964848642
 31
0.0
  0
ARC
  5
5C9
330
1F
100
AcDbEntity
  8
0
  6
Continuous
 62
     7
100
AcDbCircle
 10
2063.8582497638
 20
119.5964848642
 30
0.0
 40
4.000000000000028
100
AcDbArc
 50
90.0
 51
270.0
  0
LINE
  5
5CA
330
1F
100
AcDbEntity
  8
0
  6
Continuous
 62
     7
100
AcDbLine
 10
2063.8582497638
 20
115.5964848642
 30
0.0
 11
2084.8582497638
 21
115.5964848642
 31
0.0
  0
ARC
  5
5CB
330
1F
100
AcDbEntity
  8
0
  6
Continuous
 62
     7
100
AcDbCircle
 10
2084.8582497638
 20
119.5964848642
 30
0.0
 40
4.0
100
AcDbArc
 50
270.0
 51
90.0
  0
LINE
  5
5CC
330
1F
100
AcDbEntity
  8
0
  6
Continuous
 62
     7
100
AcDbLine
 10
2134.8582497638
 20
123.5964848642
 30
0.0
 11
2113.8582497638
 21
123.5964848642
 31
0.0
  0
ARC
  5
5CD
330
1F
100
AcDbEntity
  8
0
  6
Continuous
 62
     7
100
AcDbCircle
 10
2113.8582497638
 20
119.5964848642
 30
0.0
 40
4.000000000000057
100
AcDbArc
 50
90.0
 51
270.0
  0
LINE
  5
5CE
330
1F
100
AcDbEntity
  8
0
  6
Continuous
 62
     7
100
AcDbLine
 10
2113.8582497638
 20
115.5964848642
 30
0.0
 11
2134.8582497638
 21
115.5964848642
 31
0.0
  0
ARC
  5
5CF
330
1F
100
AcDbEntity
  8
0
  6
Continuous
 62
     7
100
AcDbCircle
 10
2134.8582497638
 20
119.5964848642
 30
0.0
 40
4.0
100
AcDbArc
 50
270.0
 51
90.0
  0
LINE
  5
5D0
330
1F
100
AcDbEntity
  8
0
  6
Continuous
 62
     7
100
AcDbLine
 10
2184.8582497638
 20
123.5964848642
 30
0.0
 11
2163.8582497638
 21
123.5964848642
 31
0.0
  0
ARC
  5
5D1
330
1F
100
AcDbEntity
  8
0
  6
Continuous
 62
     7
100
AcDbCircle
 10
2163.8582497638
 20
119.5964848642
 30
0.0
 40
4.000000000000028
100
AcDbArc
 50
90.0
 51
270.0
  0
LINE
  5
5D2
330
1F
100
AcDbEntity
  8
0
  6
Continuous
 62
     7
100
AcDbLine
 10
2163.8582497638
 20
115.5964848642
 30
0.0
 11
2184.8582497638
 21
115.5964848642
 31
0.0
  0
ARC
  5
5D3
330
1F
100
AcDbEntity
  8
0
  6
Continuous
 62
     7
100
AcDbCircle
 10
2184.8582497638
 20
119.5964848642
 30
0.0
 40
4.0
100
AcDbArc
 50
270.0
 51
90.0
  0
LINE
  5
5D4
330
1F
100
AcDbEntity
  8
0
  6
Continuous
 62
     7
100
AcDbLine
 10
2234.8582497638
 20
123.5964848642
 30
0.0
 11
2213.8582497638
 21
123.5964848642
 31
0.0
  0
ARC
  5
5D5
330
1F
100
AcDbEntity
  8
0
  6
Continuous
 62
     7
100
AcDbCircle
 10
2213.8582497638
 20
119.5964848642
 30
0.0
 40
4.000000000000043
100
AcDbArc
 50
90.0
 51
270.0
  0
LINE
  5
5D6
330
1F
100
AcDbEntity
  8
0
  6
Continuous
 62
     7
100
AcDbLine
 10
2213.8582497638
 20
115.5964848642
 30
0.0
 11
2234.8582497638
 21
115.5964848642
 31
0.0
  0
ARC
  5
5D7
330
1F
100
AcDbEntity
  8
0
  6
Continuous
 62
     7
100
AcDbCircle
 10
2234.8582497638
 20
119.5964848642
 30
0.0
 40
4.000000000000014
100
AcDbArc
 50
270.0
 51
90.0
  0
LINE
  5
5D8
330
1F
100
AcDbEntity
  8
0
  6
Continuous
 62
     7
100
AcDbLine
 10
2284.8582497638
 20
123.5964848642
 30
0.0
 11
2263.8582497638
 21
123.5964848642
 31
0.0
  0
ARC
  5
5D9
330
1F
100
AcDbEntity
  8
0
  6
Continuous
 62
     7
100
AcDbCircle
 10
2263.8582497638
 20
119.5964848642
 30
0.0
 40
4.000000000000028
100
AcDbArc
 50
90.0
 51
270.0
  0
LINE
  5
5DA
330
1F
100
AcDbEntity
  8
0
  6
Continuous
 62
     7
100
AcDbLine
 10
2263.8582497638
 20
115.5964848642
 30
0.0
 11
2284.8582497638
 21
115.5964848642
 31
0.0
  0
ARC
  5
5DB
330
1F
100
AcDbEntity
  8
0
  6
Continuous
 62
     7
100
AcDbCircle
 10
2284.8582497638
 20
119.5964848642
 30
0.0
 40
4.0
100
AcDbArc
 50
270.0
 51
90.0
  0
LINE
  5
5DC
330
1F
100
AcDbEntity
  8
0
  6
Continuous
 62
     7
100
AcDbLine
 10
2334.8582497638
 20
123.5964848642
 30
0.0
 11
2313.8582497638
 21
123.5964848642
 31
0.0
  0
ARC
  5
5DD
330
1F
100
AcDbEntity
  8
0
  6
Continuous
 62
     7
100
AcDbCircle
 10
2313.8582497638
 20
119.5964848642
 30
0.0
 40
4.000000000000028
100
AcDbArc
 50
90.0
 51
270.0
  0
LINE
  5
5DE
330
1F
100
AcDbEntity
  8
0
  6
Continuous
 62
     7
100
AcDbLine
 10
2313.8582497638
 20
115.5964848642
 30
0.0
 11
2334.8582497638
 21
115.5964848642
 31
0.0
  0
ARC
  5
5DF
330
1F
100
AcDbEntity
  8
0
  6
Continuous
 62
     7
100
AcDbCircle
 10
2334.8582497638
 20
119.5964848642
 30
0.0
 40
4.0
100
AcDbArc
 50
270.0
 51
90.0
  0
LINE
  5
5E0
330
1F
100
AcDbEntity
  8
0
  6
Continuous
 62
     7
100
AcDbLine
 10
2384.8582497638
 20
123.5964848642
 30
0.0
 11
2363.8582497638
 21
123.5964848642
 31
0.0
  0
ARC
  5
5E1
330
1F
100
AcDbEntity
  8
0
  6
Continuous
 62
     7
100
AcDbCircle
 10
2363.8582497638
 20
119.5964848642
 30
0.0
 40
4.000000000000043
100
AcDbArc
 50
90.0
 51
270.0
  0
LINE
  5
5E2
330
1F
100
AcDbEntity
  8
0
  6
Continuous
 62
     7
100
AcDbLine
 10
2363.8582497638
 20
115.5964848642
 30
0.0
 11
2384.8582497638
 21
115.5964848642
 31
0.0
  0
ARC
  5
5E3
330
1F
100
AcDbEntity
  8
0
  6
Continuous
 62
     7
100
AcDbCircle
 10
2384.8582497638
 20
119.5964848642
 30
0.0
 40
4.000000000000014
100
AcDbArc
 50
270.0
 51
90.0
  0
LINE
  5
5E4
330
1F
100
AcDbEntity
  8
0
  6
Continuous
 62
     7
100
AcDbLine
 10
2434.8582497638
 20
123.5964848642
 30
0.0
 11
2413.8582497638
 21
123.5964848642
 31
0.0
  0
ARC
  5
5E5
330
1F
100
AcDbEntity
  8
0
  6
Continuous
 62
     7
100
AcDbCircle
 10
2413.8582497638
 20
119.5964848642
 30
0.0
 40
4.000000000000028
100
AcDbArc
 50
90.0
 51
270.0
  0
LINE
  5
5E6
330
1F
100
AcDbEntity
  8
0
  6
Continuous
 62
     7
100
AcDbLine
 10
2413.8582497638
 20
115.5964848642
 30
0.0
 11
2434.8582497638
 21
115.5964848642
 31
0.0
  0
ARC
  5
5E7
330
1F
100
AcDbEntity
  8
0
  6
Continuous
 62
     7
100
AcDbCircle
 10
2434.8582497638
 20
119.5964848642
 30
0.0
 40
4.0
100
AcDbArc
 50
270.0
 51
90.0
  0
LINE
  5
5E8
330
1F
100
AcDbEntity
  8
0
  6
Continuous
 62
     7
100
AcDbLine
 10
1634.8582497638
 20
88.0964848642
 30
0.0
 11
1613.8582497638
 21
88.0964848642
 31
0.0
  0
ARC
  5
5E9
330
1F
100
AcDbEntity
  8
0
  6
Continuous
 62
     7
100
AcDbCircle
 10
1613.8582497638
 20
84.0964848642
 30
0.0
 40
4.000000000000057
100
AcDbArc
 50
90.0
 51
270.0
  0
LINE
  5
5EA
330
1F
100
AcDbEntity
  8
0
  6
Continuous
 62
     7
100
AcDbLine
 10
1613.8582497638
 20
80.0964848642
 30
0.0
 11
1634.8582497638
 21
80.0964848642
 31
0.0
  0
ARC
  5
5EB
330
1F
100
AcDbEntity
  8
0
  6
Continuous
 62
     7
100
AcDbCircle
 10
1634.8582497638
 20
84.0964848642
 30
0.0
 40
4.0
100
AcDbArc
 50
270.0
 51
90.0
  0
LINE
  5
5EC
330
1F
100
AcDbEntity
  8
0
  6
Continuous
 62
     7
100
AcDbLine
 10
1684.8582497638
 20
88.0964848642
 30
0.0
 11
1663.8582497638
 21
88.0964848642
 31
0.0
  0
ARC
  5
5ED
330
1F
100
AcDbEntity
  8
0
  6
Continuous
 62
     7
100
AcDbCircle
 10
1663.8582497638
 20
84.0964848642
 30
0.0
 40
4.0
100
AcDbArc
 50
90.0
 51
270.0
  0
LINE
  5
5EE
330
1F
100
AcDbEntity
  8
0
  6
Continuous
 62
     7
100
AcDbLine
 10
1663.8582497638
 20
80.0964848642
 30
0.0
 11
1684.8582497638
 21
80.0964848642
 31
0.0
  0
ARC
  5
5EF
330
1F
100
AcDbEntity
  8
0
  6
Continuous
 62
     7
100
AcDbCircle
 10
1684.8582497638
 20
84.0964848642
 30
0.0
 40
4.0
100
AcDbArc
 50
270.0
 51
90.0
  0
LINE
  5
5F0
330
1F
100
AcDbEntity
  8
0
  6
Continuous
 62
     7
100
AcDbLine
 10
1734.8582497638
 20
88.0964848642
 30
0.0
 11
1713.8582497638
 21
88.0964848642
 31
0.0
  0
ARC
  5
5F1
330
1F
100
AcDbEntity
  8
0
  6
Continuous
 62
     7
100
AcDbCircle
 10
1713.8582497638
 20
84.0964848642
 30
0.0
 40
4.000000000000014
100
AcDbArc
 50
90.0
 51
270.0
  0
LINE
  5
5F2
330
1F
100
AcDbEntity
  8
0
  6
Continuous
 62
     7
100
AcDbLine
 10
1713.8582497638
 20
80.0964848642
 30
0.0
 11
1734.8582497638
 21
80.0964848642
 31
0.0
  0
ARC
  5
5F3
330
1F
100
AcDbEntity
  8
0
  6
Continuous
 62
     7
100
AcDbCircle
 10
1734.8582497638
 20
84.0964848642
 30
0.0
 40
4.0
100
AcDbArc
 50
270.0
 51
90.0
  0
LINE
  5
5F4
330
1F
100
AcDbEntity
  8
0
  6
Continuous
 62
     7
100
AcDbLine
 10
1784.8582497638
 20
88.0964848642
 30
0.0
 11
1763.8582497638
 21
88.0964848642
 31
0.0
  0
ARC
  5
5F5
330
1F
100
AcDbEntity
  8
0
  6
Continuous
 62
     7
100
AcDbCircle
 10
1763.8582497638
 20
84.0964848642
 30
0.0
 40
4.000000000000043
100
AcDbArc
 50
90.0
 51
270.0
  0
LINE
  5
5F6
330
1F
100
AcDbEntity
  8
0
  6
Continuous
 62
     7
100
AcDbLine
 10
1763.8582497638
 20
80.0964848642
 30
0.0
 11
1784.8582497638
 21
80.0964848642
 31
0.0
  0
ARC
  5
5F7
330
1F
100
AcDbEntity
  8
0
  6
Continuous
 62
     7
100
AcDbCircle
 10
1784.8582497638
 20
84.0964848642
 30
0.0
 40
4.000000000000014
100
AcDbArc
 50
270.0
 51
90.0
  0
LINE
  5
5F8
330
1F
100
AcDbEntity
  8
0
  6
Continuous
 62
     7
100
AcDbLine
 10
1834.8582497638
 20
88.0964848642
 30
0.0
 11
1813.8582497638
 21
88.0964848642
 31
0.0
  0
ARC
  5
5F9
330
1F
100
AcDbEntity
  8
0
  6
Continuous
 62
     7
100
AcDbCircle
 10
1813.8582497638
 20
84.0964848642
 30
0.0
 40
4.000000000000057
100
AcDbArc
 50
90.0
 51
270.0
  0
LINE
  5
5FA
330
1F
100
AcDbEntity
  8
0
  6
Continuous
 62
     7
100
AcDbLine
 10
1813.8582497638
 20
80.0964848642
 30
0.0
 11
1834.8582497638
 21
80.0964848642
 31
0.0
  0
ARC
  5
5FB
330
1F
100
AcDbEntity
  8
0
  6
Continuous
 62
     7
100
AcDbCircle
 10
1834.8582497638
 20
84.0964848642
 30
0.0
 40
4.0
100
AcDbArc
 50
270.0
 51
90.0
  0
LINE
  5
5FC
330
1F
100
AcDbEntity
  8
0
  6
Continuous
 62
     7
100
AcDbLine
 10
1884.8582497638
 20
88.0964848642
 30
0.0
 11
1863.8582497638
 21
88.0964848642
 31
0.0
  0
ARC
  5
5FD
330
1F
100
AcDbEntity
  8
0
  6
Continuous
 62
     7
100
AcDbCircle
 10
1863.8582497638
 20
84.0964848642
 30
0.0
 40
4.000000000000014
100
AcDbArc
 50
90.0
 51
270.0
  0
LINE
  5
5FE
330
1F
100
AcDbEntity
  8
0
  6
Continuous
 62
     7
100
AcDbLine
 10
1863.8582497638
 20
80.0964848642
 30
0.0
 11
1884.8582497638
 21
80.0964848642
 31
0.0
  0
ARC
  5
5FF
330
1F
100
AcDbEntity
  8
0
  6
Continuous
 62
     7
100
AcDbCircle
 10
1884.8582497638
 20
84.0964848642
 30
0.0
 40
4.0
100
AcDbArc
 50
270.0
 51
90.0
  0
LINE
  5
600
330
1F
100
AcDbEntity
  8
0
  6
Continuous
 62
     7
100
AcDbLine
 10
1934.8582497638
 20
88.0964848642
 30
0.0
 11
1913.8582497638
 21
88.0964848642
 31
0.0
  0
ARC
  5
601
330
1F
100
AcDbEntity
  8
0
  6
Continuous
 62
     7
100
AcDbCircle
 10
1913.8582497638
 20
84.0964848642
 30
0.0
 40
4.000000000000014
100
AcDbArc
 50
90.0
 51
270.0
  0
LINE
  5
602
330
1F
100
AcDbEntity
  8
0
  6
Continuous
 62
     7
100
AcDbLine
 10
1913.8582497638
 20
80.0964848642
 30
0.0
 11
1934.8582497638
 21
80.0964848642
 31
0.0
  0
ARC
  5
603
330
1F
100
AcDbEntity
  8
0
  6
Continuous
 62
     7
100
AcDbCircle
 10
1934.8582497638
 20
84.0964848642
 30
0.0
 40
4.000000000000014
100
AcDbArc
 50
270.0
 51
90.0
  0
LINE
  5
604
330
1F
100
AcDbEntity
  8
0
  6
Continuous
 62
     7
100
AcDbLine
 10
1984.8582497638
 20
88.0964848642
 30
0.0
 11
1963.8582497638
 21
88.0964848642
 31
0.0
  0
ARC
  5
605
330
1F
100
AcDbEntity
  8
0
  6
Continuous
 62
     7
100
AcDbCircle
 10
1963.8582497638
 20
84.0964848642
 30
0.0
 40
4.0
100
AcDbArc
 50
90.0
 51
270.0
  0
LINE
  5
606
330
1F
100
AcDbEntity
  8
0
  6
Continuous
 62
     7
100
AcDbLine
 10
1963.8582497638
 20
80.0964848642
 30
0.0
 11
1984.8582497638
 21
80.0964848642
 31
0.0
  0
ARC
  5
607
330
1F
100
AcDbEntity
  8
0
  6
Continuous
 62
     7
100
AcDbCircle
 10
1984.8582497638
 20
84.0964848642
 30
0.0
 40
4.0
100
AcDbArc
 50
270.0
 51
90.0
  0
LINE
  5
608
330
1F
100
AcDbEntity
  8
0
  6
Continuous
 62
     7
100
AcDbLine
 10
2034.8582497638
 20
88.0964848642
 30
0.0
 11
2013.8582497638
 21
88.0964848642
 31
0.0
  0
ARC
  5
609
330
1F
100
AcDbEntity
  8
0
  6
Continuous
 62
     7
100
AcDbCircle
 10
2013.8582497638
 20
84.0964848642
 30
0.0
 40
4.000000000000057
100
AcDbArc
 50
90.0
 51
270.0
  0
LINE
  5
60A
330
1F
100
AcDbEntity
  8
0
  6
Continuous
 62
     7
100
AcDbLine
 10
2013.8582497638
 20
80.0964848642
 30
0.0
 11
2034.8582497638
 21
80.0964848642
 31
0.0
  0
ARC
  5
60B
330
1F
100
AcDbEntity
  8
0
  6
Continuous
 62
     7
100
AcDbCircle
 10
2034.8582497638
 20
84.0964848642
 30
0.0
 40
4.0
100
AcDbArc
 50
270.0
 51
90.0
  0
LINE
  5
60C
330
1F
100
AcDbEntity
  8
0
  6
Continuous
 62
     7
100
AcDbLine
 10
2084.8582497638
 20
88.0964848642
 30
0.0
 11
2063.8582497638
 21
88.0964848642
 31
0.0
  0
ARC
  5
60D
330
1F
100
AcDbEntity
  8
0
  6
Continuous
 62
     7
100
AcDbCircle
 10
2063.8582497638
 20
84.0964848642
 30
0.0
 40
4.000000000000043
100
AcDbArc
 50
90.0
 51
270.0
  0
LINE
  5
60E
330
1F
100
AcDbEntity
  8
0
  6
Continuous
 62
     7
100
AcDbLine
 10
2063.8582497638
 20
80.0964848642
 30
0.0
 11
2084.8582497638
 21
80.0964848642
 31
0.0
  0
ARC
  5
60F
330
1F
100
AcDbEntity
  8
0
  6
Continuous
 62
     7
100
AcDbCircle
 10
2084.8582497638
 20
84.0964848642
 30
0.0
 40
4.000000000000014
100
AcDbArc
 50
270.0
 51
90.0
  0
LINE
  5
610
330
1F
100
AcDbEntity
  8
0
  6
Continuous
 62
     7
100
AcDbLine
 10
2134.8582497638
 20
88.0964848642
 30
0.0
 11
2113.8582497638
 21
88.0964848642
 31
0.0
  0
ARC
  5
611
330
1F
100
AcDbEntity
  8
0
  6
Continuous
 62
     7
100
AcDbCircle
 10
2113.8582497638
 20
84.0964848642
 30
0.0
 40
4.0
100
AcDbArc
 50
90.0
 51
270.0
  0
LINE
  5
612
330
1F
100
AcDbEntity
  8
0
  6
Continuous
 62
     7
100
AcDbLine
 10
2113.8582497638
 20
80.0964848642
 30
0.0
 11
2134.8582497638
 21
80.0964848642
 31
0.0
  0
ARC
  5
613
330
1F
100
AcDbEntity
  8
0
  6
Continuous
 62
     7
100
AcDbCircle
 10
2134.8582497638
 20
84.0964848642
 30
0.0
 40
4.0
100
AcDbArc
 50
270.0
 51
90.0
  0
LINE
  5
614
330
1F
100
AcDbEntity
  8
0
  6
Continuous
 62
     7
100
AcDbLine
 10
2184.8582497638
 20
88.0964848642
 30
0.0
 11
2163.8582497638
 21
88.0964848642
 31
0.0
  0
ARC
  5
615
330
1F
100
AcDbEntity
  8
0
  6
Continuous
 62
     7
100
AcDbCircle
 10
2163.8582497638
 20
84.0964848642
 30
0.0
 40
4.0
100
AcDbArc
 50
90.0
 51
270.0
  0
LINE
  5
616
330
1F
100
AcDbEntity
  8
0
  6
Continuous
 62
     7
100
AcDbLine
 10
2163.8582497638
 20
80.0964848642
 30
0.0
 11
2184.8582497638
 21
80.0964848642
 31
0.0
  0
ARC
  5
617
330
1F
100
AcDbEntity
  8
0
  6
Continuous
 62
     7
100
AcDbCircle
 10
2184.8582497638
 20
84.0964848642
 30
0.0
 40
4.0
100
AcDbArc
 50
270.0
 51
90.0
  0
LINE
  5
618
330
1F
100
AcDbEntity
  8
0
  6
Continuous
 62
     7
100
AcDbLine
 10
2234.8582497638
 20
88.0964848642
 30
0.0
 11
2213.8582497638
 21
88.0964848642
 31
0.0
  0
ARC
  5
619
330
1F
100
AcDbEntity
  8
0
  6
Continuous
 62
     7
100
AcDbCircle
 10
2213.8582497638
 20
84.0964848642
 30
0.0
 40
4.000000000000057
100
AcDbArc
 50
90.0
 51
270.0
  0
LINE
  5
61A
330
1F
100
AcDbEntity
  8
0
  6
Continuous
 62
     7
100
AcDbLine
 10
2213.8582497638
 20
80.0964848642
 30
0.0
 11
2234.8582497638
 21
80.0964848642
 31
0.0
  0
ARC
  5
61B
330
1F
100
AcDbEntity
  8
0
  6
Continuous
 62
     7
100
AcDbCircle
 10
2234.8582497638
 20
84.0964848642
 30
0.0
 40
4.000000000000014
100
AcDbArc
 50
270.0
 51
90.0
  0
LINE
  5
61C
330
1F
100
AcDbEntity
  8
0
  6
Continuous
 62
     7
100
AcDbLine
 10
2284.8582497638
 20
88.0964848642
 30
0.0
 11
2263.8582497638
 21
88.0964848642
 31
0.0
  0
ARC
  5
61D
330
1F
100
AcDbEntity
  8
0
  6
Continuous
 62
     7
100
AcDbCircle
 10
2263.8582497638
 20
84.0964848642
 30
0.0
 40
4.000000000000028
100
AcDbArc
 50
90.0
 51
270.0
  0
LINE
  5
61E
330
1F
100
AcDbEntity
  8
0
  6
Continuous
 62
     7
100
AcDbLine
 10
2263.8582497638
 20
80.0964848642
 30
0.0
 11
2284.8582497638
 21
80.0964848642
 31
0.0
  0
ARC
  5
61F
330
1F
100
AcDbEntity
  8
0
  6
Continuous
 62
     7
100
AcDbCircle
 10
2284.8582497638
 20
84.0964848642
 30
0.0
 40
4.0
100
AcDbArc
 50
270.0
 51
90.0
  0
LINE
  5
620
330
1F
100
AcDbEntity
  8
0
  6
Continuous
 62
     7
100
AcDbLine
 10
2334.8582497638
 20
88.0964848642
 30
0.0
 11
2313.8582497638
 21
88.0964848642
 31
0.0
  0
ARC
  5
621
330
1F
100
AcDbEntity
  8
0
  6
Continuous
 62
     7
100
AcDbCircle
 10
2313.8582497638
 20
84.0964848642
 30
0.0
 40
4.0
100
AcDbArc
 50
90.0
 51
270.0
  0
LINE
  5
622
330
1F
100
AcDbEntity
  8
0
  6
Continuous
 62
     7
100
AcDbLine
 10
2313.8582497638
 20
80.0964848642
 30
0.0
 11
2334.8582497638
 21
80.0964848642
 31
0.0
  0
ARC
  5
623
330
1F
100
AcDbEntity
  8
0
  6
Continuous
 62
     7
100
AcDbCircle
 10
2334.8582497638
 20
84.0964848642
 30
0.0
 40
4.0
100
AcDbArc
 50
270.0
 51
90.0
  0
LINE
  5
624
330
1F
100
AcDbEntity
  8
0
  6
Continuous
 62
     7
100
AcDbLine
 10
2384.8582497638
 20
88.0964848642
 30
0.0
 11
2363.8582497638
 21
88.0964848642
 31
0.0
  0
ARC
  5
625
330
1F
100
AcDbEntity
  8
0
  6
Continuous
 62
     7
100
AcDbCircle
 10
2363.8582497638
 20
84.0964848642
 30
0.0
 40
4.000000000000014
100
AcDbArc
 50
90.0
 51
270.0
  0
LINE
  5
626
330
1F
100
AcDbEntity
  8
0
  6
Continuous
 62
     7
100
AcDbLine
 10
2363.8582497638
 20
80.0964848642
 30
0.0
 11
2384.8582497638
 21
80.0964848642
 31
0.0
  0
ARC
  5
627
330
1F
100
AcDbEntity
  8
0
  6
Continuous
 62
     7
100
AcDbCircle
 10
2384.8582497638
 20
84.0964848642
 30
0.0
 40
4.0
100
AcDbArc
 50
270.0
 51
90.0
  0
LINE
  5
628
330
1F
100
AcDbEntity
  8
0
  6
Continuous
 62
     7
100
AcDbLine
 10
2434.8582497638
 20
88.0964848642
 30
0.0
 11
2413.8582497638
 21
88.0964848642
 31
0.0
  0
ARC
  5
629
330
1F
100
AcDbEntity
  8
0
  6
Continuous
 62
     7
100
AcDbCircle
 10
2413.8582497638
 20
84.0964848642
 30
0.0
 40
4.000000000000043
100
AcDbArc
 50
90.0
 51
270.0
  0
LINE
  5
62A
330
1F
100
AcDbEntity
  8
0
  6
Continuous
 62
     7
100
AcDbLine
 10
2413.8582497638
 20
80.0964848642
 30
0.0
 11
2434.8582497638
 21
80.0964848642
 31
0.0
  0
ARC
  5
62B
330
1F
100
AcDbEntity
  8
0
  6
Continuous
 62
     7
100
AcDbCircle
 10
2434.8582497638
 20
84.0964848642
 30
0.0
 40
4.000000000000014
100
AcDbArc
 50
270.0
 51
90.0
  0
LINE
  5
62C
330
1F
100
AcDbEntity
  8
0
  6
Continuous
 62
     7
100
AcDbLine
 10
1634.8582497638
 20
52.5964848642
 30
0.0
 11
1613.8582497638
 21
52.5964848642
 31
0.0
  0
ARC
  5
62D
330
1F
100
AcDbEntity
  8
0
  6
Continuous
 62
     7
100
AcDbCircle
 10
1613.8582497638
 20
48.5964848642
 30
0.0
 40
4.000000000000007
100
AcDbArc
 50
90.0
 51
270.0
  0
LINE
  5
62E
330
1F
100
AcDbEntity
  8
0
  6
Continuous
 62
     7
100
AcDbLine
 10
1613.8582497638
 20
44.5964848642
 30
0.0
 11
1634.8582497638
 21
44.5964848642
 31
0.0
  0
ARC
  5
62F
330
1F
100
AcDbEntity
  8
0
  6
Continuous
 62
     7
100
AcDbCircle
 10
1634.8582497638
 20
48.5964848642
 30
0.0
 40
4.0
100
AcDbArc
 50
270.0
 51
90.0
  0
LINE
  5
630
330
1F
100
AcDbEntity
  8
0
  6
Continuous
 62
     7
100
AcDbLine
 10
1684.8582497638
 20
52.5964848642
 30
0.0
 11
1663.8582497638
 21
52.5964848642
 31
0.0
  0
ARC
  5
631
330
1F
100
AcDbEntity
  8
0
  6
Continuous
 62
     7
100
AcDbCircle
 10
1663.8582497638
 20
48.5964848642
 30
0.0
 40
4.000000000000036
100
AcDbArc
 50
90.0
 51
270.0
  0
LINE
  5
632
330
1F
100
AcDbEntity
  8
0
  6
Continuous
 62
     7
100
AcDbLine
 10
1663.8582497638
 20
44.5964848642
 30
0.0
 11
1684.8582497638
 21
44.5964848642
 31
0.0
  0
ARC
  5
633
330
1F
100
AcDbEntity
  8
0
  6
Continuous
 62
     7
100
AcDbCircle
 10
1684.8582497638
 20
48.5964848642
 30
0.0
 40
4.000000000000007
100
AcDbArc
 50
270.0
 51
90.0
  0
LINE
  5
634
330
1F
100
AcDbEntity
  8
0
  6
Continuous
 62
     7
100
AcDbLine
 10
1734.8582497638
 20
52.5964848642
 30
0.0
 11
1713.8582497638
 21
52.5964848642
 31
0.0
  0
ARC
  5
635
330
1F
100
AcDbEntity
  8
0
  6
Continuous
 62
     7
100
AcDbCircle
 10
1713.8582497638
 20
48.5964848642
 30
0.0
 40
4.000000000000057
100
AcDbArc
 50
90.0
 51
270.0
  0
LINE
  5
636
330
1F
100
AcDbEntity
  8
0
  6
Continuous
 62
     7
100
AcDbLine
 10
1713.8582497638
 20
44.5964848642
 30
0.0
 11
1734.8582497638
 21
44.5964848642
 31
0.0
  0
ARC
  5
637
330
1F
100
AcDbEntity
  8
0
  6
Continuous
 62
     7
100
AcDbCircle
 10
1734.8582497638
 20
48.5964848642
 30
0.0
 40
4.0
100
AcDbArc
 50
270.0
 51
90.0
  0
LINE
  5
638
330
1F
100
AcDbEntity
  8
0
  6
Continuous
 62
     7
100
AcDbLine
 10
1784.8582497638
 20
52.5964848642
 30
0.0
 11
1763.8582497638
 21
52.5964848642
 31
0.0
  0
ARC
  5
639
330
1F
100
AcDbEntity
  8
0
  6
Continuous
 62
     7
100
AcDbCircle
 10
1763.8582497638
 20
48.5964848642
 30
0.0
 40
4.000000000000036
100
AcDbArc
 50
90.0
 51
270.0
  0
LINE
  5
63A
330
1F
100
AcDbEntity
  8
0
  6
Continuous
 62
     7
100
AcDbLine
 10
1763.8582497638
 20
44.5964848642
 30
0.0
 11
1784.8582497638
 21
44.5964848642
 31
0.0
  0
ARC
  5
63B
330
1F
100
AcDbEntity
  8
0
  6
Continuous
 62
     7
100
AcDbCircle
 10
1784.8582497638
 20
48.5964848642
 30
0.0
 40
4.000000000000007
100
AcDbArc
 50
270.0
 51
90.0
  0
LINE
  5
63C
330
1F
100
AcDbEntity
  8
0
  6
Continuous
 62
     7
100
AcDbLine
 10
1834.8582497638
 20
52.5964848642
 30
0.0
 11
1813.8582497638
 21
52.5964848642
 31
0.0
  0
ARC
  5
63D
330
1F
100
AcDbEntity
  8
0
  6
Continuous
 62
     7
100
AcDbCircle
 10
1813.8582497638
 20
48.5964848642
 30
0.0
 40
4.000000000000007
100
AcDbArc
 50
90.0
 51
270.0
  0
LINE
  5
63E
330
1F
100
AcDbEntity
  8
0
  6
Continuous
 62
     7
100
AcDbLine
 10
1813.8582497638
 20
44.5964848642
 30
0.0
 11
1834.8582497638
 21
44.5964848642
 31
0.0
  0
ARC
  5
63F
330
1F
100
AcDbEntity
  8
0
  6
Continuous
 62
     7
100
AcDbCircle
 10
1834.8582497638
 20
48.5964848642
 30
0.0
 40
4.000000000000007
100
AcDbArc
 50
270.0
 51
90.0
  0
LINE
  5
640
330
1F
100
AcDbEntity
  8
0
  6
Continuous
 62
     7
100
AcDbLine
 10
1884.8582497638
 20
52.5964848642
 30
0.0
 11
1863.8582497638
 21
52.5964848642
 31
0.0
  0
ARC
  5
641
330
1F
100
AcDbEntity
  8
0
  6
Continuous
 62
     7
100
AcDbCircle
 10
1863.8582497638
 20
48.5964848642
 30
0.0
 40
4.000000000000028
100
AcDbArc
 50
90.0
 51
270.0
  0
LINE
  5
642
330
1F
100
AcDbEntity
  8
0
  6
Continuous
 62
     7
100
AcDbLine
 10
1863.8582497638
 20
44.5964848642
 30
0.0
 11
1884.8582497638
 21
44.5964848642
 31
0.0
  0
ARC
  5
643
330
1F
100
AcDbEntity
  8
0
  6
Continuous
 62
     7
100
AcDbCircle
 10
1884.8582497638
 20
48.5964848642
 30
0.0
 40
4.0
100
AcDbArc
 50
270.0
 51
90.0
  0
LINE
  5
644
330
1F
100
AcDbEntity
  8
0
  6
Continuous
 62
     7
100
AcDbLine
 10
1934.8582497638
 20
52.5964848642
 30
0.0
 11
1913.8582497638
 21
52.5964848642
 31
0.0
  0
ARC
  5
645
330
1F
100
AcDbEntity
  8
0
  6
Continuous
 62
     7
100
AcDbCircle
 10
1913.8582497638
 20
48.5964848642
 30
0.0
 40
4.000000000000064
100
AcDbArc
 50
90.0
 51
270.0
  0
LINE
  5
646
330
1F
100
AcDbEntity
  8
0
  6
Continuous
 62
     7
100
AcDbLine
 10
1913.8582497638
 20
44.5964848642
 30
0.0
 11
1934.8582497638
 21
44.5964848642
 31
0.0
  0
ARC
  5
647
330
1F
100
AcDbEntity
  8
0
  6
Continuous
 62
     7
100
AcDbCircle
 10
1934.8582497638
 20
48.5964848642
 30
0.0
 40
4.000000000000007
100
AcDbArc
 50
270.0
 51
90.0
  0
LINE
  5
648
330
1F
100
AcDbEntity
  8
0
  6
Continuous
 62
     7
100
AcDbLine
 10
1984.8582497638
 20
52.5964848642
 30
0.0
 11
1963.8582497638
 21
52.5964848642
 31
0.0
  0
ARC
  5
649
330
1F
100
AcDbEntity
  8
0
  6
Continuous
 62
     7
100
AcDbCircle
 10
1963.8582497638
 20
48.5964848642
 30
0.0
 40
4.000000000000057
100
AcDbArc
 50
90.0
 51
270.0
  0
LINE
  5
64A
330
1F
100
AcDbEntity
  8
0
  6
Continuous
 62
     7
100
AcDbLine
 10
1963.8582497638
 20
44.5964848642
 30
0.0
 11
1984.8582497638
 21
44.5964848642
 31
0.0
  0
ARC
  5
64B
330
1F
100
AcDbEntity
  8
0
  6
Continuous
 62
     7
100
AcDbCircle
 10
1984.8582497638
 20
48.5964848642
 30
0.0
 40
4.0
100
AcDbArc
 50
270.0
 51
90.0
  0
LINE
  5
64C
330
1F
100
AcDbEntity
  8
0
  6
Continuous
 62
     7
100
AcDbLine
 10
2034.8582497638
 20
52.5964848642
 30
0.0
 11
2013.8582497638
 21
52.5964848642
 31
0.0
  0
ARC
  5
64D
330
1F
100
AcDbEntity
  8
0
  6
Continuous
 62
     7
100
AcDbCircle
 10
2013.8582497638
 20
48.5964848642
 30
0.0
 40
4.000000000000007
100
AcDbArc
 50
90.0
 51
270.0
  0
LINE
  5
64E
330
1F
100
AcDbEntity
  8
0
  6
Continuous
 62
     7
100
AcDbLine
 10
2013.8582497638
 20
44.5964848642
 30
0.0
 11
2034.8582497638
 21
44.5964848642
 31
0.0
  0
ARC
  5
64F
330
1F
100
AcDbEntity
  8
0
  6
Continuous
 62
     7
100
AcDbCircle
 10
2034.8582497638
 20
48.5964848642
 30
0.0
 40
4.000000000000007
100
AcDbArc
 50
270.0
 51
90.0
  0
LINE
  5
650
330
1F
100
AcDbEntity
  8
0
  6
Continuous
 62
     7
100
AcDbLine
 10
2084.8582497638
 20
52.5964848642
 30
0.0
 11
2063.8582497638
 21
52.5964848642
 31
0.0
  0
ARC
  5
651
330
1F
100
AcDbEntity
  8
0
  6
Continuous
 62
     7
100
AcDbCircle
 10
2063.8582497638
 20
48.5964848642
 30
0.0
 40
4.000000000000007
100
AcDbArc
 50
90.0
 51
270.0
  0
LINE
  5
652
330
1F
100
AcDbEntity
  8
0
  6
Continuous
 62
     7
100
AcDbLine
 10
2063.8582497638
 20
44.5964848642
 30
0.0
 11
2084.8582497638
 21
44.5964848642
 31
0.0
  0
ARC
  5
653
330
1F
100
AcDbEntity
  8
0
  6
Continuous
 62
     7
100
AcDbCircle
 10
2084.8582497638
 20
48.5964848642
 30
0.0
 40
4.000000000000007
100
AcDbArc
 50
270.0
 51
90.0
  0
LINE
  5
654
330
1F
100
AcDbEntity
  8
0
  6
Continuous
 62
     7
100
AcDbLine
 10
2134.8582497638
 20
52.5964848642
 30
0.0
 11
2113.8582497638
 21
52.5964848642
 31
0.0
  0
ARC
  5
655
330
1F
100
AcDbEntity
  8
0
  6
Continuous
 62
     7
100
AcDbCircle
 10
2113.8582497638
 20
48.5964848642
 30
0.0
 40
4.000000000000057
100
AcDbArc
 50
90.0
 51
270.0
  0
LINE
  5
656
330
1F
100
AcDbEntity
  8
0
  6
Continuous
 62
     7
100
AcDbLine
 10
2113.8582497638
 20
44.5964848642
 30
0.0
 11
2134.8582497638
 21
44.5964848642
 31
0.0
  0
ARC
  5
657
330
1F
100
AcDbEntity
  8
0
  6
Continuous
 62
     7
100
AcDbCircle
 10
2134.8582497638
 20
48.5964848642
 30
0.0
 40
4.0
100
AcDbArc
 50
270.0
 51
90.0
  0
LINE
  5
658
330
1F
100
AcDbEntity
  8
0
  6
Continuous
 62
     7
100
AcDbLine
 10
2184.8582497638
 20
52.5964848642
 30
0.0
 11
2163.8582497638
 21
52.5964848642
 31
0.0
  0
ARC
  5
659
330
1F
100
AcDbEntity
  8
0
  6
Continuous
 62
     7
100
AcDbCircle
 10
2163.8582497638
 20
48.5964848642
 30
0.0
 40
4.000000000000064
100
AcDbArc
 50
90.0
 51
270.0
  0
LINE
  5
65A
330
1F
100
AcDbEntity
  8
0
  6
Continuous
 62
     7
100
AcDbLine
 10
2163.8582497638
 20
44.5964848642
 30
0.0
 11
2184.8582497638
 21
44.5964848642
 31
0.0
  0
ARC
  5
65B
330
1F
100
AcDbEntity
  8
0
  6
Continuous
 62
     7
100
AcDbCircle
 10
2184.8582497638
 20
48.5964848642
 30
0.0
 40
4.000000000000007
100
AcDbArc
 50
270.0
 51
90.0
  0
LINE
  5
65C
330
1F
100
AcDbEntity
  8
0
  6
Continuous
 62
     7
100
AcDbLine
 10
2234.8582497638
 20
52.5964848642
 30
0.0
 11
2213.8582497638
 21
52.5964848642
 31
0.0
  0
ARC
  5
65D
330
1F
100
AcDbEntity
  8
0
  6
Continuous
 62
     7
100
AcDbCircle
 10
2213.8582497638
 20
48.5964848642
 30
0.0
 40
4.000000000000007
100
AcDbArc
 50
90.0
 51
270.0
  0
LINE
  5
65E
330
1F
100
AcDbEntity
  8
0
  6
Continuous
 62
     7
100
AcDbLine
 10
2213.8582497638
 20
44.5964848642
 30
0.0
 11
2234.8582497638
 21
44.5964848642
 31
0.0
  0
ARC
  5
65F
330
1F
100
AcDbEntity
  8
0
  6
Continuous
 62
     7
100
AcDbCircle
 10
2234.8582497638
 20
48.5964848642
 30
0.0
 40
4.0
100
AcDbArc
 50
270.0
 51
90.0
  0
LINE
  5
660
330
1F
100
AcDbEntity
  8
0
  6
Continuous
 62
     7
100
AcDbLine
 10
2284.8582497638
 20
52.5964848642
 30
0.0
 11
2263.8582497638
 21
52.5964848642
 31
0.0
  0
ARC
  5
661
330
1F
100
AcDbEntity
  8
0
  6
Continuous
 62
     7
100
AcDbCircle
 10
2263.8582497638
 20
48.5964848642
 30
0.0
 40
4.000000000000007
100
AcDbArc
 50
90.0
 51
270.0
  0
LINE
  5
662
330
1F
100
AcDbEntity
  8
0
  6
Continuous
 62
     7
100
AcDbLine
 10
2263.8582497638
 20
44.5964848642
 30
0.0
 11
2284.8582497638
 21
44.5964848642
 31
0.0
  0
ARC
  5
663
330
1F
100
AcDbEntity
  8
0
  6
Continuous
 62
     7
100
AcDbCircle
 10
2284.8582497638
 20
48.5964848642
 30
0.0
 40
4.000000000000007
100
AcDbArc
 50
270.0
 51
90.0
  0
LINE
  5
664
330
1F
100
AcDbEntity
  8
0
  6
Continuous
 62
     7
100
AcDbLine
 10
2334.8582497638
 20
52.5964848642
 30
0.0
 11
2313.8582497638
 21
52.5964848642
 31
0.0
  0
ARC
  5
665
330
1F
100
AcDbEntity
  8
0
  6
Continuous
 62
     7
100
AcDbCircle
 10
2313.8582497638
 20
48.5964848642
 30
0.0
 40
4.000000000000064
100
AcDbArc
 50
90.0
 51
270.0
  0
LINE
  5
666
330
1F
100
AcDbEntity
  8
0
  6
Continuous
 62
     7
100
AcDbLine
 10
2313.8582497638
 20
44.5964848642
 30
0.0
 11
2334.8582497638
 21
44.5964848642
 31
0.0
  0
ARC
  5
667
330
1F
100
AcDbEntity
  8
0
  6
Continuous
 62
     7
100
AcDbCircle
 10
2334.8582497638
 20
48.5964848642
 30
0.0
 40
4.000000000000007
100
AcDbArc
 50
270.0
 51
90.0
  0
LINE
  5
668
330
1F
100
AcDbEntity
  8
0
  6
Continuous
 62
     7
100
AcDbLine
 10
2435.1082497638
 20
325.0964848642
 30
0.0
 11
2467.1082497638
 21
325.0964848642
 31
0.0
  0
LINE
  5
669
330
1F
100
AcDbEntity
  8
0
  6
Continuous
 62
     7
100
AcDbLine
 10
2470.1082497638
 20
322.0964848642
 30
0.0
 11
2467.1082497638
 21
325.0964848642
 31
0.0
  0
LINE
  5
66A
330
1F
100
AcDbEntity
  8
0
  6
Continuous
 62
     7
100
AcDbLine
 10
2470.1082497638
 20
322.0964848642
 30
0.0
 11
2470.1082497638
 21
286.0964848642
 31
0.0
  0
LINE
  5
66B
330
1F
100
AcDbEntity
  8
0
  6
Continuous
 62
     7
100
AcDbLine
 10
2474.6082497638
 20
286.0964848642
 30
0.0
 11
2470.1082497638
 21
286.0964848642
 31
0.0
  0
LINE
  5
66C
330
1F
100
AcDbEntity
  8
0
  6
Continuous
 62
     7
100
AcDbLine
 10
2474.6082497638
 20
286.0964848642
 30
0.0
 11
2477.1082497638
 21
286.0964848642
 31
0.0
  0
LINE
  5
66D
330
1F
100
AcDbEntity
  8
0
  6
Continuous
 62
     7
100
AcDbLine
 10
2477.1082497638
 20
286.0964848642
 30
0.0
 11
2477.1082497638
 21
217.0964848642
 31
0.0
  0
LINE
  5
66E
330
1F
100
AcDbEntity
  8
0
  6
Continuous
 62
     7
100
AcDbLine
 10
2474.6082497638
 20
217.0964848642
 30
0.0
 11
2477.1082497638
 21
217.0964848642
 31
0.0
  0
LINE
  5
66F
330
1F
100
AcDbEntity
  8
0
  6
Continuous
 62
     7
100
AcDbLine
 10
2471.7082497638
 20
217.0964848642
 30
0.0
 11
2474.6082497638
 21
217.0964848642
 31
0.0
  0
LINE
  5
670
330
1F
100
AcDbEntity
  8
0
  6
Continuous
 62
     7
100
AcDbLine
 10
2471.7082497638
 20
215.0964848642
 30
0.0
 11
2471.7082497638
 21
217.0964848642
 31
0.0
  0
LINE
  5
671
330
1F
100
AcDbEntity
  8
0
  6
Continuous
 62
     7
100
AcDbLine
 10
2474.6082497638
 20
215.0964848642
 30
0.0
 11
2471.7082497638
 21
215.0964848642
 31
0.0
  0
LINE
  5
672
330
1F
100
AcDbEntity
  8
0
  6
Continuous
 62
     7
100
AcDbLine
 10
2474.6082497638
 20
215.0964848642
 30
0.0
 11
2477.1082497638
 21
215.0964848642
 31
0.0
  0
LINE
  5
673
330
1F
100
AcDbEntity
  8
0
  6
Continuous
 62
     7
100
AcDbLine
 10
2477.1082497638
 20
95.0964848642
 30
0.0
 11
2477.1082497638
 21
215.0964848642
 31
0.0
  0
LINE
  5
674
330
1F
100
AcDbEntity
  8
0
  6
Continuous
 62
     7
100
AcDbLine
 10
2474.6082497638
 20
95.0964848642
 30
0.0
 11
2477.1082497638
 21
95.0964848642
 31
0.0
  0
LINE
  5
675
330
1F
100
AcDbEntity
  8
0
  6
Continuous
 62
     7
100
AcDbLine
 10
2471.7082497638
 20
95.0964848642
 30
0.0
 11
2474.6082497638
 21
95.0964848642
 31
0.0
  0
LINE
  5
676
330
1F
100
AcDbEntity
  8
0
  6
Continuous
 62
     7
100
AcDbLine
 10
2471.7082497638
 20
93.0964848642
 30
0.0
 11
2471.7082497638
 21
95.0964848642
 31
0.0
  0
LINE
  5
677
330
1F
100
AcDbEntity
  8
0
  6
Continuous
 62
     7
100
AcDbLine
 10
2474.6082497638
 20
93.0964848642
 30
0.0
 11
2471.7082497638
 21
93.0964848642
 31
0.0
  0
LINE
  5
678
330
1F
100
AcDbEntity
  8
0
  6
Continuous
 62
     7
100
AcDbLine
 10
2474.6082497638
 20
93.0964848642
 30
0.0
 11
2477.1082497638
 21
93.0964848642
 31
0.0
  0
LINE
  5
679
330
1F
100
AcDbEntity
  8
0
  6
Continuous
 62
     7
100
AcDbLine
 10
2477.1082497638
 20
24.0964848642
 30
0.0
 11
2477.1082497638
 21
93.0964848642
 31
0.0
  0
LINE
  5
67A
330
1F
100
AcDbEntity
  8
0
  6
Continuous
 62
     7
100
AcDbLine
 10
2474.6082497638
 20
24.0964848642
 30
0.0
 11
2477.1082497638
 21
24.0964848642
 31
0.0
  0
LINE
  5
67B
330
1F
100
AcDbEntity
  8
0
  6
Continuous
 62
     7
100
AcDbLine
 10
2474.6082497638
 20
24.0964848642
 30
0.0
 11
2470.1082497638
 21
24.0964848642
 31
0.0
  0
LINE
  5
67C
330
1F
100
AcDbEntity
  8
0
  6
Continuous
 62
     7
100
AcDbLine
 10
2470.1082497638
 20
24.0964848642
 30
0.0
 11
2470.1082497638
 21
-11.9035151358
 31
0.0
  0
LINE
  5
67D
330
1F
100
AcDbEntity
  8
0
  6
Continuous
 62
     7
100
AcDbLine
 10
2467.1082497638
 20
-14.9035151358
 30
0.0
 11
2470.1082497638
 21
-11.9035151358
 31
0.0
  0
LINE
  5
67E
330
1F
100
AcDbEntity
  8
0
  6
Continuous
 62
     7
100
AcDbLine
 10
2467.1082497638
 20
-14.9035151358
 30
0.0
 11
2435.1082497638
 21
-14.9035151358
 31
0.0
  0
LINE
  5
67F
330
1F
100
AcDbEntity
  8
0
  6
Continuous
 62
     7
100
AcDbLine
 10
2435.1082497638
 20
-14.9035151358
 30
0.0
 11
2435.1082497638
 21
-18.0996675585
 31
0.0
  0
LINE
  5
680
330
1F
100
AcDbEntity
  8
0
  6
Continuous
 62
     7
100
AcDbLine
 10
1613.6082497638
 20
-18.0996675585
 30
0.0
 11
2435.1082497638
 21
-18.0996675585
 31
0.0
  0
LINE
  5
681
330
1F
100
AcDbEntity
  8
0
  6
Continuous
 62
     7
100
AcDbLine
 10
1613.6082497638
 20
-14.9035151358
 30
0.0
 11
1613.6082497638
 21
-18.0996675585
 31
0.0
  0
LINE
  5
682
330
1F
100
AcDbEntity
  8
0
  6
Continuous
 62
     7
100
AcDbLine
 10
1613.6082497638
 20
-14.9035151358
 30
0.0
 11
1581.6082497638
 21
-14.9035151358
 31
0.0
  0
LINE
  5
683
330
1F
100
AcDbEntity
  8
0
  6
Continuous
 62
     7
100
AcDbLine
 10
1578.6082497638
 20
-11.9035151358
 30
0.0
 11
1581.6082497638
 21
-14.9035151358
 31
0.0
  0
LINE
  5
684
330
1F
100
AcDbEntity
  8
0
  6
Continuous
 62
     7
100
AcDbLine
 10
1578.6082497638
 20
-11.9035151358
 30
0.0
 11
1578.6082497638
 21
24.0964848642
 31
0.0
  0
LINE
  5
685
330
1F
100
AcDbEntity
  8
0
  6
Continuous
 62
     7
100
AcDbLine
 10
1574.1082497638
 20
24.0964848642
 30
0.0
 11
1578.6082497638
 21
24.0964848642
 31
0.0
  0
LINE
  5
686
330
1F
100
AcDbEntity
  8
0
  6
Continuous
 62
     7
100
AcDbLine
 10
1574.1082497638
 20
24.0964848642
 30
0.0
 11
1571.6082497638
 21
24.0964848642
 31
0.0
  0
LINE
  5
687
330
1F
100
AcDbEntity
  8
0
  6
Continuous
 62
     7
100
AcDbLine
 10
1571.6082497638
 20
24.0964848642
 30
0.0
 11
1571.6082497638
 21
93.0964848642
 31
0.0
  0
LINE
  5
688
330
1F
100
AcDbEntity
  8
0
  6
Continuous
 62
     7
100
AcDbLine
 10
1574.1082497638
 20
93.0964848642
 30
0.0
 11
1571.6082497638
 21
93.0964848642
 31
0.0
  0
LINE
  5
689
330
1F
100
AcDbEntity
  8
0
  6
Continuous
 62
     7
100
AcDbLine
 10
1577.0082497638
 20
93.0964848642
 30
0.0
 11
1574.1082497638
 21
93.0964848642
 31
0.0
  0
LINE
  5
68A
330
1F
100
AcDbEntity
  8
0
  6
Continuous
 62
     7
100
AcDbLine
 10
1577.0082497638
 20
95.0964848642
 30
0.0
 11
1577.0082497638
 21
93.0964848642
 31
0.0
  0
LINE
  5
68B
330
1F
100
AcDbEntity
  8
0
  6
Continuous
 62
     7
100
AcDbLine
 10
1574.1082497638
 20
95.0964848642
 30
0.0
 11
1577.0082497638
 21
95.0964848642
 31
0.0
  0
LINE
  5
68C
330
1F
100
AcDbEntity
  8
0
  6
Continuous
 62
     7
100
AcDbLine
 10
1574.1082497638
 20
95.0964848642
 30
0.0
 11
1571.6082497638
 21
95.0964848642
 31
0.0
  0
LINE
  5
68D
330
1F
100
AcDbEntity
  8
0
  6
Continuous
 62
     7
100
AcDbLine
 10
1571.6082497638
 20
215.0964848642
 30
0.0
 11
1571.6082497638
 21
95.0964848642
 31
0.0
  0
LINE
  5
68E
330
1F
100
AcDbEntity
  8
0
  6
Continuous
 62
     7
100
AcDbLine
 10
1574.1082497638
 20
215.0964848642
 30
0.0
 11
1571.6082497638
 21
215.0964848642
 31
0.0
  0
LINE
  5
68F
330
1F
100
AcDbEntity
  8
0
  6
Continuous
 62
     7
100
AcDbLine
 10
1577.0082497638
 20
215.0964848642
 30
0.0
 11
1574.1082497638
 21
215.0964848642
 31
0.0
  0
LINE
  5
690
330
1F
100
AcDbEntity
  8
0
  6
Continuous
 62
     7
100
AcDbLine
 10
1577.0082497638
 20
217.0964848642
 30
0.0
 11
1577.0082497638
 21
215.0964848642
 31
0.0
  0
LINE
  5
691
330
1F
100
AcDbEntity
  8
0
  6
Continuous
 62
     7
100
AcDbLine
 10
1574.1082497638
 20
217.0964848642
 30
0.0
 11
1577.0082497638
 21
217.0964848642
 31
0.0
  0
LINE
  5
692
330
1F
100
AcDbEntity
  8
0
  6
Continuous
 62
     7
100
AcDbLine
 10
1574.1082497638
 20
217.0964848642
 30
0.0
 11
1571.6082497638
 21
217.0964848642
 31
0.0
  0
LINE
  5
693
330
1F
100
AcDbEntity
  8
0
  6
Continuous
 62
     7
100
AcDbLine
 10
1571.6082497638
 20
286.0964848642
 30
0.0
 11
1571.6082497638
 21
217.0964848642
 31
0.0
  0
LINE
  5
694
330
1F
100
AcDbEntity
  8
0
  6
Continuous
 62
     7
100
AcDbLine
 10
1574.1082497638
 20
286.0964848642
 30
0.0
 11
1571.6082497638
 21
286.0964848642
 31
0.0
  0
LINE
  5
695
330
1F
100
AcDbEntity
  8
0
  6
Continuous
 62
     7
100
AcDbLine
 10
1574.1082497638
 20
286.0964848642
 30
0.0
 11
1578.6082497638
 21
286.0964848642
 31
0.0
  0
LINE
  5
696
330
1F
100
AcDbEntity
  8
0
  6
Continuous
 62
     7
100
AcDbLine
 10
1578.6082497638
 20
286.0964848642
 30
0.0
 11
1578.6082497638
 21
322.0964848642
 31
0.0
  0
LINE
  5
697
330
1F
100
AcDbEntity
  8
0
  6
Continuous
 62
     7
100
AcDbLine
 10
1581.6082497638
 20
325.0964848642
 30
0.0
 11
1578.6082497638
 21
322.0964848642
 31
0.0
  0
LINE
  5
698
330
1F
100
AcDbEntity
  8
0
  6
Continuous
 62
     7
100
AcDbLine
 10
1581.6082497638
 20
325.0964848642
 30
0.0
 11
1613.6082497638
 21
325.0964848642
 31
0.0
  0
LINE
  5
699
330
1F
100
AcDbEntity
  8
0
  6
Continuous
 62
     7
100
AcDbLine
 10
1613.6082497638
 20
325.0964848642
 30
0.0
 11
1613.6082497638
 21
328.2926372869
 31
0.0
  0
LINE
  5
69A
330
1F
100
AcDbEntity
  8
0
  6
Continuous
 62
     7
100
AcDbLine
 10
2435.1082497638
 20
328.2926372869
 30
0.0
 11
1613.6082497638
 21
328.2926372869
 31
0.0
  0
LINE
  5
69B
330
1F
100
AcDbEntity
  8
0
  6
Continuous
 62
     7
100
AcDbLine
 10
2435.1082497638
 20
325.0964848642
 30
0.0
 11
2435.1082497638
 21
328.2926372869
 31
0.0
  0
ARC
  5
69C
330
1F
100
AcDbEntity
  8
0
  6
Continuous
 62
     7
100
AcDbCircle
 10
2413.8582497638
 20
48.5964848642
 30
0.0
 40
4.000000000000064
100
AcDbArc
 50
90.0
 51
270.0
  0
LINE
  5
69D
330
1F
100
AcDbEntity
  8
0
  6
Continuous
 62
     7
100
AcDbLine
 10
2413.8582497638
 20
44.5964848642
 30
0.0
 11
2434.8582497638
 21
44.5964848642
 31
0.0
  0
ARC
  5
69E
330
1F
100
AcDbEntity
  8
0
  6
Continuous
 62
     7
100
AcDbCircle
 10
2434.8582497638
 20
48.5964848642
 30
0.0
 40
4.000000000000007
100
AcDbArc
 50
270.0
 51
90.0
  0
LINE
  5
69F
330
1F
100
AcDbEntity
  8
0
  6
Continuous
 62
     7
100
AcDbLine
 10
2434.8582497638
 20
52.5964848642
 30
0.0
 11
2413.8582497638
 21
52.5964848642
 31
0.0
  0
ARC
  5
6A0
330
1F
100
AcDbEntity
  8
0
  6
Continuous
 62
     7
100
AcDbCircle
 10
2363.8582497638
 20
48.5964848642
 30
0.0
 40
4.000000000000057
100
AcDbArc
 50
90.0
 51
270.0
  0
LINE
  5
6A1
330
1F
100
AcDbEntity
  8
0
  6
Continuous
 62
     7
100
AcDbLine
 10
2363.8582497638
 20
44.5964848642
 30
0.0
 11
2384.8582497638
 21
44.5964848642
 31
0.0
  0
ARC
  5
6A2
330
1F
100
AcDbEntity
  8
0
  6
Continuous
 62
     7
100
AcDbCircle
 10
2384.8582497638
 20
48.5964848642
 30
0.0
 40
4.0
100
AcDbArc
 50
270.0
 51
90.0
  0
LINE
  5
6A3
330
1F
100
AcDbEntity
  8
0
  6
Continuous
 62
     7
100
AcDbLine
 10
2384.8582497638
 20
52.5964848642
 30
0.0
 11
2363.8582497638
 21
52.5964848642
 31
0.0
  0
LINE
  5
6A4
330
1F
100
AcDbEntity
  8
0
  6
Continuous
 62
     7
100
AcDbLine
 10
2469.7082497638
 20
177.0964848642
 30
0.0
 11
2467.7082497638
 21
177.0964848642
 31
0.0
  0
LINE
  5
6A5
330
1F
100
AcDbEntity
  8
0
  6
Continuous
 62
     7
100
AcDbLine
 10
2469.7082497638
 20
217.0964848642
 30
0.0
 11
2469.7082497638
 21
177.0964848642
 31
0.0
  0
LINE
  5
6A6
330
1F
100
AcDbEntity
  8
0
  6
Continuous
 62
     7
100
AcDbLine
 10
2467.7082497638
 20
217.0964848642
 30
0.0
 11
2469.7082497638
 21
217.0964848642
 31
0.0
  0
LINE
  5
6A7
330
1F
100
AcDbEntity
  8
0
  6
Continuous
 62
     7
100
AcDbLine
 10
2467.7082497638
 20
177.0964848642
 30
0.0
 11
2467.7082497638
 21
217.0964848642
 31
0.0
  0
LINE
  5
6A8
330
1F
100
AcDbEntity
  8
0
  6
Continuous
 62
     7
100
AcDbLine
 10
1581.0082497638
 20
217.0964848642
 30
0.0
 11
1581.0082497638
 21
177.0964848642
 31
0.0
  0
LINE
  5
6A9
330
1F
100
AcDbEntity
  8
0
  6
Continuous
 62
     7
100
AcDbLine
 10
1579.0082497638
 20
217.0964848642
 30
0.0
 11
1581.0082497638
 21
217.0964848642
 31
0.0
  0
LINE
  5
6AA
330
1F
100
AcDbEntity
  8
0
  6
Continuous
 62
     7
100
AcDbLine
 10
1579.0082497638
 20
177.0964848642
 30
0.0
 11
1579.0082497638
 21
217.0964848642
 31
0.0
  0
LINE
  5
6AB
330
1F
100
AcDbEntity
  8
0
  6
Continuous
 62
     7
100
AcDbLine
 10
1581.0082497638
 20
177.0964848642
 30
0.0
 11
1579.0082497638
 21
177.0964848642
 31
0.0
  0
LINE
  5
6AC
330
1F
100
AcDbEntity
  8
0
  6
Continuous
 62
     7
100
AcDbLine
 10
1581.0082497638
 20
175.0964848642
 30
0.0
 11
1581.0082497638
 21
135.0964848642
 31
0.0
  0
LINE
  5
6AD
330
1F
100
AcDbEntity
  8
0
  6
Continuous
 62
     7
100
AcDbLine
 10
1579.0082497638
 20
175.0964848642
 30
0.0
 11
1581.0082497638
 21
175.0964848642
 31
0.0
  0
LINE
  5
6AE
330
1F
100
AcDbEntity
  8
0
  6
Continuous
 62
     7
100
AcDbLine
 10
1579.0082497638
 20
135.0964848642
 30
0.0
 11
1579.0082497638
 21
175.0964848642
 31
0.0
  0
LINE
  5
6AF
330
1F
100
AcDbEntity
  8
0
  6
Continuous
 62
     7
100
AcDbLine
 10
1581.0082497638
 20
135.0964848642
 30
0.0
 11
1579.0082497638
 21
135.0964848642
 31
0.0
  0
LINE
  5
6B0
330
1F
100
AcDbEntity
  8
0
  6
Continuous
 62
     7
100
AcDbLine
 10
1581.0082497638
 20
133.0964848642
 30
0.0
 11
1581.0082497638
 21
93.0964848642
 31
0.0
  0
LINE
  5
6B1
330
1F
100
AcDbEntity
  8
0
  6
Continuous
 62
     7
100
AcDbLine
 10
1579.0082497638
 20
133.0964848642
 30
0.0
 11
1581.0082497638
 21
133.0964848642
 31
0.0
  0
LINE
  5
6B2
330
1F
100
AcDbEntity
  8
0
  6
Continuous
 62
     7
100
AcDbLine
 10
1579.0082497638
 20
93.0964848642
 30
0.0
 11
1579.0082497638
 21
133.0964848642
 31
0.0
  0
LINE
  5
6B3
330
1F
100
AcDbEntity
  8
0
  6
Continuous
 62
     7
100
AcDbLine
 10
1581.0082497638
 20
93.0964848642
 30
0.0
 11
1579.0082497638
 21
93.0964848642
 31
0.0
  0
LINE
  5
6B4
330
1F
100
AcDbEntity
  8
0
  6
Continuous
 62
     7
100
AcDbLine
 10
2469.7082497638
 20
93.0964848642
 30
0.0
 11
2467.7082497638
 21
93.0964848642
 31
0.0
  0
LINE
  5
6B5
330
1F
100
AcDbEntity
  8
0
  6
Continuous
 62
     7
100
AcDbLine
 10
2469.7082497638
 20
133.0964848642
 30
0.0
 11
2469.7082497638
 21
93.0964848642
 31
0.0
  0
LINE
  5
6B6
330
1F
100
AcDbEntity
  8
0
  6
Continuous
 62
     7
100
AcDbLine
 10
2467.7082497638
 20
133.0964848642
 30
0.0
 11
2469.7082497638
 21
133.0964848642
 31
0.0
  0
LINE
  5
6B7
330
1F
100
AcDbEntity
  8
0
  6
Continuous
 62
     7
100
AcDbLine
 10
2467.7082497638
 20
93.0964848642
 30
0.0
 11
2467.7082497638
 21
133.0964848642
 31
0.0
  0
LINE
  5
6B8
330
1F
100
AcDbEntity
  8
0
  6
Continuous
 62
     7
100
AcDbLine
 10
2469.7082497638
 20
135.0964848642
 30
0.0
 11
2467.7082497638
 21
135.0964848642
 31
0.0
  0
LINE
  5
6B9
330
1F
100
AcDbEntity
  8
0
  6
Continuous
 62
     7
100
AcDbLine
 10
2469.7082497638
 20
175.0964848642
 30
0.0
 11
2469.7082497638
 21
135.0964848642
 31
0.0
  0
LINE
  5
6BA
330
1F
100
AcDbEntity
  8
0
  6
Continuous
 62
     7
100
AcDbLine
 10
2467.7082497638
 20
175.0964848642
 30
0.0
 11
2469.7082497638
 21
175.0964848642
 31
0.0
  0
LINE
  5
6BB
330
1F
100
AcDbEntity
  8
0
  6
Continuous
 62
     7
100
AcDbLine
 10
2467.7082497638
 20
135.0964848642
 30
0.0
 11
2467.7082497638
 21
175.0964848642
 31
0.0
  0
LINE
  5
6BC
330
1F
100
AcDbEntity
  8
0
  6
Continuous
 62
     7
100
AcDbLine
 10
2435.1082497638
 20
22.0964848642
 30
0.0
 11
2468.1082497638
 21
22.0964848642
 31
0.0
  0
LINE
  5
6BD
330
1F
100
AcDbEntity
  8
0
  6
Continuous
 62
     7
100
AcDbLine
 10
2468.1082497638
 20
22.0964848642
 30
0.0
 11
2468.1082497638
 21
24.0964848642
 31
0.0
  0
LINE
  5
6BE
330
1F
100
AcDbEntity
  8
0
  6
Continuous
 62
     7
100
AcDbLine
 10
2468.1082497638
 20
24.0964848642
 30
0.0
 11
2435.1082497638
 21
24.0964848642
 31
0.0
  0
LINE
  5
6BF
330
1F
100
AcDbEntity
  8
0
  6
Continuous
 62
     7
100
AcDbLine
 10
2435.1082497638
 20
24.0964848642
 30
0.0
 11
2435.1082497638
 21
22.0964848642
 31
0.0
  0
LINE
  5
6C0
330
1F
100
AcDbEntity
  8
0
  6
Continuous
 62
     7
100
AcDbLine
 10
2435.1082497638
 20
288.0964848642
 30
0.0
 11
2435.1082497638
 21
286.0964848642
 31
0.0
  0
LINE
  5
6C1
330
1F
100
AcDbEntity
  8
0
  6
Continuous
 62
     7
100
AcDbLine
 10
2435.1082497638
 20
286.0964848642
 30
0.0
 11
2468.1082497638
 21
286.0964848642
 31
0.0
  0
LINE
  5
6C2
330
1F
100
AcDbEntity
  8
0
  6
Continuous
 62
     7
100
AcDbLine
 10
2468.1082497638
 20
286.0964848642
 30
0.0
 11
2468.1082497638
 21
288.0964848642
 31
0.0
  0
LINE
  5
6C3
330
1F
100
AcDbEntity
  8
0
  6
Continuous
 62
     7
100
AcDbLine
 10
2468.1082497638
 20
288.0964848642
 30
0.0
 11
2435.1082497638
 21
288.0964848642
 31
0.0
  0
LINE
  5
6C4
330
1F
100
AcDbEntity
  8
0
  6
Continuous
 62
     7
100
AcDbLine
 10
2435.1082497638
 20
323.0964848642
 30
0.0
 11
2435.1082497638
 21
290.0964848642
 31
0.0
  0
LINE
  5
6C5
330
1F
100
AcDbEntity
  8
0
  6
Continuous
 62
     7
100
AcDbLine
 10
2435.1082497638
 20
290.0964848642
 30
0.0
 11
2437.1082497638
 21
290.0964848642
 31
0.0
  0
LINE
  5
6C6
330
1F
100
AcDbEntity
  8
0
  6
Continuous
 62
     7
100
AcDbLine
 10
2437.1082497638
 20
290.0964848642
 30
0.0
 11
2437.1082497638
 21
323.0964848642
 31
0.0
  0
LINE
  5
6C7
330
1F
100
AcDbEntity
  8
0
  6
Continuous
 62
     7
100
AcDbLine
 10
2437.1082497638
 20
323.0964848642
 30
0.0
 11
2435.1082497638
 21
323.0964848642
 31
0.0
  0
LINE
  5
6C8
330
1F
100
AcDbEntity
  8
0
  6
Continuous
 62
     7
100
AcDbLine
 10
2435.1082497638
 20
-12.9035151358
 30
0.0
 11
2437.1082497638
 21
-12.9035151358
 31
0.0
  0
LINE
  5
6C9
330
1F
100
AcDbEntity
  8
0
  6
Continuous
 62
     7
100
AcDbLine
 10
2437.1082497638
 20
-12.9035151358
 30
0.0
 11
2437.1082497638
 21
20.0964848642
 31
0.0
  0
LINE
  5
6CA
330
1F
100
AcDbEntity
  8
0
  6
Continuous
 62
     7
100
AcDbLine
 10
2437.1082497638
 20
20.0964848642
 30
0.0
 11
2435.1082497638
 21
20.0964848642
 31
0.0
  0
LINE
  5
6CB
330
1F
100
AcDbEntity
  8
0
  6
Continuous
 62
     7
100
AcDbLine
 10
2435.1082497638
 20
20.0964848642
 30
0.0
 11
2435.1082497638
 21
-12.9035151358
 31
0.0
  0
CIRCLE
  5
6CC
330
1F
100
AcDbEntity
  8
0
  6
Continuous
 62
     7
100
AcDbCircle
 10
2424.3082497638
 20
315.0964848642
 30
0.0
 40
3.25
  0
CIRCLE
  5
6CD
330
1F
100
AcDbEntity
  8
0
  6
Continuous
 62
     7
100
AcDbCircle
 10
2324.3082497638
 20
315.0964848642
 30
0.0
 40
3.249999999999943
  0
CIRCLE
  5
6CE
330
1F
100
AcDbEntity
  8
0
  6
Continuous
 62
     7
100
AcDbCircle
 10
2144.3082497638
 20
315.0964848642
 30
0.0
 40
2.75
  0
CIRCLE
  5
6CF
330
1F
100
AcDbEntity
  8
0
  6
Continuous
 62
     7
100
AcDbCircle
 10
2174.3082497638
 20
315.0964848642
 30
0.0
 40
2.75
  0
CIRCLE
  5
6D0
330
1F
100
AcDbEntity
  8
0
  6
Continuous
 62
     7
100
AcDbCircle
 10
2274.3082497638
 20
315.0964848642
 30
0.0
 40
2.750000000000057
  0
CIRCLE
  5
6D1
330
1F
100
AcDbEntity
  8
0
  6
Continuous
 62
     7
100
AcDbCircle
 10
2374.3082497638
 20
315.0964848642
 30
0.0
 40
2.75
  0
CIRCLE
  5
6D2
330
1F
100
AcDbEntity
  8
0
  6
Continuous
 62
     7
100
AcDbCircle
 10
1904.4082497638
 20
315.0964848642
 30
0.0
 40
2.75
  0
CIRCLE
  5
6D3
330
1F
100
AcDbEntity
  8
0
  6
Continuous
 62
     7
100
AcDbCircle
 10
1874.4082497638
 20
315.0964848642
 30
0.0
 40
2.75
  0
CIRCLE
  5
6D4
330
1F
100
AcDbEntity
  8
0
  6
Continuous
 62
     7
100
AcDbCircle
 10
1774.4082497638
 20
315.0964848642
 30
0.0
 40
2.75
  0
CIRCLE
  5
6D5
330
1F
100
AcDbEntity
  8
0
  6
Continuous
 62
     7
100
AcDbCircle
 10
1674.4082497638
 20
315.0964848642
 30
0.0
 40
2.75
  0
CIRCLE
  5
6D6
330
1F
100
AcDbEntity
  8
0
  6
Continuous
 62
     7
100
AcDbCircle
 10
2424.3082497638
 20
-4.9035151358
 30
0.0
 40
3.250000000000031
  0
CIRCLE
  5
6D7
330
1F
100
AcDbEntity
  8
0
  6
Continuous
 62
     7
100
AcDbCircle
 10
1824.3082497638
 20
-4.9035151358
 30
0.0
 40
3.250000000000031
  0
CIRCLE
  5
6D8
330
1F
100
AcDbEntity
  8
0
  6
Continuous
 62
     7
100
AcDbCircle
 10
1924.3082497638
 20
-4.9035151358
 30
0.0
 40
3.250000000000031
  0
CIRCLE
  5
6D9
330
1F
100
AcDbEntity
  8
0
  6
Continuous
 62
     7
100
AcDbCircle
 10
2024.3082497638
 20
-4.9035151358
 30
0.0
 40
3.250000000000031
  0
CIRCLE
  5
6DA
330
1F
100
AcDbEntity
  8
0
  6
Continuous
 62
     7
100
AcDbCircle
 10
2124.3082497638
 20
-4.9035151358
 30
0.0
 40
3.250000000000031
  0
CIRCLE
  5
6DB
330
1F
100
AcDbEntity
  8
0
  6
Continuous
 62
     7
100
AcDbCircle
 10
2224.3082497638
 20
-4.9035151358
 30
0.0
 40
3.250000000000031
  0
CIRCLE
  5
6DC
330
1F
100
AcDbEntity
  8
0
  6
Continuous
 62
     7
100
AcDbCircle
 10
2324.3082497638
 20
-4.9035151358
 30
0.0
 40
3.250000000000031
  0
CIRCLE
  5
6DD
330
1F
100
AcDbEntity
  8
0
  6
Continuous
 62
     7
100
AcDbCircle
 10
1904.4082497638
 20
-4.9035151358
 30
0.0
 40
2.75000000000003
  0
CIRCLE
  5
6DE
330
1F
100
AcDbEntity
  8
0
  6
Continuous
 62
     7
100
AcDbCircle
 10
1874.4082497638
 20
-4.9035151358
 30
0.0
 40
2.75000000000003
  0
CIRCLE
  5
6DF
330
1F
100
AcDbEntity
  8
0
  6
Continuous
 62
     7
100
AcDbCircle
 10
1774.4082497638
 20
-4.9035151358
 30
0.0
 40
2.75000000000003
  0
CIRCLE
  5
6E0
330
1F
100
AcDbEntity
  8
0
  6
Continuous
 62
     7
100
AcDbCircle
 10
1674.4082497638
 20
-4.9035151358
 30
0.0
 40
2.75000000000003
  0
CIRCLE
  5
6E1
330
1F
100
AcDbEntity
  8
0
  6
Continuous
 62
     7
100
AcDbCircle
 10
2144.3082497638
 20
-4.9035151358
 30
0.0
 40
2.75000000000003
  0
CIRCLE
  5
6E2
330
1F
100
AcDbEntity
  8
0
  6
Continuous
 62
     7
100
AcDbCircle
 10
2174.3082497638
 20
-4.9035151358
 30
0.0
 40
2.75000000000003
  0
CIRCLE
  5
6E3
330
1F
100
AcDbEntity
  8
0
  6
Continuous
 62
     7
100
AcDbCircle
 10
2274.3082497638
 20
-4.9035151358
 30
0.0
 40
2.75000000000003
  0
CIRCLE
  5
6E4
330
1F
100
AcDbEntity
  8
0
  6
Continuous
 62
     7
100
AcDbCircle
 10
2374.3082497638
 20
-4.9035151358
 30
0.0
 40
2.75000000000003
  0
LINE
  5
6E5
330
1F
100
AcDbEntity
  8
0
  6
Continuous
 62
     7
100
AcDbLine
 10
2435.1082497638
 20
-19.3676167509
 30
0.0
 11
1613.6082497638
 21
-19.3676167509
 31
0.0
  0
LINE
  5
6E6
330
1F
100
AcDbEntity
  8
0
  6
Continuous
 62
     7
100
AcDbLine
 10
2435.1082497638
 20
-18.0996675585
 30
0.0
 11
2435.1082497638
 21
-19.3676167509
 31
0.0
  0
LINE
  5
6E7
330
1F
100
AcDbEntity
  8
0
  6
Continuous
 62
     7
100
AcDbLine
 10
1613.6082497638
 20
-19.3676167509
 30
0.0
 11
1613.6082497638
 21
-18.0996675585
 31
0.0
  0
LINE
  5
6E8
330
1F
100
AcDbEntity
  8
0
  6
Continuous
 62
     7
100
AcDbLine
 10
1613.6082497638
 20
329.5605864794
 30
0.0
 11
2435.1082497638
 21
329.5605864794
 31
0.0
  0
LINE
  5
6E9
330
1F
100
AcDbEntity
  8
0
  6
Continuous
 62
     7
100
AcDbLine
 10
2435.1082497638
 20
329.5605864794
 30
0.0
 11
2435.1082497638
 21
328.2926372869
 31
0.0
  0
LINE
  5
6EA
330
1F
100
AcDbEntity
  8
0
  6
Continuous
 62
     7
100
AcDbLine
 10
1613.6082497638
 20
328.2926372869
 30
0.0
 11
1613.6082497638
 21
329.5605864794
 31
0.0
  0
LINE
  5
6EB
330
1F
100
AcDbEntity
  8
0
  6
Continuous
 62
     7
100
AcDbLine
 10
1573.1082497638
 20
95.0964848642
 30
0.0
 11
1573.1082497638
 21
93.0964848642
 31
0.0
  0
LINE
  5
6EC
330
1F
100
AcDbEntity
  8
0
  6
Continuous
 62
     7
100
AcDbLine
 10
1571.6082497638
 20
95.0964848642
 30
0.0
 11
1571.6082497638
 21
93.0964848642
 31
0.0
  0
LINE
  5
6ED
330
1F
100
AcDbEntity
  8
0
  6
Continuous
 62
     7
100
AcDbLine
 10
1573.1082497638
 20
217.0964848642
 30
0.0
 11
1573.1082497638
 21
215.0964848642
 31
0.0
  0
LINE
  5
6EE
330
1F
100
AcDbEntity
  8
0
  6
Continuous
 62
     7
100
AcDbLine
 10
1571.6082497638
 20
217.0964848642
 30
0.0
 11
1571.6082497638
 21
215.0964848642
 31
0.0
  0
LINE
  5
6EF
330
1F
100
AcDbEntity
  8
0
  6
Continuous
 62
     7
100
AcDbLine
 10
2475.6082497638
 20
93.0964848642
 30
0.0
 11
2475.6082497638
 21
95.0964848642
 31
0.0
  0
LINE
  5
6F0
330
1F
100
AcDbEntity
  8
0
  6
Continuous
 62
     7
100
AcDbLine
 10
2477.1082497638
 20
93.0964848642
 30
0.0
 11
2477.1082497638
 21
95.0964848642
 31
0.0
  0
LINE
  5
6F1
330
1F
100
AcDbEntity
  8
0
  6
Continuous
 62
     7
100
AcDbLine
 10
2475.6082497638
 20
215.0964848642
 30
0.0
 11
2475.6082497638
 21
217.0964848642
 31
0.0
  0
LINE
  5
6F2
330
1F
100
AcDbEntity
  8
0
  6
Continuous
 62
     7
100
AcDbLine
 10
2477.1082497638
 20
215.0964848642
 30
0.0
 11
2477.1082497638
 21
217.0964848642
 31
0.0
  0
ENDSEC
  0
SECTION
  2
OBJECTS
  0
DICTIONARY
  5
C
330
0
100
AcDbDictionary
281
     1
  3
ACAD_GROUP
350
D
  3
ACAD_LAYOUT
350
1A
  3
ACAD_MLINESTYLE
350
17
  3
ACAD_PLOTSETTINGS
350
19
  3
ACAD_PLOTSTYLENAME
350
E
  3
ACAD_SCALELIST
350
47
  3
DWGPROPS
350
6F3
  0
DICTIONARY
  5
D
102
{ACAD_REACTORS
330
C
102
}
330
C
100
AcDbDictionary
281
     1
  0
DICTIONARY
  5
1A
102
{ACAD_REACTORS
330
C
102
}
330
C
100
AcDbDictionary
281
     1
  3
Layout1
350
1E
  3
Layout2
350
26
  3
Model
350
22
  0
DICTIONARY
  5
17
102
{ACAD_REACTORS
330
C
102
}
330
C
100
AcDbDictionary
281
     1
  3
Standard
350
18
  0
DICTIONARY
  5
19
102
{ACAD_REACTORS
330
C
102
}
330
C
100
AcDbDictionary
281
     1
  0
ACDBDICTIONARYWDFLT
  5
E
102
{ACAD_REACTORS
330
C
102
}
330
C
100
AcDbDictionary
281
     1
  3
Normal
350
F
100
AcDbDictionaryWithDefault
340
F
  0
DICTIONARY
  5
47
102
{ACAD_REACTORS
330
C
102
}
330
C
100
AcDbDictionary
281
     1
  3
A0
350
48
  3
A1
350
49
  3
A2
350
4A
  3
A3
350
4B
  3
A4
350
4C
  3
A5
350
4D
  3
A6
350
4E
  3
A7
350
4F
  3
A8
350
50
  3
A9
350
51
  3
B0
350
52
  3
B1
350
53
  3
B2
350
54
  3
B3
350
55
  3
B4
350
56
  3
B5
350
57
  3
B6
350
58
  0
XRECORD
  5
6F3
102
{ACAD_REACTORS
330
C
102
}
330
C
100
AcDbXrecord
280
     1
  1
DWGPROPS COOKIE
  2

  3

  4

  6

  7

  8
moskovchenkovapa
  9

300
=
301
=
302
=
303
=
304
=
305
=
306
=
307
=
308
=
309
=
 40
0.0
 41
2460696.429122164
 42
2460696.429122928
  1

 90
        0
  0
LAYOUT
  5
1E
102
{ACAD_REACTORS
330
1A
102
}
330
1A
100
AcDbPlotSettings
  1

  2
none_device
  4

  6

 40
0.0
 41
0.0
 42
0.0
 43
0.0
 44
0.0
 45
0.0
 46
0.0
 47
0.0
 48
0.0
 49
0.0
140
0.0
141
0.0
142
1.0
143
1.0
 70
   688
 72
     1
 73
     0
 74
     5
  7

 75
    16
147
1.0
148
0.0
149
0.0
100
AcDbLayout
  1
Layout1
 70
     1
 71
     1
 10
0.0
 20
0.0
 11
420.0
 21
297.0
 12
0.0
 22
0.0
 32
0.0
 14
1.0000000000E+20
 24
1.0000000000E+20
 34
1.0000000000E+20
 15
-1.0000000000E+20
 25
-1.0000000000E+20
 35
-1.0000000000E+20
146
0.0
 13
0.0
 23
0.0
 33
0.0
 16
1.0
 26
0.0
 36
0.0
 17
0.0
 27
1.0
 37
0.0
 76
     0
330
1B
  0
LAYOUT
  5
26
102
{ACAD_REACTORS
330
1A
102
}
330
1A
100
AcDbPlotSettings
  1

  2
none_device
  4

  6

 40
0.0
 41
0.0
 42
0.0
 43
0.0
 44
0.0
 45
0.0
 46
0.0
 47
0.0
 48
0.0
 49
0.0
140
0.0
141
0.0
142
1.0
143
1.0
 70
   688
 72
     1
 73
     0
 74
     5
  7

 75
    16
147
1.0
148
0.0
149
0.0
100
AcDbLayout
  1
Layout2
 70
     1
 71
     2
 10
0.0
 20
0.0
 11
0.0
 21
0.0
 12
0.0
 22
0.0
 32
0.0
 14
0.0
 24
0.0
 34
0.0
 15
0.0
 25
0.0
 35
0.0
146
0.0
 13
0.0
 23
0.0
 33
0.0
 16
1.0
 26
0.0
 36
0.0
 17
0.0
 27
1.0
 37
0.0
 76
     0
330
23
  0
LAYOUT
  5
22
102
{ACAD_REACTORS
330
1A
102
}
330
1A
100
AcDbPlotSettings
  1

  2
none_device
  4
Letter_(8.50_x_11.00_Inches)
  6

 40
6.35
 41
6.35
 42
6.35000508
 43
6.35000508
 44
215.9
 45
279.4
 46
0.0
 47
0.0
 48
0.0
 49
0.0
140
0.0
141
0.0
142
1.0
143
1.0
 70
  1712
 72
     1
 73
     0
 74
     0
  7

 75
     0
147
1.0
148
0.0
149
0.0
100
AcDbLayout
  1
Model
 70
     1
 71
     0
 10
0.0
 20
0.0
 11
420.0
 21
297.0
 12
0.0
 22
0.0
 32
0.0
 14
0.0
 24
0.0
 34
0.0
 15
420.0
 25
297.0
 35
0.0
146
0.0
 13
0.0
 23
0.0
 33
0.0
 16
1.0
 26
0.0
 36
0.0
 17
0.0
 27
1.0
 37
0.0
 76
     0
330
1F
331
29
  0
MLINESTYLE
  5
18
102
{ACAD_REACTORS
330
17
102
}
330
17
100
AcDbMlineStyle
  2
Standard
 70
     0
  3

 62
   256
 51
90.0
 52
90.0
 71
     2
 49
0.5
 62
   256
  6
BYLAYER
 49
-0.5
 62
   256
  6
BYLAYER
  0
ACDBPLACEHOLDER
  5
F
102
{ACAD_REACTORS
330
E
102
}
330
E
  0
SCALE
  5
48
102
{ACAD_REACTORS
330
47
102
}
330
47
100
AcDbScale
 70
     0
300
1:1
140
1.0
141
1.0
290
     1
  0
SCALE
  5
49
102
{ACAD_REACTORS
330
47
102
}
330
47
100
AcDbScale
 70
     0
300
1:2
140
1.0
141
2.0
290
     0
  0
SCALE
  5
4A
102
{ACAD_REACTORS
330
47
102
}
330
47
100
AcDbScale
 70
     0
300
1:4
140
1.0
141
4.0
290
     0
  0
SCALE
  5
4B
102
{ACAD_REACTORS
330
47
102
}
330
47
100
AcDbScale
 70
     0
300
1:5
140
1.0
141
5.0
290
     0
  0
SCALE
  5
4C
102
{ACAD_REACTORS
330
47
102
}
330
47
100
AcDbScale
 70
     0
300
1:8
140
1.0
141
8.0
290
     0
  0
SCALE
  5
4D
102
{ACAD_REACTORS
330
47
102
}
330
47
100
AcDbScale
 70
     0
300
1:10
140
1.0
141
10.0
290
     0
  0
SCALE
  5
4E
102
{ACAD_REACTORS
330
47
102
}
330
47
100
AcDbScale
 70
     0
300
1:16
140
1.0
141
16.0
290
     0
  0
SCALE
  5
4F
102
{ACAD_REACTORS
330
47
102
}
330
47
100
AcDbScale
 70
     0
300
1:20
140
1.0
141
20.0
290
     0
  0
SCALE
  5
50
102
{ACAD_REACTORS
330
47
102
}
330
47
100
AcDbScale
 70
     0
300
1:30
140
1.0
141
30.0
290
     0
  0
SCALE
  5
51
102
{ACAD_REACTORS
330
47
102
}
330
47
100
AcDbScale
 70
     0
300
1:40
140
1.0
141
40.0
290
     0
  0
SCALE
  5
52
102
{ACAD_REACTORS
330
47
102
}
330
47
100
AcDbScale
 70
     0
300
1:50
140
1.0
141
50.0
290
     0
  0
SCALE
  5
53
102
{ACAD_REACTORS
330
47
102
}
330
47
100
AcDbScale
 70
     0
300
1:100
140
1.0
141
100.0
290
     0
  0
SCALE
  5
54
102
{ACAD_REACTORS
330
47
102
}
330
47
100
AcDbScale
 70
     0
300
2:1
140
2.0
141
1.0
290
     0
  0
SCALE
  5
55
102
{ACAD_REACTORS
330
47
102
}
330
47
100
AcDbScale
 70
     0
300
4:1
140
4.0
141
1.0
290
     0
  0
SCALE
  5
56
102
{ACAD_REACTORS
330
47
102
}
330
47
100
AcDbScale
 70
     0
300
8:1
140
8.0
141
1.0
290
     0
  0
SCALE
  5
57
102
{ACAD_REACTORS
330
47
102
}
330
47
100
AcDbScale
 70
     0
300
10:1
140
10.0
141
1.0
290
     0
  0
SCALE
  5
58
102
{ACAD_REACTORS
330
47
102
}
330
47
100
AcDbScale
 70
     0
300
100:1
140
100.0
141
1.0
290
     0
  0
ENDSEC
  0
EOF
