ISO-10303-21;
HEADER;
FILE_DESCRIPTION (( 'STEP AP203' ),
    '1' );
FILE_NAME ('TI-00D-STB-008 TITAN Çàãëóøêà ïîä îòâåðñòèå 8ìì (20øò. êîìïë) IEK.STEP',
    '2024-09-11T10:56:58',
    ( '' ),
    ( '' ),
    'SwSTEP 2.0',
    'SolidWorks 2022',
    '' );
FILE_SCHEMA (( 'CONFIG_CONTROL_DESIGN' ));
ENDSEC;

DATA;
#1 = DIRECTION ( 'NONE',  ( -1.000000000000000000, 2.668805347656626185E-16, 0.000000000000000000 ) ) ;
#2 = DATE_AND_TIME ( #90, #156 ) ;
#3 = MECHANICAL_CONTEXT ( 'NONE', #199, 'mechanical' ) ;
#4 = DIRECTION ( 'NONE',  ( 2.668805347656625692E-16, 1.000000000000000000, -0.000000000000000000 ) ) ;
#5 = ORGANIZATION ( 'UNSPECIFIED', 'UNSPECIFIED', '' ) ;
#6 = VERTEX_POINT ( 'NONE', #93 ) ;
#7 = CARTESIAN_POINT ( 'NONE',  ( -4.449999999999999289, 2.500000000000002665, 0.000000000000000000 ) ) ;
#8 = PERSON_AND_ORGANIZATION ( #54, #5 ) ;
#9 = EDGE_LOOP ( 'NONE', ( #134 ) ) ;
#10 = APPROVAL_ROLE ( '' ) ;
#11 = EDGE_CURVE ( 'NONE', #141, #141, #135, .T. ) ;
#12 = CC_DESIGN_PERSON_AND_ORGANIZATION_ASSIGNMENT ( #73, #96, ( #40 ) ) ;
#13 = DIRECTION ( 'NONE',  ( 1.000000000000000000, -2.668805347656625692E-16, 0.000000000000000000 ) ) ;
#14 = EDGE_LOOP ( 'NONE', ( #64 ) ) ;
#15 = CIRCLE ( 'NONE', #20, 6.900000000000000355 ) ;
#16 = CC_DESIGN_DATE_AND_TIME_ASSIGNMENT ( #115, #25, ( #188 ) ) ;
#17 = DIRECTION ( 'NONE',  ( -1.000000000000000000, 2.923691251646304053E-16, 0.000000000000000000 ) ) ;
#18 = CC_DESIGN_DATE_AND_TIME_ASSIGNMENT ( #159, #195, ( #74 ) ) ;
#19 = COORDINATED_UNIVERSAL_TIME_OFFSET ( 3, 0, .AHEAD. ) ;
#20 = AXIS2_PLACEMENT_3D ( 'NONE', #89, #31, #151 ) ;
#21 =( LENGTH_UNIT ( ) NAMED_UNIT ( * ) SI_UNIT ( .MILLI., .METRE. ) );
#22 = CARTESIAN_POINT ( 'NONE',  ( -3.899999999999999467, 2.500000000000002220, 0.000000000000000000 ) ) ;
#23 = FACE_OUTER_BOUND ( 'NONE', #186, .T. ) ;
#24 = CALENDAR_DATE ( 2024, 11, 9 ) ;
#25 = DATE_TIME_ROLE ( 'classification_date' ) ;
#26 = EDGE_LOOP ( 'NONE', ( #117 ) ) ;
#27 = EDGE_LOOP ( 'NONE', ( #201 ) ) ;
#28 = ADVANCED_FACE ( 'NONE', ( #119, #52 ), #121, .T. ) ;
#29 = CIRCLE ( 'NONE', #41, 6.900000000000001243 ) ;
#30 = APPROVAL_PERSON_ORGANIZATION ( #193, #175, #80 ) ;
#31 = DIRECTION ( 'NONE',  ( 2.668805347656625692E-16, 1.000000000000000000, -0.000000000000000000 ) ) ;
#32 = ADVANCED_FACE ( 'NONE', ( #55 ), #122, .T. ) ;
#33 = EDGE_LOOP ( 'NONE', ( #215 ) ) ;
#34 = CARTESIAN_POINT ( 'NONE',  ( -3.899999999999999467, 4.000000000000001776, 0.000000000000000000 ) ) ;
#35 = APPROVAL_PERSON_ORGANIZATION ( #108, #37, #127 ) ;
#36 = CARTESIAN_POINT ( 'NONE',  ( 6.672013369141565217E-16, 2.500000000000001332, 0.000000000000000000 ) ) ;
#37 = APPROVAL ( #77, 'UNSPECIFIED' ) ;
#38 = DIRECTION ( 'NONE',  ( -1.000000000000000000, 2.514091994169285222E-16, 0.000000000000000000 ) ) ;
#39 = VERTEX_POINT ( 'NONE', #72 ) ;
#40 = PRODUCT ( 'TI-00D-STB-008 TITAN \X2\041704300433043b04430448043a0430\X0\ \X2\043f043e0434\X0\ \X2\043e04420432043504400441044204380435\X0\ 8\X2\043c043c\X0\ (20\X2\04480442\X0\. \X2\043a043e043c043f043b\X0\) IEK', 'TI-00D-STB-008 TITAN \X2\041704300433043b04430448043a0430\X0\ \X2\043f043e0434\X0\ \X2\043e04420432043504400441044204380435\X0\ 8\X2\043c043c\X0\ (20\X2\04480442\X0\. \X2\043a043e043c043f043b\X0\) IEK', '', ( #3 ) ) ;
#41 = AXIS2_PLACEMENT_3D ( 'NONE', #138, #185, #38 ) ;
#42 = FACE_OUTER_BOUND ( 'NONE', #116, .T. ) ;
#43 =( NAMED_UNIT ( * ) SI_UNIT ( $, .STERADIAN. ) SOLID_ANGLE_UNIT ( ) );
#44 = CALENDAR_DATE ( 2024, 11, 9 ) ;
#45 = ADVANCED_FACE ( 'NONE', ( #124, #120 ), #85, .T. ) ;
#46 = PERSON_AND_ORGANIZATION ( #54, #5 ) ;
#47 = APPROVAL_DATE_TIME ( #177, #175 ) ;
#48 =( GEOMETRIC_REPRESENTATION_CONTEXT ( 3 ) GLOBAL_UNCERTAINTY_ASSIGNED_CONTEXT ( ( #170 ) ) GLOBAL_UNIT_ASSIGNED_CONTEXT ( ( #21, #106, #43 ) ) REPRESENTATION_CONTEXT ( 'NONE', 'WORKASPACE' ) );
#49 = DIRECTION ( 'NONE',  ( 2.668805347656625692E-16, 1.000000000000000000, -0.000000000000000000 ) ) ;
#50 = ADVANCED_FACE ( 'NONE', ( #200, #181 ), #182, .T. ) ;
#51 = CARTESIAN_POINT ( 'NONE',  ( -1.039086591023562935E-31, -3.893452146803978653E-16, 0.000000000000000000 ) ) ;
#52 = FACE_BOUND ( 'NONE', #168, .T. ) ;
#53 = EDGE_CURVE ( 'NONE', #154, #154, #15, .T. ) ;
#54 = PERSON ( 'UNSPECIFIED', 'UNSPECIFIED', 'UNSPECIFIED', ('UNSPECIFIED'), ('UNSPECIFIED'), ('UNSPECIFIED') ) ;
#55 = FACE_OUTER_BOUND ( 'NONE', #180, .T. ) ;
#56 = VERTEX_POINT ( 'NONE', #22 ) ;
#57 = APPLICATION_PROTOCOL_DEFINITION ( 'international standard', 'config_control_design', 1994, #67 ) ;
#58 = DIRECTION ( 'NONE',  ( 0.000000000000000000, 0.000000000000000000, 1.000000000000000000 ) ) ;
#59 = AXIS2_PLACEMENT_3D ( 'NONE', #152, #169, #1 ) ;
#60 = SHAPE_DEFINITION_REPRESENTATION ( #109, #160 ) ;
#61 = ORIENTED_EDGE ( 'NONE', *, *, #95, .T. ) ;
#62 = AXIS2_PLACEMENT_3D ( 'NONE', #173, #58, #126 ) ;
#63 = CC_DESIGN_SECURITY_CLASSIFICATION ( #188, ( #92 ) ) ;
#64 = ORIENTED_EDGE ( 'NONE', *, *, #132, .T. ) ;
#65 = FACE_BOUND ( 'NONE', #27, .T. ) ;
#66 = AXIS2_PLACEMENT_3D ( 'NONE', #205, #191, #189 ) ;
#67 = APPLICATION_CONTEXT ( 'configuration controlled 3d designs of mechanical parts and assemblies' ) ;
#68 = SPHERICAL_SURFACE ( 'NONE', #91, 24.30499999999997485 ) ;
#69 = DIRECTION ( 'NONE',  ( -2.668805347656625692E-16, -1.000000000000000000, 0.000000000000000000 ) ) ;
#70 = DIRECTION ( 'NONE',  ( 2.668805347656625692E-16, 1.000000000000000000, -0.000000000000000000 ) ) ;
#71 = CIRCLE ( 'NONE', #59, 2.000000000000000000 ) ;
#72 = CARTESIAN_POINT ( 'NONE',  ( -3.899999999999999467, 4.000000000000001776, 0.000000000000000000 ) ) ;
#73 = PERSON_AND_ORGANIZATION ( #54, #5 ) ;
#74 = PRODUCT_DEFINITION ( 'UNKNOWN', '', #92, #209 ) ;
#75 = AXIS2_PLACEMENT_3D ( 'NONE', #107, #4, #203 ) ;
#76 = CARTESIAN_POINT ( 'NONE',  ( -2.000000000000000000, -3.336006684570783594E-16, 0.000000000000000000 ) ) ;
#77 = APPROVAL_STATUS ( 'not_yet_approved' ) ;
#78 = PERSON_AND_ORGANIZATION ( #54, #5 ) ;
#79 = APPROVAL_PERSON_ORGANIZATION ( #78, #149, #10 ) ;
#80 = APPROVAL_ROLE ( '' ) ;
#81 = APPROVAL_DATE_TIME ( #131, #149 ) ;
#82 = ORIENTED_EDGE ( 'NONE', *, *, #94, .F. ) ;
#83 = LOCAL_TIME ( 13, 56, 58.00000000000000000, #165 ) ;
#84 = CC_DESIGN_PERSON_AND_ORGANIZATION_ASSIGNMENT ( #46, #142, ( #92 ) ) ;
#85 = PLANE ( 'NONE',  #110 ) ;
#86 = DIRECTION ( 'NONE',  ( -1.000000000000000000, 2.224004456380521903E-16, 0.000000000000000000 ) ) ;
#87 = CARTESIAN_POINT ( 'NONE',  ( 1.734723475976807094E-15, 6.500000000000002665, 0.000000000000000000 ) ) ;
#88 = CARTESIAN_POINT ( 'NONE',  ( 6.672013369141565217E-16, 2.500000000000001332, 0.000000000000000000 ) ) ;
#89 = CARTESIAN_POINT ( 'NONE',  ( 1.067522139062650277E-15, 4.000000000000000000, 0.000000000000000000 ) ) ;
#90 = CALENDAR_DATE ( 2024, 11, 9 ) ;
#91 = AXIS2_PLACEMENT_3D ( 'NONE', #137, #148, #212 ) ;
#92 = PRODUCT_DEFINITION_FORMATION_WITH_SPECIFIED_SOURCE ( 'ANY', '', #40, .NOT_KNOWN. ) ;
#93 = CARTESIAN_POINT ( 'NONE',  ( -6.899999999999999467, 5.500000000000001776, 0.000000000000000000 ) ) ;
#94 = EDGE_CURVE ( 'NONE', #174, #174, #71, .T. ) ;
#95 = EDGE_CURVE ( 'NONE', #6, #6, #29, .T. ) ;
#96 = PERSON_AND_ORGANIZATION_ROLE ( 'design_owner' ) ;
#97 = LOCAL_TIME ( 13, 56, 58.00000000000000000, #164 ) ;
#98 = EDGE_CURVE ( 'NONE', #56, #56, #162, .T. ) ;
#99 = PERSON_AND_ORGANIZATION_ROLE ( 'creator' ) ;
#100 = ORIENTED_EDGE ( 'NONE', *, *, #53, .F. ) ;
#101 = PRODUCT_RELATED_PRODUCT_CATEGORY ( 'detail', '', ( #40 ) ) ;
#102 = ORIENTED_EDGE ( 'NONE', *, *, #132, .F. ) ;
#103 = DIRECTION ( 'NONE',  ( 2.668805347656625692E-16, 1.000000000000000000, -0.000000000000000000 ) ) ;
#104 = DIRECTION ( 'NONE',  ( -1.000000000000000000, 2.514091994169285222E-16, 0.000000000000000000 ) ) ;
#105 = FACE_OUTER_BOUND ( 'NONE', #196, .T. ) ;
#106 =( NAMED_UNIT ( * ) PLANE_ANGLE_UNIT ( ) SI_UNIT ( $, .RADIAN. ) );
#107 = CARTESIAN_POINT ( 'NONE',  ( 1.734723475976807094E-15, 6.500000000000002665, 0.000000000000000000 ) ) ;
#108 = PERSON_AND_ORGANIZATION ( #54, #5 ) ;
#109 = PRODUCT_DEFINITION_SHAPE ( 'NONE', 'NONE',  #74 ) ;
#110 = AXIS2_PLACEMENT_3D ( 'NONE', #34, #214, #202 ) ;
#111 = COORDINATED_UNIVERSAL_TIME_OFFSET ( 3, 0, .AHEAD. ) ;
#112 = ORIENTED_EDGE ( 'NONE', *, *, #11, .T. ) ;
#113 = APPROVAL_STATUS ( 'not_yet_approved' ) ;
#114 = AXIS2_PLACEMENT_3D ( 'NONE', #87, #103, #104 ) ;
#115 = DATE_AND_TIME ( #161, #83 ) ;
#116 = EDGE_LOOP ( 'NONE', ( #102 ) ) ;
#117 = ORIENTED_EDGE ( 'NONE', *, *, #95, .F. ) ;
#118 = ADVANCED_FACE ( 'NONE', ( #105 ), #68, .T. ) ;
#119 = FACE_OUTER_BOUND ( 'NONE', #211, .T. ) ;
#120 = FACE_OUTER_BOUND ( 'NONE', #179, .T. ) ;
#121 = PLANE ( 'NONE',  #166 ) ;
#122 = PLANE ( 'NONE',  #192 ) ;
#123 = MANIFOLD_SOLID_BREP ( 'Ïîâåðíóòü1', #130 ) ;
#124 = FACE_BOUND ( 'NONE', #14, .T. ) ;
#125 = CARTESIAN_POINT ( 'NONE',  ( -6.899999999999999467, 4.000000000000001776, 0.000000000000000000 ) ) ;
#126 = DIRECTION ( 'NONE',  ( 1.000000000000000000, 0.000000000000000000, 0.000000000000000000 ) ) ;
#127 = APPROVAL_ROLE ( '' ) ;
#128 = ADVANCED_FACE ( 'NONE', ( #65, #167 ), #207, .T. ) ;
#129 = PERSON_AND_ORGANIZATION_ROLE ( 'creator' ) ;
#130 = CLOSED_SHELL ( 'NONE', ( #32, #128, #28, #150, #45, #50, #118 ) ) ;
#131 = DATE_AND_TIME ( #24, #197 ) ;
#132 = EDGE_CURVE ( 'NONE', #39, #39, #213, .T. ) ;
#133 = ORIENTED_EDGE ( 'NONE', *, *, #98, .F. ) ;
#134 = ORIENTED_EDGE ( 'NONE', *, *, #53, .T. ) ;
#135 = CIRCLE ( 'NONE', #194, 4.450000000000000178 ) ;
#136 = CARTESIAN_POINT ( 'NONE',  ( 6.672013369141565217E-16, 2.500000000000001332, 0.000000000000000000 ) ) ;
#137 = CARTESIAN_POINT ( 'NONE',  ( 0.000000000000000000, -17.80499999999997485, 0.000000000000000000 ) ) ;
#138 = CARTESIAN_POINT ( 'NONE',  ( 1.467842941211143934E-15, 5.500000000000000000, 0.000000000000000000 ) ) ;
#139 = APPROVAL_DATE_TIME ( #2, #37 ) ;
#140 = CC_DESIGN_APPROVAL ( #175, ( #92 ) ) ;
#141 = VERTEX_POINT ( 'NONE', #7 ) ;
#142 = PERSON_AND_ORGANIZATION_ROLE ( 'design_supplier' ) ;
#143 = CC_DESIGN_PERSON_AND_ORGANIZATION_ASSIGNMENT ( #8, #176, ( #188 ) ) ;
#144 = CC_DESIGN_APPROVAL ( #149, ( #188 ) ) ;
#145 = CALENDAR_DATE ( 2024, 11, 9 ) ;
#146 = COORDINATED_UNIVERSAL_TIME_OFFSET ( 3, 0, .AHEAD. ) ;
#147 = DIRECTION ( 'NONE',  ( 2.668805347656625692E-16, 1.000000000000000000, -0.000000000000000000 ) ) ;
#148 = DIRECTION ( 'NONE',  ( 0.000000000000000000, 0.000000000000000000, 1.000000000000000000 ) ) ;
#149 = APPROVAL ( #178, 'UNSPECIFIED' ) ;
#150 = ADVANCED_FACE ( 'NONE', ( #23, #42 ), #204, .T. ) ;
#151 = DIRECTION ( 'NONE',  ( -1.000000000000000000, 2.514091994169285716E-16, 0.000000000000000000 ) ) ;
#152 = CARTESIAN_POINT ( 'NONE',  ( -3.851859888774471706E-31, -8.673617379884035472E-16, 0.000000000000000000 ) ) ;
#153 = ORIENTED_EDGE ( 'NONE', *, *, #98, .T. ) ;
#154 = VERTEX_POINT ( 'NONE', #125 ) ;
#155 = AXIS2_PLACEMENT_3D ( 'NONE', #36, #70, #86 ) ;
#156 = LOCAL_TIME ( 13, 56, 58.00000000000000000, #19 ) ;
#157 = DIRECTION ( 'NONE',  ( 2.668805347656625692E-16, 1.000000000000000000, -0.000000000000000000 ) ) ;
#158 = CC_DESIGN_PERSON_AND_ORGANIZATION_ASSIGNMENT ( #163, #99, ( #92 ) ) ;
#159 = DATE_AND_TIME ( #44, #97 ) ;
#160 = ADVANCED_BREP_SHAPE_REPRESENTATION ( 'TI-00D-STB-008 TITAN \X2\041704300433043b04430448043a0430\X0\ \X2\043f043e0434\X0\ \X2\043e04420432043504400441044204380435\X0\ 8\X2\043c043c\X0\ (20\X2\04480442\X0\. \X2\043a043e043c043f043b\X0\) IEK', ( #123, #62 ), #48 ) ;
#161 = CALENDAR_DATE ( 2024, 11, 9 ) ;
#162 = CIRCLE ( 'NONE', #155, 3.900000000000000355 ) ;
#163 = PERSON_AND_ORGANIZATION ( #54, #5 ) ;
#164 = COORDINATED_UNIVERSAL_TIME_OFFSET ( 3, 0, .AHEAD. ) ;
#165 = COORDINATED_UNIVERSAL_TIME_OFFSET ( 3, 0, .AHEAD. ) ;
#166 = AXIS2_PLACEMENT_3D ( 'NONE', #171, #147, #198 ) ;
#167 = FACE_OUTER_BOUND ( 'NONE', #33, .T. ) ;
#168 = EDGE_LOOP ( 'NONE', ( #133 ) ) ;
#169 = DIRECTION ( 'NONE',  ( 2.668805347656625692E-16, 1.000000000000000000, -0.000000000000000000 ) ) ;
#170 = UNCERTAINTY_MEASURE_WITH_UNIT (LENGTH_MEASURE( 1.000000000000000082E-05 ), #21, 'distance_accuracy_value', 'NONE');
#171 = CARTESIAN_POINT ( 'NONE',  ( -4.449999999999999289, 2.500000000000002220, 0.000000000000000000 ) ) ;
#172 = APPLICATION_PROTOCOL_DEFINITION ( 'international standard', 'config_control_design', 1994, #199 ) ;
#173 = CARTESIAN_POINT ( 'NONE',  ( 0.000000000000000000, 0.000000000000000000, 0.000000000000000000 ) ) ;
#174 = VERTEX_POINT ( 'NONE', #76 ) ;
#175 = APPROVAL ( #113, 'UNSPECIFIED' ) ;
#176 = PERSON_AND_ORGANIZATION_ROLE ( 'classification_officer' ) ;
#177 = DATE_AND_TIME ( #145, #184 ) ;
#178 = APPROVAL_STATUS ( 'not_yet_approved' ) ;
#179 = EDGE_LOOP ( 'NONE', ( #100 ) ) ;
#180 = EDGE_LOOP ( 'NONE', ( #82 ) ) ;
#181 = FACE_OUTER_BOUND ( 'NONE', #26, .T. ) ;
#182 = CYLINDRICAL_SURFACE ( 'NONE', #114, 6.900000000000001243 ) ;
#183 = CC_DESIGN_APPROVAL ( #37, ( #74 ) ) ;
#184 = LOCAL_TIME ( 13, 56, 58.00000000000000000, #146 ) ;
#185 = DIRECTION ( 'NONE',  ( 2.668805347656625692E-16, 1.000000000000000000, -0.000000000000000000 ) ) ;
#186 = EDGE_LOOP ( 'NONE', ( #153 ) ) ;
#187 = PERSON_AND_ORGANIZATION ( #54, #5 ) ;
#188 = SECURITY_CLASSIFICATION ( '', '', #208 ) ;
#189 = DIRECTION ( 'NONE',  ( -1.000000000000000000, 2.224004456380521903E-16, 0.000000000000000000 ) ) ;
#190 = DIRECTION ( 'NONE',  ( -1.000000000000000000, 2.923691251646304053E-16, 0.000000000000000000 ) ) ;
#191 = DIRECTION ( 'NONE',  ( 2.668805347656625692E-16, 1.000000000000000000, -0.000000000000000000 ) ) ;
#192 = AXIS2_PLACEMENT_3D ( 'NONE', #51, #69, #13 ) ;
#193 = PERSON_AND_ORGANIZATION ( #54, #5 ) ;
#194 = AXIS2_PLACEMENT_3D ( 'NONE', #88, #49, #17 ) ;
#195 = DATE_TIME_ROLE ( 'creation_date' ) ;
#196 = EDGE_LOOP ( 'NONE', ( #61 ) ) ;
#197 = LOCAL_TIME ( 13, 56, 58.00000000000000000, #111 ) ;
#198 = DIRECTION ( 'NONE',  ( -1.000000000000000000, 2.668805347656625692E-16, 0.000000000000000000 ) ) ;
#199 = APPLICATION_CONTEXT ( 'configuration controlled 3d designs of mechanical parts and assemblies' ) ;
#200 = FACE_OUTER_BOUND ( 'NONE', #9, .T. ) ;
#201 = ORIENTED_EDGE ( 'NONE', *, *, #94, .T. ) ;
#202 = DIRECTION ( 'NONE',  ( 1.000000000000000000, -2.668805347656625692E-16, 0.000000000000000000 ) ) ;
#203 = DIRECTION ( 'NONE',  ( -1.000000000000000000, 2.224004456380521903E-16, 0.000000000000000000 ) ) ;
#204 = CYLINDRICAL_SURFACE ( 'NONE', #75, 3.900000000000000355 ) ;
#205 = CARTESIAN_POINT ( 'NONE',  ( 1.067522139062650277E-15, 4.000000000000000888, 0.000000000000000000 ) ) ;
#206 = AXIS2_PLACEMENT_3D ( 'NONE', #136, #157, #190 ) ;
#207 = CONICAL_SURFACE ( 'NONE', #206, 4.450000000000000178, 0.7752974968121258970 ) ;
#208 = SECURITY_CLASSIFICATION_LEVEL ( 'unclassified' ) ;
#209 = DESIGN_CONTEXT ( 'detailed design', #67, 'design' ) ;
#210 = CC_DESIGN_PERSON_AND_ORGANIZATION_ASSIGNMENT ( #187, #129, ( #74 ) ) ;
#211 = EDGE_LOOP ( 'NONE', ( #112 ) ) ;
#212 = DIRECTION ( 'NONE',  ( -1.000000000000000000, 2.854924461595241957E-16, 0.000000000000000000 ) ) ;
#213 = CIRCLE ( 'NONE', #66, 3.900000000000000355 ) ;
#214 = DIRECTION ( 'NONE',  ( -2.668805347656625692E-16, -1.000000000000000000, 0.000000000000000000 ) ) ;
#215 = ORIENTED_EDGE ( 'NONE', *, *, #11, .F. ) ;
ENDSEC;
END-ISO-10303-21;
