ISO-10303-21;
HEADER;
FILE_DESCRIPTION (( 'STEP AP203' ),
    '1' );
FILE_NAME ('YIS32 Óãëîâîé èçîëÿòîð äëÿ  Î øèíû ñèíèé.STEP',
    '2016-09-08T06:37:16',
    ( '' ),
    ( '' ),
    'SwSTEP 2.0',
    'SolidWorks 2014',
    '' );
FILE_SCHEMA (( 'CONFIG_CONTROL_DESIGN' ));
ENDSEC;

DATA;
#1 = CIRCLE ( 'NONE', #172, 7.000000000000000000 ) ;
#2 = VERTEX_POINT ( 'NONE', #287 ) ;
#3 = APPROVAL_ROLE ( '' ) ;
#4 = APPROVAL_STATUS ( 'not_yet_approved' ) ;
#5 = APPROVAL_DATE_TIME ( #267, #324 ) ;
#6 = CARTESIAN_POINT ( 'NONE',  ( 0.0000000000000000000, 0.0000000000000000000, 0.0000000000000000000 ) ) ;
#7 = DIRECTION ( 'NONE',  ( 0.0000000000000000000, -0.0000000000000000000, 1.000000000000000000 ) ) ;
#8 = CIRCLE ( 'NONE', #155, 3.500000000000000000 ) ;
#9 = DATE_TIME_ROLE ( 'classification_date' ) ;
#10 = ORIENTED_EDGE ( 'NONE', *, *, #229, .T. ) ;
#11 = PERSON_AND_ORGANIZATION_ROLE ( 'classification_officer' ) ;
#12 = UNCERTAINTY_MEASURE_WITH_UNIT (LENGTH_MEASURE( 1.000000000000000100E-005 ), #68, 'distance_accuracy_value', 'NONE');
#13 = CC_DESIGN_PERSON_AND_ORGANIZATION_ASSIGNMENT ( #333, #15, ( #307 ) ) ;
#14 = SECURITY_CLASSIFICATION_LEVEL ( 'unclassified' ) ;
#15 = PERSON_AND_ORGANIZATION_ROLE ( 'design_supplier' ) ;
#16 = PERSON_AND_ORGANIZATION_ROLE ( 'creator' ) ;
#17 = AXIS2_PLACEMENT_3D ( 'NONE', #301, #299, #295 ) ;
#18 = APPROVAL_ROLE ( '' ) ;
#19 = EDGE_LOOP ( 'NONE', ( #226 ) ) ;
#20 = APPROVAL_STATUS ( 'not_yet_approved' ) ;
#21 = DATE_AND_TIME ( #27, #224 ) ;
#22 = DATE_TIME_ROLE ( 'creation_date' ) ;
#23 = APPROVAL_DATE_TIME ( #21, #93 ) ;
#24 = CYLINDRICAL_SURFACE ( 'NONE', #57, 2.000000000000003100 ) ;
#25 = ORIENTED_EDGE ( 'NONE', *, *, #354, .T. ) ;
#26 = PERSON_AND_ORGANIZATION_ROLE ( 'creator' ) ;
#27 = CALENDAR_DATE ( 2016, 8, 9 ) ;
#28 = APPROVAL_ROLE ( '' ) ;
#29 = SECURITY_CLASSIFICATION ( '', '', #14 ) ;
#30 = APPROVAL_STATUS ( 'not_yet_approved' ) ;
#31 = APPLICATION_PROTOCOL_DEFINITION ( 'international standard', 'config_control_design', 1994, #39 ) ;
#32 = PLANE ( 'NONE',  #310 ) ;
#33 = PLANE ( 'NONE',  #369 ) ;
#34 = PRODUCT_DEFINITION_SHAPE ( 'NONE', 'NONE',  #221 ) ;
#35 = CARTESIAN_POINT ( 'NONE',  ( 0.0000000000000000000, 9.500000000000000000, -7.000000000000000000 ) ) ;
#36 = ORIENTED_EDGE ( 'NONE', *, *, #137, .T. ) ;
#37 = CIRCLE ( 'NONE', #134, 7.000000000000000000 ) ;
#38 = AXIS2_PLACEMENT_3D ( 'NONE', #242, #303, #302 ) ;
#39 = APPLICATION_CONTEXT ( 'configuration controlled 3d designs of mechanical parts and assemblies' ) ;
#40 = EDGE_LOOP ( 'NONE', ( #56 ) ) ;
#41 = AXIS2_PLACEMENT_3D ( 'NONE', #316, #126, #124 ) ;
#42 = PERSON_AND_ORGANIZATION_ROLE ( 'design_owner' ) ;
#43 = MECHANICAL_CONTEXT ( 'NONE', #47, 'mechanical' ) ;
#44 = DIRECTION ( 'NONE',  ( 1.000000000000000000, 0.0000000000000000000, 0.0000000000000000000 ) ) ;
#45 = DIRECTION ( 'NONE',  ( 0.0000000000000000000, 0.0000000000000000000, -1.000000000000000000 ) ) ;
#46 = VECTOR ( 'NONE', #231, 1000.000000000000000 ) ;
#47 = APPLICATION_CONTEXT ( 'configuration controlled 3d designs of mechanical parts and assemblies' ) ;
#48 = EDGE_LOOP ( 'NONE', ( #286 ) ) ;
#49 = DIRECTION ( 'NONE',  ( 0.0000000000000000000, 1.000000000000000000, 0.0000000000000000000 ) ) ;
#50 = VERTEX_POINT ( 'NONE', #94 ) ;
#51 = LINE ( 'NONE', #167, #339 ) ;
#52 = CIRCLE ( 'NONE', #92, 7.000000000000000000 ) ;
#53 = CC_DESIGN_PERSON_AND_ORGANIZATION_ASSIGNMENT ( #352, #11, ( #29 ) ) ;
#54 = DATE_AND_TIME ( #79, #116 ) ;
#55 = LOCAL_TIME ( 9, 37, 16.00000000000000000, #156 ) ;
#56 = ORIENTED_EDGE ( 'NONE', *, *, #157, .T. ) ;
#57 = AXIS2_PLACEMENT_3D ( 'NONE', #345, #342, #349 ) ;
#58 = FACE_OUTER_BOUND ( 'NONE', #154, .T. ) ;
#59 = VECTOR ( 'NONE', #248, 1000.000000000000000 ) ;
#60 = ADVANCED_FACE ( 'NONE', ( #222, #209 ), #200, .F. ) ;
#61 = VERTEX_POINT ( 'NONE', #187 ) ;
#62 = AXIS2_PLACEMENT_3D ( 'NONE', #249, #185, #198 ) ;
#63 = APPLICATION_PROTOCOL_DEFINITION ( 'international standard', 'config_control_design', 1994, #47 ) ;
#64 = LINE ( 'NONE', #233, #46 ) ;
#65 =( NAMED_UNIT ( * ) SI_UNIT ( $, .STERADIAN. ) SOLID_ANGLE_UNIT ( ) );
#66 =( NAMED_UNIT ( * ) PLANE_ANGLE_UNIT ( ) SI_UNIT ( $, .RADIAN. ) );
#67 = CIRCLE ( 'NONE', #194, 2.000000000000000000 ) ;
#68 =( LENGTH_UNIT ( ) NAMED_UNIT ( * ) SI_UNIT ( .MILLI., .METRE. ) );
#69 = CALENDAR_DATE ( 2016, 8, 9 ) ;
#70 = CYLINDRICAL_SURFACE ( 'NONE', #111, 7.000000000000000000 ) ;
#71 = CC_DESIGN_DATE_AND_TIME_ASSIGNMENT ( #308, #9, ( #29 ) ) ;
#72 = DIRECTION ( 'NONE',  ( -0.0000000000000000000, -1.000000000000000000, -0.0000000000000000000 ) ) ;
#73 = APPROVAL_PERSON_ORGANIZATION ( #309, #235, #28 ) ;
#74 = DIRECTION ( 'NONE',  ( 0.0000000000000000000, 0.0000000000000000000, 1.000000000000000000 ) ) ;
#75 = EDGE_CURVE ( 'NONE', #278, #312, #203, .T. ) ;
#76 = CARTESIAN_POINT ( 'NONE',  ( 0.0000000000000000000, 11.00000000000000000, -2.000000000000000000 ) ) ;
#77 = ADVANCED_FACE ( 'NONE', ( #204, #206 ), #313, .T. ) ;
#78 = CARTESIAN_POINT ( 'NONE',  ( 0.0000000000000000000, 11.00000000000000000, -3.500000000000000000 ) ) ;
#79 = CALENDAR_DATE ( 2016, 8, 9 ) ;
#80 = CARTESIAN_POINT ( 'NONE',  ( 0.0000000000000000000, 0.0000000000000000000, -3.500000000000000000 ) ) ;
#81 = EDGE_CURVE ( 'NONE', #312, #251, #179, .T. ) ;
#82 = CARTESIAN_POINT ( 'NONE',  ( 0.0000000000000000000, 15.00000000000000000, 7.000000000000000000 ) ) ;
#83 = ADVANCED_FACE ( 'NONE', ( #175 ), #131, .F. ) ;
#84 = LINE ( 'NONE', #253, #89 ) ;
#85 = AXIS2_PLACEMENT_3D ( 'NONE', #101, #121, #321 ) ;
#86 = PERSON_AND_ORGANIZATION ( #293, #290 ) ;
#87 = PERSON_AND_ORGANIZATION ( #293, #290 ) ;
#88 = CARTESIAN_POINT ( 'NONE',  ( 0.0000000000000000000, 0.0000000000000000000, 0.0000000000000000000 ) ) ;
#89 = VECTOR ( 'NONE', #255, 1000.000000000000000 ) ;
#90 = FACE_OUTER_BOUND ( 'NONE', #318, .T. ) ;
#91 = ORIENTED_EDGE ( 'NONE', *, *, #229, .F. ) ;
#92 = AXIS2_PLACEMENT_3D ( 'NONE', #217, #215, #212 ) ;
#93 = APPROVAL ( #4, 'UNSPECIFIED' ) ;
#94 = CARTESIAN_POINT ( 'NONE',  ( 14.00000000000000200, 0.0000000000000000000, 2.000000000000003100 ) ) ;
#95 = DIRECTION ( 'NONE',  ( 0.0000000000000000000, 0.0000000000000000000, 1.000000000000000000 ) ) ;
#96 = DIRECTION ( 'NONE',  ( 1.000000000000000000, 0.0000000000000000000, -0.0000000000000000000 ) ) ;
#97 = LINE ( 'NONE', #277, #59 ) ;
#98 = CIRCLE ( 'NONE', #17, 3.500000000000000000 ) ;
#99 = AXIS2_PLACEMENT_3D ( 'NONE', #266, #264, #262 ) ;
#100 = ORIENTED_EDGE ( 'NONE', *, *, #137, .F. ) ;
#101 = CARTESIAN_POINT ( 'NONE',  ( 0.0000000000000000000, 15.00000000000000000, 0.0000000000000000000 ) ) ;
#102 = DATE_AND_TIME ( #69, #152 ) ;
#103 = CARTESIAN_POINT ( 'NONE',  ( 0.0000000000000000000, 15.00000000000000000, 2.000000000000000000 ) ) ;
#104 = CIRCLE ( 'NONE', #38, 7.000000000000000000 ) ;
#105 = DIRECTION ( 'NONE',  ( -1.000000000000000000, 0.0000000000000000000, -0.0000000000000000000 ) ) ;
#106 = DIRECTION ( 'NONE',  ( 0.0000000000000000000, 0.0000000000000000000, -1.000000000000000000 ) ) ;
#107 = CARTESIAN_POINT ( 'NONE',  ( 0.0000000000000000000, 9.500000000000000000, 7.000000000000000000 ) ) ;
#108 = FACE_OUTER_BOUND ( 'NONE', #326, .T. ) ;
#109 = CARTESIAN_POINT ( 'NONE',  ( 0.0000000000000000000, 11.00000000000000000, 0.0000000000000000000 ) ) ;
#110 = CIRCLE ( 'NONE', #99, 7.000000000000000000 ) ;
#111 = AXIS2_PLACEMENT_3D ( 'NONE', #269, #271, #275 ) ;
#112 = APPROVAL_PERSON_ORGANIZATION ( #340, #93, #3 ) ;
#113 = CC_DESIGN_APPROVAL ( #93, ( #29 ) ) ;
#114 = EDGE_CURVE ( 'NONE', #223, #223, #178, .T. ) ;
#115 = CARTESIAN_POINT ( 'NONE',  ( 14.00000000000000200, 0.0000000000000000000, -7.000000000000000000 ) ) ;
#116 = LOCAL_TIME ( 9, 37, 16.00000000000000000, #186 ) ;
#117 = APPROVAL_DATE_TIME ( #54, #235 ) ;
#118 = FACE_BOUND ( 'NONE', #240, .T. ) ;
#119 = FACE_OUTER_BOUND ( 'NONE', #210, .T. ) ;
#120 = AXIS2_PLACEMENT_3D ( 'NONE', #323, #291, #289 ) ;
#121 = DIRECTION ( 'NONE',  ( 0.0000000000000000000, 1.000000000000000000, 0.0000000000000000000 ) ) ;
#122 = FACE_OUTER_BOUND ( 'NONE', #259, .T. ) ;
#123 = FACE_OUTER_BOUND ( 'NONE', #338, .T. ) ;
#124 = DIRECTION ( 'NONE',  ( 0.0000000000000000000, 0.0000000000000000000, -1.000000000000000000 ) ) ;
#125 = ADVANCED_FACE ( 'NONE', ( #169, #160 ), #150, .F. ) ;
#126 = DIRECTION ( 'NONE',  ( -0.0000000000000000000, -1.000000000000000000, -0.0000000000000000000 ) ) ;
#127 = DIRECTION ( 'NONE',  ( -1.000000000000000000, -0.0000000000000000000, -0.0000000000000000000 ) ) ;
#128 = CARTESIAN_POINT ( 'NONE',  ( 0.0000000000000000000, 0.0000000000000000000, 7.000000000000000000 ) ) ;
#129 = FACE_BOUND ( 'NONE', #311, .T. ) ;
#130 = DIRECTION ( 'NONE',  ( -0.0000000000000000000, -1.000000000000000000, -0.0000000000000000000 ) ) ;
#131 = PLANE ( 'NONE',  #238 ) ;
#132 = FACE_OUTER_BOUND ( 'NONE', #272, .T. ) ;
#133 = CIRCLE ( 'NONE', #257, 2.000000000000003100 ) ;
#134 = AXIS2_PLACEMENT_3D ( 'NONE', #201, #199, #197 ) ;
#135 = ORIENTED_EDGE ( 'NONE', *, *, #243, .F. ) ;
#136 = PLANE ( 'NONE',  #261 ) ;
#137 = EDGE_CURVE ( 'NONE', #61, #297, #153, .T. ) ;
#138 = DIRECTION ( 'NONE',  ( 0.0000000000000000000, 0.0000000000000000000, -1.000000000000000000 ) ) ;
#139 = CIRCLE ( 'NONE', #348, 2.000000000000003100 ) ;
#140 = DIRECTION ( 'NONE',  ( 0.0000000000000000000, -1.000000000000000000, 0.0000000000000000000 ) ) ;
#141 = ORIENTED_EDGE ( 'NONE', *, *, #354, .F. ) ;
#142 = CARTESIAN_POINT ( 'NONE',  ( 0.0000000000000000000, 11.00000000000000000, 0.0000000000000000000 ) ) ;
#143 = FACE_OUTER_BOUND ( 'NONE', #365, .T. ) ;
#144 = CC_DESIGN_PERSON_AND_ORGANIZATION_ASSIGNMENT ( #86, #42, ( #216 ) ) ;
#145 = CARTESIAN_POINT ( 'NONE',  ( 0.0000000000000000000, 0.0000000000000000000, -7.000000000000000000 ) ) ;
#146 = ADVANCED_FACE ( 'NONE', ( #183, #147, #184 ), #32, .F. ) ;
#147 = FACE_OUTER_BOUND ( 'NONE', #250, .T. ) ;
#148 = ORIENTED_EDGE ( 'NONE', *, *, #191, .T. ) ;
#149 = CARTESIAN_POINT ( 'NONE',  ( 14.00000000000000200, 9.500000000000000000, 2.000000000000003100 ) ) ;
#150 = CYLINDRICAL_SURFACE ( 'NONE', #294, 3.500000000000000000 ) ;
#151 = ORIENTED_EDGE ( 'NONE', *, *, #305, .F. ) ;
#152 = LOCAL_TIME ( 9, 37, 16.00000000000000000, #315 ) ;
#153 = LINE ( 'NONE', #35, #168 ) ;
#154 = EDGE_LOOP ( 'NONE', ( #306 ) ) ;
#155 = AXIS2_PLACEMENT_3D ( 'NONE', #190, #181, #170 ) ;
#156 = COORDINATED_UNIVERSAL_TIME_OFFSET ( 3, 0, .AHEAD. ) ;
#157 = EDGE_CURVE ( 'NONE', #50, #50, #133, .T. ) ;
#158 = CARTESIAN_POINT ( 'NONE',  ( 0.0000000000000000000, 9.500000000000000000, 0.0000000000000000000 ) ) ;
#159 = DIRECTION ( 'NONE',  ( 1.000000000000000000, 0.0000000000000000000, 0.0000000000000000000 ) ) ;
#160 = FACE_OUTER_BOUND ( 'NONE', #256, .T. ) ;
#161 = VERTEX_POINT ( 'NONE', #363 ) ;
#162 = DIRECTION ( 'NONE',  ( 0.0000000000000000000, 0.0000000000000000000, 1.000000000000000000 ) ) ;
#163 = ADVANCED_BREP_SHAPE_REPRESENTATION ( 'YIS32 Lóûþòþù ø÷þû ªþ¨ ôû   + °øýv ¸øýøù', ( #281, #337 ), #211 ) ;
#164 = CARTESIAN_POINT ( 'NONE',  ( 0.0000000000000000000, 9.500000000000000000, -7.000000000000000000 ) ) ;
#165 = DIRECTION ( 'NONE',  ( 0.0000000000000000000, 1.000000000000000000, 0.0000000000000000000 ) ) ;
#166 = CARTESIAN_POINT ( 'NONE',  ( 14.00000000000000200, 0.0000000000000000000, 0.0000000000000000000 ) ) ;
#167 = CARTESIAN_POINT ( 'NONE',  ( 0.0000000000000000000, 9.500000000000000000, 7.000000000000000000 ) ) ;
#168 = VECTOR ( 'NONE', #72, 1000.000000000000000 ) ;
#169 = FACE_OUTER_BOUND ( 'NONE', #48, .T. ) ;
#170 = DIRECTION ( 'NONE',  ( 0.0000000000000000000, 0.0000000000000000000, -1.000000000000000000 ) ) ;
#171 = ORIENTED_EDGE ( 'NONE', *, *, #265, .F. ) ;
#172 = AXIS2_PLACEMENT_3D ( 'NONE', #166, #165, #162 ) ;
#173 = COORDINATED_UNIVERSAL_TIME_OFFSET ( 3, 0, .AHEAD. ) ;
#174 = ADVANCED_FACE ( 'NONE', ( #119, #129 ), #33, .T. ) ;
#175 = FACE_OUTER_BOUND ( 'NONE', #320, .T. ) ;
#176 = CC_DESIGN_SECURITY_CLASSIFICATION ( #29, ( #307 ) ) ;
#177 = EDGE_CURVE ( 'NONE', #300, #300, #139, .T. ) ;
#178 = CIRCLE ( 'NONE', #85, 2.000000000000000000 ) ;
#179 = LINE ( 'NONE', #128, #205 ) ;
#180 = ADVANCED_FACE ( 'NONE', ( #122, #108 ), #24, .F. ) ;
#181 = DIRECTION ( 'NONE',  ( 0.0000000000000000000, -1.000000000000000000, 0.0000000000000000000 ) ) ;
#182 = PERSON_AND_ORGANIZATION ( #293, #290 ) ;
#183 = FACE_BOUND ( 'NONE', #273, .T. ) ;
#184 = FACE_BOUND ( 'NONE', #40, .T. ) ;
#185 = DIRECTION ( 'NONE',  ( 0.0000000000000000000, 1.000000000000000000, 0.0000000000000000000 ) ) ;
#186 = COORDINATED_UNIVERSAL_TIME_OFFSET ( 3, 0, .AHEAD. ) ;
#187 = CARTESIAN_POINT ( 'NONE',  ( 0.0000000000000000000, 9.500000000000000000, -7.000000000000000000 ) ) ;
#188 = VECTOR ( 'NONE', #244, 1000.000000000000000 ) ;
#189 = ORIENTED_EDGE ( 'NONE', *, *, #314, .F. ) ;
#190 = CARTESIAN_POINT ( 'NONE',  ( 0.0000000000000000000, 11.00000000000000000, 0.0000000000000000000 ) ) ;
#191 = EDGE_CURVE ( 'NONE', #237, #237, #104, .T. ) ;
#192 = DIRECTION ( 'NONE',  ( 0.0000000000000000000, 0.0000000000000000000, -1.000000000000000000 ) ) ;
#193 = PERSON_AND_ORGANIZATION ( #293, #290 ) ;
#194 = AXIS2_PLACEMENT_3D ( 'NONE', #142, #140, #138 ) ;
#195 = CARTESIAN_POINT ( 'NONE',  ( 0.0000000000000000000, 0.0000000000000000000, 7.000000000000000000 ) ) ;
#196 = PRODUCT_RELATED_PRODUCT_CATEGORY ( 'detail', '', ( #216 ) ) ;
#197 = DIRECTION ( 'NONE',  ( 0.0000000000000000000, 0.0000000000000000000, 1.000000000000000000 ) ) ;
#198 = DIRECTION ( 'NONE',  ( 0.0000000000000000000, -0.0000000000000000000, 1.000000000000000000 ) ) ;
#199 = DIRECTION ( 'NONE',  ( 0.0000000000000000000, 1.000000000000000000, 0.0000000000000000000 ) ) ;
#200 = CYLINDRICAL_SURFACE ( 'NONE', #41, 2.000000000000000000 ) ;
#201 = CARTESIAN_POINT ( 'NONE',  ( 14.00000000000000200, 9.500000000000000000, 0.0000000000000000000 ) ) ;
#202 = CARTESIAN_POINT ( 'NONE',  ( 0.0000000000000000000, 0.0000000000000000000, -7.000000000000000000 ) ) ;
#203 = LINE ( 'NONE', #218, #188 ) ;
#204 = FACE_OUTER_BOUND ( 'NONE', #270, .T. ) ;
#205 = VECTOR ( 'NONE', #344, 1000.000000000000000 ) ;
#206 = FACE_BOUND ( 'NONE', #341, .T. ) ;
#207 = DESIGN_CONTEXT ( 'detailed design', #39, 'design' ) ;
#208 = EDGE_CURVE ( 'NONE', #367, #367, #98, .T. ) ;
#209 = FACE_OUTER_BOUND ( 'NONE', #279, .T. ) ;
#210 = EDGE_LOOP ( 'NONE', ( #304, #246, #263, #292 ) ) ;
#211 =( GEOMETRIC_REPRESENTATION_CONTEXT ( 3 ) GLOBAL_UNCERTAINTY_ASSIGNED_CONTEXT ( ( #12 ) ) GLOBAL_UNIT_ASSIGNED_CONTEXT ( ( #68, #66, #65 ) ) REPRESENTATION_CONTEXT ( 'NONE', 'WORKASPACE' ) );
#212 = DIRECTION ( 'NONE',  ( 0.0000000000000000000, 0.0000000000000000000, 1.000000000000000000 ) ) ;
#213 = ADVANCED_FACE ( 'NONE', ( #118, #90 ), #325, .T. ) ;
#214 = EDGE_CURVE ( 'NONE', #278, #61, #110, .T. ) ;
#215 = DIRECTION ( 'NONE',  ( 0.0000000000000000000, 1.000000000000000000, 0.0000000000000000000 ) ) ;
#216 = PRODUCT ( 'YIS32 Óãëîâîé èçîëÿòîð äëÿ  Î øèíû ñèíèé', 'YIS32 Óãëîâîé èçîëÿòîð äëÿ  Î øèíû ñèíèé', '', ( #43 ) ) ;
#217 = CARTESIAN_POINT ( 'NONE',  ( 0.0000000000000000000, 0.0000000000000000000, 0.0000000000000000000 ) ) ;
#218 = CARTESIAN_POINT ( 'NONE',  ( 0.0000000000000000000, 9.500000000000000000, 7.000000000000000000 ) ) ;
#219 = VECTOR ( 'NONE', #127, 1000.000000000000000 ) ;
#220 = ORIENTED_EDGE ( 'NONE', *, *, #81, .T. ) ;
#221 = PRODUCT_DEFINITION ( 'UNKNOWN', '', #307, #207 ) ;
#222 = FACE_OUTER_BOUND ( 'NONE', #19, .T. ) ;
#223 = VERTEX_POINT ( 'NONE', #103 ) ;
#224 = LOCAL_TIME ( 9, 37, 16.00000000000000000, #296 ) ;
#225 = ADVANCED_FACE ( 'NONE', ( #123 ), #70, .T. ) ;
#226 = ORIENTED_EDGE ( 'NONE', *, *, #114, .T. ) ;
#227 = ORIENTED_EDGE ( 'NONE', *, *, #114, .F. ) ;
#228 = ORIENTED_EDGE ( 'NONE', *, *, #157, .F. ) ;
#229 = EDGE_CURVE ( 'NONE', #161, #251, #84, .T. ) ;
#230 = LINE ( 'NONE', #145, #219 ) ;
#231 = DIRECTION ( 'NONE',  ( -0.0000000000000000000, -1.000000000000000000, -0.0000000000000000000 ) ) ;
#232 = VERTEX_POINT ( 'NONE', #78 ) ;
#233 = CARTESIAN_POINT ( 'NONE',  ( 14.00000000000000200, 9.500000000000000000, -7.000000000000000000 ) ) ;
#234 = ORIENTED_EDGE ( 'NONE', *, *, #214, .T. ) ;
#235 = APPROVAL ( #30, 'UNSPECIFIED' ) ;
#236 = CARTESIAN_POINT ( 'NONE',  ( 14.00000000000000200, 0.0000000000000000000, 7.000000000000000000 ) ) ;
#237 = VERTEX_POINT ( 'NONE', #82 ) ;
#238 = AXIS2_PLACEMENT_3D ( 'NONE', #164, #95, #96 ) ;
#239 = CARTESIAN_POINT ( 'NONE',  ( 0.0000000000000000000, 9.500000000000000000, 7.000000000000000000 ) ) ;
#240 = EDGE_LOOP ( 'NONE', ( #241 ) ) ;
#241 = ORIENTED_EDGE ( 'NONE', *, *, #334, .F. ) ;
#242 = CARTESIAN_POINT ( 'NONE',  ( 0.0000000000000000000, 15.00000000000000000, 0.0000000000000000000 ) ) ;
#243 = EDGE_CURVE ( 'NONE', #2, #61, #97, .T. ) ;
#244 = DIRECTION ( 'NONE',  ( -0.0000000000000000000, -1.000000000000000000, -0.0000000000000000000 ) ) ;
#245 = AXIS2_PLACEMENT_3D ( 'NONE', #158, #247, #192 ) ;
#246 = ORIENTED_EDGE ( 'NONE', *, *, #314, .T. ) ;
#247 = DIRECTION ( 'NONE',  ( -0.0000000000000000000, -1.000000000000000000, -0.0000000000000000000 ) ) ;
#248 = DIRECTION ( 'NONE',  ( -1.000000000000000000, -0.0000000000000000000, -0.0000000000000000000 ) ) ;
#249 = CARTESIAN_POINT ( 'NONE',  ( 0.0000000000000000000, 15.00000000000000000, 0.0000000000000000000 ) ) ;
#250 = EDGE_LOOP ( 'NONE', ( #171, #141, #151, #332 ) ) ;
#251 = VERTEX_POINT ( 'NONE', #236 ) ;
#252 = ORIENTED_EDGE ( 'NONE', *, *, #280, .F. ) ;
#253 = CARTESIAN_POINT ( 'NONE',  ( 14.00000000000000200, 9.500000000000000000, 7.000000000000000000 ) ) ;
#254 = CC_DESIGN_APPROVAL ( #235, ( #221 ) ) ;
#255 = DIRECTION ( 'NONE',  ( -0.0000000000000000000, -1.000000000000000000, -0.0000000000000000000 ) ) ;
#256 = EDGE_LOOP ( 'NONE', ( #317 ) ) ;
#257 = AXIS2_PLACEMENT_3D ( 'NONE', #362, #360, #357 ) ;
#258 = ORIENTED_EDGE ( 'NONE', *, *, #260, .F. ) ;
#259 = EDGE_LOOP ( 'NONE', ( #353 ) ) ;
#260 = EDGE_CURVE ( 'NONE', #2, #359, #64, .T. ) ;
#261 = AXIS2_PLACEMENT_3D ( 'NONE', #107, #106, #105 ) ;
#262 = DIRECTION ( 'NONE',  ( 0.0000000000000000000, 0.0000000000000000000, 1.000000000000000000 ) ) ;
#263 = ORIENTED_EDGE ( 'NONE', *, *, #280, .T. ) ;
#264 = DIRECTION ( 'NONE',  ( 0.0000000000000000000, 1.000000000000000000, 0.0000000000000000000 ) ) ;
#265 = EDGE_CURVE ( 'NONE', #297, #312, #52, .T. ) ;
#266 = CARTESIAN_POINT ( 'NONE',  ( 0.0000000000000000000, 9.500000000000000000, 0.0000000000000000000 ) ) ;
#267 = DATE_AND_TIME ( #282, #285 ) ;
#268 = CC_DESIGN_PERSON_AND_ORGANIZATION_ASSIGNMENT ( #182, #26, ( #221 ) ) ;
#269 = CARTESIAN_POINT ( 'NONE',  ( 14.00000000000000200, 9.500000000000000000, 0.0000000000000000000 ) ) ;
#270 = EDGE_LOOP ( 'NONE', ( #148 ) ) ;
#271 = DIRECTION ( 'NONE',  ( -0.0000000000000000000, -1.000000000000000000, -0.0000000000000000000 ) ) ;
#272 = EDGE_LOOP ( 'NONE', ( #368, #347, #234, #36 ) ) ;
#273 = EDGE_LOOP ( 'NONE', ( #336 ) ) ;
#274 = ORIENTED_EDGE ( 'NONE', *, *, #260, .T. ) ;
#275 = DIRECTION ( 'NONE',  ( 0.0000000000000000000, 0.0000000000000000000, -1.000000000000000000 ) ) ;
#276 = SHAPE_DEFINITION_REPRESENTATION ( #34, #163 ) ;
#277 = CARTESIAN_POINT ( 'NONE',  ( 0.0000000000000000000, 9.500000000000000000, -7.000000000000000000 ) ) ;
#278 = VERTEX_POINT ( 'NONE', #239 ) ;
#279 = EDGE_LOOP ( 'NONE', ( #330 ) ) ;
#280 = EDGE_CURVE ( 'NONE', #161, #2, #37, .T. ) ;
#281 = MANIFOLD_SOLID_BREP ( 'Âûðåç-Âûòÿíóòü1', #319 ) ;
#282 = CALENDAR_DATE ( 2016, 8, 9 ) ;
#283 = ORIENTED_EDGE ( 'NONE', *, *, #305, .T. ) ;
#284 = CYLINDRICAL_SURFACE ( 'NONE', #245, 7.000000000000000000 ) ;
#285 = LOCAL_TIME ( 9, 37, 16.00000000000000000, #173 ) ;
#286 = ORIENTED_EDGE ( 'NONE', *, *, #298, .F. ) ;
#287 = CARTESIAN_POINT ( 'NONE',  ( 14.00000000000000200, 9.500000000000000000, -7.000000000000000000 ) ) ;
#288 = CC_DESIGN_DATE_AND_TIME_ASSIGNMENT ( #102, #22, ( #221 ) ) ;
#289 = DIRECTION ( 'NONE',  ( 0.0000000000000000000, -0.0000000000000000000, -1.000000000000000000 ) ) ;
#290 = ORGANIZATION ( 'UNSPECIFIED', 'UNSPECIFIED', '' ) ;
#291 = DIRECTION ( 'NONE',  ( 0.0000000000000000000, -1.000000000000000000, 0.0000000000000000000 ) ) ;
#292 = ORIENTED_EDGE ( 'NONE', *, *, #243, .T. ) ;
#293 = PERSON ( 'UNSPECIFIED', 'UNSPECIFIED', 'UNSPECIFIED', ('UNSPECIFIED'), ('UNSPECIFIED'), ('UNSPECIFIED') ) ;
#294 = AXIS2_PLACEMENT_3D ( 'NONE', #109, #130, #45 ) ;
#295 = DIRECTION ( 'NONE',  ( 0.0000000000000000000, 0.0000000000000000000, -1.000000000000000000 ) ) ;
#296 = COORDINATED_UNIVERSAL_TIME_OFFSET ( 3, 0, .AHEAD. ) ;
#297 = VERTEX_POINT ( 'NONE', #202 ) ;
#298 = EDGE_CURVE ( 'NONE', #232, #232, #8, .T. ) ;
#299 = DIRECTION ( 'NONE',  ( 0.0000000000000000000, -1.000000000000000000, 0.0000000000000000000 ) ) ;
#300 = VERTEX_POINT ( 'NONE', #149 ) ;
#301 = CARTESIAN_POINT ( 'NONE',  ( 0.0000000000000000000, 0.0000000000000000000, 0.0000000000000000000 ) ) ;
#302 = DIRECTION ( 'NONE',  ( 0.0000000000000000000, 0.0000000000000000000, 1.000000000000000000 ) ) ;
#303 = DIRECTION ( 'NONE',  ( 0.0000000000000000000, 1.000000000000000000, 0.0000000000000000000 ) ) ;
#304 = ORIENTED_EDGE ( 'NONE', *, *, #214, .F. ) ;
#305 = EDGE_CURVE ( 'NONE', #251, #359, #1, .T. ) ;
#306 = ORIENTED_EDGE ( 'NONE', *, *, #191, .F. ) ;
#307 = PRODUCT_DEFINITION_FORMATION_WITH_SPECIFIED_SOURCE ( 'ANY', '', #216, .NOT_KNOWN. ) ;
#308 = DATE_AND_TIME ( #350, #55 ) ;
#309 = PERSON_AND_ORGANIZATION ( #293, #290 ) ;
#310 = AXIS2_PLACEMENT_3D ( 'NONE', #6, #49, #7 ) ;
#311 = EDGE_LOOP ( 'NONE', ( #361 ) ) ;
#312 = VERTEX_POINT ( 'NONE', #195 ) ;
#313 = PLANE ( 'NONE',  #62 ) ;
#314 = EDGE_CURVE ( 'NONE', #278, #161, #51, .T. ) ;
#315 = COORDINATED_UNIVERSAL_TIME_OFFSET ( 3, 0, .AHEAD. ) ;
#316 = CARTESIAN_POINT ( 'NONE',  ( 0.0000000000000000000, 9.500000000000000000, 0.0000000000000000000 ) ) ;
#317 = ORIENTED_EDGE ( 'NONE', *, *, #208, .T. ) ;
#318 = EDGE_LOOP ( 'NONE', ( #322 ) ) ;
#319 = CLOSED_SHELL ( 'NONE', ( #60, #174, #146, #335, #358, #225, #83, #180, #77, #125, #213 ) ) ;
#320 = EDGE_LOOP ( 'NONE', ( #25, #100, #135, #274 ) ) ;
#321 = DIRECTION ( 'NONE',  ( 0.0000000000000000000, 0.0000000000000000000, 1.000000000000000000 ) ) ;
#322 = ORIENTED_EDGE ( 'NONE', *, *, #298, .T. ) ;
#323 = CARTESIAN_POINT ( 'NONE',  ( 0.0000000000000000000, 11.00000000000000000, 0.0000000000000000000 ) ) ;
#324 = APPROVAL ( #20, 'UNSPECIFIED' ) ;
#325 = PLANE ( 'NONE',  #120 ) ;
#326 = EDGE_LOOP ( 'NONE', ( #228 ) ) ;
#327 = DIRECTION ( 'NONE',  ( 0.0000000000000000000, 0.0000000000000000000, 1.000000000000000000 ) ) ;
#328 = VERTEX_POINT ( 'NONE', #76 ) ;
#329 = DIRECTION ( 'NONE',  ( 0.0000000000000000000, 1.000000000000000000, 0.0000000000000000000 ) ) ;
#330 = ORIENTED_EDGE ( 'NONE', *, *, #334, .T. ) ;
#331 = CARTESIAN_POINT ( 'NONE',  ( 14.00000000000000200, 9.500000000000000000, 0.0000000000000000000 ) ) ;
#332 = ORIENTED_EDGE ( 'NONE', *, *, #81, .F. ) ;
#333 = PERSON_AND_ORGANIZATION ( #293, #290 ) ;
#334 = EDGE_CURVE ( 'NONE', #328, #328, #67, .T. ) ;
#335 = ADVANCED_FACE ( 'NONE', ( #132, #58 ), #284, .T. ) ;
#336 = ORIENTED_EDGE ( 'NONE', *, *, #208, .F. ) ;
#337 = AXIS2_PLACEMENT_3D ( 'NONE', #88, #74, #44 ) ;
#338 = EDGE_LOOP ( 'NONE', ( #283, #258, #252, #10 ) ) ;
#339 = VECTOR ( 'NONE', #159, 1000.000000000000000 ) ;
#340 = PERSON_AND_ORGANIZATION ( #293, #290 ) ;
#341 = EDGE_LOOP ( 'NONE', ( #227 ) ) ;
#342 = DIRECTION ( 'NONE',  ( -0.0000000000000000000, -1.000000000000000000, -0.0000000000000000000 ) ) ;
#343 = CC_DESIGN_APPROVAL ( #324, ( #307 ) ) ;
#344 = DIRECTION ( 'NONE',  ( 1.000000000000000000, 0.0000000000000000000, 0.0000000000000000000 ) ) ;
#345 = CARTESIAN_POINT ( 'NONE',  ( 14.00000000000000200, 9.500000000000000000, 0.0000000000000000000 ) ) ;
#346 = ORIENTED_EDGE ( 'NONE', *, *, #75, .T. ) ;
#347 = ORIENTED_EDGE ( 'NONE', *, *, #75, .F. ) ;
#348 = AXIS2_PLACEMENT_3D ( 'NONE', #331, #329, #327 ) ;
#349 = DIRECTION ( 'NONE',  ( 0.0000000000000000000, 0.0000000000000000000, -1.000000000000000000 ) ) ;
#350 = CALENDAR_DATE ( 2016, 8, 9 ) ;
#351 = DIRECTION ( 'NONE',  ( 0.0000000000000000000, -0.0000000000000000000, 1.000000000000000000 ) ) ;
#352 = PERSON_AND_ORGANIZATION ( #293, #290 ) ;
#353 = ORIENTED_EDGE ( 'NONE', *, *, #177, .T. ) ;
#354 = EDGE_CURVE ( 'NONE', #359, #297, #230, .T. ) ;
#355 = DIRECTION ( 'NONE',  ( 0.0000000000000000000, 1.000000000000000000, 0.0000000000000000000 ) ) ;
#356 = CARTESIAN_POINT ( 'NONE',  ( 0.0000000000000000000, 9.500000000000000000, 0.0000000000000000000 ) ) ;
#357 = DIRECTION ( 'NONE',  ( 0.0000000000000000000, 0.0000000000000000000, 1.000000000000000000 ) ) ;
#358 = ADVANCED_FACE ( 'NONE', ( #143 ), #136, .F. ) ;
#359 = VERTEX_POINT ( 'NONE', #115 ) ;
#360 = DIRECTION ( 'NONE',  ( 0.0000000000000000000, 1.000000000000000000, 0.0000000000000000000 ) ) ;
#361 = ORIENTED_EDGE ( 'NONE', *, *, #177, .F. ) ;
#362 = CARTESIAN_POINT ( 'NONE',  ( 14.00000000000000200, 0.0000000000000000000, 0.0000000000000000000 ) ) ;
#363 = CARTESIAN_POINT ( 'NONE',  ( 14.00000000000000200, 9.500000000000000000, 7.000000000000000000 ) ) ;
#364 = APPROVAL_PERSON_ORGANIZATION ( #87, #324, #18 ) ;
#365 = EDGE_LOOP ( 'NONE', ( #220, #91, #189, #346 ) ) ;
#366 = CC_DESIGN_PERSON_AND_ORGANIZATION_ASSIGNMENT ( #193, #16, ( #307 ) ) ;
#367 = VERTEX_POINT ( 'NONE', #80 ) ;
#368 = ORIENTED_EDGE ( 'NONE', *, *, #265, .T. ) ;
#369 = AXIS2_PLACEMENT_3D ( 'NONE', #356, #355, #351 ) ;
ENDSEC;
END-ISO-10303-21;
