ISO-10303-21;
HEADER;
FILE_DESCRIPTION (( 'STEP AP203' ),
    '1' );
FILE_NAME ('CLP1M-SH-8 Øàéáà ïëîñêàÿ M8.STEP',
    '2016-02-12T06:12:55',
    ( '' ),
    ( '' ),
    'SwSTEP 2.0',
    'SolidWorks 2014',
    '' );
FILE_SCHEMA (( 'CONFIG_CONTROL_DESIGN' ));
ENDSEC;

DATA;
#1 = SECURITY_CLASSIFICATION ( '', '', #31 ) ;
#2 = COORDINATED_UNIVERSAL_TIME_OFFSET ( 3, 0, .AHEAD. ) ;
#3 = VERTEX_POINT ( 'NONE', #68 ) ;
#4 = CC_DESIGN_PERSON_AND_ORGANIZATION_ASSIGNMENT ( #101, #32, ( #12 ) ) ;
#5 = CC_DESIGN_PERSON_AND_ORGANIZATION_ASSIGNMENT ( #127, #33, ( #12 ) ) ;
#6 = CYLINDRICAL_SURFACE ( 'NONE', #106, 8.000000000000000000 ) ;
#7 = CIRCLE ( 'NONE', #167, 8.000000000000000000 ) ;
#8 = CC_DESIGN_APPROVAL ( #9, ( #12 ) ) ;
#9 = APPROVAL ( #35, 'UNSPECIFIED' ) ;
#10 = EDGE_LOOP ( 'NONE', ( #22 ) ) ;
#11 = COORDINATED_UNIVERSAL_TIME_OFFSET ( 3, 0, .AHEAD. ) ;
#12 = PRODUCT_DEFINITION_FORMATION_WITH_SPECIFIED_SOURCE ( 'ANY', '', #162, .NOT_KNOWN. ) ;
#13 = CIRCLE ( 'NONE', #154, 4.200000000000000200 ) ;
#14 = CALENDAR_DATE ( 2016, 12, 2 ) ;
#15 = CIRCLE ( 'NONE', #147, 8.000000000000000000 ) ;
#16 = ORIENTED_EDGE ( 'NONE', *, *, #98, .F. ) ;
#17 = CC_DESIGN_DATE_AND_TIME_ASSIGNMENT ( #132, #38, ( #36 ) ) ;
#18 = PRODUCT_RELATED_PRODUCT_CATEGORY ( 'detail', '', ( #162 ) ) ;
#19 = CC_DESIGN_PERSON_AND_ORGANIZATION_ASSIGNMENT ( #133, #40, ( #36 ) ) ;
#20 = CALENDAR_DATE ( 2016, 12, 2 ) ;
#21 = EDGE_LOOP ( 'NONE', ( #102 ) ) ;
#22 = ORIENTED_EDGE ( 'NONE', *, *, #103, .T. ) ;
#23 = ORIENTED_EDGE ( 'NONE', *, *, #103, .F. ) ;
#24 = CC_DESIGN_SECURITY_CLASSIFICATION ( #1, ( #12 ) ) ;
#25 = CC_DESIGN_APPROVAL ( #29, ( #36 ) ) ;
#26 = APPROVAL_ROLE ( '' ) ;
#27 = APPROVAL_STATUS ( 'not_yet_approved' ) ;
#28 = DATE_TIME_ROLE ( 'classification_date' ) ;
#29 = APPROVAL ( #42, 'UNSPECIFIED' ) ;
#30 = PERSON_AND_ORGANIZATION_ROLE ( 'classification_officer' ) ;
#31 = SECURITY_CLASSIFICATION_LEVEL ( 'unclassified' ) ;
#32 = PERSON_AND_ORGANIZATION_ROLE ( 'design_supplier' ) ;
#33 = PERSON_AND_ORGANIZATION_ROLE ( 'creator' ) ;
#34 = APPROVAL_ROLE ( '' ) ;
#35 = APPROVAL_STATUS ( 'not_yet_approved' ) ;
#36 = PRODUCT_DEFINITION ( 'UNKNOWN', '', #12, #108 ) ;
#37 = DIRECTION ( 'NONE',  ( 1.000000000000000000, 0.0000000000000000000, -0.0000000000000000000 ) ) ;
#38 = DATE_TIME_ROLE ( 'creation_date' ) ;
#39 = CARTESIAN_POINT ( 'NONE',  ( 0.0000000000000000000, 0.0000000000000000000, 1.600000000000000100 ) ) ;
#40 = PERSON_AND_ORGANIZATION_ROLE ( 'creator' ) ;
#41 = APPROVAL_ROLE ( '' ) ;
#42 = APPROVAL_STATUS ( 'not_yet_approved' ) ;
#43 = DIRECTION ( 'NONE',  ( -1.000000000000000000, 0.0000000000000000000, 0.0000000000000000000 ) ) ;
#44 = PERSON_AND_ORGANIZATION ( #157, #116 ) ;
#45 = DIRECTION ( 'NONE',  ( 0.0000000000000000000, 0.0000000000000000000, 1.000000000000000000 ) ) ;
#46 = APPLICATION_PROTOCOL_DEFINITION ( 'international standard', 'config_control_design', 1994, #47 ) ;
#47 = APPLICATION_CONTEXT ( 'configuration controlled 3d designs of mechanical parts and assemblies' ) ;
#48 = PERSON_AND_ORGANIZATION_ROLE ( 'design_owner' ) ;
#49 = CARTESIAN_POINT ( 'NONE',  ( 0.0000000000000000000, 0.0000000000000000000, 0.0000000000000000000 ) ) ;
#50 = APPROVAL_DATE_TIME ( #136, #29 ) ;
#51 = MECHANICAL_CONTEXT ( 'NONE', #58, 'mechanical' ) ;
#52 = APPLICATION_PROTOCOL_DEFINITION ( 'international standard', 'config_control_design', 1994, #58 ) ;
#53 = DIRECTION ( 'NONE',  ( 1.000000000000000000, 0.0000000000000000000, 0.0000000000000000000 ) ) ;
#54 = CC_DESIGN_APPROVAL ( #82, ( #1 ) ) ;
#55 = EDGE_CURVE ( 'NONE', #3, #3, #7, .T. ) ;
#56 = DIRECTION ( 'NONE',  ( 0.0000000000000000000, 0.0000000000000000000, 1.000000000000000000 ) ) ;
#57 = PERSON_AND_ORGANIZATION ( #157, #116 ) ;
#58 = APPLICATION_CONTEXT ( 'configuration controlled 3d designs of mechanical parts and assemblies' ) ;
#59 =( NAMED_UNIT ( * ) SI_UNIT ( $, .STERADIAN. ) SOLID_ANGLE_UNIT ( ) );
#60 =( NAMED_UNIT ( * ) PLANE_ANGLE_UNIT ( ) SI_UNIT ( $, .RADIAN. ) );
#61 =( LENGTH_UNIT ( ) NAMED_UNIT ( * ) SI_UNIT ( .MILLI., .METRE. ) );
#62 = CC_DESIGN_PERSON_AND_ORGANIZATION_ASSIGNMENT ( #138, #48, ( #162 ) ) ;
#63 = DIRECTION ( 'NONE',  ( 0.0000000000000000000, 0.0000000000000000000, 1.000000000000000000 ) ) ;
#64 = CARTESIAN_POINT ( 'NONE',  ( 8.000000000000000000, 0.0000000000000000000, 0.0000000000000000000 ) ) ;
#65 = AXIS2_PLACEMENT_3D ( 'NONE', #112, #63, #53 ) ;
#66 = DIRECTION ( 'NONE',  ( 1.000000000000000000, 0.0000000000000000000, 0.0000000000000000000 ) ) ;
#67 = CARTESIAN_POINT ( 'NONE',  ( 4.200000000000000200, 0.0000000000000000000, 1.600000000000000100 ) ) ;
#68 = CARTESIAN_POINT ( 'NONE',  ( 8.000000000000000000, 0.0000000000000000000, 1.600000000000000100 ) ) ;
#69 = CARTESIAN_POINT ( 'NONE',  ( 4.200000000000000200, 0.0000000000000000000, 0.0000000000000000000 ) ) ;
#70 = PERSON_AND_ORGANIZATION ( #157, #116 ) ;
#71 = FACE_BOUND ( 'NONE', #10, .T. ) ;
#72 = DIRECTION ( 'NONE',  ( 1.000000000000000000, 0.0000000000000000000, -0.0000000000000000000 ) ) ;
#73 = DIRECTION ( 'NONE',  ( 0.0000000000000000000, 0.0000000000000000000, 1.000000000000000000 ) ) ;
#74 = PLANE ( 'NONE',  #95 ) ;
#75 = FACE_OUTER_BOUND ( 'NONE', #21, .T. ) ;
#76 = DIRECTION ( 'NONE',  ( 1.000000000000000000, 0.0000000000000000000, 0.0000000000000000000 ) ) ;
#77 = CARTESIAN_POINT ( 'NONE',  ( 0.0000000000000000000, 0.0000000000000000000, 1.600000000000000100 ) ) ;
#78 = FACE_BOUND ( 'NONE', #97, .T. ) ;
#79 = FACE_OUTER_BOUND ( 'NONE', #163, .T. ) ;
#80 = PLANE ( 'NONE',  #117 ) ;
#81 = COORDINATED_UNIVERSAL_TIME_OFFSET ( 3, 0, .AHEAD. ) ;
#82 = APPROVAL ( #27, 'UNSPECIFIED' ) ;
#83 = COORDINATED_UNIVERSAL_TIME_OFFSET ( 3, 0, .AHEAD. ) ;
#84 = DIRECTION ( 'NONE',  ( 0.0000000000000000000, 0.0000000000000000000, 1.000000000000000000 ) ) ;
#85 = LOCAL_TIME ( 9, 12, 55.00000000000000000, #2 ) ;
#86 = CARTESIAN_POINT ( 'NONE',  ( 0.0000000000000000000, 0.0000000000000000000, 0.0000000000000000000 ) ) ;
#87 = CARTESIAN_POINT ( 'NONE',  ( 0.0000000000000000000, 0.0000000000000000000, 0.0000000000000000000 ) ) ;
#88 = ORIENTED_EDGE ( 'NONE', *, *, #104, .F. ) ;
#89 = DIRECTION ( 'NONE',  ( -0.0000000000000000000, -0.0000000000000000000, -1.000000000000000000 ) ) ;
#90 = DIRECTION ( 'NONE',  ( 1.000000000000000000, 0.0000000000000000000, 0.0000000000000000000 ) ) ;
#91 = DIRECTION ( 'NONE',  ( 0.0000000000000000000, 0.0000000000000000000, 1.000000000000000000 ) ) ;
#92 = CARTESIAN_POINT ( 'NONE',  ( 0.0000000000000000000, 0.0000000000000000000, 1.600000000000000100 ) ) ;
#93 = DIRECTION ( 'NONE',  ( 1.000000000000000000, 0.0000000000000000000, 0.0000000000000000000 ) ) ;
#94 = LOCAL_TIME ( 9, 12, 55.00000000000000000, #11 ) ;
#95 = AXIS2_PLACEMENT_3D ( 'NONE', #87, #73, #72 ) ;
#96 = CARTESIAN_POINT ( 'NONE',  ( 0.0000000000000000000, 0.0000000000000000000, 1.600000000000000100 ) ) ;
#97 = EDGE_LOOP ( 'NONE', ( #16 ) ) ;
#98 = EDGE_CURVE ( 'NONE', #122, #122, #156, .T. ) ;
#99 = DIRECTION ( 'NONE',  ( -1.000000000000000000, 0.0000000000000000000, 0.0000000000000000000 ) ) ;
#100 = AXIS2_PLACEMENT_3D ( 'NONE', #96, #89, #99 ) ;
#101 = PERSON_AND_ORGANIZATION ( #157, #116 ) ;
#102 = ORIENTED_EDGE ( 'NONE', *, *, #104, .T. ) ;
#103 = EDGE_CURVE ( 'NONE', #105, #105, #13, .T. ) ;
#104 = EDGE_CURVE ( 'NONE', #145, #145, #15, .T. ) ;
#105 = VERTEX_POINT ( 'NONE', #69 ) ;
#106 = AXIS2_PLACEMENT_3D ( 'NONE', #39, #109, #43 ) ;
#107 = ADVANCED_FACE ( 'NONE', ( #79, #78 ), #80, .T. ) ;
#108 = DESIGN_CONTEXT ( 'detailed design', #47, 'design' ) ;
#109 = DIRECTION ( 'NONE',  ( -0.0000000000000000000, -0.0000000000000000000, -1.000000000000000000 ) ) ;
#110 = APPROVAL_DATE_TIME ( #123, #82 ) ;
#111 =( GEOMETRIC_REPRESENTATION_CONTEXT ( 3 ) GLOBAL_UNCERTAINTY_ASSIGNED_CONTEXT ( ( #165 ) ) GLOBAL_UNIT_ASSIGNED_CONTEXT ( ( #61, #60, #59 ) ) REPRESENTATION_CONTEXT ( 'NONE', 'WORKASPACE' ) );
#112 = CARTESIAN_POINT ( 'NONE',  ( 0.0000000000000000000, 0.0000000000000000000, 0.0000000000000000000 ) ) ;
#113 = ADVANCED_FACE ( 'NONE', ( #151, #75 ), #6, .T. ) ;
#114 = ADVANCED_BREP_SHAPE_REPRESENTATION ( 'CLP1M-SH-8 +ðùñð ÿûþ¸úð  M8', ( #148, #65 ), #111 ) ;
#115 = CARTESIAN_POINT ( 'NONE',  ( 0.0000000000000000000, 0.0000000000000000000, 1.600000000000000100 ) ) ;
#116 = ORGANIZATION ( 'UNSPECIFIED', 'UNSPECIFIED', '' ) ;
#117 = AXIS2_PLACEMENT_3D ( 'NONE', #77, #56, #37 ) ;
#118 = EDGE_LOOP ( 'NONE', ( #121 ) ) ;
#119 = DIRECTION ( 'NONE',  ( 0.0000000000000000000, 0.0000000000000000000, 1.000000000000000000 ) ) ;
#120 = APPROVAL_PERSON_ORGANIZATION ( #134, #82, #26 ) ;
#121 = ORIENTED_EDGE ( 'NONE', *, *, #98, .T. ) ;
#122 = VERTEX_POINT ( 'NONE', #67 ) ;
#123 = DATE_AND_TIME ( #14, #124 ) ;
#124 = LOCAL_TIME ( 9, 12, 55.00000000000000000, #83 ) ;
#125 = DATE_AND_TIME ( #20, #126 ) ;
#126 = LOCAL_TIME ( 9, 12, 55.00000000000000000, #139 ) ;
#127 = PERSON_AND_ORGANIZATION ( #157, #116 ) ;
#128 = ADVANCED_FACE ( 'NONE', ( #152, #144 ), #146, .F. ) ;
#129 = DATE_AND_TIME ( #143, #158 ) ;
#130 = APPROVAL_PERSON_ORGANIZATION ( #44, #9, #34 ) ;
#131 = CALENDAR_DATE ( 2016, 12, 2 ) ;
#132 = DATE_AND_TIME ( #131, #85 ) ;
#133 = PERSON_AND_ORGANIZATION ( #157, #116 ) ;
#134 = PERSON_AND_ORGANIZATION ( #157, #116 ) ;
#135 = ADVANCED_FACE ( 'NONE', ( #149, #71 ), #74, .F. ) ;
#136 = DATE_AND_TIME ( #155, #94 ) ;
#137 = APPROVAL_PERSON_ORGANIZATION ( #57, #29, #41 ) ;
#138 = PERSON_AND_ORGANIZATION ( #157, #116 ) ;
#139 = COORDINATED_UNIVERSAL_TIME_OFFSET ( 3, 0, .AHEAD. ) ;
#140 = CC_DESIGN_DATE_AND_TIME_ASSIGNMENT ( #125, #28, ( #1 ) ) ;
#141 = CC_DESIGN_PERSON_AND_ORGANIZATION_ASSIGNMENT ( #70, #30, ( #1 ) ) ;
#142 = EDGE_LOOP ( 'NONE', ( #159 ) ) ;
#143 = CALENDAR_DATE ( 2016, 12, 2 ) ;
#144 = FACE_OUTER_BOUND ( 'NONE', #166, .T. ) ;
#145 = VERTEX_POINT ( 'NONE', #64 ) ;
#146 = CYLINDRICAL_SURFACE ( 'NONE', #100, 4.200000000000000200 ) ;
#147 = AXIS2_PLACEMENT_3D ( 'NONE', #49, #45, #66 ) ;
#148 = MANIFOLD_SOLID_BREP ( 'Âûòÿíóòü1', #160 ) ;
#149 = FACE_OUTER_BOUND ( 'NONE', #164, .T. ) ;
#150 = SHAPE_DEFINITION_REPRESENTATION ( #153, #114 ) ;
#151 = FACE_OUTER_BOUND ( 'NONE', #142, .T. ) ;
#152 = FACE_OUTER_BOUND ( 'NONE', #118, .T. ) ;
#153 = PRODUCT_DEFINITION_SHAPE ( 'NONE', 'NONE',  #36 ) ;
#154 = AXIS2_PLACEMENT_3D ( 'NONE', #86, #84, #76 ) ;
#155 = CALENDAR_DATE ( 2016, 12, 2 ) ;
#156 = CIRCLE ( 'NONE', #161, 4.200000000000000200 ) ;
#157 = PERSON ( 'UNSPECIFIED', 'UNSPECIFIED', 'UNSPECIFIED', ('UNSPECIFIED'), ('UNSPECIFIED'), ('UNSPECIFIED') ) ;
#158 = LOCAL_TIME ( 9, 12, 55.00000000000000000, #81 ) ;
#159 = ORIENTED_EDGE ( 'NONE', *, *, #55, .F. ) ;
#160 = CLOSED_SHELL ( 'NONE', ( #107, #135, #113, #128 ) ) ;
#161 = AXIS2_PLACEMENT_3D ( 'NONE', #92, #91, #90 ) ;
#162 = PRODUCT ( 'CLP1M-SH-8 Øàéáà ïëîñêàÿ M8', 'CLP1M-SH-8 Øàéáà ïëîñêàÿ M8', '', ( #51 ) ) ;
#163 = EDGE_LOOP ( 'NONE', ( #168 ) ) ;
#164 = EDGE_LOOP ( 'NONE', ( #88 ) ) ;
#165 = UNCERTAINTY_MEASURE_WITH_UNIT (LENGTH_MEASURE( 1.000000000000000100E-005 ), #61, 'distance_accuracy_value', 'NONE');
#166 = EDGE_LOOP ( 'NONE', ( #23 ) ) ;
#167 = AXIS2_PLACEMENT_3D ( 'NONE', #115, #119, #93 ) ;
#168 = ORIENTED_EDGE ( 'NONE', *, *, #55, .T. ) ;
#169 = APPROVAL_DATE_TIME ( #129, #9 ) ;
ENDSEC;
END-ISO-10303-21;
