  0
SECTION
  2
HEADER
  9
$ACADVER
  1
AC1015
  9
$ACADMAINTVER
 70
     6
  9
$DWGCODEPAGE
  3
ANSI_1251
  9
$INSBASE
 10
0.0
 20
0.0
 30
0.0
  9
$EXTMIN
 10
0.0
 20
0.0
 30
0.0
  9
$EXTMAX
 10
2000.0
 20
2500.0
 30
0.0
  9
$LIMMIN
 10
0.0
 20
0.0
  9
$LIMMAX
 10
2000.0
 20
2500.0
  9
$ORTHOMODE
 70
     0
  9
$REGENMODE
 70
     1
  9
$FILLMODE
 70
     1
  9
$QTEXTMODE
 70
     0
  9
$MIRRTEXT
 70
     1
  9
$LTSCALE
 40
1.0
  9
$ATTMODE
 70
     1
  9
$TEXTSIZE
 40
5.0
  9
$TRACEWID
 40
1.0
  9
$TEXTSTYLE
  7
Standard
  9
$CLAYER
  8
0
  9
$CELTYPE
  6
ByLayer
  9
$CECOLOR
 62
   256
  9
$CELTSCALE
 40
1.0
  9
$DISPSILH
 70
     0
  9
$DIMSCALE
 40
1.0
  9
$DIMASZ
 40
5.0
  9
$DIMEXO
 40
0.0
  9
$DIMDLI
 40
3.75
  9
$DIMRND
 40
0.0
  9
$DIMDLE
 40
0.0
  9
$DIMEXE
 40
1.0
  9
$DIMTP
 40
0.0
  9
$DIMTM
 40
0.0
  9
$DIMTXT
 40
3.5
  9
$DIMCEN
 40
2.5
  9
$DIMTSZ
 40
0.0
  9
$DIMTOL
 70
     0
  9
$DIMLIM
 70
     0
  9
$DIMTIH
 70
     1
  9
$DIMTOH
 70
     1
  9
$DIMSE1
 70
     0
  9
$DIMSE2
 70
     0
  9
$DIMTAD
 70
     1
  9
$DIMZIN
 70
     0
  9
$DIMBLK
  1

  9
$DIMASO
 70
     1
  9
$DIMSHO
 70
     1
  9
$DIMPOST
  1

  9
$DIMAPOST
  1

  9
$DIMALT
 70
     0
  9
$DIMALTD
 70
     3
  9
$DIMALTF
 40
0.0393700787
  9
$DIMLFAC
 40
1.0
  9
$DIMTOFL
 70
     1
  9
$DIMTVP
 40
0.0
  9
$DIMTIX
 70
     0
  9
$DIMSOXD
 70
     0
  9
$DIMSAH
 70
     0
  9
$DIMBLK1
  1

  9
$DIMBLK2
  1

  9
$DIMSTYLE
  2
ISO-25
  9
$DIMCLRD
 70
     0
  9
$DIMCLRE
 70
     0
  9
$DIMCLRT
 70
     0
  9
$DIMTFAC
 40
1.0
  9
$DIMGAP
 40
1.5
  9
$DIMJUST
 70
     0
  9
$DIMSD1
 70
     0
  9
$DIMSD2
 70
     0
  9
$DIMTOLJ
 70
     0
  9
$DIMTZIN
 70
     0
  9
$DIMALTZ
 70
     0
  9
$DIMALTTZ
 70
     0
  9
$DIMUPT
 70
     0
  9
$DIMDEC
 70
     1
  9
$DIMTDEC
 70
     1
  9
$DIMALTU
 70
     2
  9
$DIMALTTD
 70
     3
  9
$DIMTXSTY
  7
Standard
  9
$DIMAUNIT
 70
     0
  9
$DIMADEC
 70
     2
  9
$DIMALTRND
 40
0.0
  9
$DIMAZIN
 70
     0
  9
$DIMDSEP
 70
    44
  9
$DIMATFIT
 70
     3
  9
$DIMFRAC
 70
     0
  9
$DIMLDRBLK
  1

  9
$DIMLUNIT
 70
     2
  9
$DIMLWD
 70
    -2
  9
$DIMLWE
 70
    -2
  9
$DIMTMOVE
 70
     0
  9
$LUNITS
 70
     2
  9
$LUPREC
 70
     1
  9
$SKETCHINC
 40
1.0
  9
$FILLETRAD
 40
0.0
  9
$AUNITS
 70
     0
  9
$AUPREC
 70
     2
  9
$MENU
  1
.
  9
$ELEVATION
 40
0.0
  9
$PELEVATION
 40
0.0
  9
$THICKNESS
 40
0.0
  9
$LIMCHECK
 70
     0
  9
$CHAMFERA
 40
0.0
  9
$CHAMFERB
 40
0.0
  9
$CHAMFERC
 40
0.0
  9
$CHAMFERD
 40
0.0
  9
$SKPOLY
 70
     0
  9
$TDCREATE
 40
2460213.634959757
  9
$TDUCREATE
 40
2460213.509959757
  9
$TDUPDATE
 40
2460213.63496037
  9
$TDUUPDATE
 40
2460213.50996037
  9
$TDINDWG
 40
0.0000000116
  9
$TDUSRTIMER
 40
0.0000000116
  9
$USRTIMER
 70
     1
  9
$ANGBASE
 50
0.0
  9
$ANGDIR
 70
     0
  9
$PDMODE
 70
     0
  9
$PDSIZE
 40
-1.0
  9
$PLINEWID
 40
0.0
  9
$SPLFRAME
 70
     0
  9
$SPLINETYPE
 70
     6
  9
$SPLINESEGS
 70
     8
  9
$HANDSEED
  5
53C
  9
$SURFTAB1
 70
     6
  9
$SURFTAB2
 70
     6
  9
$SURFTYPE
 70
     6
  9
$SURFU
 70
     6
  9
$SURFV
 70
     6
  9
$UCSBASE
  2

  9
$UCSNAME
  2

  9
$UCSORG
 10
0.0
 20
0.0
 30
0.0
  9
$UCSXDIR
 10
1.0
 20
0.0
 30
0.0
  9
$UCSYDIR
 10
0.0
 20
1.0
 30
0.0
  9
$UCSORTHOREF
  2

  9
$UCSORTHOVIEW
 70
     0
  9
$UCSORGTOP
 10
0.0
 20
0.0
 30
0.0
  9
$UCSORGBOTTOM
 10
0.0
 20
0.0
 30
0.0
  9
$UCSORGLEFT
 10
0.0
 20
0.0
 30
0.0
  9
$UCSORGRIGHT
 10
0.0
 20
0.0
 30
0.0
  9
$UCSORGFRONT
 10
0.0
 20
0.0
 30
0.0
  9
$UCSORGBACK
 10
0.0
 20
0.0
 30
0.0
  9
$PUCSBASE
  2

  9
$PUCSNAME
  2

  9
$PUCSORG
 10
0.0
 20
0.0
 30
0.0
  9
$PUCSXDIR
 10
1.0
 20
0.0
 30
0.0
  9
$PUCSYDIR
 10
0.0
 20
1.0
 30
0.0
  9
$PUCSORTHOREF
  2

  9
$PUCSORTHOVIEW
 70
     0
  9
$PUCSORGTOP
 10
0.0
 20
0.0
 30
0.0
  9
$PUCSORGBOTTOM
 10
0.0
 20
0.0
 30
0.0
  9
$PUCSORGLEFT
 10
0.0
 20
0.0
 30
0.0
  9
$PUCSORGRIGHT
 10
0.0
 20
0.0
 30
0.0
  9
$PUCSORGFRONT
 10
0.0
 20
0.0
 30
0.0
  9
$PUCSORGBACK
 10
0.0
 20
0.0
 30
0.0
  9
$USERI1
 70
     0
  9
$USERI2
 70
     0
  9
$USERI3
 70
     0
  9
$USERI4
 70
     0
  9
$USERI5
 70
     0
  9
$USERR1
 40
0.0
  9
$USERR2
 40
0.0
  9
$USERR3
 40
0.0
  9
$USERR4
 40
0.0
  9
$USERR5
 40
0.0
  9
$WORLDVIEW
 70
     1
  9
$SHADEDGE
 70
     3
  9
$SHADEDIF
 70
    70
  9
$TILEMODE
 70
     1
  9
$MAXACTVP
 70
    64
  9
$PINSBASE
 10
0.0
 20
0.0
 30
0.0
  9
$PLIMCHECK
 70
     0
  9
$PEXTMIN
 10
1.0000000000E+20
 20
1.0000000000E+20
 30
1.0000000000E+20
  9
$PEXTMAX
 10
-1.0000000000E+20
 20
-1.0000000000E+20
 30
-1.0000000000E+20
  9
$PLIMMIN
 10
0.0
 20
0.0
  9
$PLIMMAX
 10
420.0
 20
297.0
  9
$UNITMODE
 70
     0
  9
$VISRETAIN
 70
     1
  9
$PLINEGEN
 70
     0
  9
$PSLTSCALE
 70
     1
  9
$TREEDEPTH
 70
  3020
  9
$CMLSTYLE
  2
Standard
  9
$CMLJUST
 70
     0
  9
$CMLSCALE
 40
20.0
  9
$PROXYGRAPHICS
 70
     1
  9
$MEASUREMENT
 70
     1
  9
$CELWEIGHT
370
    -1
  9
$ENDCAPS
280
     0
  9
$JOINSTYLE
280
     0
  9
$LWDISPLAY
290
     1
  9
$INSUNITS
 70
     4
  9
$HYPERLINKBASE
  1

  9
$STYLESHEET
  1

  9
$XEDIT
290
     1
  9
$CEPSNTYPE
380
     0
  9
$PSTYLEMODE
290
     1
  9
$FINGERPRINTGUID
  2
{b6dc4a6d-c88d-4a81-8366-ce9516a791be}
  9
$VERSIONGUID
  2
{FAEB1C32-E019-11D5-929B-00C0DF256EC4}
  9
$EXTNAMES
290
     1
  9
$PSVPSCALE
 40
0.0
  9
$OLESTARTUP
290
     0
  0
ENDSEC
  0
SECTION
  2
CLASSES
  0
CLASS
  1
ACDBDICTIONARYWDFLT
  2
AcDbDictionaryWithDefault
  3
ObjectDBX Classes
 90
        0
280
     0
281
     0
  0
CLASS
  1
VISUALSTYLE
  2
AcDbVisualStyle
  3
ObjectDBX Classes
 90
     4095
280
     0
281
     0
  0
CLASS
  1
MATERIAL
  2
AcDbMaterial
  3
ObjectDBX Classes
 90
     1153
280
     0
281
     0
  0
CLASS
  1
SCALE
  2
AcDbScale
  3
ObjectDBX Classes
 90
     1153
280
     0
281
     0
  0
CLASS
  1
TABLESTYLE
  2
AcDbTableStyle
  3
ObjectDBX Classes
 90
     4095
280
     0
281
     0
  0
CLASS
  1
MLEADERSTYLE
  2
AcDbMLeaderStyle
  3
ACDB_MLEADERSTYLE_CLASS
 90
     4095
280
     0
281
     0
  0
CLASS
  1
SUN
  2
AcDbSun
  3
SCENEOE
 90
     1153
280
     0
281
     0
  0
CLASS
  1
ACDBPLACEHOLDER
  2
AcDbPlaceHolder
  3
ObjectDBX Classes
 90
        0
280
     0
281
     0
  0
CLASS
  1
LAYOUT
  2
AcDbLayout
  3
ObjectDBX Classes
 90
        0
280
     0
281
     0
  0
ENDSEC
  0
SECTION
  2
TABLES
  0
TABLE
  2
VPORT
  5
8
330
0
100
AcDbSymbolTable
 70
     1
  0
VPORT
  5
29
330
8
100
AcDbSymbolTableRecord
100
AcDbViewportTableRecord
  2
*Active
 70
     0
 10
0.0
 20
0.0
 11
1.0
 21
1.0
 12
1000.0
 22
1250.0
 13
0.0
 23
0.0
 14
10.0
 24
10.0
 15
10.0
 25
10.0
 16
0.0
 26
0.0
 36
1.0
 17
0.0
 27
0.0
 37
0.0
 40
2500.0
 41
0.8
 42
50.0
 43
0.0
 44
0.0
 50
0.0
 51
0.0
 71
     0
 72
  2000
 73
     1
 74
     3
 75
     0
 76
     0
 77
     0
 78
     0
281
     0
 65
     1
110
0.0
120
0.0
130
0.0
111
1.0
121
0.0
131
0.0
112
0.0
122
1.0
132
0.0
 79
     0
146
0.0
  0
ENDTAB
  0
TABLE
  2
LTYPE
  5
5
330
0
100
AcDbSymbolTable
 70
     8
  0
LTYPE
  5
14
330
5
100
AcDbSymbolTableRecord
100
AcDbLinetypeTableRecord
  2
ByBlock
 70
     0
  3

 72
    65
 73
     0
 40
0.0
  0
LTYPE
  5
15
330
5
100
AcDbSymbolTableRecord
100
AcDbLinetypeTableRecord
  2
ByLayer
 70
     0
  3

 72
    65
 73
     0
 40
0.0
  0
LTYPE
  5
16
330
5
100
AcDbSymbolTableRecord
100
AcDbLinetypeTableRecord
  2
Continuous
 70
     0
  3
Solid line
 72
    65
 73
     0
 40
0.0
  0
LTYPE
  5
5E
330
5
100
AcDbSymbolTableRecord
100
AcDbLinetypeTableRecord
  2
SLD-Сплошная
 70
     0
  3
SolidWorks Line Style
 72
    65
 73
     0
 40
0.0
  0
LTYPE
  5
5F
330
5
100
AcDbSymbolTableRecord
100
AcDbLinetypeTableRecord
  2
SLD-Штриховая
 70
     0
  3
SolidWorks Line Style
 72
    65
 73
     2
 40
1.905
 49
1.27
 74
     0
 49
-0.635
 74
     0
  0
LTYPE
  5
60
330
5
100
AcDbSymbolTableRecord
100
AcDbLinetypeTableRecord
  2
SLD-Штрихпункт.-с-двумя-точками
 70
     0
  3
SolidWorks Line Style
 72
    65
 73
     6
 40
12.7
 49
6.35
 74
     0
 49
-1.27
 74
     0
 49
1.27
 74
     0
 49
-1.27
 74
     0
 49
1.27
 74
     0
 49
-1.27
 74
     0
  0
LTYPE
  5
61
330
5
100
AcDbSymbolTableRecord
100
AcDbLinetypeTableRecord
  2
SLD-Штрихпункт.-утолщ.
 70
     0
  3
SolidWorks Line Style
 72
    65
 73
     4
 40
10.16
 49
6.35
 74
     0
 49
-1.27
 74
     0
 49
1.27
 74
     0
 49
-1.27
 74
     0
  0
LTYPE
  5
62
330
5
100
AcDbSymbolTableRecord
100
AcDbLinetypeTableRecord
  2
SLD-Осевая
 70
     0
  3
SolidWorks Line Style
 72
    65
 73
     4
 40
19.05
 49
15.24
 74
     0
 49
-1.27
 74
     0
 49
1.27
 74
     0
 49
-1.27
 74
     0
  0
LTYPE
  5
63
330
5
100
AcDbSymbolTableRecord
100
AcDbLinetypeTableRecord
  2
SLD-Сшитая
 70
     0
  3
SolidWorks Line Style
 72
    65
 73
     2
 40
0.635
 49
0.0
 74
     0
 49
-0.635
 74
     0
  0
LTYPE
  5
64
330
5
100
AcDbSymbolTableRecord
100
AcDbLinetypeTableRecord
  2
SLD-Тонкая-Толстая
 70
     0
  3
SolidWorks Line Style
 72
    65
 73
     2
 40
5.080508
 49
0.000508
 74
     0
 49
-5.08
 74
     0
  0
ENDTAB
  0
TABLE
  2
LAYER
  5
2
330
0
100
AcDbSymbolTable
 70
     3
  0
LAYER
  5
10
330
2
100
AcDbSymbolTableRecord
100
AcDbLayerTableRecord
  2
0
 70
     0
 62
     7
  6
Continuous
370
    -3
390
F
  0
LAYER
  5
65
330
2
100
AcDbSymbolTableRecord
100
AcDbLayerTableRecord
  2
1
 70
     0
 62
     7
  6
SLD-Сплошная
370
    -1
390
F
  0
LAYER
  5
66
330
2
100
AcDbSymbolTableRecord
100
AcDbLayerTableRecord
  2
2
 70
     0
 62
     7
  6
SLD-Сплошная
370
    -3
390
F
  0
ENDTAB
  0
TABLE
  2
STYLE
  5
3
330
0
100
AcDbSymbolTable
 70
     1
  0
STYLE
  5
11
330
3
100
AcDbSymbolTableRecord
100
AcDbTextStyleTableRecord
  2
Standard
 70
     0
 40
0.0
 41
1.0
 50
0.0
 71
     0
 42
5.0
  3
txt
  4

  0
ENDTAB
  0
TABLE
  2
VIEW
  5
6
330
0
100
AcDbSymbolTable
 70
     0
  0
ENDTAB
  0
TABLE
  2
UCS
  5
7
330
0
100
AcDbSymbolTable
 70
     0
  0
ENDTAB
  0
TABLE
  2
APPID
  5
9
330
0
100
AcDbSymbolTable
 70
     1
  0
APPID
  5
12
330
9
100
AcDbSymbolTableRecord
100
AcDbRegAppTableRecord
  2
ACAD
 70
     0
  0
ENDTAB
  0
TABLE
  2
DIMSTYLE
  5
A
330
0
100
AcDbSymbolTable
 70
     1
100
AcDbDimStyleTable
  0
DIMSTYLE
105
27
330
A
100
AcDbSymbolTableRecord
100
AcDbDimStyleTableRecord
  2
ISO-25
 70
     0
 41
2.5
 42
0.625
 43
3.75
 44
1.25
 73
     0
 74
     0
 77
     1
 78
     8
140
2.5
141
2.5
143
0.0393700787
147
0.625
171
     3
172
     1
178
     0
271
     2
272
     2
274
     3
278
    44
283
     0
284
     8
340
11
  0
ENDTAB
  0
TABLE
  2
BLOCK_RECORD
  5
1
330
0
100
AcDbSymbolTable
 70
     1
  0
BLOCK_RECORD
  5
1F
330
1
100
AcDbSymbolTableRecord
100
AcDbBlockTableRecord
  2
*Model_Space
340
22
  0
BLOCK_RECORD
  5
1B
330
1
100
AcDbSymbolTableRecord
100
AcDbBlockTableRecord
  2
*Paper_Space
340
1E
  0
BLOCK_RECORD
  5
23
330
1
100
AcDbSymbolTableRecord
100
AcDbBlockTableRecord
  2
*Paper_Space0
340
26
  0
ENDTAB
  0
ENDSEC
  0
SECTION
  2
BLOCKS
  0
BLOCK
  5
20
330
1F
100
AcDbEntity
  8
0
100
AcDbBlockBegin
  2
*Model_Space
 70
     0
 10
0.0
 20
0.0
 30
0.0
  3
*Model_Space
  1

  0
ENDBLK
  5
21
330
1F
100
AcDbEntity
  8
0
100
AcDbBlockEnd
  0
BLOCK
  5
1C
330
1B
100
AcDbEntity
 67
     1
  8
0
100
AcDbBlockBegin
  2
*Paper_Space
 70
     0
 10
0.0
 20
0.0
 30
0.0
  3
*Paper_Space
  1

  0
ENDBLK
  5
1D
330
1B
100
AcDbEntity
 67
     1
  8
0
100
AcDbBlockEnd
  0
BLOCK
  5
24
330
23
100
AcDbEntity
  8
0
100
AcDbBlockBegin
  2
*Paper_Space0
 70
     0
 10
0.0
 20
0.0
 30
0.0
  3
*Paper_Space0
  1

  0
ENDBLK
  5
25
330
23
100
AcDbEntity
  8
0
100
AcDbBlockEnd
  0
ENDSEC
  0
SECTION
  2
ENTITIES
  0
ARC
  5
67
330
1F
100
AcDbEntity
  8
1
  6
SLD-Сплошная
100
AcDbCircle
 10
944.0062925134
 20
139.6054775737
 30
0.0
 40
0.999999999999951
100
AcDbArc
 50
180.0
 51
257.5813184942
  0
ARC
  5
68
330
1F
100
AcDbEntity
  8
1
  6
SLD-Сплошная
100
AcDbCircle
 10
958.6062925134
 20
139.6054775737
 30
0.0
 40
0.999999999999951
100
AcDbArc
 50
282.4186815058
 51
0.0
  0
LINE
  5
69
330
1F
100
AcDbEntity
  8
1
  6
SLD-Сплошная
100
AcDbLine
 10
943.0062925134
 20
140.8112396313
 30
0.0
 11
943.0062925134
 21
139.6054775737
 31
0.0
  0
LINE
  5
6A
330
1F
100
AcDbEntity
  8
1
  6
SLD-Сплошная
100
AcDbLine
 10
959.6062925134
 20
139.6054775737
 30
0.0
 11
959.6062925134
 21
140.8112396313
 31
0.0
  0
ARC
  5
6B
330
1F
100
AcDbEntity
  8
1
  6
SLD-Сплошная
100
AcDbCircle
 10
951.3062925134
 20
172.7562396313
 30
0.0
 40
34.94500000000006
100
AcDbArc
 50
270.0104111827
 51
282.4186815058
  0
ARC
  5
6C
330
1F
100
AcDbEntity
  8
1
  6
SLD-Сплошная
100
AcDbCircle
 10
951.3062925134
 20
172.7562396313
 30
0.0
 40
34.94500000000013
100
AcDbArc
 50
257.5813184942
 51
270.0104111827
  0
LINE
  5
6D
330
1F
100
AcDbEntity
  8
1
  6
SLD-Сплошная
100
AcDbLine
 10
963.9062925134
 20
143.2819503093
 30
0.0
 11
963.1941604789
 21
143.9940823438
 31
0.0
  0
LINE
  5
6E
330
1F
100
AcDbEntity
  8
1
  6
SLD-Сплошная
100
AcDbLine
 10
963.9062925134
 20
1138.3405289533
 30
0.0
 11
963.194160479
 21
1137.6283969188
 31
0.0
  0
LINE
  5
6F
330
1F
100
AcDbEntity
  8
1
  6
SLD-Сплошная
100
AcDbLine
 10
369.418424548
 20
143.9940823438
 30
0.0
 11
368.7062925134
 21
143.2819503092
 31
0.0
  0
LINE
  5
70
330
1F
100
AcDbEntity
  8
1
  6
SLD-Сплошная
100
AcDbLine
 10
369.418424548
 20
1137.6283969188
 30
0.0
 11
368.7062925134
 21
1138.3405289533
 31
0.0
  0
LINE
  5
71
330
1F
100
AcDbEntity
  8
1
  6
SLD-Сплошная
100
AcDbLine
 10
963.052739123
 20
1137.6283969188
 30
0.0
 11
963.8355818354
 21
1138.4112396313
 31
0.0
  0
LINE
  5
72
330
1F
100
AcDbEntity
  8
1
  6
SLD-Сплошная
100
AcDbLine
 10
368.7770031914
 20
1138.4112396313
 30
0.0
 11
369.559845904
 21
1137.6283969188
 31
0.0
  0
LINE
  5
73
330
1F
100
AcDbEntity
  8
1
  6
SLD-Сплошная
100
AcDbLine
 10
368.7770031914
 20
143.2112396313
 30
0.0
 11
369.5598459039
 21
143.9940823438
 31
0.0
  0
LINE
  5
74
330
1F
100
AcDbEntity
  8
1
  6
SLD-Сплошная
100
AcDbLine
 10
963.0527391229
 20
143.9940823438
 30
0.0
 11
963.8355818354
 21
143.2112396313
 31
0.0
  0
ELLIPSE
  5
75
330
1F
100
AcDbEntity
  8
1
  6
SLD-Сплошная
100
AcDbEllipse
 10
963.9062925134
 20
1138.4112396313
 30
0.0
 11
0.9999999999998863
 21
0.0
 31
0.0
210
0.0
220
0.0
230
1.0
 40
0.070710678
 41
4.712388980384691
 42
6.283185307179586
  0
LINE
  5
76
330
1F
100
AcDbEntity
  8
1
  6
SLD-Сплошная
100
AcDbLine
 10
966.3062925134
 20
1138.4112396313
 30
0.0
 11
964.9062925134
 21
1138.4112396313
 31
0.0
  0
ELLIPSE
  5
77
330
1F
100
AcDbEntity
  8
1
  6
SLD-Сплошная
100
AcDbEllipse
 10
963.9062925134
 20
1138.4112396313
 30
0.0
 11
2.399999999999864
 21
0.0
 31
0.0
210
0.0
220
0.0
230
1.0
 40
0.0294627825
 41
4.71238898038469
 42
6.283185307179586
  0
LINE
  5
78
330
1F
100
AcDbEntity
  8
1
  6
SLD-Сплошная
100
AcDbLine
 10
966.3062925134
 20
1138.4112396313
 30
0.0
 11
966.3062925134
 21
143.2112396313
 31
0.0
  0
ELLIPSE
  5
79
330
1F
100
AcDbEntity
  8
1
  6
SLD-Сплошная
100
AcDbEllipse
 10
963.9062925134
 20
143.2112396313
 30
0.0
 11
2.399999999999864
 21
0.0
 31
0.0
210
0.0
220
0.0
230
1.0
 40
0.0294627825
 41
0.0
 42
1.570796326794897
  0
ELLIPSE
  5
7A
330
1F
100
AcDbEntity
  8
1
  6
SLD-Сплошная
100
AcDbEllipse
 10
963.9062925134
 20
143.2112396313
 30
0.0
 11
0.0
 21
2.399999999999949
 31
0.0
210
0.0
220
0.0
230
1.0
 40
0.0294627825
 41
1.570796326794944
 42
3.141592653643328
  0
LINE
  5
7B
330
1F
100
AcDbEntity
  8
1
  6
SLD-Сплошная
100
AcDbLine
 10
370.2062925134
 20
140.8112396313
 30
0.0
 11
963.9062925134
 21
140.8112396313
 31
0.0
  0
LINE
  5
7C
330
1F
100
AcDbEntity
  8
1
  6
SLD-Сплошная
100
AcDbLine
 10
368.7062925134
 20
140.8112396313
 30
0.0
 11
370.2062925134
 21
140.8112396313
 31
0.0
  0
ELLIPSE
  5
7D
330
1F
100
AcDbEntity
  8
1
  6
SLD-Сплошная
100
AcDbEllipse
 10
368.7062925134
 20
143.2112396313
 30
0.0
 11
0.0
 21
2.399999999999949
 31
0.0
210
0.0
220
0.0
230
1.0
 40
0.0294627825
 41
3.141592653535934
 42
4.712388980384596
  0
ELLIPSE
  5
7E
330
1F
100
AcDbEntity
  8
1
  6
SLD-Сплошная
100
AcDbEllipse
 10
963.9062925134
 20
1138.4112396313
 30
0.0
 11
0.0
 21
1.0
 31
0.0
210
0.0
220
0.0
230
1.0
 40
0.070710678
 41
0.0
 42
1.570796326794897
  0
ELLIPSE
  5
7F
330
1F
100
AcDbEntity
  8
1
  6
SLD-Сплошная
100
AcDbEllipse
 10
963.9062925134
 20
1138.4112396313
 30
0.0
 11
0.0
 21
2.400000000000091
 31
0.0
210
0.0
220
0.0
230
1.0
 40
0.0294627825
 41
0.0
 42
1.570796326794897
  0
LINE
  5
80
330
1F
100
AcDbEntity
  8
1
  6
SLD-Сплошная
100
AcDbLine
 10
963.9062925134
 20
1139.4112396313
 30
0.0
 11
963.9062925134
 21
1140.8112396313
 31
0.0
  0
LINE
  5
81
330
1F
100
AcDbEntity
  8
1
  6
SLD-Сплошная
100
AcDbLine
 10
368.7062925134
 20
1140.8112396313
 30
0.0
 11
963.9062925134
 21
1140.8112396313
 31
0.0
  0
ELLIPSE
  5
82
330
1F
100
AcDbEntity
  8
1
  6
SLD-Сплошная
100
AcDbEllipse
 10
368.7062925134
 20
1138.4112396313
 30
0.0
 11
0.0
 21
2.400000000000318
 31
0.0
210
0.0
220
0.0
230
1.0
 40
0.0294627825
 41
4.71238898038488
 42
6.283185307179586
  0
ELLIPSE
  5
83
330
1F
100
AcDbEntity
  8
1
  6
SLD-Сплошная
100
AcDbEllipse
 10
368.7062925134
 20
1138.4112396313
 30
0.0
 11
1.0
 21
0.0
 31
0.0
210
0.0
220
0.0
230
1.0
 40
0.070710678
 41
3.141592653689674
 42
4.712388980384634
  0
ELLIPSE
  5
84
330
1F
100
AcDbEntity
  8
1
  6
SLD-Сплошная
100
AcDbEllipse
 10
368.7062925134
 20
1138.4112396313
 30
0.0
 11
2.399999999999977
 21
0.0
 31
0.0
210
0.0
220
0.0
230
1.0
 40
0.0294627825
 41
3.141592653689948
 42
4.712388980384643
  0
LINE
  5
85
330
1F
100
AcDbEntity
  8
1
  6
SLD-Сплошная
100
AcDbLine
 10
367.7062925134
 20
1138.4112396313
 30
0.0
 11
366.3062925134
 21
1138.4112396313
 31
0.0
  0
LINE
  5
86
330
1F
100
AcDbEntity
  8
1
  6
SLD-Сплошная
100
AcDbLine
 10
966.3062925134
 20
143.2112396313
 30
0.0
 11
964.9062925134
 21
143.2112396313
 31
0.0
  0
ELLIPSE
  5
87
330
1F
100
AcDbEntity
  8
1
  6
SLD-Сплошная
100
AcDbEllipse
 10
963.9062925134
 20
143.2112396313
 30
0.0
 11
0.9999999999998863
 21
0.0
 31
0.0
210
0.0
220
0.0
230
1.0
 40
0.070710678
 41
0.0
 42
1.570796326794897
  0
ELLIPSE
  5
88
330
1F
100
AcDbEntity
  8
1
  6
SLD-Сплошная
100
AcDbEllipse
 10
368.7062925134
 20
143.2112396313
 30
0.0
 11
2.399999999999977
 21
0.0
 31
0.0
210
0.0
220
0.0
230
1.0
 40
0.0294627825
 41
1.570796326794944
 42
3.141592653490911
  0
ELLIPSE
  5
89
330
1F
100
AcDbEntity
  8
1
  6
SLD-Сплошная
100
AcDbEllipse
 10
368.7062925134
 20
143.2112396313
 30
0.0
 11
1.0
 21
0.0
 31
0.0
210
0.0
220
0.0
230
1.0
 40
0.070710678
 41
1.570796326794953
 42
3.141592653490914
  0
LINE
  5
8A
330
1F
100
AcDbEntity
  8
1
  6
SLD-Сплошная
100
AcDbLine
 10
367.7062925134
 20
143.2112396313
 30
0.0
 11
366.3062925134
 21
143.2112396313
 31
0.0
  0
LINE
  5
8B
330
1F
100
AcDbEntity
  8
1
  6
SLD-Сплошная
100
AcDbLine
 10
368.7062925134
 20
140.8112396313
 30
0.0
 11
368.7062925134
 21
141.3377402317
 31
0.0
  0
LINE
  5
8C
330
1F
100
AcDbEntity
  8
1
  6
SLD-Сплошная
100
AcDbLine
 10
368.7062925134
 20
141.3377402317
 30
0.0
 11
368.7062925134
 21
142.2112396313
 31
0.0
  0
ELLIPSE
  5
8D
330
1F
100
AcDbEntity
  8
1
  6
SLD-Сплошная
100
AcDbEllipse
 10
368.7062925134
 20
143.2112396313
 30
0.0
 11
0.0
 21
1.0
 31
0.0
210
0.0
220
0.0
230
1.0
 40
0.070710678
 41
3.141592653536735
 42
4.712388980384691
  0
LINE
  5
8E
330
1F
100
AcDbEntity
  8
1
  6
SLD-Сплошная
100
AcDbLine
 10
366.3062925134
 20
143.2112396313
 30
0.0
 11
366.3062925134
 21
1138.4112396313
 31
0.0
  0
ELLIPSE
  5
8F
330
1F
100
AcDbEntity
  8
1
  6
SLD-Сплошная
100
AcDbEllipse
 10
368.7062925134
 20
1138.4112396313
 30
0.0
 11
0.0
 21
1.000000000000227
 31
0.0
210
0.0
220
0.0
230
1.0
 40
0.070710678
 41
4.712388980384918
 42
6.283185307179586
  0
LINE
  5
90
330
1F
100
AcDbEntity
  8
1
  6
SLD-Сплошная
100
AcDbLine
 10
368.7062925134
 20
1140.8112396313
 30
0.0
 11
368.7062925134
 21
1139.4112396313
 31
0.0
  0
ELLIPSE
  5
91
330
1F
100
AcDbEntity
  8
1
  6
SLD-Сплошная
100
AcDbEllipse
 10
963.9062925134
 20
143.2112396313
 30
0.0
 11
0.0
 21
1.0
 31
0.0
210
0.0
220
0.0
230
1.0
 40
0.070710678
 41
1.57079632679501
 42
3.141592653643049
  0
LINE
  5
92
330
1F
100
AcDbEntity
  8
1
  6
SLD-Сплошная
100
AcDbLine
 10
963.9062925134
 20
142.2112396313
 30
0.0
 11
963.9062925134
 21
140.8112396313
 31
0.0
  0
LINE
  5
93
330
1F
100
AcDbEntity
  8
1
  6
SLD-Сплошная
100
AcDbLine
 10
367.8062925134
 20
143.2112396313
 30
0.0
 11
367.8062925134
 21
143.2420617012
 31
0.0
  0
LINE
  5
94
330
1F
100
AcDbEntity
  8
1
  6
SLD-Сплошная
100
AcDbLine
 10
369.2062925134
 20
143.6405289532
 30
0.0
 11
369.2062925134
 21
143.7819503093
 31
0.0
  0
ARC
  5
95
330
1F
100
AcDbEntity
  8
1
  6
SLD-Сплошная
100
AcDbCircle
 10
370.2062925134
 20
143.2112396313
 30
0.0
 40
2.399999999999998
100
AcDbArc
 50
180.0
 51
231.3178125465
  0
ARC
  5
96
330
1F
100
AcDbEntity
  8
1
  6
SLD-Сплошная
100
AcDbCircle
 10
368.7062925134
 20
1138.4112396313
 30
0.0
 40
1.000000000008185
100
AcDbArc
 50
90.0
 51
180.0
  0
ARC
  5
97
330
1F
100
AcDbEntity
  8
1
  6
SLD-Сплошная
100
AcDbCircle
 10
368.7062925134
 20
1138.4112396313
 30
0.0
 40
2.400000000008276
100
AcDbArc
 50
90.0
 51
180.0
  0
ARC
  5
98
330
1F
100
AcDbEntity
  8
1
  6
SLD-Сплошная
100
AcDbCircle
 10
963.9062925134
 20
1138.4112396313
 30
0.0
 40
2.400000000000091
100
AcDbArc
 50
0.0
 51
90.0
  0
ARC
  5
99
330
1F
100
AcDbEntity
  8
1
  6
SLD-Сплошная
100
AcDbCircle
 10
963.9062925134
 20
1138.4112396313
 30
0.0
 40
1.0
100
AcDbArc
 50
0.0
 51
90.0
  0
ARC
  5
9A
330
1F
100
AcDbEntity
  8
1
  6
SLD-Сплошная
100
AcDbCircle
 10
963.9062925134
 20
143.2112396313
 30
0.0
 40
2.400000000000091
100
AcDbArc
 50
270.0
 51
0.0
  0
ARC
  5
9B
330
1F
100
AcDbEntity
  8
1
  6
SLD-Сплошная
100
AcDbCircle
 10
963.9062925134
 20
143.2112396313
 30
0.0
 40
1.0
100
AcDbArc
 50
270.0
 51
0.0
  0
LINE
  5
9C
330
1F
100
AcDbEntity
  8
1
  6
SLD-Сплошная
100
AcDbLine
 10
367.8062925134
 20
143.2112396313
 30
0.0
 11
367.7062925134
 21
143.2112396313
 31
0.0
  0
LINE
  5
9D
330
1F
100
AcDbEntity
  8
1
  6
SLD-Сплошная
100
AcDbLine
 10
368.6355818354
 20
1138.4112396313
 30
0.0
 11
367.7062925134
 21
1138.4112396313
 31
0.0
  0
LINE
  5
9E
330
1F
100
AcDbEntity
  8
1
  6
SLD-Сплошная
100
AcDbLine
 10
963.9062925134
 20
1138.4819503093
 30
0.0
 11
963.9062925134
 21
1139.4112396313
 31
0.0
  0
LINE
  5
9F
330
1F
100
AcDbEntity
  8
1
  6
SLD-Сплошная
100
AcDbLine
 10
368.7062925134
 20
1139.4112396313
 30
0.0
 11
368.7062925134
 21
1138.4819503093
 31
0.0
  0
LINE
  5
A0
330
1F
100
AcDbEntity
  8
1
  6
SLD-Сплошная
100
AcDbLine
 10
964.9062925134
 20
1138.4112396313
 30
0.0
 11
963.9770031915
 21
1138.4112396313
 31
0.0
  0
LINE
  5
A1
330
1F
100
AcDbEntity
  8
1
  6
SLD-Сплошная
100
AcDbLine
 10
964.9062925134
 20
143.2112396313
 30
0.0
 11
963.9770031915
 21
143.2112396313
 31
0.0
  0
LINE
  5
A2
330
1F
100
AcDbEntity
  8
1
  6
SLD-Сплошная
100
AcDbLine
 10
963.9062925134
 20
143.1405289532
 30
0.0
 11
963.9062925134
 21
142.2112396313
 31
0.0
  0
LINE
  5
A3
330
1F
100
AcDbEntity
  8
1
  6
SLD-Сплошная
100
AcDbLine
 10
369.3062925133
 20
1137.6283969188
 30
0.0
 11
372.4062925133
 21
1136.2112396313
 31
0.0
  0
LINE
  5
A4
330
1F
100
AcDbEntity
  8
1
  6
SLD-Сплошная
100
AcDbLine
 10
369.3062925134
 20
143.9940823438
 30
0.0
 11
372.4062925134
 21
145.4112396313
 31
0.0
  0
LINE
  5
A5
330
1F
100
AcDbEntity
  8
1
  6
SLD-Сплошная
100
AcDbLine
 10
369.3062925133
 20
1137.6283969188
 30
0.0
 11
369.3062925134
 21
143.9940823438
 31
0.0
  0
LINE
  5
A6
330
1F
100
AcDbEntity
  8
1
  6
SLD-Сплошная
100
AcDbLine
 10
372.4062925134
 20
1136.2112396313
 30
0.0
 11
370.9891352258
 21
1139.3112396313
 31
0.0
  0
LINE
  5
A7
330
1F
100
AcDbEntity
  8
1
  6
SLD-Сплошная
100
AcDbLine
 10
370.9891352258
 20
1139.3112396313
 30
0.0
 11
962.6234498009
 21
1139.3112396313
 31
0.0
  0
LINE
  5
A8
330
1F
100
AcDbEntity
  8
1
  6
SLD-Сплошная
100
AcDbLine
 10
961.2062925134
 20
1136.2112396313
 30
0.0
 11
962.6234498009
 21
1139.3112396313
 31
0.0
  0
LINE
  5
A9
330
1F
100
AcDbEntity
  8
1
  6
SLD-Сплошная
100
AcDbLine
 10
372.4062925134
 20
1136.2112396313
 30
0.0
 11
370.9891352258
 21
1137.9112396313
 31
0.0
  0
LINE
  5
AA
330
1F
100
AcDbEntity
  8
1
  6
SLD-Сплошная
100
AcDbLine
 10
370.9891352258
 20
1139.3112396313
 30
0.0
 11
370.9891352258
 21
1137.9112396313
 31
0.0
  0
LINE
  5
AB
330
1F
100
AcDbEntity
  8
1
  6
SLD-Сплошная
100
AcDbLine
 10
369.3062925133
 20
1137.6283969188
 30
0.0
 11
370.7062925133
 21
1137.6283969188
 31
0.0
  0
LINE
  5
AC
330
1F
100
AcDbEntity
  8
1
  6
SLD-Сплошная
100
AcDbLine
 10
370.7062925133
 20
1137.6283969188
 30
0.0
 11
372.4062925133
 21
1136.2112396312
 31
0.0
  0
LINE
  5
AD
330
1F
100
AcDbEntity
  8
1
  6
SLD-Сплошная
100
AcDbLine
 10
370.7062925134
 20
143.9940823438
 30
0.0
 11
372.4062925134
 21
145.4112396313
 31
0.0
  0
LINE
  5
AE
330
1F
100
AcDbEntity
  8
1
  6
SLD-Сплошная
100
AcDbLine
 10
369.3062925134
 20
143.9940823438
 30
0.0
 11
370.7062925134
 21
143.9940823438
 31
0.0
  0
LINE
  5
AF
330
1F
100
AcDbEntity
  8
1
  6
SLD-Сплошная
100
AcDbLine
 10
372.4062925134
 20
145.4112396313
 30
0.0
 11
370.9891352259
 21
143.7112396313
 31
0.0
  0
LINE
  5
B0
330
1F
100
AcDbEntity
  8
1
  6
SLD-Сплошная
100
AcDbLine
 10
372.4062925134
 20
145.4112396312
 30
0.0
 11
370.9891352259
 21
142.3112396313
 31
0.0
  0
LINE
  5
B1
330
1F
100
AcDbEntity
  8
1
  6
SLD-Сплошная
100
AcDbLine
 10
370.9891352259
 20
142.3112396313
 30
0.0
 11
370.9891352259
 21
143.7112396313
 31
0.0
  0
LINE
  5
B2
330
1F
100
AcDbEntity
  8
1
  6
SLD-Сплошная
100
AcDbLine
 10
370.9891352259
 20
142.3112396313
 30
0.0
 11
962.623449801
 21
142.3112396313
 31
0.0
  0
LINE
  5
B3
330
1F
100
AcDbEntity
  8
1
  6
SLD-Сплошная
100
AcDbLine
 10
961.2062925135
 20
145.4112396313
 30
0.0
 11
962.623449801
 21
142.3112396313
 31
0.0
  0
LINE
  5
B4
330
1F
100
AcDbEntity
  8
1
  6
SLD-Сплошная
100
AcDbLine
 10
962.9062925134
 20
1137.6283969188
 30
0.0
 11
961.2062925134
 21
1136.2112396313
 31
0.0
  0
LINE
  5
B5
330
1F
100
AcDbEntity
  8
1
  6
SLD-Сплошная
100
AcDbLine
 10
964.3062925134
 20
1137.6283969188
 30
0.0
 11
962.9062925134
 21
1137.6283969188
 31
0.0
  0
LINE
  5
B6
330
1F
100
AcDbEntity
  8
1
  6
SLD-Сплошная
100
AcDbLine
 10
964.3062925134
 20
1137.6283969188
 30
0.0
 11
961.2062925134
 21
1136.2112396313
 31
0.0
  0
LINE
  5
B7
330
1F
100
AcDbEntity
  8
1
  6
SLD-Сплошная
100
AcDbLine
 10
964.3062925134
 20
1137.6283969188
 30
0.0
 11
964.3062925135
 21
143.9940823438
 31
0.0
  0
LINE
  5
B8
330
1F
100
AcDbEntity
  8
1
  6
SLD-Сплошная
100
AcDbLine
 10
964.3062925135
 20
143.9940823438
 30
0.0
 11
961.2062925135
 21
145.4112396313
 31
0.0
  0
LINE
  5
B9
330
1F
100
AcDbEntity
  8
1
  6
SLD-Сплошная
100
AcDbLine
 10
961.2062925134
 20
1136.2112396313
 30
0.0
 11
962.6234498009
 21
1137.9112396313
 31
0.0
  0
LINE
  5
BA
330
1F
100
AcDbEntity
  8
1
  6
SLD-Сплошная
100
AcDbLine
 10
962.6234498009
 20
1139.3112396313
 30
0.0
 11
962.6234498009
 21
1137.9112396313
 31
0.0
  0
LINE
  5
BB
330
1F
100
AcDbEntity
  8
1
  6
SLD-Сплошная
100
AcDbLine
 10
961.2062925134
 20
145.4112396313
 30
0.0
 11
962.623449801
 21
143.7112396313
 31
0.0
  0
LINE
  5
BC
330
1F
100
AcDbEntity
  8
1
  6
SLD-Сплошная
100
AcDbLine
 10
962.623449801
 20
142.3112396313
 30
0.0
 11
962.623449801
 21
143.7112396313
 31
0.0
  0
LINE
  5
BD
330
1F
100
AcDbEntity
  8
1
  6
SLD-Сплошная
100
AcDbLine
 10
964.3062925135
 20
143.9940823438
 30
0.0
 11
962.9062925135
 21
143.9940823438
 31
0.0
  0
LINE
  5
BE
330
1F
100
AcDbEntity
  8
1
  6
SLD-Сплошная
100
AcDbLine
 10
962.9062925135
 20
143.9940823438
 30
0.0
 11
961.2062925135
 21
145.4112396313
 31
0.0
  0
LINE
  5
BF
330
1F
100
AcDbEntity
  8
1
  6
SLD-Сплошная
100
AcDbLine
 10
873.7979664014
 20
140.3112396313
 30
0.0
 11
863.3062925134
 21
140.3112396313
 31
0.0
  0
ARC
  5
C0
330
1F
100
AcDbEntity
  8
1
  6
SLD-Сплошная
100
AcDbCircle
 10
873.7979664014
 20
142.7112396313
 30
0.0
 40
2.400000000000063
100
AcDbArc
 50
270.0
 51
307.6584620064
  0
LINE
  5
C1
330
1F
100
AcDbEntity
  8
1
  6
SLD-Сплошная
100
AcDbLine
 10
863.3062925134
 20
140.3112396313
 30
0.0
 11
469.3062925134
 21
140.3112396313
 31
0.0
  0
LINE
  5
C2
330
1F
100
AcDbEntity
  8
1
  6
SLD-Сплошная
100
AcDbLine
 10
469.3062925134
 20
140.3112396313
 30
0.0
 11
458.8146186255
 21
140.3112396313
 31
0.0
  0
ARC
  5
C3
330
1F
100
AcDbEntity
  8
1
  6
SLD-Сплошная
100
AcDbCircle
 10
458.8146186255
 20
142.7112396313
 30
0.0
 40
2.400000000000075
100
AcDbArc
 50
232.3415379936
 51
270.0
  0
CIRCLE
  5
C4
330
1F
100
AcDbEntity
  8
1
  6
SLD-Сплошная
100
AcDbCircle
 10
424.3062925134
 20
640.8112396313
 30
0.0
 40
14.0
  0
CIRCLE
  5
C5
330
1F
100
AcDbEntity
  8
1
  6
SLD-Сплошная
100
AcDbCircle
 10
424.3062925134
 20
640.8112396313
 30
0.0
 40
11.0
  0
CIRCLE
  5
C6
330
1F
100
AcDbEntity
  8
1
  6
SLD-Сплошная
100
AcDbCircle
 10
424.3062925134
 20
640.8112396313
 30
0.0
 40
8.0
  0
ARC
  5
C7
330
1F
100
AcDbEntity
  8
1
  6
SLD-Сплошная
100
AcDbCircle
 10
426.1930438593
 20
637.5432904388
 30
0.0
 40
1.000000000000025
100
AcDbArc
 50
240.0
 51
0.0
  0
LINE
  5
C8
330
1F
100
AcDbEntity
  8
1
  6
SLD-Сплошная
100
AcDbLine
 10
420.0327898215
 20
639.9452142275
 30
0.0
 11
425.6930438593
 21
636.677265035
 31
0.0
  0
ARC
  5
C9
330
1F
100
AcDbEntity
  8
1
  6
SLD-Сплошная
100
AcDbCircle
 10
420.5327898215
 20
640.8112396313
 30
0.0
 40
1.000000000000025
100
AcDbArc
 50
120.0
 51
240.0
  0
LINE
  5
CA
330
1F
100
AcDbEntity
  8
1
  6
SLD-Сплошная
100
AcDbLine
 10
425.6930438593
 20
644.9452142275
 30
0.0
 11
420.0327898215
 21
641.677265035
 31
0.0
  0
LINE
  5
CB
330
1F
100
AcDbEntity
  8
1
  6
SLD-Сплошная
100
AcDbLine
 10
427.1930438593
 20
637.5432904388
 30
0.0
 11
427.1930438593
 21
644.0791888237
 31
0.0
  0
ARC
  5
CC
330
1F
100
AcDbEntity
  8
1
  6
SLD-Сплошная
100
AcDbCircle
 10
426.1930438593
 20
644.0791888237
 30
0.0
 40
1.0
100
AcDbArc
 50
0.0
 51
120.0
  0
LINE
  5
CD
330
1F
100
AcDbEntity
  8
1
  6
SLD-Сплошная
100
AcDbLine
 10
1762.434253699
 20
1334.5397540284
 30
0.0
 11
1762.434253699
 21
2147.1611700171
 31
0.0
  0
LINE
  5
CE
330
1F
100
AcDbEntity
  8
1
  6
SLD-Сплошная
100
AcDbLine
 10
1761.3376892519
 20
2149.0603392841
 30
0.0
 11
1340.4677330897
 21
2392.0233933626
 31
0.0
  0
LINE
  5
CF
330
1F
100
AcDbEntity
  8
1
  6
SLD-Сплошная
100
AcDbLine
 10
1182.4685726287
 20
2300.8908108384
 30
0.0
 11
1182.4685726287
 21
2293.9495060561
 31
0.0
  0
LINE
  5
D0
330
1F
100
AcDbEntity
  8
1
  6
SLD-Сплошная
100
AcDbLine
 10
1337.8179484482
 20
2391.9986393373
 30
0.0
 11
1183.6686701495
 21
2303.0101551487
 31
0.0
  0
LINE
  5
D1
330
1F
100
AcDbEntity
  8
1
  6
SLD-Сплошная
100
AcDbLine
 10
1606.9384312701
 20
1243.2686505421
 30
0.0
 11
1761.0877095687
 21
1332.2571347308
 31
0.0
  0
LINE
  5
D2
330
1F
100
AcDbEntity
  8
1
  6
SLD-Сплошная
100
AcDbLine
 10
1598.1375619918
 20
1246.9639063183
 30
0.0
 11
1604.503273846
 21
1243.2890590862
 31
0.0
  0
LINE
  5
D3
330
1F
100
AcDbEntity
  8
1
  6
SLD-Сплошная
100
AcDbLine
 10
1598.1375619918
 20
1241.6157291312
 30
0.0
 11
1598.1375619917
 21
2052.9644556847
 31
0.0
  0
LINE
  5
D4
330
1F
100
AcDbEntity
  8
1
  6
SLD-Сплошная
100
AcDbLine
 10
1597.2503509633
 20
2054.5010822265
 30
0.0
 11
1178.8967300418
 21
2296.011486891
 31
0.0
  0
LINE
  5
D5
330
1F
100
AcDbEntity
  8
1
  6
SLD-Сплошная
100
AcDbLine
 10
1165.8586700519
 20
2287.7481872855
 30
0.0
 11
1165.858670052
 21
1477.0830699402
 31
0.0
  0
LINE
  5
D6
330
1F
100
AcDbEntity
  8
1
  6
SLD-Сплошная
100
AcDbLine
 10
1166.700159793
 20
1475.6256459154
 30
0.0
 11
1584.4619050025
 21
1234.4569238266
 31
0.0
  0
LINE
  5
D7
330
1F
100
AcDbEntity
  8
1
  6
SLD-Сплошная
100
AcDbLine
 10
1192.8588792561
 20
1865.2710582646
 30
0.0
 11
1192.8588792561
 21
1862.8218339291
 31
0.0
  0
LINE
  5
D8
330
1F
100
AcDbEntity
  8
1
  6
SLD-Сплошная
100
AcDbLine
 10
1200.635789677
 20
1849.350370293
 30
0.0
 11
1202.7567652463
 21
1848.1255590914
 31
0.0
  0
LINE
  5
D9
330
1F
100
AcDbEntity
  8
1
  6
SLD-Сплошная
100
AcDbLine
 10
1196.4660498454
 20
1872.0890896111
 30
0.0
 11
1195.7589430642
 21
1871.6808855552
 31
0.0
  0
LINE
  5
DA
330
1F
100
AcDbEntity
  8
1
  6
SLD-Сплошная
100
AcDbLine
 10
1209.7578053211
 20
1847.4315174085
 30
0.0
 11
1210.4649121023
 21
1847.8397214644
 31
0.0
  0
LINE
  5
DB
330
1F
100
AcDbEntity
  8
1
  6
SLD-Сплошная
100
AcDbLine
 10
1204.5924682301
 20
1855.2515591807
 30
0.0
 11
1206.216314657
 21
1856.1889857693
 31
0.0
  0
LINE
  5
DC
330
1F
100
AcDbEntity
  8
1
  6
SLD-Сплошная
100
AcDbLine
 10
1201.2872017589
 20
1862.9422991822
 30
0.0
 11
1199.5901454841
 21
1861.962609448
 31
0.0
  0
LINE
  5
DD
330
1F
100
AcDbEntity
  8
1
  6
SLD-Сплошная
100
AcDbLine
 10
1601.081593274
 20
1291.9543392307
 30
0.0
 11
1602.4958068364
 21
1292.7707473425
 31
0.0
  0
LINE
  5
DE
330
1F
100
AcDbEntity
  8
1
  6
SLD-Сплошная
100
AcDbLine
 10
1598.4924003299
 20
1314.4026731729
 30
0.0
 11
1598.7752430424
 21
1314.5659547953
 31
0.0
  0
LINE
  5
DF
330
1F
100
AcDbEntity
  8
1
  6
SLD-Сплошная
100
AcDbLine
 10
1599.7281211508
 20
1316.672040905
 30
0.0
 11
1599.7281211508
 21
1317.99538768
 31
0.0
  0
LINE
  5
E0
330
1F
100
AcDbEntity
  8
1
  6
SLD-Сплошная
100
AcDbLine
 10
1599.7281211508
 20
1317.5408450667
 30
0.0
 11
1599.7831211235
 21
1317.572595875
 31
0.0
  0
LINE
  5
E1
330
1F
100
AcDbEntity
  8
1
  6
SLD-Сплошная
100
AcDbLine
 10
1598.8459537205
 20
1984.1702409472
 30
0.0
 11
1599.128796433
 21
1984.3335225696
 31
0.0
  0
LINE
  5
E2
330
1F
100
AcDbEntity
  8
1
  6
SLD-Сплошная
100
AcDbLine
 10
1600.0816745414
 20
1986.4396086793
 30
0.0
 11
1600.0816745414
 21
1986.5212494905
 31
0.0
  0
LINE
  5
E3
330
1F
100
AcDbEntity
  8
1
  6
SLD-Сплошная
100
AcDbLine
 10
1598.8459537206
 20
1649.388508074
 30
0.0
 11
1599.128796433
 21
1649.5517896964
 31
0.0
  0
LINE
  5
E4
330
1F
100
AcDbEntity
  8
1
  6
SLD-Сплошная
100
AcDbLine
 10
1600.0816745414
 20
1651.6578758062
 30
0.0
 11
1600.0816745414
 21
1651.7395166173
 31
0.0
  0
LINE
  5
E5
330
1F
100
AcDbEntity
  8
1
  6
SLD-Сплошная
100
AcDbLine
 10
1601.4351466646
 20
1961.721907005
 30
0.0
 11
1602.4958068364
 21
1962.3342130889
 31
0.0
  0
LINE
  5
E6
330
1F
100
AcDbEntity
  8
1
  6
SLD-Сплошная
100
AcDbLine
 10
1601.4351466647
 20
1626.9401741318
 30
0.0
 11
1602.4958068364
 21
1627.5524802157
 31
0.0
  0
ELLIPSE
  5
E7
330
1F
100
AcDbEntity
  8
1
  6
SLD-Сплошная
100
AcDbEllipse
 10
1605.7385287909
 20
2057.9685838005
 30
0.0
 11
0.9991743340506217
 21
0.06590621732129875
 31
0.0
210
0.0
220
0.0
230
0.9999999999999999
 40
0.616454653
 41
3.886351437191817
 42
5.457147763989535
  0
LINE
  5
E8
330
1F
100
AcDbEntity
  8
1
  6
SLD-Сплошная
100
AcDbLine
 10
1607.4355850658
 20
2056.9888940663
 30
0.0
 11
1606.4456355721
 21
2057.5603797446
 31
0.0
  0
ELLIPSE
  5
E9
330
1F
100
AcDbEntity
  8
1
  6
SLD-Сплошная
100
AcDbEllipse
 10
1605.7385287909
 20
2057.9685838005
 30
0.0
 11
2.399707293152005
 21
0.06309763000717794
 31
0.0
210
0.0
220
0.0
230
1.0
 40
0.5940332725
 41
3.911372643861865
 42
5.482168970658838
  0
LINE
  5
EA
330
1F
100
AcDbEntity
  8
1
  6
SLD-Сплошная
100
AcDbLine
 10
1605.0314220097
 20
2057.5026415902
 30
0.0
 11
1604.0414725161
 21
2056.9311559119
 31
0.0
  0
ELLIPSE
  5
EB
330
1F
100
AcDbEntity
  8
1
  6
SLD-Сплошная
100
AcDbEllipse
 10
1605.7385287909
 20
1245.3471678118
 30
0.0
 11
2.399768740150876
 21
-0.05948959556849331
 31
0.0
210
0.0
220
0.0
230
1.0
 40
0.5600402737
 41
3.940873166793704
 42
5.511669493586499
  0
ELLIPSE
  5
EC
330
1F
100
AcDbEntity
  8
1
  6
SLD-Сплошная
100
AcDbEllipse
 10
1605.7385287909
 20
2057.9685838005
 30
0.0
 11
1.254402255199693
 21
2.046717125675968
 31
0.0
210
0.0
220
0.0
230
0.9999999999999999
 40
0.5941271042
 41
0.8009376928858132
 42
2.371734019683788
  0
ELLIPSE
  5
ED
330
1F
100
AcDbEntity
  8
1
  6
SLD-Сплошная
100
AcDbEllipse
 10
1184.8685726287
 20
2300.9316378789
 30
0.0
 11
1.148266406821449
 21
2.108059026636965
 31
0.0
210
0.0
220
0.0
230
1.0
 40
0.5601341078
 41
0.77143235313712
 42
2.3422286799284
  0
ARC
  5
EE
330
1F
100
AcDbEntity
  8
1
  6
SLD-Сплошная
100
AcDbCircle
 10
1757.9003447212
 20
2145.8097122096
 30
0.0
 40
3.688331538153999
100
AcDbArc
 50
2.6054784854
 51
57.3945216601
  0
ARC
  5
EF
330
1F
100
AcDbEntity
  8
1
  6
SLD-Сплошная
100
AcDbCircle
 10
1603.7510664225
 20
2056.8212280209
 30
0.0
 40
3.688331538172238
100
AcDbArc
 50
2.6054784856
 51
57.39452166
  0
ARC
  5
F0
330
1F
100
AcDbEntity
  8
1
  6
SLD-Сплошная
100
AcDbCircle
 10
1604.9104194707
 20
2057.4905188923
 30
0.0
 40
1.536804807569459
100
AcDbArc
 50
2.6054784856
 51
57.39452166
  0
LINE
  5
F1
330
1F
100
AcDbEntity
  8
1
  6
SLD-Сплошная
100
AcDbLine
 10
1605.7385287909
 20
2058.7851246124
 30
0.0
 11
1605.7385287909
 21
2059.928281749
 31
0.0
  0
ELLIPSE
  5
F2
330
1F
100
AcDbEntity
  8
1
  6
SLD-Сплошная
100
AcDbEllipse
 10
1605.7385287909
 20
2057.9685838005
 30
0.0
 11
0.5566258152655338
 21
0.8323823098658069
 31
0.0
210
0.0
220
0.0
230
1.0
 40
0.6165484624
 41
0.8259634569838434
 42
2.396759783786198
  0
LINE
  5
F3
330
1F
100
AcDbEntity
  8
1
  6
SLD-Сплошная
100
AcDbLine
 10
1604.9814220098
 20
2057.5892441301
 30
0.0
 11
1603.9914725161
 21
2057.0177584519
 31
0.0
  0
LWPOLYLINE
  5
F4
330
1F
100
AcDbEntity
  8
1
  6
SLD-Сплошная
100
AcDbPolyline
 90
       17
 70
   128
 43
0.0
 10
1669.3781390977
 20
1310.4198174964
 10
1669.2428400727
 20
1310.372788766
 10
1669.1281390977
 20
1310.3950752017
 10
1669.0514983565
 20
1310.4832838959
 10
1669.0245857071
 20
1310.6239858744
 10
1669.0514983565
 20
1310.7957605365
 10
1669.1281390977
 20
1310.9724567469
 10
1669.2428400727
 20
1311.1271741095
 10
1669.3781390977
 20
1311.2363583083
 10
1669.5134381227
 20
1311.2833870387
 10
1669.6281390977
 20
1311.261100603
 10
1669.7047798389
 20
1311.1728919088
 10
1669.7316924883
 20
1311.0321899303
 10
1669.7047798389
 20
1310.8604152682
 10
1669.6281390977
 20
1310.6837190578
 10
1669.5134381227
 20
1310.5290016952
 10
1669.3781390977
 20
1310.4198174964
  0
LWPOLYLINE
  5
F5
330
1F
100
AcDbEntity
  8
1
  6
SLD-Сплошная
100
AcDbPolyline
 90
       17
 70
   128
 43
0.0
 10
1634.0228000384
 20
1298.1750228197
 10
1633.8875010133
 20
1298.1279940893
 10
1633.7728000384
 20
1298.150280525
 10
1633.6961592972
 20
1298.2384892192
 10
1633.6692466478
 20
1298.3791911977
 10
1633.6961592972
 20
1298.5509658598
 10
1633.7728000384
 20
1298.7276620702
 10
1633.8875010133
 20
1298.8823794328
 10
1634.0228000384
 20
1298.9915636316
 10
1634.1580990634
 20
1299.038592362
 10
1634.2728000384
 20
1299.0163059263
 10
1634.3494407796
 20
1298.9280972321
 10
1634.376353429
 20
1298.7873952536
 10
1634.3494407796
 20
1298.6156205915
 10
1634.2728000384
 20
1298.4389243811
 10
1634.1580990634
 20
1298.2842070185
 10
1634.0228000384
 20
1298.1750228197
  0
LWPOLYLINE
  5
F6
330
1F
100
AcDbEntity
  8
1
  6
SLD-Сплошная
100
AcDbPolyline
 90
       17
 70
   128
 43
0.0
 10
1634.0228000384
 20
2033.8782943288
 10
1634.1580990634
 20
2033.9253230592
 10
1634.2728000384
 20
2033.9030366234
 10
1634.3494407796
 20
2033.8148279293
 10
1634.376353429
 20
2033.6741259508
 10
1634.3494407796
 20
2033.5023512887
 10
1634.2728000384
 20
2033.3256550782
 10
1634.1580990634
 20
2033.1709377156
 10
1634.0228000384
 20
2033.0617535169
 10
1633.8875010133
 20
2033.0147247864
 10
1633.7728000384
 20
2033.0370112222
 10
1633.6961592972
 20
2033.1252199164
 10
1633.6692466478
 20
2033.2659218949
 10
1633.6961592972
 20
2033.4376965569
 10
1633.7728000384
 20
2033.6143927674
 10
1633.8875010133
 20
2033.76911013
 10
1634.0228000384
 20
2033.8782943288
  0
LWPOLYLINE
  5
F7
330
1F
100
AcDbEntity
  8
1
  6
SLD-Сплошная
100
AcDbPolyline
 90
       17
 70
   128
 43
0.0
 10
1634.0228000384
 20
1665.6183881683
 10
1633.8875010133
 20
1665.5713594378
 10
1633.7728000384
 20
1665.5936458736
 10
1633.6961592972
 20
1665.6818545678
 10
1633.6692466478
 20
1665.8225565463
 10
1633.6961592972
 20
1665.9943312083
 10
1633.7728000384
 20
1666.1710274188
 10
1633.8875010133
 20
1666.3257447814
 10
1634.0228000384
 20
1666.4349289802
 10
1634.1580990634
 20
1666.4819577106
 10
1634.2728000384
 20
1666.4596712749
 10
1634.3494407796
 20
1666.3714625807
 10
1634.376353429
 20
1666.2307606022
 10
1634.3494407796
 20
1666.0589859401
 10
1634.2728000384
 20
1665.8822897297
 10
1634.1580990634
 20
1665.7275723671
 10
1634.0228000384
 20
1665.6183881683
  0
LINE
  5
F8
330
1F
100
AcDbEntity
  8
1
  6
SLD-Сплошная
100
AcDbLine
 10
1599.7380593708
 20
1317.4707558905
 30
0.0
 11
1599.8070352555
 21
1317.6375601841
 31
0.0
  0
LINE
  5
F9
330
1F
100
AcDbEntity
  8
1
  6
SLD-Сплошная
100
AcDbLine
 10
1604.0414725161
 20
1244.425216232
 30
0.0
 11
1598.1375619918
 21
1254.6510891935
 31
0.0
  0
LINE
  5
FA
330
1F
100
AcDbEntity
  8
1
  6
SLD-Сплошная
100
AcDbLine
 10
1604.0414725161
 20
2056.9311559119
 30
0.0
 11
1597.8804384757
 21
2053.3733104486
 31
0.0
  0
LINE
  5
FB
330
1F
100
AcDbEntity
  8
1
  6
SLD-Сплошная
100
AcDbLine
 10
1597.7984808071
 20
2053.4414582218
 30
0.0
 11
1603.9914725161
 21
2057.0177584519
 31
0.0
  0
LINE
  5
FC
330
1F
100
AcDbEntity
  8
1
  6
SLD-Сплошная
100
AcDbLine
 10
1183.2215163538
 20
2299.9230837592
 30
0.0
 11
1188.7709168471
 21
2290.3112401815
 31
0.0
  0
LINE
  5
FD
330
1F
100
AcDbEntity
  8
1
  6
SLD-Сплошная
100
AcDbLine
 10
1597.7986126618
 20
2053.4413485846
 30
0.0
 11
1604.9814220098
 21
2057.5892441301
 31
0.0
  0
LINE
  5
FE
330
1F
100
AcDbEntity
  8
1
  6
SLD-Сплошная
100
AcDbLine
 10
1598.9097771262
 20
2054.0828196539
 30
0.0
 11
1598.9096047531
 21
2054.0829191627
 31
0.0
  0
LINE
  5
FF
330
1F
100
AcDbEntity
  8
1
  6
SLD-Сплошная
100
AcDbLine
 10
1597.9198276325
 20
2053.5113339756
 30
0.0
 11
1598.9097771262
 21
2054.0828196539
 31
0.0
  0
LINE
  5
100
330
1F
100
AcDbEntity
  8
1
  6
SLD-Сплошная
100
AcDbLine
 10
1597.7987539348
 20
2053.4412311161
 30
0.0
 11
1598.9097771262
 21
2054.0828196539
 31
0.0
  0
ELLIPSE
  5
101
330
1F
100
AcDbEntity
  8
1
  6
SLD-Сплошная
100
AcDbEllipse
 10
1591.5463931673
 20
2049.8311642468
 30
0.0
 11
1.838476914218518
 21
0.006790717397961997
 31
0.0
210
0.0
220
0.0
230
0.9999999999999999
 40
0.2390824169
 41
1.281602512642015
 42
1.710795336129556
  0
ELLIPSE
  5
102
330
1F
100
AcDbEntity
  8
1
  6
SLD-Сплошная
100
AcDbEllipse
 10
1759.534253699
 20
2146.6951614567
 30
0.0
 11
2.890365856587096
 21
0.9290073015790766
 31
0.0
210
0.0
220
0.0
230
0.9999999999999998
 40
0.2542379796
 41
0.3135548338892197
 42
0.7038633921487535
  0
ARC
  5
103
330
1F
100
AcDbEntity
  8
1
  6
SLD-Сплошная
100
AcDbCircle
 10
1761.0026949904
 20
1334.6702995324
 30
0.0
 40
1.437498683369965
100
AcDbArc
 50
293.8903166263
 51
354.7895424156
  0
LWPOLYLINE
  5
104
330
1F
100
AcDbEntity
  8
1
  6
SLD-Сплошная
100
AcDbPolyline
 90
        9
 70
   128
 43
0.0
 10
1761.5848633644
 20
2145.977378255
 10
1761.8640716483
 20
2146.1642911951
 10
1762.0926419004
 20
2146.3728710562
 10
1762.2656062014
 20
2146.5985844053
 10
1762.3792052138
 20
2146.8365254171
 10
1762.4309698906
 20
2147.0815225011
 10
1762.4197751389
 20
2147.3282507046
 10
1762.345864274
 20
2147.5713474497
 10
1762.2108437306
 20
2147.8055290871
  0
LINE
  5
105
330
1F
100
AcDbEntity
  8
1
  6
SLD-Сплошная
100
AcDbLine
 10
1762.2108437306
 20
2147.8055290871
 30
0.0
 11
1761.1443920607
 21
2147.5487927927
 31
0.0
  0
ELLIPSE
  5
106
330
1F
100
AcDbEntity
  8
1
  6
SLD-Сплошная
100
AcDbEllipse
 10
1759.4842536991
 20
2146.7817639968
 30
0.0
 11
2.249684805107563
 21
2.038688334745984
 31
0.0
210
0.0
220
0.0
230
1.0
 40
0.2543661535
 41
5.57928786204409
 42
5.969596420305018
  0
LWPOLYLINE
  5
107
330
1F
100
AcDbEntity
  8
1
  6
SLD-Сплошная
100
AcDbPolyline
 90
        9
 70
   128
 43
0.0
 10
1761.7841938995
 20
2148.5445082694
 10
1761.6488749471
 20
2148.7785683725
 10
1761.4752796092
 20
2148.9641649448
 10
1761.2671809386
 20
2149.0972640894
 10
1761.0291019096
 20
2149.1749729286
 10
1760.7662171128
 20
2149.1956024794
 10
1760.4842402858
 20
2149.1587043635
 10
1760.189300127
 20
2149.0650805526
 10
1759.8878070896
 20
2148.9167659377
  0
ARC
  5
108
330
1F
100
AcDbEntity
  8
1
  6
SLD-Сплошная
100
AcDbCircle
 10
1339.8649228786
 20
2390.718262379
 30
0.0
 40
1.437618529004879
100
AcDbArc
 50
65.2088626951
 51
126.101595734
  0
LINE
  5
109
330
1F
100
AcDbEntity
  8
1
  6
SLD-Сплошная
100
AcDbLine
 10
1761.7841938995
 20
2148.5445082694
 30
0.0
 11
1761.028611185
 21
2147.7493516643
 31
0.0
  0
LINE
  5
10A
330
1F
100
AcDbEntity
  8
1
  6
SLD-Сплошная
100
AcDbLine
 10
1761.5848633644
 20
2147.8789532189
 30
0.0
 11
1761.1126722234
 21
2147.6063630754
 31
0.0
  0
LINE
  5
10B
330
1F
100
AcDbEntity
  8
1
  6
SLD-Сплошная
100
AcDbLine
 10
1761.5348633645
 20
2147.9655557589
 30
0.0
 11
1761.0626775692
 21
2147.6929687014
 31
0.0
  0
LINE
  5
10C
330
1F
100
AcDbEntity
  8
1
  6
SLD-Сплошная
100
AcDbLine
 10
1761.0627167326
 20
2147.692902704
 30
0.0
 11
1761.5348633645
 21
2147.9655557589
 31
0.0
  0
LINE
  5
10D
330
1F
100
AcDbEntity
  8
1
  6
SLD-Сплошная
100
AcDbLine
 10
1188.6709168472
 20
2290.3689689526
 30
0.0
 11
1183.1715163538
 21
2299.8942099904
 31
0.0
  0
LINE
  5
10E
330
1F
100
AcDbEntity
  8
1
  6
SLD-Сплошная
100
AcDbLine
 10
1183.221520417
 20
2299.9230767215
 30
0.0
 11
1183.1715163538
 21
2299.8942099904
 31
0.0
  0
ELLIPSE
  5
10F
330
1F
100
AcDbEntity
  8
1
  6
SLD-Сплошная
100
AcDbEllipse
 10
1184.8685726287
 20
2300.9316378789
 30
0.0
 11
2.399707293152233
 21
0.06309762996806967
 31
0.0
210
0.0
220
0.0
230
1.0
 40
0.5940332724
 41
2.340576317080542
 42
3.911372643875592
  0
LINE
  5
110
330
1F
100
AcDbEntity
  8
1
  6
SLD-Сплошная
100
AcDbLine
 10
1183.7038333278
 20
2301.6040275651
 30
0.0
 11
1183.1715163538
 21
2301.9113276131
 31
0.0
  0
ARC
  5
111
330
1F
100
AcDbEntity
  8
1
  6
SLD-Сплошная
100
AcDbCircle
 10
1184.2060948357
 20
2302.0791528857
 30
0.0
 40
1.048102073832309
100
AcDbArc
 50
50.7967147648
 51
189.2140369903
  0
ARC
  5
112
330
1F
100
AcDbEntity
  8
1
  6
SLD-Сплошная
100
AcDbCircle
 10
1338.3148427957
 20
2390.8985048263
 30
0.0
 40
1.207145366161275
100
AcDbArc
 50
54.3824225247
 51
114.3071190462
  0
LINE
  5
113
330
1F
100
AcDbEntity
  8
1
  6
SLD-Сплошная
100
AcDbLine
 10
1598.1375619918
 20
1254.5356128846
 30
0.0
 11
1603.9914725161
 21
1244.3963424632
 31
0.0
  0
LINE
  5
114
330
1F
100
AcDbEntity
  8
1
  6
SLD-Сплошная
100
AcDbLine
 10
1604.0414765793
 20
1244.4252091944
 30
0.0
 11
1603.9914725161
 21
1244.3963424632
 31
0.0
  0
ARC
  5
115
330
1F
100
AcDbEntity
  8
1
  6
SLD-Сплошная
100
AcDbCircle
 10
1760.4088588364
 20
1333.2261540796
 30
0.0
 40
1.18314699649351
100
AcDbArc
 50
305.0133318562
 51
6.2988485372
  0
ARC
  5
116
330
1F
100
AcDbEntity
  8
1
  6
SLD-Сплошная
100
AcDbCircle
 10
1606.4010065839
 20
1244.1996528051
 30
0.0
 40
1.04810207382852
100
AcDbArc
 50
230.7967147643
 51
9.2140369905
  0
LINE
  5
117
330
1F
100
AcDbEntity
  8
1
  6
SLD-Сплошная
100
AcDbLine
 10
1605.7385287909
 20
1244.0025043433
 30
0.0
 11
1605.7385287909
 21
1243.3874698633
 31
0.0
  0
ELLIPSE
  5
118
330
1F
100
AcDbEntity
  8
1
  6
SLD-Сплошная
100
AcDbEllipse
 10
1605.7385287909
 20
1245.3471678118
 30
0.0
 11
1.254402255199466
 21
2.046717125676423
 31
0.0
210
0.0
220
0.0
230
1.0
 40
0.5941271042
 41
2.371734019683498
 42
3.942530346478366
  0
ELLIPSE
  5
119
330
1F
100
AcDbEntity
  8
1
  6
SLD-Сплошная
100
AcDbEllipse
 10
1585.3031428146
 20
2046.5793987005
 30
0.0
 11
1.698791117367364
 21
0.8238102184932359
 31
0.0
210
0.0
220
0.0
230
1.0
 40
0.0778085159
 41
3.889276317629122
 42
5.46007264455555
  0
ELLIPSE
  5
11A
330
1F
100
AcDbEntity
  8
1
  6
SLD-Сплошная
100
AcDbEllipse
 10
1585.3031428146
 20
2046.5793987005
 30
0.0
 11
3.088985166008569
 21
0.8971444341661935
 31
0.0
210
0.0
220
0.0
230
1.0
 40
0.2910290434
 41
3.842666699162199
 42
5.413463025957016
  0
LINE
  5
11B
330
1F
100
AcDbEntity
  8
1
  6
SLD-Сплошная
100
AcDbLine
 10
1583.1111117929
 20
2045.3139661272
 30
0.0
 11
1584.1010612866
 21
2045.8854518054
 31
0.0
  0
ELLIPSE
  5
11C
330
1F
100
AcDbEntity
  8
1
  6
SLD-Сплошная
100
AcDbEllipse
 10
1585.3031428147
 20
1237.550762284
 30
0.0
 11
2.800161842872739
 21
-1.858004074868859
 31
0.0
210
0.0
220
0.0
230
1.0
 40
0.7158610781
 41
4.370437965973998
 42
5.941234292768925
  0
ELLIPSE
  5
11D
330
1F
100
AcDbEntity
  8
1
  6
SLD-Сплошная
100
AcDbEllipse
 10
1585.3031428146
 20
2046.5793987005
 30
0.0
 11
1.562801634077914
 21
1.059350639176273
 31
0.0
210
0.0
220
0.0
230
1.0
 40
0.0779476131
 41
0.8230997738954944
 42
2.39389610066563
  0
ELLIPSE
  5
11E
330
1F
100
AcDbEntity
  8
1
  6
SLD-Сплошная
100
AcDbEllipse
 10
1585.3031428146
 20
2046.5793987005
 30
0.0
 11
2.321397040599777
 21
2.226629144082608
 31
0.0
210
0.0
220
0.0
230
1.0
 40
0.2911542338
 41
0.8696844210139062
 42
2.44048074782382
  0
ELLIPSE
  5
11F
330
1F
100
AcDbEntity
  8
1
  6
SLD-Сплошная
100
AcDbEllipse
 10
1168.9586700519
 20
2286.9299468211
 30
0.0
 11
-0.209388663437494
 21
3.354026486467773
 31
0.0
210
0.0
220
0.0
230
1.0
 40
0.7158884623
 41
0.3417969453566005
 42
1.912593272146863
  0
LINE
  5
120
330
1F
100
AcDbEntity
  8
1
  6
SLD-Сплошная
100
AcDbLine
 10
1597.7128668245
 20
1241.0267115565
 30
0.0
 11
1587.4951738363
 21
1235.1281629486
 31
0.0
  0
LINE
  5
121
330
1F
100
AcDbEntity
  8
1
  6
SLD-Сплошная
100
AcDbLine
 10
1597.7128668244
 20
2052.3696814972
 30
0.0
 11
1587.4951738363
 21
2046.4711328893
 31
0.0
  0
LINE
  5
122
330
1F
100
AcDbEntity
  8
1
  6
SLD-Сплошная
100
AcDbLine
 10
1596.7229173308
 20
2052.9411671755
 30
0.0
 11
1586.5052243426
 21
2047.0426185676
 31
0.0
  0
LINE
  5
123
330
1F
100
AcDbEntity
  8
1
  6
SLD-Сплошная
100
AcDbLine
 10
1597.7128668244
 20
2052.3696814972
 30
0.0
 11
1596.7229173308
 21
2052.9411671755
 31
0.0
  0
LINE
  5
124
330
1F
100
AcDbEntity
  8
1
  6
SLD-Сплошная
100
AcDbLine
 10
1586.3052243426
 20
2047.3890287281
 30
0.0
 11
1596.5229173307
 21
2053.287577336
 31
0.0
  0
LINE
  5
125
330
1F
100
AcDbEntity
  8
1
  6
SLD-Сплошная
100
AcDbLine
 10
1586.3052243426
 20
2048.5321858647
 30
0.0
 11
1596.5229173307
 21
2054.4307344726
 31
0.0
  0
LINE
  5
126
330
1F
100
AcDbEntity
  8
1
  6
SLD-Сплошная
100
AcDbLine
 10
1596.5229173307
 20
2054.4307344726
 30
0.0
 11
1596.5229173307
 21
2053.287577336
 31
0.0
  0
LINE
  5
127
330
1F
100
AcDbEntity
  8
1
  6
SLD-Сплошная
100
AcDbLine
 10
1167.9565885239
 20
2290.0397126905
 30
0.0
 11
1178.1742815121
 21
2295.9382612985
 31
0.0
  0
LINE
  5
128
330
1F
100
AcDbEntity
  8
1
  6
SLD-Сплошная
100
AcDbLine
 10
1586.2544846045
 20
2047.3595382506
 30
0.0
 11
1586.3053105292
 21
2047.3888794324
 31
0.0
  0
SPLINE
  5
129
330
1F
100
AcDbEntity
  8
1
  6
SLD-Сплошная
100
AcDbSpline
210
0.0
220
0.0
230
1.0
 70
     8
 71
     3
 72
     9
 73
     5
 74
     0
 42
0.00000001
 43
0.00000001
 40
0.0
 40
0.0
 40
0.0
 40
0.0
 40
0.4999999999999893
 40
1.0
 40
1.0
 40
1.0
 40
1.0
 10
1597.712866824491
 20
1241.026711556491
 30
0.0
 10
1597.834635805262
 20
1241.11657122239
 30
0.0
 10
1598.078173766804
 20
1241.296290554188
 30
0.0
 10
1598.117765916782
 20
1241.524777489971
 30
0.0
 10
1598.13756199177
 20
1241.639020957864
 30
0.0
  0
SPLINE
  5
12A
330
1F
100
AcDbEntity
  8
1
  6
SLD-Сплошная
100
AcDbSpline
210
0.0
220
0.0
230
1.0
 70
     8
 71
     3
 72
    11
 73
     7
 74
     0
 42
0.00000001
 43
0.00000001
 40
0.0
 40
0.0
 40
0.0
 40
0.0
 40
0.2500000000000004
 40
0.4999999999999949
 40
0.750000000000001
 40
1.0
 40
1.0
 40
1.0
 40
1.0
 10
1597.712866824423
 20
2053.512646218767
 30
0.0
 10
1597.831807794481
 20
2053.429591059635
 30
0.0
 10
1598.069689734596
 20
2053.263480741369
 30
0.0
 10
1598.171498120256
 20
2052.941163857993
 30
0.0
 10
1598.069689734596
 20
2052.618846974617
 30
0.0
 10
1597.831807794481
 20
2052.452736656351
 30
0.0
 10
1597.712866824423
 20
2052.369681497218
 30
0.0
  0
SPLINE
  5
12B
330
1F
100
AcDbEntity
  8
1
  6
SLD-Сплошная
100
AcDbSpline
210
0.0
220
0.0
230
1.0
 70
     8
 71
     3
 72
    12
 73
     8
 74
     0
 42
0.00000001
 43
0.00000001
 40
0.0
 40
0.0
 40
0.0
 40
0.0
 40
0.0834659538559647
 40
0.1770920931640705
 40
0.3986532115983691
 40
0.6718593557452336
 40
1.0
 40
1.0
 40
1.0
 40
1.0
 10
1595.662257158982
 20
2052.328662041533
 30
0.0
 10
1595.717435982413
 20
2052.369235497576
 30
0.0
 10
1595.834510464743
 20
2052.455321355649
 30
0.0
 10
1596.128430712642
 20
2052.661228149461
 30
0.0
 10
1596.587572754526
 20
2052.948395388687
 30
0.0
 10
1597.210525185001
 20
2053.271871475903
 30
0.0
 10
1597.535523158006
 20
2053.427644553905
 30
0.0
 10
1597.712866824423
 20
2053.512646218767
 30
0.0
  0
SPLINE
  5
12C
330
1F
100
AcDbEntity
  8
1
  6
SLD-Сплошная
100
AcDbSpline
210
0.0
220
0.0
230
1.0
 70
     8
 71
     3
 72
    11
 73
     7
 74
     0
 42
0.00000001
 43
0.00000001
 40
0.0
 40
0.0
 40
0.0
 40
0.0
 40
0.2499999999998909
 40
0.5000000000000282
 40
0.7499999999999732
 40
1.0
 40
1.0
 40
1.0
 40
1.0
 10
1596.722917330762
 20
2052.941160540491
 30
0.0
 10
1596.727018743522
 20
2052.941581503787
 30
0.0
 10
1596.735221569043
 20
2052.94242343038
 30
0.0
 10
1596.738732203032
 20
2052.941163857993
 30
0.0
 10
1596.735221569043
 20
2052.939904285606
 30
0.0
 10
1596.727018743522
 20
2052.940746212198
 30
0.0
 10
1596.722917330762
 20
2052.941167175495
 30
0.0
  0
LINE
  5
12D
330
1F
100
AcDbEntity
  8
1
  6
SLD-Сплошная
100
AcDbLine
 10
1596.7229173308
 20
2052.9411605405
 30
0.0
 11
1597.4346831014
 21
2053.3520541738
 31
0.0
  0
SPLINE
  5
12E
330
1F
100
AcDbEntity
  8
1
  6
SLD-Сплошная
100
AcDbSpline
210
0.0
220
0.0
230
1.0
 70
     8
 71
     3
 72
    13
 73
     9
 74
     0
 42
0.00000001
 43
0.00000001
 40
0.0
 40
0.0
 40
0.0
 40
0.0
 40
0.1499458902058661
 40
0.3995771627283384
 40
0.5318844302144727
 40
0.6751152684871287
 40
0.8307676058630307
 40
0.9999999999999999
 40
0.9999999999999999
 40
0.9999999999999999
 40
0.9999999999999999
 10
1597.238849961506
 20
2053.699746894659
 30
0.0
 10
1597.174032990075
 20
2053.662039823827
 30
0.0
 10
1597.001308139093
 20
2053.561557680856
 30
0.0
 10
1596.688362061069
 20
2053.3801961397
 30
0.0
 10
1596.370201333636
 20
2053.171874001912
 30
0.0
 10
1596.095658971157
 20
2052.991425708727
 30
0.0
 10
1595.787014753173
 20
2052.807929922022
 30
0.0
 10
1595.573484846362
 20
2052.720575239387
 30
0.0
 10
1595.462257158987
 20
2052.675072202009
 30
0.0
  0
SPLINE
  5
12F
330
1F
100
AcDbEntity
  8
1
  6
SLD-Сплошная
100
AcDbSpline
210
0.0
220
0.0
230
1.0
 70
     8
 71
     3
 72
    11
 73
     7
 74
     0
 42
0.00000001
 43
0.00000001
 40
0.0
 40
0.0
 40
0.0
 40
0.0
 40
0.2500000000000001
 40
0.4999999999999992
 40
0.7499999999999946
 40
1.0
 40
1.0
 40
1.0
 40
1.0
 10
1596.522917330767
 20
2054.430734472611
 30
0.0
 10
1596.654323966792
 20
2054.492198465001
 30
0.0
 10
1596.917137238842
 20
2054.615126449782
 30
0.0
 10
1597.247207725514
 20
2054.542081777923
 30
0.0
 10
1597.475469826526
 20
2054.292699809982
 30
0.0
 10
1597.500401158461
 20
2054.00360418949
 30
0.0
 10
1597.512866824428
 20
2053.859056379243
 30
0.0
  0
SPLINE
  5
130
330
1F
100
AcDbEntity
  8
1
  6
SLD-Сплошная
100
AcDbSpline
210
0.0
220
0.0
230
1.0
 70
     8
 71
     3
 72
     9
 73
     5
 74
     0
 42
0.00000001
 43
0.00000001
 40
0.0
 40
0.0
 40
0.0
 40
0.0
 40
0.4999489266172789
 40
1.0
 40
1.0
 40
1.0
 40
1.0
 10
1178.916889428237
 20
2295.999823096235
 30
0.0
 10
1178.808065128851
 20
2296.039808785486
 30
0.0
 10
1178.590394295707
 20
2296.119788333639
 30
0.0
 10
1178.312995218397
 20
2295.99877443059
 30
0.0
 10
1178.174281512034
 20
2295.938261298475
 30
0.0
  0
LINE
  5
131
330
1F
100
AcDbEntity
  8
1
  6
SLD-Сплошная
100
AcDbLine
 10
1596.5229173308
 20
2053.287570701
 30
0.0
 11
1597.5128668244
 21
2053.8590563792
 31
0.0
  0
SPLINE
  5
132
330
1F
100
AcDbEntity
  8
1
  6
SLD-Сплошная
100
AcDbSpline
210
0.0
220
0.0
230
1.0
 70
     8
 71
     3
 72
    11
 73
     7
 74
     0
 42
0.00000001
 43
0.00000001
 40
0.0
 40
0.0
 40
0.0
 40
0.0
 40
0.2499999999997793
 40
0.4999999999998263
 40
0.7500000000000395
 40
0.9999999999999999
 40
0.9999999999999999
 40
0.9999999999999999
 40
0.9999999999999999
 10
1596.522917330767
 20
2053.287577335971
 30
0.0
 10
1596.524603911625
 20
2053.291338984209
 30
0.0
 10
1596.527977073341
 20
2053.298862280686
 30
0.0
 10
1596.530824766902
 20
2053.301270099572
 30
0.0
 10
1596.530161826474
 20
2053.297597322042
 30
0.0
 10
1596.525332162669
 20
2053.290912907992
 30
0.0
 10
1596.522917330767
 20
2053.287570700968
 30
0.0
  0
ELLIPSE
  5
133
330
1F
100
AcDbEntity
  8
1
  6
SLD-Сплошная
100
AcDbEllipse
 10
1168.9586700519
 20
2286.9299468211
 30
0.0
 11
2.800161842872512
 21
-1.858004074868859
 31
0.0
210
0.0
220
0.0
230
1.0
 40
0.7158610781
 41
2.799641639179336
 42
4.370437965973985
  0
ELLIPSE
  5
134
330
1F
100
AcDbEntity
  8
1
  6
SLD-Сплошная
100
AcDbEllipse
 10
1168.958670052
 20
1477.9013104046
 30
0.0
 11
3.08898516600857
 21
0.8971444341657387
 31
0.0
210
0.0
220
0.0
230
1.0
 40
0.2910290434
 41
3.057268535762233
 42
3.842666699162931
  0
LINE
  5
135
330
1F
100
AcDbEntity
  8
1
  6
SLD-Сплошная
100
AcDbLine
 10
1167.9325278292
 20
2290.0255994338
 30
0.0
 11
1166.7666390302
 21
2289.3525461565
 31
0.0
  0
ELLIPSE
  5
136
330
1F
100
AcDbEntity
  8
1
  6
SLD-Сплошная
100
AcDbEllipse
 10
1168.958670052
 20
1477.9013104046
 30
0.0
 11
2.321397040599777
 21
2.226629144082608
 31
0.0
210
0.0
220
0.0
230
1.0
 40
0.2911542338
 41
2.440480747807766
 42
3.225960175264301
  0
ELLIPSE
  5
137
330
1F
100
AcDbEntity
  8
1
  6
SLD-Сплошная
100
AcDbEllipse
 10
1585.3031428146
 20
1237.5507622841
 30
0.0
 11
-0.2093886634374939
 21
3.354026486467546
 31
0.0
210
0.0
220
0.0
230
1.0
 40
0.7158884623
 41
1.912593272158722
 42
3.483389598946473
  0
LINE
  5
138
330
1F
100
AcDbEntity
  8
1
  6
SLD-Сплошная
100
AcDbLine
 10
1586.3052243427
 20
1234.4409964146
 30
0.0
 11
1587.4952705286
 21
1235.1279954545
 31
0.0
  0
LWPOLYLINE
  5
139
330
1F
100
AcDbEntity
  8
1
  6
SLD-Сплошная
100
AcDbPolyline
 90
       21
 70
   128
 43
0.0
 10
1202.7583741927
 20
1870.9877728482
 10
1204.3463648553
 20
1869.923009505
 10
1205.8932273939
 20
1868.5897512793
 10
1207.3588988812
 20
1867.022528859
 10
1208.7054191957
 20
1865.2619324816
 10
1209.8979141684
 20
1863.3535606683
 10
1210.905498806
 20
1861.3468392467
 10
1211.7020771956
 20
1859.2937412476
 10
1212.2670183753
 20
1857.2474408307
 10
1212.5856906653
 20
1855.260936102
 10
1212.6498406208
 20
1853.3856764904
 10
1212.4578067915
 20
1851.6702302348
 10
1212.0145627528
 20
1850.1590264922
 10
1211.3315882924
 20
1848.8912046458
 10
1210.4265720902
 20
1847.8996006153
 10
1209.3229535903
 20
1847.2098964243
 10
1208.0493159322
 20
1846.8399550492
 10
1206.6386456623
 20
1846.799357777
 10
1205.1274783995
 20
1847.089156056
 10
1203.5549525822
 20
1847.7018442629
 10
1202.7567652463
 20
1848.1255590914
  0
LWPOLYLINE
  5
13A
330
1F
100
AcDbEntity
  8
1
  6
SLD-Сплошная
100
AcDbPolyline
 90
       11
 70
   128
 43
0.0
 10
1192.8588792561
 20
1865.2710582646
 10
1192.93105772
 20
1866.6073141869
 10
1193.24973001
 20
1868.2258877212
 10
1193.8146711898
 20
1869.6199209359
 10
1194.6112495793
 20
1870.7533091029
 10
1195.6188342169
 20
1871.5966980642
 10
1196.8113291896
 20
1872.1282444885
 10
1198.1578495041
 20
1872.3341816028
 10
1199.6235209914
 20
1872.2091757438
 10
1201.17038353
 20
1871.7564644978
 10
1202.7583741927
 20
1870.9877728482
  0
LWPOLYLINE
  5
13B
330
1F
100
AcDbEntity
  8
1
  6
SLD-Сплошная
100
AcDbPolyline
 90
       36
 70
   128
 43
0.0
 10
1200.6370538491
 20
1867.3135382448
 10
1202.0259005516
 20
1866.367430495
 10
1203.3701085784
 20
1865.1630441977
 10
1204.6264739774
 20
1863.7390893195
 10
1205.754616131
 20
1862.1413329418
 10
1206.7182756221
 20
1860.4211282692
 10
1207.4864796417
 20
1858.6337640954
 10
1208.0345374807
 20
1856.8366877754
 10
1208.3448341091
 20
1855.0876588209
 10
1208.4073963379
 20
1853.4428924616
 10
1208.2202133657
 20
1851.9552528416
 10
1207.7893014072
 20
1850.6725539222
 10
1207.1285103272
 20
1849.6360227022
 10
1206.2590784949
 20
1848.8789741479
 10
1205.2089501647
 20
1848.4257404226
 10
1204.011877325
 20
1848.2908888313
 10
1202.7063348821
 20
1848.478753615
 10
1201.3342840442
 20
1848.983296645
 10
1199.9398236541
 20
1849.7883014932
 10
1198.5677728161
 20
1850.8678946414
 10
1197.2622303732
 20
1852.1873770775
 10
1196.0651575336
 20
1853.7043395504
 10
1195.0150292033
 20
1855.370025638
 10
1194.145597371
 20
1857.130898819
 10
1193.484806291
 20
1858.9303631803
 10
1193.0538943325
 20
1860.710582457
 10
1192.8667113603
 20
1862.4143389366
 10
1192.9292735891
 20
1863.986872484
 10
1193.2395702175
 20
1865.3776405772
 10
1193.7876280565
 20
1866.5419427852
 10
1194.5558320761
 20
1867.4423574772
 10
1195.5194915672
 20
1868.0499445841
 10
1196.6476337208
 20
1868.3451757563
 10
1197.9039991198
 20
1868.318562021
 10
1199.2482071466
 20
1867.9709587657
 10
1200.6370538491
 20
1867.3135382448
  0
LWPOLYLINE
  5
13C
330
1F
100
AcDbEntity
  8
1
  6
SLD-Сплошная
100
AcDbPolyline
 90
       16
 70
   128
 43
0.0
 10
1203.4654809738
 20
1871.3959769041
 10
1205.0534716365
 20
1870.3312135609
 10
1206.6003341751
 20
1868.9979553352
 10
1208.0660056624
 20
1867.4307329149
 10
1209.4125259769
 20
1865.6701365375
 10
1210.6050209496
 20
1863.7617647242
 10
1211.6126055872
 20
1861.7550433026
 10
1212.4091839768
 20
1859.7019453035
 10
1212.9741251565
 20
1857.6556448867
 10
1213.2927974465
 20
1855.6691401579
 10
1213.356947402
 20
1853.7938805463
 10
1213.1649135727
 20
1852.0784342907
 10
1212.721669534
 20
1850.5672305481
 10
1212.0386950736
 20
1849.2994087017
 10
1211.1336788713
 20
1848.3078046712
 10
1210.4649121023
 20
1847.8397214644
  0
ARC
  5
13D
330
1F
100
AcDbEntity
  8
1
  6
SLD-Сплошная
100
AcDbCircle
 10
1199.3555870587
 20
1865.5806186068
 30
0.0
 40
7.12106874850569
100
AcDbArc
 50
54.7499671021
 51
113.9395744688
  0
LWPOLYLINE
  5
13E
330
1F
100
AcDbEntity
  8
1
  6
SLD-Сплошная
100
AcDbPolyline
 90
       30
 70
   128
 43
0.0
 10
1200.6370538491
 20
1864.8639158092
 10
1201.8531102973
 20
1864.009179201
 10
1203.0123052976
 20
1862.8889648
 10
1204.06043618
 20
1861.5556525864
 10
1204.9484935095
 20
1860.0715867574
 10
1205.6349527122
 20
1858.5061605819
 10
1206.0877157189
 20
1856.9325716479
 10
1206.2856118345
 20
1855.4243992251
 10
1206.2193876567
 20
1854.0521637797
 10
1205.8921397543
 20
1852.8800295161
 10
1205.3191698756
 20
1851.9628041297
 10
1204.5272694553
 20
1851.3433760601
 10
1203.5534668769
 20
1851.0507090754
 10
1202.4432960667
 20
1851.0984879585
 10
1201.2486673779
 20
1851.4844786221
 10
1200.0254403203
 20
1852.1906325715
 10
1198.8308116315
 20
1853.1839308331
 10
1197.7206408213
 20
1854.417927884
 10
1196.7468382429
 20
1855.8349233937
 10
1195.9549378226
 20
1857.368660227
 10
1195.3819679439
 20
1858.9474225541
 10
1195.0547200416
 20
1860.4973892034
 10
1194.9884958637
 20
1861.946085457
 10
1195.1863919793
 20
1863.2257718882
 10
1195.639154986
 20
1864.2766117817
 10
1196.3256141888
 20
1865.049469032
 10
1197.2136715182
 20
1865.5082056932
 10
1198.2618024006
 20
1865.6313717486
 10
1199.4209974009
 20
1865.4132080906
 10
1200.6370538491
 20
1864.8639158092
  0
LWPOLYLINE
  5
13F
330
1F
100
AcDbEntity
  8
1
  6
SLD-Сплошная
100
AcDbPolyline
 90
       12
 70
   128
 43
0.0
 10
1206.0610087491
 20
1853.3453262608
 10
1205.0670439963
 20
1853.688780524
 10
1203.8438169387
 20
1854.3949344735
 10
1202.6491882499
 20
1855.388232735
 10
1201.5390174397
 20
1856.622229786
 10
1200.5652148613
 20
1858.0392252956
 10
1199.773314441
 20
1859.5729621289
 10
1199.2003445623
 20
1861.1517244561
 10
1198.87309666
 20
1862.7016911054
 10
1198.8068724821
 20
1864.150387359
 10
1199.0047685977
 20
1865.4300737901
 10
1199.0314755675
 20
1865.5221542693
  0
LINE
  5
140
330
1F
100
AcDbEntity
  8
1
  6
SLD-Сплошная
100
AcDbLine
 10
1201.4336077347
 20
1862.9874974341
 30
0.0
 11
1202.8080614994
 21
1863.1103943123
 31
0.0
  0
LINE
  5
141
330
1F
100
AcDbEntity
  8
1
  6
SLD-Сплошная
100
AcDbLine
 10
1201.4336077347
 20
1862.9874974341
 30
0.0
 11
1201.2872017589
 21
1862.9422991822
 31
0.0
  0
LWPOLYLINE
  5
142
330
1F
100
AcDbEntity
  8
1
  6
SLD-Сплошная
100
AcDbPolyline
 90
        9
 70
   128
 43
0.0
 10
1203.7389554732
 20
1855.6145649848
 10
1203.9094961619
 20
1855.4345411687
 10
1204.0925088638
 20
1855.3010672312
 10
1204.2755215657
 20
1855.2232392007
 10
1204.4460622544
 20
1855.2063609289
 10
1204.5925088638
 20
1855.2515826419
 10
1204.7048812995
 20
1855.3558225548
 10
1204.7755215657
 20
1855.5119768899
 10
1204.799615645
 20
1855.7094039872
  0
LINE
  5
143
330
1F
100
AcDbEntity
  8
1
  6
SLD-Сплошная
100
AcDbLine
 10
1199.7365514598
 20
1860.5935175273
 30
0.0
 11
1203.7389554732
 21
1855.6145649848
 31
0.0
  0
LWPOLYLINE
  5
144
330
1F
100
AcDbEntity
  8
1
  6
SLD-Сплошная
100
AcDbPolyline
 90
        9
 70
   128
 43
0.0
 10
1199.7365514598
 20
1862.0078076999
 10
1199.5901048504
 20
1861.9625859869
 10
1199.4777324147
 20
1861.8583460739
 10
1199.4070921485
 20
1861.7021917389
 10
1199.3829980692
 20
1861.5047646416
 10
1199.4070921485
 20
1861.2795191124
 10
1199.4777324147
 20
1861.0418052621
 10
1199.5901048504
 20
1860.8078228965
 10
1199.7365514598
 20
1860.5935175273
  0
LINE
  5
145
330
1F
100
AcDbEntity
  8
1
  6
SLD-Сплошная
100
AcDbLine
 10
1203.4764937582
 20
1862.3422148986
 30
0.0
 11
1199.7365514598
 21
1862.0078076999
 31
0.0
  0
LINE
  5
146
330
1F
100
AcDbEntity
  8
1
  6
SLD-Сплошная
100
AcDbLine
 10
1204.799615645
 20
1855.7094039872
 30
0.0
 11
1204.799615645
 21
1860.3519661686
 31
0.0
  0
ARC
  5
147
330
1F
100
AcDbEntity
  8
1
  6
SLD-Сплошная
100
AcDbCircle
 10
1598.7367454536
 20
1338.8168085489
 30
0.0
 40
2.603316187511569
100
AcDbArc
 50
37.9787348638
 51
58.8941006487
  0
ARC
  5
148
330
1F
100
AcDbEntity
  8
1
  6
SLD-Сплошная
100
AcDbCircle
 10
1599.8396694634
 20
1339.2730007165
 30
0.0
 40
3.073609615144387
100
AcDbArc
 50
2.6054784857
 51
57.39452166
  0
SPLINE
  5
149
330
1F
100
AcDbEntity
  8
1
  6
SLD-Сплошная
100
AcDbSpline
210
0.0
220
0.0
230
1.0
 70
     8
 71
     3
 72
    12
 73
     8
 74
     0
 42
0.00000001
 43
0.00000001
 40
0.0
 40
0.0
 40
0.0
 40
0.0
 40
0.0038128522418986
 40
0.1589839410707441
 40
0.5234324970000729
 40
0.7821768889117917
 40
1.0
 40
1.0
 40
1.0
 40
1.0
 10
1602.202994884963
 20
1339.004518365141
 30
0.0
 10
1602.201775646849
 20
1339.005804646059
 30
0.0
 10
1602.150937253892
 20
1339.059438512983
 30
0.0
 10
1601.965278525822
 20
1339.246437438594
 30
0.0
 10
1601.61155489176
 20
1339.578081339713
 30
0.0
 10
1601.15055105148
 20
1340.008082104287
 30
0.0
 10
1600.902264722633
 20
1340.289967928857
 30
0.0
 10
1600.78878132259
 20
1340.41880853778
 30
0.0
  0
SPLINE
  5
14A
330
1F
100
AcDbEntity
  8
1
  6
SLD-Сплошная
100
AcDbSpline
210
0.0
220
0.0
230
1.0
 70
     8
 71
     3
 72
    12
 73
     8
 74
     0
 42
0.00000001
 43
0.00000001
 40
0.0
 40
0.0
 40
0.0
 40
0.0
 40
0.2178231110881949
 40
0.4765675029999367
 40
0.8410160589292539
 40
0.9961871477581012
 40
1.0
 40
1.0
 40
1.0
 40
1.0
 10
1600.788781322587
 20
1291.863942726901
 30
0.0
 10
1600.902264722629
 20
1291.893358399265
 30
0.0
 10
1601.150551051477
 20
1291.957715911456
 30
0.0
 10
1601.611554891756
 20
1292.335742197894
 30
0.0
 10
1601.965278525819
 20
1292.804330582301
 30
0.0
 10
1602.150937253888
 20
1293.163414688826
 30
0.0
 10
1602.201775646845
 20
1293.275543750306
 30
0.0
 10
1602.20299488496
 20
1293.278232899541
 30
0.0
  0
LWPOLYLINE
  5
14B
330
1F
100
AcDbEntity
  8
1
  6
SLD-Сплошная
100
AcDbPolyline
 90
       10
 70
   128
 43
0.0
 10
1598.1375619918
 20
1321.0874594618
 10
1598.665811819
 20
1320.3755894936
 10
1599.2901441545
 20
1319.2432147918
 10
1599.7109663019
 20
1318.0624386341
 10
1599.8970678078
 20
1316.9208337863
 10
1599.8346463748
 20
1315.9030678575
 10
1599.528331515
 20
1315.0846238907
 10
1599.0008412003
 20
1314.5262021307
 10
1598.2912969742
 20
1314.269218165
 10
1598.1509887825
 20
1314.2569610501
  0
ARC
  5
14C
330
1F
100
AcDbEntity
  8
1
  6
SLD-Сплошная
100
AcDbCircle
 10
1600.7382974417
 20
1293.0900547544
 30
0.0
 40
1.227150897870199
100
AcDbArc
 50
237.6507184098
 51
272.3577620583
  0
LINE
  5
14D
330
1F
100
AcDbEntity
  8
1
  6
SLD-Сплошная
100
AcDbLine
 10
1598.1375619918
 20
1293.1756676175
 30
0.0
 11
1600.0816745414
 21
1292.0533553317
 31
0.0
  0
LINE
  5
14E
330
1F
100
AcDbEntity
  8
1
  6
SLD-Сплошная
100
AcDbLine
 10
1598.1375619918
 20
1342.1681163306
 30
0.0
 11
1600.0816745414
 21
1341.0458040448
 31
0.0
  0
LINE
  5
14F
330
1F
100
AcDbEntity
  8
1
  6
SLD-Сплошная
100
AcDbLine
 10
1598.1375619918
 20
1343.8009325543
 30
0.0
 11
1601.4958881038
 21
1341.8622121566
 31
0.0
  0
LINE
  5
150
330
1F
100
AcDbEntity
  8
1
  6
SLD-Сплошная
100
AcDbLine
 10
1602.9101016661
 20
1293.6864369555
 30
0.0
 11
1602.9101016661
 21
1339.4127224211
 31
0.0
  0
LINE
  5
151
330
1F
100
AcDbEntity
  8
1
  6
SLD-Сплошная
100
AcDbLine
 10
1599.7380593683
 20
1317.4707558855
 30
0.0
 11
1599.8070352413
 21
1317.6375601428
 31
0.0
  0
ARC
  5
152
330
1F
100
AcDbEntity
  8
1
  6
SLD-Сплошная
100
AcDbCircle
 10
1601.9587305552
 20
1293.5653088979
 30
0.0
 40
0.9590510920488208
100
AcDbArc
 50
304.0563508028
 51
7.2558295905
  0
LWPOLYLINE
  5
153
330
1F
100
AcDbEntity
  8
1
  6
SLD-Сплошная
100
AcDbPolyline
 90
        9
 70
   128
 43
0.0
 10
1598.15098906
 20
1314.2569605694
 10
1598.4925872449
 20
1314.4027810941
 10
1599.0474059649
 20
1314.9383449317
 10
1599.3709442505
 20
1315.753257619
 10
1599.436990954
 20
1316.7814997766
 10
1599.2401953641
 20
1317.9397693401
 10
1598.7965006892
 20
1319.1342301979
 10
1598.1418524332
 20
1320.2681142352
 10
1598.1375619918
 20
1320.274293543
  0
LWPOLYLINE
  5
154
330
1F
100
AcDbEntity
  8
1
  6
SLD-Сплошная
100
AcDbPolyline
 90
        8
 70
   128
 43
0.0
 10
1598.7754299574
 20
1314.5660627165
 10
1599.3302486774
 20
1315.101626554
 10
1599.653786963
 20
1315.9165392413
 10
1599.7198336664
 20
1316.9447813989
 10
1599.5230380766
 20
1318.1030509624
 10
1599.0793434017
 20
1319.2975118203
 10
1598.4246951456
 20
1320.4313958576
 10
1598.1375619918
 20
1320.8189070394
  0
LWPOLYLINE
  5
155
330
1F
100
AcDbEntity
  8
1
  6
SLD-Сплошная
100
AcDbPolyline
 90
        9
 70
   128
 43
0.0
 10
1598.1375619917
 20
1983.9595372187
 10
1598.8461406355
 20
1984.1703488685
 10
1599.4009593555
 20
1984.705912706
 10
1599.7244976411
 20
1985.5208253933
 10
1599.7905443446
 20
1986.5490675509
 10
1599.5937487547
 20
1987.7073371144
 10
1599.1500540798
 20
1988.9017979723
 10
1598.4954058238
 20
1990.0356820095
 10
1598.1375619917
 20
1990.5111782222
  0
LWPOLYLINE
  5
156
330
1F
100
AcDbEntity
  8
1
  6
SLD-Сплошная
100
AcDbPolyline
 90
        8
 70
   128
 43
0.0
 10
1599.1289833479
 20
1984.3336304908
 10
1599.683802068
 20
1984.8691943284
 10
1600.0073403536
 20
1985.6841070156
 10
1600.073387057
 20
1986.7123491733
 10
1599.8765914672
 20
1987.8706187368
 10
1599.4328967923
 20
1989.0650795946
 10
1598.7782485362
 20
1990.1989636319
 10
1598.1375619917
 20
1991.0006383048
  0
LWPOLYLINE
  5
157
330
1F
100
AcDbEntity
  8
1
  6
SLD-Сплошная
100
AcDbPolyline
 90
        9
 70
   128
 43
0.0
 10
1598.1375619917
 20
1649.1778043455
 10
1598.8461406355
 20
1649.3886159953
 10
1599.4009593555
 20
1649.9241798328
 10
1599.7244976412
 20
1650.7390925201
 10
1599.7905443446
 20
1651.7673346777
 10
1599.5937487547
 20
1652.9256042412
 10
1599.1500540798
 20
1654.1200650991
 10
1598.4954058238
 20
1655.2539491363
 10
1598.1375619917
 20
1655.729445349
  0
LWPOLYLINE
  5
158
330
1F
100
AcDbEntity
  8
1
  6
SLD-Сплошная
100
AcDbPolyline
 90
        8
 70
   128
 43
0.0
 10
1599.128983348
 20
1649.5518976176
 10
1599.683802068
 20
1650.0874614552
 10
1600.0073403536
 20
1650.9023741424
 10
1600.0733870571
 20
1651.9306163001
 10
1599.8765914672
 20
1653.0888858636
 10
1599.4328967923
 20
1654.2833467214
 10
1598.7782485363
 20
1655.4172307587
 10
1598.1375619917
 20
1656.2189054316
  0
ARC
  5
159
330
1F
100
AcDbEntity
  8
1
  6
SLD-Сплошная
100
AcDbCircle
 10
1599.0902988441
 20
2008.5843763232
 30
0.0
 40
2.603316187511177
100
AcDbArc
 50
37.9787348638
 51
58.8941006488
  0
ARC
  5
15A
330
1F
100
AcDbEntity
  8
1
  6
SLD-Сплошная
100
AcDbCircle
 10
1599.8396694634
 20
2008.8364664629
 30
0.0
 40
3.07360961514346
100
AcDbArc
 50
2.6054784857
 51
57.39452166
  0
SPLINE
  5
15B
330
1F
100
AcDbEntity
  8
1
  6
SLD-Сплошная
100
AcDbSpline
210
0.0
220
0.0
230
1.0
 70
     8
 71
     3
 72
    12
 73
     8
 74
     0
 42
0.00000001
 43
0.00000001
 40
0.0
 40
0.0
 40
0.0
 40
0.0
 40
0.0038128522418986
 40
0.1589839410707273
 40
0.5234324970000648
 40
0.7821768889117903
 40
1.0
 40
1.0
 40
1.0
 40
1.0
 10
1602.556548275553
 20
2008.772086139466
 30
0.0
 10
1602.555329037439
 20
2008.773372420385
 30
0.0
 10
1602.504490644481
 20
2008.827006287308
 30
0.0
 10
1602.318831916412
 20
2009.014005212919
 30
0.0
 10
1601.96510828235
 20
2009.345649114038
 30
0.0
 10
1601.50410444207
 20
2009.775649878612
 30
0.0
 10
1601.255818113223
 20
2010.057535703183
 30
0.0
 10
1601.14233471318
 20
2010.186376312106
 30
0.0
  0
SPLINE
  5
15C
330
1F
100
AcDbEntity
  8
1
  6
SLD-Сплошная
100
AcDbSpline
210
0.0
220
0.0
230
1.0
 70
     8
 71
     3
 72
    12
 73
     8
 74
     0
 42
0.00000001
 43
0.00000001
 40
0.0
 40
0.0
 40
0.0
 40
0.0
 40
0.217823111088208
 40
0.4765675029999091
 40
0.8410160589292562
 40
0.9961871477581015
 40
1.0
 40
1.0
 40
1.0
 40
1.0
 10
1601.142334713183
 20
1961.631510501223
 30
0.0
 10
1601.255818113226
 20
1961.660926173586
 30
0.0
 10
1601.504104442073
 20
1961.725283685777
 30
0.0
 10
1601.965108282353
 20
1962.103309972214
 30
0.0
 10
1602.318831916416
 20
1962.571898356625
 30
0.0
 10
1602.504490644484
 20
1962.930982463145
 30
0.0
 10
1602.555329037442
 20
1963.043111524628
 30
0.0
 10
1602.556548275557
 20
1963.045800673862
 30
0.0
  0
ARC
  5
15D
330
1F
100
AcDbEntity
  8
1
  6
SLD-Сплошная
100
AcDbCircle
 10
1601.0918508322
 20
1962.8576225287
 30
0.0
 40
1.22715089786592
100
AcDbArc
 50
237.6507184097
 51
272.3577620584
  0
LINE
  5
15E
330
1F
100
AcDbEntity
  8
1
  6
SLD-Сплошная
100
AcDbLine
 10
1598.1375619917
 20
1963.1473374198
 30
0.0
 11
1600.435227932
 21
1961.820923106
 31
0.0
  0
LINE
  5
15F
330
1F
100
AcDbEntity
  8
1
  6
SLD-Сплошная
100
AcDbLine
 10
1598.1375619917
 20
2012.139786133
 30
0.0
 11
1600.435227932
 21
2010.8133718191
 31
0.0
  0
LINE
  5
160
330
1F
100
AcDbEntity
  8
1
  6
SLD-Сплошная
100
AcDbLine
 10
1598.1375619917
 20
2013.3643983007
 30
0.0
 11
1601.4958881038
 21
2011.425677903
 31
0.0
  0
LINE
  5
161
330
1F
100
AcDbEntity
  8
1
  6
SLD-Сплошная
100
AcDbLine
 10
1602.9101016661
 20
1963.2499027018
 30
0.0
 11
1602.9101016661
 21
2008.9761881674
 31
0.0
  0
ARC
  5
162
330
1F
100
AcDbEntity
  8
1
  6
SLD-Сплошная
100
AcDbCircle
 10
1601.9587305537
 20
1963.1287746449
 30
0.0
 40
0.9590510934385399
100
AcDbArc
 50
304.0563508539
 51
7.2558295394
  0
ARC
  5
163
330
1F
100
AcDbEntity
  8
1
  6
SLD-Сплошная
100
AcDbCircle
 10
1599.0902988442
 20
1673.80264345
 30
0.0
 40
2.603316187513832
100
AcDbArc
 50
37.9787348638
 51
58.8941006487
  0
ARC
  5
164
330
1F
100
AcDbEntity
  8
1
  6
SLD-Сплошная
100
AcDbCircle
 10
1599.8396694634
 20
1674.0547335897
 30
0.0
 40
3.073609615145758
100
AcDbArc
 50
2.6054784857
 51
57.39452166
  0
SPLINE
  5
165
330
1F
100
AcDbEntity
  8
1
  6
SLD-Сплошная
100
AcDbSpline
210
0.0
220
0.0
230
1.0
 70
     8
 71
     3
 72
    12
 73
     8
 74
     0
 42
0.00000001
 43
0.00000001
 40
0.0
 40
0.0
 40
0.0
 40
0.0
 40
0.0038128522419035
 40
0.1589839410707366
 40
0.5234324970000713
 40
0.7821768889117872
 40
1.0
 40
1.0
 40
1.0
 40
1.0
 10
1602.556548275579
 20
1673.990353266268
 30
0.0
 10
1602.555329037464
 20
1673.991639547186
 30
0.0
 10
1602.504490644507
 20
1674.04527341411
 30
0.0
 10
1602.318831916437
 20
1674.23227233972
 30
0.0
 10
1601.965108282375
 20
1674.56391624084
 30
0.0
 10
1601.504104442095
 20
1674.993917005414
 30
0.0
 10
1601.255818113248
 20
1675.275802829984
 30
0.0
 10
1601.142334713205
 20
1675.404643438907
 30
0.0
  0
SPLINE
  5
166
330
1F
100
AcDbEntity
  8
1
  6
SLD-Сплошная
100
AcDbSpline
210
0.0
220
0.0
230
1.0
 70
     8
 71
     3
 72
    12
 73
     8
 74
     0
 42
0.00000001
 43
0.00000001
 40
0.0
 40
0.0
 40
0.0
 40
0.0
 40
0.2178231110881979
 40
0.4765675029999281
 40
0.8410160589292641
 40
0.9961871477580991
 40
1.0
 40
1.0
 40
1.0
 40
1.0
 10
1601.142334713205
 20
1626.849777628026
 30
0.0
 10
1601.255818113248
 20
1626.87919330039
 30
0.0
 10
1601.504104442095
 20
1626.943550812581
 30
0.0
 10
1601.965108282375
 20
1627.321577099018
 30
0.0
 10
1602.318831916437
 20
1627.790165483427
 30
0.0
 10
1602.504490644507
 20
1628.14924958995
 30
0.0
 10
1602.555329037464
 20
1628.261378651431
 30
0.0
 10
1602.556548275579
 20
1628.264067800666
 30
0.0
  0
ARC
  5
167
330
1F
100
AcDbEntity
  8
1
  6
SLD-Сплошная
100
AcDbCircle
 10
1601.0918508323
 20
1628.0758896555
 30
0.0
 40
1.227150897871077
100
AcDbArc
 50
237.6507184098
 51
272.3577620583
  0
LINE
  5
168
330
1F
100
AcDbEntity
  8
1
  6
SLD-Сплошная
100
AcDbLine
 10
1598.1375619917
 20
1628.3656045466
 30
0.0
 11
1600.435227932
 21
1627.0391902328
 31
0.0
  0
LINE
  5
169
330
1F
100
AcDbEntity
  8
1
  6
SLD-Сплошная
100
AcDbLine
 10
1598.1375619917
 20
1677.3580532598
 30
0.0
 11
1600.435227932
 21
1676.031638946
 31
0.0
  0
LINE
  5
16A
330
1F
100
AcDbEntity
  8
1
  6
SLD-Сплошная
100
AcDbLine
 10
1598.1375619917
 20
1678.5826654275
 30
0.0
 11
1601.4958881038
 21
1676.6439450298
 31
0.0
  0
LINE
  5
16B
330
1F
100
AcDbEntity
  8
1
  6
SLD-Сплошная
100
AcDbLine
 10
1602.9101016662
 20
1628.4681698286
 30
0.0
 11
1602.9101016662
 21
1674.1944552942
 31
0.0
  0
ARC
  5
16C
330
1F
100
AcDbEntity
  8
1
  6
SLD-Сплошная
100
AcDbCircle
 10
1601.9587305542
 20
1628.3470417715
 30
0.0
 40
0.9590510929298927
100
AcDbArc
 50
304.0563508352
 51
7.2558295581
  0
LINE
  5
16D
330
1F
100
AcDbEntity
  8
0
  6
SLD-Сплошная
 62
     8
370
    18
100
AcDbLine
 10
1607.4355850658
 20
2056.9888940663
 30
0.0
 11
1607.4355850658
 21
1244.3674780776
 31
0.0
  0
LINE
  5
16E
330
1F
100
AcDbEntity
  8
0
  6
SLD-Сплошная
 62
     8
370
    18
100
AcDbLine
 10
1604.0414725161
 20
1244.425216232
 30
0.0
 11
1604.0414725161
 21
2056.9311559119
 31
0.0
  0
LINE
  5
16F
330
1F
100
AcDbEntity
  8
0
  6
SLD-Сплошная
 62
     8
370
    18
100
AcDbLine
 10
1184.8685726287
 20
2302.8913358275
 30
0.0
 11
1605.7385287909
 21
2059.928281749
 31
0.0
  0
LINE
  5
170
330
1F
100
AcDbEntity
  8
0
  6
SLD-Сплошная
 62
     8
370
    18
100
AcDbLine
 10
1603.9914725161
 20
2057.0177584519
 30
0.0
 11
1183.2215163538
 21
2299.9230837592
 31
0.0
  0
LINE
  5
171
330
1F
100
AcDbEntity
  8
0
  6
SLD-Сплошная
 62
     8
370
    18
100
AcDbLine
 10
1759.8878070896
 20
2148.9167659377
 30
0.0
 11
1605.7385287909
 21
2059.928281749
 31
0.0
  0
LINE
  5
172
330
1F
100
AcDbEntity
  8
0
  6
SLD-Сплошная
 62
     8
370
    18
100
AcDbLine
 10
1761.5848633644
 20
2145.977378255
 30
0.0
 11
1607.4355850658
 21
2056.9888940663
 31
0.0
  0
LINE
  5
173
330
1F
100
AcDbEntity
  8
0
  6
SLD-Сплошная
 62
     8
370
    18
100
AcDbLine
 10
1761.5848633644
 20
2145.977378255
 30
0.0
 11
1761.5848633644
 21
1333.3559622663
 31
0.0
  0
LINE
  5
174
330
1F
100
AcDbEntity
  8
0
  6
SLD-Сплошная
 62
     8
370
    18
100
AcDbLine
 10
1761.5848633644
 20
1333.3559622663
 30
0.0
 11
1607.4355850658
 21
1244.3674780776
 31
0.0
  0
LINE
  5
175
330
1F
100
AcDbEntity
  8
0
  6
SLD-Сплошная
 62
     8
370
    18
100
AcDbLine
 10
1339.0178509274
 20
2391.8798200161
 30
0.0
 11
1184.8685726287
 21
2302.8913358275
 31
0.0
  0
LINE
  5
176
330
1F
100
AcDbEntity
  8
0
  6
SLD-Сплошная
 62
     8
370
    18
100
AcDbLine
 10
1339.0178509274
 20
2391.8798200161
 30
0.0
 11
1759.8878070896
 21
2148.9167659377
 31
0.0
  0
LINE
  5
177
330
1F
100
AcDbEntity
  8
0
  6
SLD-Сплошная
 62
     8
370
    18
100
AcDbLine
 10
1592.1481286273
 20
2050.3001978716
 30
0.0
 11
1591.7482685202
 21
2050.531032198
 31
0.0
  0
LINE
  5
178
330
1F
100
AcDbEntity
  8
0
  6
SLD-Сплошная
 62
     8
370
    18
100
AcDbLine
 10
1589.8493368924
 20
2048.9731336504
 30
0.0
 11
1589.8493368924
 21
2049.4348023032
 31
0.0
  0
LINE
  5
179
330
1F
100
AcDbEntity
  8
0
  6
SLD-Сплошная
 62
     8
370
    18
100
AcDbLine
 10
1183.1715163538
 20
2299.8942099904
 30
0.0
 11
1183.1715163538
 21
2293.5437052813
 31
0.0
  0
LINE
  5
17A
330
1F
100
AcDbEntity
  8
0
  6
SLD-Сплошная
 62
     8
370
    18
100
AcDbLine
 10
1603.9914725161
 20
1244.3963424632
 30
0.0
 11
1598.1375619918
 21
1247.7757330765
 31
0.0
  0
LINE
  5
17B
330
1F
100
AcDbEntity
  8
0
  6
SLD-Сплошная
 62
     8
370
    18
100
AcDbLine
 10
1587.4951738363
 20
2046.4711328893
 30
0.0
 11
1586.5052243426
 21
2047.0426185675
 31
0.0
  0
LINE
  5
17C
330
1F
100
AcDbEntity
  8
0
  6
SLD-Сплошная
 62
     8
370
    18
100
AcDbLine
 10
1587.4951738363
 20
2046.4711328893
 30
0.0
 11
1587.4951738363
 21
1235.1281629486
 31
0.0
  0
LINE
  5
17D
330
1F
100
AcDbEntity
  8
0
  6
SLD-Сплошная
 62
     8
370
    18
100
AcDbLine
 10
1583.1111117929
 20
2045.3139661272
 30
0.0
 11
1583.111111793
 21
1236.2853297107
 31
0.0
  0
LINE
  5
17E
330
1F
100
AcDbEntity
  8
0
  6
SLD-Сплошная
 62
     8
370
    18
100
AcDbLine
 10
1586.3052243426
 20
2048.5321858647
 30
0.0
 11
1586.3052243426
 21
2047.3890287281
 31
0.0
  0
LINE
  5
17F
330
1F
100
AcDbEntity
  8
0
  6
SLD-Сплошная
 62
     8
370
    18
100
AcDbLine
 10
1166.7666390302
 20
2285.6645142477
 30
0.0
 11
1583.1111117929
 21
2045.3139661272
 31
0.0
  0
LINE
  5
180
330
1F
100
AcDbEntity
  8
0
  6
SLD-Сплошная
 62
     8
370
    18
100
AcDbLine
 10
1167.9565885239
 20
2290.0397126905
 30
0.0
 11
1586.3052243426
 21
2048.5321858647
 31
0.0
  0
LINE
  5
181
330
1F
100
AcDbEntity
  8
0
  6
SLD-Сплошная
 62
     8
370
    18
100
AcDbLine
 10
1597.7128668244
 20
2052.3696814972
 30
0.0
 11
1597.7128668245
 21
1241.0267115565
 31
0.0
  0
LINE
  5
182
330
1F
100
AcDbEntity
  8
0
  6
SLD-Сплошная
 62
     8
370
    18
100
AcDbLine
 10
1178.174281512
 20
2295.9382612985
 30
0.0
 11
1596.5229173307
 21
2054.4307344726
 31
0.0
  0
LINE
  5
183
330
1F
100
AcDbEntity
  8
0
  6
SLD-Сплошная
 62
     8
370
    18
100
AcDbLine
 10
1166.7666390303
 20
1476.6358778313
 30
0.0
 11
1583.111111793
 21
1236.2853297107
 31
0.0
  0
LINE
  5
184
330
1F
100
AcDbEntity
  8
0
  6
SLD-Сплошная
 62
     8
370
    18
100
AcDbLine
 10
1166.7666390302
 20
2285.6645142477
 30
0.0
 11
1166.7666390303
 21
1476.6358778313
 31
0.0
  0
LINE
  5
185
330
1F
100
AcDbEntity
  8
0
  6
SLD-Сплошная
 62
     8
370
    18
100
AcDbLine
 10
1166.7666390302
 20
2289.3525461565
 30
0.0
 11
1167.0932575396
 21
2289.1639933045
 31
0.0
  0
LINE
  5
186
330
1F
100
AcDbEntity
  8
0
  6
SLD-Сплошная
 62
     8
370
    18
100
AcDbLine
 10
1586.3052243427
 20
1234.4409964146
 30
0.0
 11
1586.3052243427
 21
1234.8184389557
 31
0.0
  0
LINE
  5
187
330
1F
100
AcDbEntity
  8
0
  6
SLD-Сплошная
 62
     8
370
    18
100
AcDbLine
 10
1204.799615645
 20
1855.7094039872
 30
0.0
 11
1206.169499821
 21
1856.500221289
 31
0.0
  0
LINE
  5
188
330
1F
100
AcDbEntity
  8
0
  6
SLD-Сплошная
 62
     8
370
    18
100
AcDbLine
 10
1201.4336077347
 20
1862.9874974341
 30
0.0
 11
1199.7365514598
 21
1862.0078076999
 31
0.0
  0
LINE
  5
189
330
1F
100
AcDbEntity
  8
0
  6
SLD-Сплошная
 62
     8
370
    18
100
AcDbLine
 10
1600.0816745414
 20
1341.0458040448
 30
0.0
 11
1601.4958881038
 21
1341.8622121566
 31
0.0
  0
LINE
  5
18A
330
1F
100
AcDbEntity
  8
0
  6
SLD-Сплошная
 62
     8
370
    18
100
AcDbLine
 10
1602.9101016661
 20
1339.4127224211
 30
0.0
 11
1602.202994885
 21
1339.0045183651
 31
0.0
  0
LINE
  5
18B
330
1F
100
AcDbEntity
  8
0
  6
SLD-Сплошная
 62
     8
370
    18
100
AcDbLine
 10
1600.7887813226
 20
1340.4188085378
 30
0.0
 11
1600.7887813226
 21
1291.8639427269
 31
0.0
  0
LINE
  5
18C
330
1F
100
AcDbEntity
  8
0
  6
SLD-Сплошная
 62
     8
370
    18
100
AcDbLine
 10
1602.202994885
 20
1339.0045183651
 30
0.0
 11
1602.202994885
 21
1293.2782328995
 31
0.0
  0
LINE
  5
18D
330
1F
100
AcDbEntity
  8
0
  6
SLD-Сплошная
 62
     8
370
    18
100
AcDbLine
 10
1602.202994885
 20
1293.2782328995
 30
0.0
 11
1602.9101016661
 21
1293.6864369555
 31
0.0
  0
LINE
  5
18E
330
1F
100
AcDbEntity
  8
0
  6
SLD-Сплошная
 62
     8
370
    18
100
AcDbLine
 10
1600.435227932
 20
2010.8133718191
 30
0.0
 11
1601.4958881038
 21
2011.425677903
 31
0.0
  0
LINE
  5
18F
330
1F
100
AcDbEntity
  8
0
  6
SLD-Сплошная
 62
     8
370
    18
100
AcDbLine
 10
1602.9101016661
 20
2008.9761881674
 30
0.0
 11
1602.5565482756
 21
2008.7720861395
 31
0.0
  0
LINE
  5
190
330
1F
100
AcDbEntity
  8
0
  6
SLD-Сплошная
 62
     8
370
    18
100
AcDbLine
 10
1601.1423347132
 20
2010.1863763121
 30
0.0
 11
1601.1423347132
 21
1961.6315105012
 31
0.0
  0
LINE
  5
191
330
1F
100
AcDbEntity
  8
0
  6
SLD-Сплошная
 62
     8
370
    18
100
AcDbLine
 10
1602.5565482756
 20
2008.7720861395
 30
0.0
 11
1602.5565482756
 21
1963.0458006739
 31
0.0
  0
LINE
  5
192
330
1F
100
AcDbEntity
  8
0
  6
SLD-Сплошная
 62
     8
370
    18
100
AcDbLine
 10
1602.5565482756
 20
1963.0458006739
 30
0.0
 11
1602.9101016661
 21
1963.2499027018
 31
0.0
  0
LINE
  5
193
330
1F
100
AcDbEntity
  8
0
  6
SLD-Сплошная
 62
     8
370
    18
100
AcDbLine
 10
1600.435227932
 20
1676.031638946
 30
0.0
 11
1601.4958881038
 21
1676.6439450298
 31
0.0
  0
LINE
  5
194
330
1F
100
AcDbEntity
  8
0
  6
SLD-Сплошная
 62
     8
370
    18
100
AcDbLine
 10
1602.9101016662
 20
1674.1944552942
 30
0.0
 11
1602.5565482756
 21
1673.9903532663
 31
0.0
  0
LINE
  5
195
330
1F
100
AcDbEntity
  8
0
  6
SLD-Сплошная
 62
     8
370
    18
100
AcDbLine
 10
1601.1423347132
 20
1675.4046434389
 30
0.0
 11
1601.1423347132
 21
1626.849777628
 31
0.0
  0
LINE
  5
196
330
1F
100
AcDbEntity
  8
0
  6
SLD-Сплошная
 62
     8
370
    18
100
AcDbLine
 10
1602.5565482756
 20
1673.9903532663
 30
0.0
 11
1602.5565482756
 21
1628.2640678007
 31
0.0
  0
LINE
  5
197
330
1F
100
AcDbEntity
  8
0
  6
SLD-Сплошная
 62
     8
370
    18
100
AcDbLine
 10
1602.5565482756
 20
1628.2640678007
 30
0.0
 11
1602.9101016662
 21
1628.4681698286
 31
0.0
  0
LINE
  5
198
330
1F
100
AcDbEntity
  8
1
  6
SLD-Сплошная
100
AcDbLine
 10
370.9856102259
 20
1882.3735015258
 30
0.0
 11
962.626974801
 21
1882.3735015258
 31
0.0
  0
ARC
  5
199
330
1F
100
AcDbEntity
  8
1
  6
SLD-Сплошная
100
AcDbCircle
 10
382.1562925134
 20
1875.6388775646
 30
0.0
 40
0.1999999999999886
100
AcDbArc
 50
0.0
 51
68.1849373759
  0
ARC
  5
19A
330
1F
100
AcDbEntity
  8
1
  6
SLD-Сплошная
100
AcDbCircle
 10
372.4562925134
 20
1875.6388775646
 30
0.0
 40
0.2000000000000455
100
AcDbArc
 50
111.8150626241
 51
180.0
  0
LINE
  5
19B
330
1F
100
AcDbEntity
  8
1
  6
SLD-Сплошная
100
AcDbLine
 10
382.3562925134
 20
1874.4735015258
 30
0.0
 11
382.3562925134
 21
1875.6388775646
 31
0.0
  0
LINE
  5
19C
330
1F
100
AcDbEntity
  8
1
  6
SLD-Сплошная
100
AcDbLine
 10
372.2562925134
 20
1875.6388775646
 30
0.0
 11
372.2562925134
 21
1874.4735015258
 31
0.0
  0
ARC
  5
19D
330
1F
100
AcDbEntity
  8
1
  6
SLD-Сплошная
100
AcDbCircle
 10
377.3062925134
 20
1863.5222515258
 30
0.0
 40
13.25124999999992
100
AcDbArc
 50
68.1849373759
 51
90.0
  0
ARC
  5
19E
330
1F
100
AcDbEntity
  8
1
  6
SLD-Сплошная
100
AcDbCircle
 10
377.3062925134
 20
1863.5222515258
 30
0.0
 40
13.2512499999999
100
AcDbArc
 50
90.0
 51
111.8150626241
  0
LINE
  5
19F
330
1F
100
AcDbEntity
  8
1
  6
SLD-Сплошная
100
AcDbLine
 10
438.3062925134
 20
1901.3735015258
 30
0.0
 11
438.3062925134
 21
1902.3735015258
 31
0.0
  0
LINE
  5
1A0
330
1F
100
AcDbEntity
  8
1
  6
SLD-Сплошная
100
AcDbLine
 10
410.3062925134
 20
1902.3735015258
 30
0.0
 11
410.3062925134
 21
1901.3735015258
 31
0.0
  0
LINE
  5
1A1
330
1F
100
AcDbEntity
  8
1
  6
SLD-Сплошная
100
AcDbLine
 10
438.3062925134
 20
1902.3735015258
 30
0.0
 11
435.3062925134
 21
1905.3735015258
 31
0.0
  0
LINE
  5
1A2
330
1F
100
AcDbEntity
  8
1
  6
SLD-Сплошная
100
AcDbLine
 10
413.3062925134
 20
1905.3735015258
 30
0.0
 11
410.3062925134
 21
1902.3735015258
 31
0.0
  0
LINE
  5
1A3
330
1F
100
AcDbEntity
  8
1
  6
SLD-Сплошная
100
AcDbLine
 10
950.7062925134
 20
1876.5735015258
 30
0.0
 11
950.8062925134
 21
1876.4735015258
 31
0.0
  0
LINE
  5
1A4
330
1F
100
AcDbEntity
  8
1
  6
SLD-Сплошная
100
AcDbLine
 10
959.8062925134
 20
1876.4735015258
 30
0.0
 11
959.9062925134
 21
1876.5735015258
 31
0.0
  0
LINE
  5
1A5
330
1F
100
AcDbEntity
  8
1
  6
SLD-Сплошная
100
AcDbLine
 10
950.7062925134
 20
1876.9735015258
 30
0.0
 11
950.7062925134
 21
1876.5735015258
 31
0.0
  0
LINE
  5
1A6
330
1F
100
AcDbEntity
  8
1
  6
SLD-Сплошная
100
AcDbLine
 10
959.9062925134
 20
1876.5735015258
 30
0.0
 11
959.9062925134
 21
1876.9735015258
 31
0.0
  0
LINE
  5
1A7
330
1F
100
AcDbEntity
  8
1
  6
SLD-Сплошная
100
AcDbLine
 10
367.8062925134
 20
1838.4735015258
 30
0.0
 11
367.7062925134
 21
1838.4735015258
 31
0.0
  0
LINE
  5
1A8
330
1F
100
AcDbEntity
  8
1
  6
SLD-Сплошная
100
AcDbLine
 10
367.7062925134
 20
1830.4735015258
 30
0.0
 11
367.8062925134
 21
1830.4735015258
 31
0.0
  0
LINE
  5
1A9
330
1F
100
AcDbEntity
  8
1
  6
SLD-Сплошная
100
AcDbLine
 10
367.7062925134
 20
1780.9235015258
 30
0.0
 11
367.8062925134
 21
1780.9235015258
 31
0.0
  0
LINE
  5
1AA
330
1F
100
AcDbEntity
  8
1
  6
SLD-Сплошная
100
AcDbLine
 10
367.8062925134
 20
1788.0235015258
 30
0.0
 11
367.7062925134
 21
1788.0235015258
 31
0.0
  0
LINE
  5
1AB
330
1F
100
AcDbEntity
  8
1
  6
SLD-Сплошная
100
AcDbLine
 10
368.7062925134
 20
1654.0735015258
 30
0.0
 11
367.8062925134
 21
1654.0735015258
 31
0.0
  0
LINE
  5
1AC
330
1F
100
AcDbEntity
  8
1
  6
SLD-Сплошная
100
AcDbLine
 10
367.8062925134
 20
1654.0735015258
 30
0.0
 11
367.8062925134
 21
1872.0735015258
 31
0.0
  0
LINE
  5
1AD
330
1F
100
AcDbEntity
  8
1
  6
SLD-Сплошная
100
AcDbLine
 10
367.8062925134
 20
1872.0735015258
 30
0.0
 11
368.7062925134
 21
1872.0735015258
 31
0.0
  0
LINE
  5
1AE
330
1F
100
AcDbEntity
  8
1
  6
SLD-Сплошная
100
AcDbLine
 10
963.8355818354
 20
1874.4735015258
 30
0.0
 11
368.7770031914
 21
1874.4735015258
 31
0.0
  0
LINE
  5
1AF
330
1F
100
AcDbEntity
  8
1
  6
SLD-Сплошная
100
AcDbLine
 10
963.8355818354
 20
1874.4735015258
 30
0.0
 11
963.9062925134
 21
1872.0735015258
 31
0.0
  0
LINE
  5
1B0
330
1F
100
AcDbEntity
  8
1
  6
SLD-Сплошная
100
AcDbLine
 10
368.7062925134
 20
1872.0735015258
 30
0.0
 11
370.2062925134
 21
1872.0735015258
 31
0.0
  0
LINE
  5
1B1
330
1F
100
AcDbEntity
  8
1
  6
SLD-Сплошная
100
AcDbLine
 10
368.7062925134
 20
1872.0735015258
 30
0.0
 11
368.7770031915
 21
1874.4735015258
 31
0.0
  0
LINE
  5
1B2
330
1F
100
AcDbEntity
  8
1
  6
SLD-Сплошная
100
AcDbLine
 10
966.3062925134
 20
1654.0735015258
 30
0.0
 11
966.3062925134
 21
1872.0735015258
 31
0.0
  0
LINE
  5
1B3
330
1F
100
AcDbEntity
  8
1
  6
SLD-Сплошная
100
AcDbLine
 10
963.9062925134
 20
1654.0735015258
 30
0.0
 11
966.3062925134
 21
1654.0735015258
 31
0.0
  0
LINE
  5
1B4
330
1F
100
AcDbEntity
  8
1
  6
SLD-Сплошная
100
AcDbLine
 10
963.9062925134
 20
1872.0735015258
 30
0.0
 11
966.3062925134
 21
1872.0735015258
 31
0.0
  0
ELLIPSE
  5
1B5
330
1F
100
AcDbEntity
  8
1
  6
SLD-Сплошная
100
AcDbEllipse
 10
369.2770031915
 20
1654.0735015258
 30
0.0
 11
0.0
 21
2.899999999999864
 31
0.0
210
0.0
220
0.0
230
1.0
 40
0.5172413793
 41
2.751284095330562
 42
3.141592653589793
  0
LINE
  5
1B6
330
1F
100
AcDbEntity
  8
1
  6
SLD-Сплошная
100
AcDbLine
 10
368.7062925134
 20
1654.0735015258
 30
0.0
 11
368.7062925134
 21
1651.3916055797
 31
0.0
  0
LINE
  5
1B7
330
1F
100
AcDbEntity
  8
1
  6
SLD-Сплошная
100
AcDbLine
 10
368.7062925134
 20
1654.0735015258
 30
0.0
 11
370.2062925134
 21
1654.0735015258
 31
0.0
  0
ELLIPSE
  5
1B8
330
1F
100
AcDbEntity
  8
1
  6
SLD-Сплошная
100
AcDbEllipse
 10
963.3355818354
 20
1654.0735015258
 30
0.0
 11
0.0
 21
2.899999999999864
 31
0.0
210
0.0
220
0.0
230
1.0
 40
0.5172413793
 41
3.141592653589718
 42
3.53190121185054
  0
LINE
  5
1B9
330
1F
100
AcDbEntity
  8
1
  6
SLD-Сплошная
100
AcDbLine
 10
369.2770031915
 20
1651.1735015258
 30
0.0
 11
963.3355818354
 21
1651.1735015258
 31
0.0
  0
LINE
  5
1BA
330
1F
100
AcDbEntity
  8
1
  6
SLD-Сплошная
100
AcDbLine
 10
963.9062925134
 20
1651.3916055797
 30
0.0
 11
963.9062925134
 21
1654.0735015258
 31
0.0
  0
ARC
  5
1BB
330
1F
100
AcDbEntity
  8
1
  6
SLD-Сплошная
100
AcDbCircle
 10
369.2062925134
 20
1654.0735015258
 30
0.0
 40
1.500000000000739
100
AcDbArc
 50
180.0
 51
247.6369669039
  0
LINE
  5
1BC
330
1F
100
AcDbEntity
  8
1
  6
SLD-Сплошная
100
AcDbLine
 10
368.1029185359
 20
1651.3916055797
 30
0.0
 11
368.6355818354
 21
1652.6863139675
 31
0.0
  0
ARC
  5
1BD
330
1F
100
AcDbEntity
  8
1
  6
SLD-Сплошная
100
AcDbCircle
 10
369.2062925134
 20
1654.0735015258
 30
0.0
 40
2.900000000000018
100
AcDbArc
 50
180.0
 51
247.6369669039
  0
LINE
  5
1BE
330
1F
100
AcDbEntity
  8
1
  6
SLD-Сплошная
100
AcDbLine
 10
367.7062925134
 20
1872.0735015258
 30
0.0
 11
366.3062925134
 21
1872.0735015258
 31
0.0
  0
LINE
  5
1BF
330
1F
100
AcDbEntity
  8
1
  6
SLD-Сплошная
100
AcDbLine
 10
367.7062925134
 20
1654.0735015258
 30
0.0
 11
367.7062925134
 21
1872.0735015258
 31
0.0
  0
LINE
  5
1C0
330
1F
100
AcDbEntity
  8
1
  6
SLD-Сплошная
100
AcDbLine
 10
366.3062925134
 20
1654.0735015258
 30
0.0
 11
366.3062925134
 21
1872.0735015258
 31
0.0
  0
ARC
  5
1C1
330
1F
100
AcDbEntity
  8
1
  6
SLD-Сплошная
100
AcDbCircle
 10
369.2062925134
 20
1654.0735015258
 30
0.0
 40
2.900000000000018
100
AcDbArc
 50
247.6369669039
 51
270.0
  0
LINE
  5
1C2
330
1F
100
AcDbEntity
  8
1
  6
SLD-Сплошная
100
AcDbLine
 10
369.2062925134
 20
1651.1735015258
 30
0.0
 11
369.2062925134
 21
1651.1767255402
 31
0.0
  0
ARC
  5
1C3
330
1F
100
AcDbEntity
  8
1
  6
SLD-Сплошная
100
AcDbCircle
 10
963.4062925134
 20
1654.0735015258
 30
0.0
 40
2.899999999999864
100
AcDbArc
 50
292.3630330961
 51
0.0
  0
LINE
  5
1C4
330
1F
100
AcDbEntity
  8
1
  6
SLD-Сплошная
100
AcDbLine
 10
964.5096664909
 20
1651.3916055797
 30
0.0
 11
963.9770031915
 21
1652.6863139675
 31
0.0
  0
ARC
  5
1C5
330
1F
100
AcDbEntity
  8
1
  6
SLD-Сплошная
100
AcDbCircle
 10
963.4062925134
 20
1654.0735015258
 30
0.0
 40
1.499999999999895
100
AcDbArc
 50
292.3630330961
 51
0.0
  0
LINE
  5
1C6
330
1F
100
AcDbEntity
  8
1
  6
SLD-Сплошная
100
AcDbLine
 10
963.4062925134
 20
1651.1735015258
 30
0.0
 11
963.4062925134
 21
1651.1767255402
 31
0.0
  0
ARC
  5
1C7
330
1F
100
AcDbEntity
  8
1
  6
SLD-Сплошная
100
AcDbCircle
 10
963.4062925134
 20
1654.0735015258
 30
0.0
 40
2.899999999999864
100
AcDbArc
 50
270.0
 51
292.3630330961
  0
ARC
  5
1C8
330
1F
100
AcDbEntity
  8
1
  6
SLD-Сплошная
100
AcDbCircle
 10
368.7062925134
 20
1872.0735015258
 30
0.0
 40
2.400000000000034
100
AcDbArc
 50
90.0
 51
180.0
  0
LINE
  5
1C9
330
1F
100
AcDbEntity
  8
1
  6
SLD-Сплошная
100
AcDbLine
 10
368.7062925134
 20
1873.0735015258
 30
0.0
 11
368.7062925134
 21
1874.4735015258
 31
0.0
  0
ARC
  5
1CA
330
1F
100
AcDbEntity
  8
1
  6
SLD-Сплошная
100
AcDbCircle
 10
368.7062925134
 20
1872.0735015258
 30
0.0
 40
1.0
100
AcDbArc
 50
90.0
 51
180.0
  0
ARC
  5
1CB
330
1F
100
AcDbEntity
  8
1
  6
SLD-Сплошная
100
AcDbCircle
 10
963.9062925134
 20
1872.0735015258
 30
0.0
 40
1.0
100
AcDbArc
 50
0.0
 51
90.0
  0
LINE
  5
1CC
330
1F
100
AcDbEntity
  8
1
  6
SLD-Сплошная
100
AcDbLine
 10
963.9062925134
 20
1873.0735015258
 30
0.0
 11
963.9062925134
 21
1874.4735015258
 31
0.0
  0
ARC
  5
1CD
330
1F
100
AcDbEntity
  8
1
  6
SLD-Сплошная
100
AcDbCircle
 10
963.9062925134
 20
1872.0735015258
 30
0.0
 40
2.399999999999864
100
AcDbArc
 50
0.0
 51
90.0
  0
LINE
  5
1CE
330
1F
100
AcDbEntity
  8
1
  6
SLD-Сплошная
100
AcDbLine
 10
368.7770031915
 20
1874.4735015258
 30
0.0
 11
368.7062925134
 21
1874.4735015258
 31
0.0
  0
LINE
  5
1CF
330
1F
100
AcDbEntity
  8
1
  6
SLD-Сплошная
100
AcDbLine
 10
368.7357552959
 20
1873.0735015258
 30
0.0
 11
368.7062925134
 21
1873.0735015258
 31
0.0
  0
LINE
  5
1D0
330
1F
100
AcDbEntity
  8
1
  6
SLD-Сплошная
100
AcDbLine
 10
963.9062925134
 20
1873.0735015258
 30
0.0
 11
963.8768297309
 21
1873.0735015258
 31
0.0
  0
LINE
  5
1D1
330
1F
100
AcDbEntity
  8
1
  6
SLD-Сплошная
100
AcDbLine
 10
963.9062925134
 20
1874.4735015258
 30
0.0
 11
963.8355818354
 21
1874.4735015258
 31
0.0
  0
LINE
  5
1D2
330
1F
100
AcDbEntity
  8
1
  6
SLD-Сплошная
100
AcDbLine
 10
369.2770031915
 20
1651.1735015258
 30
0.0
 11
369.2062925134
 21
1651.1735015258
 31
0.0
  0
LINE
  5
1D3
330
1F
100
AcDbEntity
  8
1
  6
SLD-Сплошная
100
AcDbLine
 10
963.4062925134
 20
1651.1735015258
 30
0.0
 11
963.3355818354
 21
1651.1735015258
 31
0.0
  0
ELLIPSE
  5
1D4
330
1F
100
AcDbEntity
  8
1
  6
SLD-Сплошная
100
AcDbEllipse
 10
947.2355818354
 20
1875.4735015258
 30
0.0
 11
2.399999999999864
 21
0.0
 31
0.0
210
0.0
220
0.0
230
1.0
 40
0.4166666667
 41
3.141592653589793
 42
4.712388980384695
  0
ELLIPSE
  5
1D5
330
1F
100
AcDbEntity
  8
1
  6
SLD-Сплошная
100
AcDbEllipse
 10
385.3770031915
 20
1875.4735015258
 30
0.0
 11
2.400000000000091
 21
0.0
 31
0.0
210
0.0
220
0.0
230
1.0
 40
0.4166666667
 41
4.712388980384648
 42
6.283185307179586
  0
ARC
  5
1D6
330
1F
100
AcDbEntity
  8
1
  6
SLD-Сплошная
100
AcDbCircle
 10
385.3062925134
 20
1875.4735015258
 30
0.0
 40
1.0
100
AcDbArc
 50
270.0
 51
0.0
  0
ARC
  5
1D7
330
1F
100
AcDbEntity
  8
1
  6
SLD-Сплошная
100
AcDbCircle
 10
385.3062925134
 20
1875.4735015258
 30
0.0
 40
2.399999999999977
100
AcDbArc
 50
353.6790015655
 51
0.0
  0
ARC
  5
1D8
330
1F
100
AcDbEntity
  8
1
  6
SLD-Сплошная
100
AcDbCircle
 10
947.3062925134
 20
1875.4735015258
 30
0.0
 40
1.0
100
AcDbArc
 50
180.0
 51
270.0
  0
ARC
  5
1D9
330
1F
100
AcDbEntity
  8
1
  6
SLD-Сплошная
100
AcDbCircle
 10
947.3062925134
 20
1875.4735015258
 30
0.0
 40
2.400000000000069
100
AcDbArc
 50
180.0
 51
186.3209984345
  0
LINE
  5
1DA
330
1F
100
AcDbEntity
  8
1
  6
SLD-Сплошная
100
AcDbLine
 10
944.8355818354
 20
1875.4735015258
 30
0.0
 11
944.8355818354
 21
1882.3735015258
 31
0.0
  0
LINE
  5
1DB
330
1F
100
AcDbEntity
  8
1
  6
SLD-Сплошная
100
AcDbLine
 10
387.7770031915
 20
1882.3735015258
 30
0.0
 11
387.7770031915
 21
1875.4735015258
 31
0.0
  0
LINE
  5
1DC
330
1F
100
AcDbEntity
  8
1
  6
SLD-Сплошная
100
AcDbLine
 10
386.3062925134
 20
1875.4735015258
 30
0.0
 11
386.3062925134
 21
1882.3735015258
 31
0.0
  0
LINE
  5
1DD
330
1F
100
AcDbEntity
  8
1
  6
SLD-Сплошная
100
AcDbLine
 10
387.7062925134
 20
1875.4735015258
 30
0.0
 11
387.7062925134
 21
1882.3735015258
 31
0.0
  0
LINE
  5
1DE
330
1F
100
AcDbEntity
  8
1
  6
SLD-Сплошная
100
AcDbLine
 10
946.3062925134
 20
1882.3735015258
 30
0.0
 11
946.3062925134
 21
1875.4735015258
 31
0.0
  0
LINE
  5
1DF
330
1F
100
AcDbEntity
  8
1
  6
SLD-Сплошная
100
AcDbLine
 10
944.9062925134
 20
1882.3735015258
 30
0.0
 11
944.9062925134
 21
1875.4735015258
 31
0.0
  0
LINE
  5
1E0
330
1F
100
AcDbEntity
  8
1
  6
SLD-Сплошная
100
AcDbLine
 10
367.7062925134
 20
1872.0735015258
 30
0.0
 11
367.8062925134
 21
1872.0735015258
 31
0.0
  0
LINE
  5
1E1
330
1F
100
AcDbEntity
  8
1
  6
SLD-Сплошная
100
AcDbLine
 10
370.9891352259
 20
1898.2735015258
 30
0.0
 11
370.9891352259
 21
1883.8235015258
 31
0.0
  0
LINE
  5
1E2
330
1F
100
AcDbEntity
  8
1
  6
SLD-Сплошная
100
AcDbLine
 10
962.623449801
 20
1898.2735015258
 30
0.0
 11
962.623449801
 21
1883.8235015258
 31
0.0
  0
SPLINE
  5
1E3
330
1F
100
AcDbEntity
  8
1
  6
SLD-Сплошная
100
AcDbSpline
210
0.0
220
0.0
230
1.0
 70
     8
 71
     3
 72
    11
 73
     7
 74
     0
 42
0.00000001
 43
0.00000001
 40
0.0
 40
0.0
 40
0.0
 40
0.0
 40
0.249999999999992
 40
0.4999999999999951
 40
0.7500000000000008
 40
1.0
 40
1.0
 40
1.0
 40
1.0
 10
962.5734498010103
 20
1882.373501525848
 30
0.0
 10
962.5776164676769
 20
1882.39529730639
 30
0.0
 10
962.5859498010103
 20
1882.438888867473
 30
0.0
 10
962.5984498010102
 20
1882.7742002265
 30
0.0
 10
962.6109498010103
 20
1883.253490385291
 30
0.0
 10
962.6192831343435
 20
1883.633497812329
 30
0.0
 10
962.6234498010102
 20
1883.823501525848
 30
0.0
  0
SPLINE
  5
1E4
330
1F
100
AcDbEntity
  8
1
  6
SLD-Сплошная
100
AcDbSpline
210
0.0
220
0.0
230
1.0
 70
     8
 71
     3
 72
    11
 73
     7
 74
     0
 42
0.00000001
 43
0.00000001
 40
0.0
 40
0.0
 40
0.0
 40
0.0
 40
0.2500000000000017
 40
0.5000000000000003
 40
0.7499999999999956
 40
1.0
 40
1.0
 40
1.0
 40
1.0
 10
370.9891352258747
 20
1883.823501525849
 30
0.0
 10
370.9933018925415
 20
1883.63349781233
 30
0.0
 10
371.0016352258748
 20
1883.253490385291
 30
0.0
 10
371.0141352258747
 20
1882.774200226501
 30
0.0
 10
371.0266352258747
 20
1882.438888867473
 30
0.0
 10
371.0349685592081
 20
1882.39529730639
 30
0.0
 10
371.0391352258746
 20
1882.373501525848
 30
0.0
  0
ELLIPSE
  5
1E5
330
1F
100
AcDbEntity
  8
1
  6
SLD-Сплошная
100
AcDbEllipse
 10
372.4062925134
 20
1898.2735015258
 30
0.0
 11
0.0
 21
3.099999999999909
 31
0.0
210
0.0
220
0.0
230
1.0
 40
0.4571475121
 41
0.0
 42
1.570796326794897
  0
LINE
  5
1E6
330
1F
100
AcDbEntity
  8
1
  6
SLD-Сплошная
100
AcDbLine
 10
372.4062925134
 20
1901.3735015258
 30
0.0
 11
961.2062925135
 21
1901.3735015258
 31
0.0
  0
ELLIPSE
  5
1E7
330
1F
100
AcDbEntity
  8
1
  6
SLD-Сплошная
100
AcDbEllipse
 10
961.2062925134
 20
1898.2735015258
 30
0.0
 11
0.0
 21
3.100000000000136
 31
0.0
210
0.0
220
0.0
230
1.0
 40
0.4571475121
 41
4.712388980384696
 42
6.283185307179586
  0
SPLINE
  5
1E8
330
1F
100
AcDbEntity
  8
1
  6
SLD-Сплошная
100
AcDbSpline
210
0.0
220
0.0
230
1.0
 70
     8
 71
     3
 72
    11
 73
     7
 74
     0
 42
0.00000001
 43
0.00000001
 40
0.0
 40
0.0
 40
0.0
 40
0.0
 40
0.2500000000000206
 40
0.5000000000000058
 40
0.7500000000000006
 40
1.0
 40
1.0
 40
1.0
 40
1.0
 10
370.7562925134067
 20
1882.373501525848
 30
0.0
 10
370.5662887998862
 20
1882.395297306388
 30
0.0
 10
370.1862813728454
 20
1882.438888867469
 30
0.0
 10
369.7069912140499
 20
1882.774200226496
 30
0.0
 10
369.3716798550186
 20
1883.253490385288
 30
0.0
 10
369.3280882939347
 20
1883.633497812328
 30
0.0
 10
369.3062925133929
 20
1883.823501525849
 30
0.0
  0
LINE
  5
1E9
330
1F
100
AcDbEntity
  8
1
  6
SLD-Сплошная
100
AcDbLine
 10
369.3062925134
 20
1883.8235015258
 30
0.0
 11
370.7062925134
 21
1883.8235015258
 31
0.0
  0
SPLINE
  5
1EA
330
1F
100
AcDbEntity
  8
1
  6
SLD-Сплошная
100
AcDbSpline
210
0.0
220
0.0
230
1.0
 70
     8
 71
     3
 72
    11
 73
     7
 74
     0
 42
0.00000001
 43
0.00000001
 40
0.0
 40
0.0
 40
0.0
 40
0.0
 40
0.2500000000006671
 40
0.5000000000001507
 40
0.7499999999993473
 40
1.0
 40
1.0
 40
1.0
 40
1.0
 10
370.7562925133934
 20
1883.773501525848
 30
0.0
 10
370.749740661203
 20
1883.774253104488
 30
0.0
 10
370.7366369568223
 20
1883.775756261766
 30
0.0
 10
370.7201097099673
 20
1883.787318722422
 30
0.0
 10
370.7085472493109
 20
1883.803845969278
 30
0.0
 10
370.7070440920323
 20
1883.816949673658
 30
0.0
 10
370.7062925133928
 20
1883.823501525849
 30
0.0
  0
LINE
  5
1EB
330
1F
100
AcDbEntity
  8
1
  6
SLD-Сплошная
100
AcDbLine
 10
370.7562925134
 20
1883.7735015258
 30
0.0
 11
370.7562925134
 21
1882.3735015258
 31
0.0
  0
LINE
  5
1EC
330
1F
100
AcDbEntity
  8
1
  6
SLD-Сплошная
100
AcDbLine
 10
370.7062925134
 20
1883.8235015258
 30
0.0
 11
370.7062925134
 21
1898.2735015258
 31
0.0
  0
LINE
  5
1ED
330
1F
100
AcDbEntity
  8
1
  6
SLD-Сплошная
100
AcDbLine
 10
369.3062925134
 20
1883.8235015258
 30
0.0
 11
369.3062925134
 21
1898.2735015258
 31
0.0
  0
LINE
  5
1EE
330
1F
100
AcDbEntity
  8
1
  6
SLD-Сплошная
100
AcDbLine
 10
964.3062925135
 20
1883.8235015258
 30
0.0
 11
964.3062925135
 21
1898.2735015258
 31
0.0
  0
LINE
  5
1EF
330
1F
100
AcDbEntity
  8
1
  6
SLD-Сплошная
100
AcDbLine
 10
964.3062925135
 20
1883.8235015258
 30
0.0
 11
962.9062925135
 21
1883.8235015258
 31
0.0
  0
LINE
  5
1F0
330
1F
100
AcDbEntity
  8
1
  6
SLD-Сплошная
100
AcDbLine
 10
962.9062925135
 20
1883.8235015258
 30
0.0
 11
962.9062925135
 21
1898.2735015258
 31
0.0
  0
SPLINE
  5
1F1
330
1F
100
AcDbEntity
  8
1
  6
SLD-Сплошная
100
AcDbSpline
210
0.0
220
0.0
230
1.0
 70
     8
 71
     3
 72
    11
 73
     7
 74
     0
 42
0.00000001
 43
0.00000001
 40
0.0
 40
0.0
 40
0.0
 40
0.0
 40
0.2499999999999956
 40
0.5000000000000019
 40
0.7500000000000078
 40
1.0
 40
1.0
 40
1.0
 40
1.0
 10
964.3062925134919
 20
1883.823501525848
 30
0.0
 10
964.2844967329502
 20
1883.633497812328
 30
0.0
 10
964.2409051718663
 20
1883.253490385287
 30
0.0
 10
963.9055938128351
 20
1882.774200226495
 30
0.0
 10
963.4263036540395
 20
1882.438888867468
 30
0.0
 10
963.0462962269987
 20
1882.395297306388
 30
0.0
 10
962.8562925134784
 20
1882.373501525848
 30
0.0
  0
LINE
  5
1F2
330
1F
100
AcDbEntity
  8
1
  6
SLD-Сплошная
100
AcDbLine
 10
962.8562925135
 20
1883.7735015258
 30
0.0
 11
962.8562925135
 21
1882.3735015258
 31
0.0
  0
SPLINE
  5
1F3
330
1F
100
AcDbEntity
  8
1
  6
SLD-Сплошная
100
AcDbSpline
210
0.0
220
0.0
230
1.0
 70
     8
 71
     3
 72
    11
 73
     7
 74
     0
 42
0.00000001
 43
0.00000001
 40
0.0
 40
0.0
 40
0.0
 40
0.0
 40
0.25000000000013
 40
0.5000000000000967
 40
0.7500000000003502
 40
1.0
 40
1.0
 40
1.0
 40
1.0
 10
962.9062925134922
 20
1883.823501525848
 30
0.0
 10
962.9055409348528
 20
1883.816949673658
 30
0.0
 10
962.904037777574
 20
1883.803845969277
 30
0.0
 10
962.8924753169177
 20
1883.787318722422
 30
0.0
 10
962.8759480700626
 20
1883.775756261766
 30
0.0
 10
962.8628443656819
 20
1883.774253104487
 30
0.0
 10
962.8562925134916
 20
1883.773501525848
 30
0.0
  0
ARC
  5
1F4
330
1F
100
AcDbEntity
  8
1
  6
SLD-Сплошная
100
AcDbCircle
 10
372.4062925134
 20
1898.2735015258
 30
0.0
 40
1.699999999999878
100
AcDbArc
 50
141.608853143
 51
180.0
  0
ARC
  5
1F5
330
1F
100
AcDbEntity
  8
1
  6
SLD-Сплошная
100
AcDbCircle
 10
372.4062925134
 20
1898.2735015258
 30
0.0
 40
3.099999999999909
100
AcDbArc
 50
90.0
 51
180.0
  0
ARC
  5
1F6
330
1F
100
AcDbEntity
  8
1
  6
SLD-Сплошная
100
AcDbCircle
 10
961.2062925135
 20
1898.2735015258
 30
0.0
 40
3.100000000000136
100
AcDbArc
 50
0.0
 51
90.0
  0
ARC
  5
1F7
330
1F
100
AcDbEntity
  8
1
  6
SLD-Сплошная
100
AcDbCircle
 10
961.2062925135
 20
1898.2735015258
 30
0.0
 40
1.700000000000159
100
AcDbArc
 50
0.0
 51
38.3911468676
  0
LINE
  5
1F8
330
1F
100
AcDbEntity
  8
1
  6
SLD-Сплошная
100
AcDbLine
 10
370.9891352259
 20
1883.8235015258
 30
0.0
 11
370.8062925134
 21
1883.8235015258
 31
0.0
  0
LINE
  5
1F9
330
1F
100
AcDbEntity
  8
1
  6
SLD-Сплошная
100
AcDbLine
 10
371.0391352258
 20
1882.4407094044
 30
0.0
 11
370.7562925134
 21
1882.3735015258
 31
0.0
  0
SPLINE
  5
1FA
330
1F
100
AcDbEntity
  8
1
  6
SLD-Сплошная
100
AcDbSpline
210
0.0
220
0.0
230
1.0
 70
     8
 71
     3
 72
    10
 73
     6
 74
     0
 42
0.00000001
 43
0.00000001
 40
0.0
 40
0.0
 40
0.0
 40
0.0
 40
0.0337192307695556
 40
0.2911090361239104
 40
1.0
 40
1.0
 40
1.0
 40
1.0
 10
370.8062925133929
 20
1883.823501525849
 30
0.0
 10
370.806112875033
 20
1883.820871658927
 30
0.0
 10
370.8045619989126
 20
1883.798167166354
 30
0.0
 10
370.7871754015261
 20
1883.785951075729
 30
0.0
 10
370.769361382634
 20
1883.778769865351
 30
0.0
 10
370.7562925133934
 20
1883.773501525848
 30
0.0
  0
LINE
  5
1FB
330
1F
100
AcDbEntity
  8
1
  6
SLD-Сплошная
100
AcDbLine
 10
962.623449801
 20
1883.8235015258
 30
0.0
 11
962.8062925135
 21
1883.8235015258
 31
0.0
  0
SPLINE
  5
1FC
330
1F
100
AcDbEntity
  8
1
  6
SLD-Сплошная
100
AcDbSpline
210
0.0
220
0.0
230
1.0
 70
     8
 71
     3
 72
    11
 73
     7
 74
     0
 42
0.00000001
 43
0.00000001
 40
0.0
 40
0.0
 40
0.0
 40
0.0
 40
0.7088676281994233
 40
0.9065679869072102
 40
0.9662818792190909
 40
1.0
 40
1.0
 40
1.0
 40
1.0
 10
962.8562925134916
 20
1883.773501525848
 30
0.0
 10
962.8427327528099
 20
1883.775191136674
 30
0.0
 10
962.8253912288707
 20
1883.77735197323
 30
0.0
 10
962.810425881574
 20
1883.80270918108
 30
0.0
 10
962.8069205078764
 20
1883.813223263608
 30
0.0
 10
962.8064590472567
 20
1883.82077590003
 30
0.0
 10
962.8062925134918
 20
1883.823501525848
 30
0.0
  0
LINE
  5
1FD
330
1F
100
AcDbEntity
  8
1
  6
SLD-Сплошная
100
AcDbLine
 10
962.8562925135
 20
1882.3735015258
 30
0.0
 11
962.4186104665
 21
1882.4775016665
 31
0.0
  0
LINE
  5
1FE
330
1F
100
AcDbEntity
  8
1
  6
SLD-Сплошная
100
AcDbLine
 10
370.8062925134
 20
1883.8235015258
 30
0.0
 11
370.8062925134
 21
1897.4635015258
 31
0.0
  0
LINE
  5
1FF
330
1F
100
AcDbEntity
  8
1
  6
SLD-Сплошная
100
AcDbLine
 10
370.9891352258
 20
1897.4635015258
 30
0.0
 11
370.8062925134
 21
1897.4635015258
 31
0.0
  0
LINE
  5
200
330
1F
100
AcDbEntity
  8
1
  6
SLD-Сплошная
100
AcDbLine
 10
962.6234498009
 20
1897.4635015258
 30
0.0
 11
962.8062925135
 21
1897.4635015258
 31
0.0
  0
LINE
  5
201
330
1F
100
AcDbEntity
  8
1
  6
SLD-Сплошная
100
AcDbLine
 10
962.8062925135
 20
1883.8235015258
 30
0.0
 11
962.8062925135
 21
1897.4635015258
 31
0.0
  0
ARC
  5
202
330
1F
100
AcDbEntity
  8
1
  6
SLD-Сплошная
100
AcDbCircle
 10
373.2162925134
 20
1897.4635015258
 30
0.0
 40
2.40999999999998
100
AcDbArc
 50
157.321765034
 51
180.0
  0
ARC
  5
203
330
1F
100
AcDbEntity
  8
1
  6
SLD-Сплошная
100
AcDbCircle
 10
960.3962925135
 20
1897.4635015258
 30
0.0
 40
2.409999999999983
100
AcDbArc
 50
0.0
 51
22.6782349726
  0
LINE
  5
204
330
1F
100
AcDbEntity
  8
1
  6
SLD-Сплошная
100
AcDbLine
 10
871.3062925134
 20
1847.9235015258
 30
0.0
 11
461.3062925134
 21
1847.9235015258
 31
0.0
  0
ARC
  5
205
330
1F
100
AcDbEntity
  8
1
  6
SLD-Сплошная
100
AcDbCircle
 10
871.3062925134
 20
1830.4235015258
 30
0.0
 40
17.5
100
AcDbArc
 50
0.0
 51
90.0
  0
LINE
  5
206
330
1F
100
AcDbEntity
  8
1
  6
SLD-Сплошная
100
AcDbLine
 10
888.8062925134
 20
1695.4235015258
 30
0.0
 11
888.8062925134
 21
1830.4235015258
 31
0.0
  0
ARC
  5
207
330
1F
100
AcDbEntity
  8
1
  6
SLD-Сплошная
100
AcDbCircle
 10
871.3062925134
 20
1695.4235015258
 30
0.0
 40
17.49999999999977
100
AcDbArc
 50
270.0
 51
0.0
  0
LINE
  5
208
330
1F
100
AcDbEntity
  8
1
  6
SLD-Сплошная
100
AcDbLine
 10
461.3062925134
 20
1677.9235015258
 30
0.0
 11
871.3062925134
 21
1677.9235015258
 31
0.0
  0
ARC
  5
209
330
1F
100
AcDbEntity
  8
1
  6
SLD-Сплошная
100
AcDbCircle
 10
461.3062925134
 20
1695.4235015258
 30
0.0
 40
17.5
100
AcDbArc
 50
180.0
 51
270.0
  0
LINE
  5
20A
330
1F
100
AcDbEntity
  8
1
  6
SLD-Сплошная
100
AcDbLine
 10
443.8062925134
 20
1830.4235015258
 30
0.0
 11
443.8062925134
 21
1695.4235015258
 31
0.0
  0
ARC
  5
20B
330
1F
100
AcDbEntity
  8
1
  6
SLD-Сплошная
100
AcDbCircle
 10
461.3062925134
 20
1830.4235015258
 30
0.0
 40
17.5
100
AcDbArc
 50
90.0
 51
180.0
  0
ELLIPSE
  5
20C
330
1F
100
AcDbEntity
  8
1
  6
SLD-Сплошная
100
AcDbEllipse
 10
765.2369057322
 20
1682.9235015258
 30
0.0
 11
0.4122489361056978
 21
0.0
 31
0.0
210
0.0
220
0.0
230
1.0
 40
0.9702875252
 41
5.512866274279008
 42
7.053504340080586
  0
SPLINE
  5
20D
330
1F
100
AcDbEntity
  8
1
  6
SLD-Сплошная
100
AcDbSpline
210
0.0
220
0.0
230
1.0
 70
     8
 71
     3
 72
    12
 73
     8
 74
     0
 42
0.00000001
 43
0.00000001
 40
0.0
 40
0.0
 40
0.0
 40
0.0
 40
0.2187857887072142
 40
0.4375776469534839
 40
0.6562353658863967
 40
0.8748419359490988
 40
1.0
 40
1.0
 40
1.0
 40
1.0
 10
765.193182019623
 20
1682.644955829707
 30
0.0
 10
765.220145445695
 20
1682.680281226576
 30
0.0
 10
765.2740730458565
 20
1682.750933000309
 30
0.0
 10
765.3066689348296
 20
1682.884896228949
 30
0.0
 10
765.2973198035875
 20
1683.020438855229
 30
0.0
 10
765.2534410455057
 20
1683.129336659523
 30
0.0
 10
765.2092654872193
 20
1683.182640370329
 30
0.0
 10
765.193182019623
 20
1683.202047221963
 30
0.0
  0
ARC
  5
20E
330
1F
100
AcDbEntity
  8
1
  6
SLD-Сплошная
100
AcDbCircle
 10
749.0610245322
 20
1700.1687695071
 30
0.0
 40
26.5619554960906
100
AcDbArc
 50
313.8816987744
 51
316.1183012256
  0
ARC
  5
20F
330
1F
100
AcDbEntity
  8
1
  6
SLD-Сплошная
100
AcDbCircle
 10
750.2932695393
 20
1666.6820872894
 30
0.0
 40
23.41191191673864
100
AcDbArc
 50
40.0824770913
 51
42.9865596105
  0
SPLINE
  5
210
330
1F
100
AcDbEntity
  8
1
  6
SLD-Сплошная
100
AcDbSpline
210
0.0
220
0.0
230
1.0
 70
     8
 71
     3
 72
    12
 73
     8
 74
     0
 42
0.00000001
 43
0.00000001
 40
0.0
 40
0.0
 40
0.0
 40
0.0
 40
0.2187857887072182
 40
0.4375776469534861
 40
0.6562353658863578
 40
0.8748419359490965
 40
1.0
 40
1.0
 40
1.0
 40
1.0
 10
767.4194030072476
 20
1683.202047221963
 30
0.0
 10
767.3924395811755
 20
1683.166721825094
 30
0.0
 10
767.338511981014
 20
1683.096070051362
 30
0.0
 10
767.3059160920409
 20
1682.962106822721
 30
0.0
 10
767.3152652232831
 20
1682.826564196441
 30
0.0
 10
767.3591439813647
 20
1682.717666392147
 30
0.0
 10
767.4033195396513
 20
1682.664362681341
 30
0.0
 10
767.4194030072476
 20
1682.644955829707
 30
0.0
  0
ARC
  5
211
330
1F
100
AcDbEntity
  8
1
  6
SLD-Сплошная
100
AcDbCircle
 10
750.2932695395
 20
1699.164915762
 30
0.0
 40
23.41191191636997
100
AcDbArc
 50
317.0134403894
 51
319.9175229087
  0
ARC
  5
212
330
1F
100
AcDbEntity
  8
1
  6
SLD-Сплошная
100
AcDbCircle
 10
749.0610245318
 20
1665.6782335442
 30
0.0
 40
26.56195549660049
100
AcDbArc
 50
43.8816987744
 51
46.1183012256
  0
ARC
  5
213
330
1F
100
AcDbEntity
  8
1
  6
SLD-Сплошная
100
AcDbCircle
 10
782.5477067495
 20
1666.9104785521
 30
0.0
 40
23.41191191617855
100
AcDbArc
 50
130.0824770913
 51
132.9865596106
  0
SPLINE
  5
214
330
1F
100
AcDbEntity
  8
1
  6
SLD-Сплошная
100
AcDbSpline
210
0.0
220
0.0
230
1.0
 70
     8
 71
     3
 72
    12
 73
     8
 74
     0
 42
0.00000001
 43
0.00000001
 40
0.0
 40
0.0
 40
0.0
 40
0.0
 40
0.2187857887071912
 40
0.4375776469534632
 40
0.656235365886384
 40
0.8748419359490767
 40
1.0
 40
1.0
 40
1.0
 40
1.0
 10
766.0277468173074
 20
1684.036612019647
 30
0.0
 10
766.0630722141763
 20
1684.009648593575
 30
0.0
 10
766.1337239879086
 20
1683.955720993414
 30
0.0
 10
766.2676872165497
 20
1683.923125104441
 30
0.0
 10
766.4032298428297
 20
1683.932474235683
 30
0.0
 10
766.5121276471236
 20
1683.976352993765
 30
0.0
 10
766.5654313579296
 20
1684.020528552051
 30
0.0
 10
766.5848382095633
 20
1684.036612019647
 30
0.0
  0
ARC
  5
215
330
1F
100
AcDbEntity
  8
1
  6
SLD-Сплошная
100
AcDbCircle
 10
750.0648782774
 20
1666.9104785521
 30
0.0
 40
23.41191191613665
100
AcDbArc
 50
47.0134403894
 51
49.9175229087
  0
ARC
  5
216
330
1F
100
AcDbEntity
  8
1
  6
SLD-Сплошная
100
AcDbCircle
 10
783.5515604945
 20
1665.6782335447
 30
0.0
 40
26.5619554958705
100
AcDbArc
 50
133.8816987744
 51
136.1183012256
  0
ARC
  5
217
330
1F
100
AcDbEntity
  8
1
  6
SLD-Сплошная
100
AcDbCircle
 10
782.3193154872
 20
1699.1649157619
 30
0.0
 40
23.4119119161661
100
AcDbArc
 50
220.0824770913
 51
222.9865596106
  0
ARC
  5
218
330
1F
100
AcDbEntity
  8
1
  6
SLD-Сплошная
100
AcDbCircle
 10
782.3193154872
 20
1666.6820872898
 30
0.0
 40
23.41191191616409
100
AcDbArc
 50
137.0134403894
 51
139.9175229087
  0
ARC
  5
219
330
1F
100
AcDbEntity
  8
1
  6
SLD-Сплошная
100
AcDbCircle
 10
783.5515604946
 20
1700.168769507
 30
0.0
 40
26.56195549601613
100
AcDbArc
 50
223.8816987744
 51
226.1183012256
  0
ARC
  5
21A
330
1F
100
AcDbEntity
  8
1
  6
SLD-Сплошная
100
AcDbCircle
 10
750.0648782772
 20
1698.9365244998
 30
0.0
 40
23.41191191642504
100
AcDbArc
 50
310.0824770913
 51
312.9865596106
  0
SPLINE
  5
21B
330
1F
100
AcDbEntity
  8
1
  6
SLD-Сплошная
100
AcDbSpline
210
0.0
220
0.0
230
1.0
 70
     8
 71
     3
 72
    12
 73
     8
 74
     0
 42
0.00000001
 43
0.00000001
 40
0.0
 40
0.0
 40
0.0
 40
0.0
 40
0.2187857887072066
 40
0.4375776469534695
 40
0.6562353658863811
 40
0.8748419359490819
 40
1.0
 40
1.0
 40
1.0
 40
1.0
 10
766.5848382095633
 20
1681.810391032023
 30
0.0
 10
766.5495128126944
 20
1681.837354458095
 30
0.0
 10
766.478861038962
 20
1681.891282058256
 30
0.0
 10
766.3448978103208
 20
1681.923877947229
 30
0.0
 10
766.209355184041
 20
1681.914528815987
 30
0.0
 10
766.100457379747
 20
1681.870650057906
 30
0.0
 10
766.0471536689411
 20
1681.826474499619
 30
0.0
 10
766.0277468173074
 20
1681.810391032023
 30
0.0
  0
ARC
  5
21C
330
1F
100
AcDbEntity
  8
1
  6
SLD-Сплошная
100
AcDbCircle
 10
782.5477067495
 20
1698.9365244996
 30
0.0
 40
23.41191191617115
100
AcDbArc
 50
227.0134403894
 51
229.9175229087
  0
CIRCLE
  5
21D
330
1F
100
AcDbEntity
  8
1
  6
SLD-Сплошная
100
AcDbCircle
 10
766.3062925134
 20
1682.9235015258
 30
0.0
 40
3.499999999999948
  0
ELLIPSE
  5
21E
330
1F
100
AcDbEntity
  8
1
  6
SLD-Сплошная
100
AcDbEllipse
 10
767.3756792947
 20
1682.9235015258
 30
0.0
 11
-0.4122489361056978
 21
0.0
 31
0.0
210
0.0
220
0.0
230
1.0
 40
0.9702875252
 41
5.512866274278693
 42
7.053504340080086
  0
ELLIPSE
  5
21F
330
1F
100
AcDbEntity
  8
1
  6
SLD-Сплошная
100
AcDbEllipse
 10
766.3062925134
 20
1681.8541147446
 30
0.0
 11
0.0
 21
0.4122489361056978
 31
0.0
210
0.0
220
0.0
230
1.0
 40
0.9702875252
 41
5.512866274279089
 42
7.053504340080098
  0
ELLIPSE
  5
220
330
1F
100
AcDbEntity
  8
1
  6
SLD-Сплошная
100
AcDbEllipse
 10
766.3062925134
 20
1683.9928883071
 30
0.0
 11
0.0
 21
-0.4122489361056978
 31
0.0
210
0.0
220
0.0
230
1.0
 40
0.9702875252
 41
5.512866274278704
 42
7.053504340080481
  0
LINE
  5
221
330
1F
100
AcDbEntity
  8
1
  6
SLD-Сплошная
100
AcDbLine
 10
768.2061531672
 20
1681.7567753369
 30
0.0
 11
767.9679934492
 21
1681.7567753369
 31
0.0
  0
LINE
  5
222
330
1F
100
AcDbEntity
  8
1
  6
SLD-Сплошная
100
AcDbLine
 10
767.9679934492
 20
1681.7567753369
 30
0.0
 11
767.0798129564
 21
1682.6449558297
 31
0.0
  0
LINE
  5
223
330
1F
100
AcDbEntity
  8
1
  6
SLD-Сплошная
100
AcDbLine
 10
767.4730187024
 20
1681.023640872
 30
0.0
 11
767.4730187024
 21
1681.26180059
 31
0.0
  0
LINE
  5
224
330
1F
100
AcDbEntity
  8
1
  6
SLD-Сплошная
100
AcDbLine
 10
766.5848382096
 20
1682.1499810829
 30
0.0
 11
767.4730187024
 21
1681.26180059
 31
0.0
  0
LINE
  5
225
330
1F
100
AcDbEntity
  8
1
  6
SLD-Сплошная
100
AcDbLine
 10
768.2061531672
 20
1684.0902277148
 30
0.0
 11
767.9679934492
 21
1684.0902277148
 31
0.0
  0
LINE
  5
226
330
1F
100
AcDbEntity
  8
1
  6
SLD-Сплошная
100
AcDbLine
 10
767.0798129564
 20
1683.202047222
 30
0.0
 11
767.9679934492
 21
1684.0902277148
 31
0.0
  0
LINE
  5
227
330
1F
100
AcDbEntity
  8
1
  6
SLD-Сплошная
100
AcDbLine
 10
765.1395663245
 20
1684.8233621796
 30
0.0
 11
765.1395663245
 21
1684.5852024616
 31
0.0
  0
LINE
  5
228
330
1F
100
AcDbEntity
  8
1
  6
SLD-Сплошная
100
AcDbLine
 10
766.0277468173
 20
1683.6970219688
 30
0.0
 11
765.1395663245
 21
1684.5852024616
 31
0.0
  0
LINE
  5
229
330
1F
100
AcDbEntity
  8
1
  6
SLD-Сплошная
100
AcDbLine
 10
764.4064318596
 20
1681.7567753369
 30
0.0
 11
764.6445915776
 21
1681.7567753369
 31
0.0
  0
LINE
  5
22A
330
1F
100
AcDbEntity
  8
1
  6
SLD-Сплошная
100
AcDbLine
 10
765.5327720705
 20
1682.6449558297
 30
0.0
 11
764.6445915776
 21
1681.7567753369
 31
0.0
  0
LINE
  5
22B
330
1F
100
AcDbEntity
  8
1
  6
SLD-Сплошная
100
AcDbLine
 10
764.4064318596
 20
1684.0902277148
 30
0.0
 11
764.6445915776
 21
1684.0902277148
 31
0.0
  0
LINE
  5
22C
330
1F
100
AcDbEntity
  8
1
  6
SLD-Сплошная
100
AcDbLine
 10
764.6445915776
 20
1684.0902277148
 30
0.0
 11
765.5327720705
 21
1683.202047222
 31
0.0
  0
LINE
  5
22D
330
1F
100
AcDbEntity
  8
1
  6
SLD-Сплошная
100
AcDbLine
 10
767.4730187024
 20
1684.8233621796
 30
0.0
 11
767.4730187024
 21
1684.5852024616
 31
0.0
  0
LINE
  5
22E
330
1F
100
AcDbEntity
  8
1
  6
SLD-Сплошная
100
AcDbLine
 10
767.4730187024
 20
1684.5852024616
 30
0.0
 11
766.5848382096
 21
1683.6970219688
 31
0.0
  0
LINE
  5
22F
330
1F
100
AcDbEntity
  8
1
  6
SLD-Сплошная
100
AcDbLine
 10
765.1395663245
 20
1681.023640872
 30
0.0
 11
765.1395663245
 21
1681.26180059
 31
0.0
  0
LINE
  5
230
330
1F
100
AcDbEntity
  8
1
  6
SLD-Сплошная
100
AcDbLine
 10
765.1395663245
 20
1681.26180059
 30
0.0
 11
766.0277468173
 21
1682.1499810829
 31
0.0
  0
LINE
  5
231
330
1F
100
AcDbEntity
  8
1
  6
SLD-Сплошная
100
AcDbLine
 10
767.4730187024
 20
1681.26180059
 30
0.0
 11
767.9679934492
 21
1681.7567753369
 31
0.0
  0
LINE
  5
232
330
1F
100
AcDbEntity
  8
1
  6
SLD-Сплошная
100
AcDbLine
 10
764.6445915776
 20
1681.7567753369
 30
0.0
 11
765.1395663245
 21
1681.26180059
 31
0.0
  0
LINE
  5
233
330
1F
100
AcDbEntity
  8
1
  6
SLD-Сплошная
100
AcDbLine
 10
767.9679934492
 20
1684.0902277148
 30
0.0
 11
767.4730187024
 21
1684.5852024616
 31
0.0
  0
LINE
  5
234
330
1F
100
AcDbEntity
  8
1
  6
SLD-Сплошная
100
AcDbLine
 10
765.1395663245
 20
1684.5852024616
 30
0.0
 11
764.6445915776
 21
1684.0902277148
 31
0.0
  0
CIRCLE
  5
235
330
1F
100
AcDbEntity
  8
1
  6
SLD-Сплошная
100
AcDbCircle
 10
766.3062925134
 20
1682.9235015258
 30
0.0
 40
4.99999999999996
  0
ELLIPSE
  5
236
330
1F
100
AcDbEntity
  8
1
  6
SLD-Сплошная
100
AcDbEllipse
 10
447.939503221
 20
1762.2971913706
 30
0.0
 11
0.3341475412566979
 21
0.2414427592461834
 31
0.0
210
0.0
220
0.0
230
0.9999999999999999
 40
0.9702875252
 41
5.512866274278321
 42
7.053504340080957
  0
SPLINE
  5
237
330
1F
100
AcDbEntity
  8
1
  6
SLD-Сплошная
100
AcDbSpline
210
0.0
220
0.0
230
1.0
 70
     8
 71
     3
 72
    12
 73
     8
 74
     0
 42
0.00000001
 43
0.00000001
 40
0.0
 40
0.0
 40
0.0
 40
0.0
 40
0.2187857887071962
 40
0.4375776469534812
 40
0.6562353658863731
 40
0.8748419359490909
 40
1.0
 40
1.0
 40
1.0
 40
1.0
 10
448.0671995370328
 20
1762.045808955234
 30
0.0
 10
448.0683655830604
 20
1762.090233614447
 30
0.0
 10
448.070697707464
 20
1762.179084165298
 30
0.0
 10
448.0186596946851
 20
1762.30675829671
 30
0.0
 10
447.9316982212594
 20
1762.411146571595
 30
0.0
 10
447.8323539613132
 20
1762.473714895902
 30
0.0
 10
447.7653290480142
 20
1762.491047712547
 30
0.0
 10
447.7409265715543
 20
1762.497358256334
 30
0.0
  0
ARC
  5
238
330
1F
100
AcDbEntity
  8
1
  6
SLD-Сплошная
100
AcDbCircle
 10
452.684334805
 20
1787.0016933901
 30
0.0
 40
26.56195549564026
100
AcDbArc
 50
259.7321939069
 51
261.9687963581
  0
ARC
  5
239
330
1F
100
AcDbEntity
  8
1
  6
SLD-Сплошная
100
AcDbCircle
 10
426.2634639695
 20
1766.3906793942
 30
0.0
 40
23.41191191596463
100
AcDbArc
 50
345.9329722238
 51
348.8370547431
  0
SPLINE
  5
23A
330
1F
100
AcDbEntity
  8
1
  6
SLD-Сплошная
100
AcDbSpline
210
0.0
220
0.0
230
1.0
 70
     8
 71
     3
 72
    12
 73
     8
 74
     0
 42
0.00000001
 43
0.00000001
 40
0.0
 40
0.0
 40
0.0
 40
0.0
 40
0.2187857887071959
 40
0.4375776469534898
 40
0.6562353658863794
 40
0.8748419359490905
 40
1.0
 40
1.0
 40
1.0
 40
1.0
 10
449.6839850840424
 20
1762.184408549439
 30
0.0
 10
449.6395604248298
 20
1762.185574595467
 30
0.0
 10
449.5507098739791
 20
1762.18790671987
 30
0.0
 10
449.4230357425668
 20
1762.135868707091
 30
0.0
 10
449.3186474676816
 20
1762.048907233665
 30
0.0
 10
449.2560791433746
 20
1761.949562973719
 30
0.0
 10
449.2387463267293
 20
1761.88253806042
 30
0.0
 10
449.2324357829426
 20
1761.85813558396
 30
0.0
  0
ARC
  5
23B
330
1F
100
AcDbEntity
  8
1
  6
SLD-Сплошная
100
AcDbCircle
 10
452.5923548805
 20
1785.4149704169
 30
0.0
 40
23.41191191574879
100
AcDbArc
 50
262.8639355219
 51
265.7680180412
  0
ARC
  5
23C
330
1F
100
AcDbEntity
  8
1
  6
SLD-Сплошная
100
AcDbCircle
 10
424.7281006491
 20
1766.8015438175
 30
0.0
 40
26.56195549574216
100
AcDbArc
 50
349.7321939069
 51
351.9687963581
  0
ARC
  5
23D
330
1F
100
AcDbEntity
  8
1
  6
SLD-Сплошная
100
AcDbCircle
 10
445.339114645
 20
1740.3806729815
 30
0.0
 40
23.41191191634797
100
AcDbArc
 50
75.9329722239
 51
78.8370547431
  0
SPLINE
  5
23E
330
1F
100
AcDbEntity
  8
1
  6
SLD-Сплошная
100
AcDbSpline
210
0.0
220
0.0
230
1.0
 70
     8
 71
     3
 72
    12
 73
     8
 74
     0
 42
0.00000001
 43
0.00000001
 40
0.0
 40
0.0
 40
0.0
 40
0.0
 40
0.2187857887071911
 40
0.4375776469534893
 40
0.6562353658863781
 40
0.8748419359490928
 40
1.0
 40
1.0
 40
1.0
 40
1.0
 10
449.5453854898379
 20
1763.801194096448
 30
0.0
 10
449.5442194438103
 20
1763.756769437236
 30
0.0
 10
449.5418873194067
 20
1763.667918886385
 30
0.0
 10
449.5939253321856
 20
1763.540244754973
 30
0.0
 10
449.6808868056114
 20
1763.435856480088
 30
0.0
 10
449.7802310655575
 20
1763.373288155781
 30
0.0
 10
449.8472559788565
 20
1763.355955339135
 30
0.0
 10
449.8716584553164
 20
1763.349644795349
 30
0.0
  0
ARC
  5
23F
330
1F
100
AcDbEntity
  8
1
  6
SLD-Сплошная
100
AcDbCircle
 10
426.3148236219
 20
1766.7095638929
 30
0.0
 40
23.41191191624356
100
AcDbArc
 50
352.8639355219
 51
355.7680180412
  0
ARC
  5
240
330
1F
100
AcDbEntity
  8
1
  6
SLD-Сплошная
100
AcDbCircle
 10
444.9282502216
 20
1738.84530966
 30
0.0
 40
26.5619554972225
100
AcDbArc
 50
79.732193907
 51
81.9687963581
  0
ARC
  5
241
330
1F
100
AcDbEntity
  8
1
  6
SLD-Сплошная
100
AcDbCircle
 10
471.3491210578
 20
1759.4563236574
 30
0.0
 40
23.41191191635191
100
AcDbArc
 50
165.9329722238
 51
168.8370547431
  0
SPLINE
  5
242
330
1F
100
AcDbEntity
  8
1
  6
SLD-Сплошная
100
AcDbSpline
210
0.0
220
0.0
230
1.0
 70
     8
 71
     3
 72
    12
 73
     8
 74
     0
 42
0.00000001
 43
0.00000001
 40
0.0
 40
0.0
 40
0.0
 40
0.0
 40
0.2187857887071923
 40
0.4375776469534917
 40
0.6562353658863643
 40
0.874841935949092
 40
1.0
 40
1.0
 40
1.0
 40
1.0
 10
447.9285999428283
 20
1763.662594502244
 30
0.0
 10
447.9730246020409
 20
1763.661428456217
 30
0.0
 10
448.0618751528916
 20
1763.659096331813
 30
0.0
 10
448.1895492843039
 20
1763.711134344592
 30
0.0
 10
448.293937559189
 20
1763.798095818018
 30
0.0
 10
448.3565058834961
 20
1763.897440077963
 30
0.0
 10
448.3738387001414
 20
1763.964464991263
 30
0.0
 10
448.380149243928
 20
1763.988867467722
 30
0.0
  0
ARC
  5
243
330
1F
100
AcDbEntity
  8
1
  6
SLD-Сплошная
100
AcDbCircle
 10
445.0202301463
 20
1740.4320326341
 30
0.0
 40
23.41191191647848
100
AcDbArc
 50
82.863935522
 51
85.7680180412
  0
ARC
  5
244
330
1F
100
AcDbEntity
  8
1
  6
SLD-Сплошная
100
AcDbCircle
 10
472.884484378
 20
1759.0454592342
 30
0.0
 40
26.56195549598446
100
AcDbArc
 50
169.7321939069
 51
171.9687963581
  0
ARC
  5
245
330
1F
100
AcDbEntity
  8
1
  6
SLD-Сплошная
100
AcDbCircle
 10
452.2734703818
 20
1785.4663300698
 30
0.0
 40
23.41191191597899
100
AcDbArc
 50
255.9329722238
 51
258.8370547431
  0
ARC
  5
246
330
1F
100
AcDbEntity
  8
1
  6
SLD-Сплошная
100
AcDbCircle
 10
471.297761405
 20
1759.1374391588
 30
0.0
 40
23.41191191627274
100
AcDbArc
 50
172.8639355219
 51
175.7680180412
  0
CIRCLE
  5
247
330
1F
100
AcDbEntity
  8
1
  6
SLD-Сплошная
100
AcDbCircle
 10
448.8062925134
 20
1762.9235015258
 30
0.0
 40
3.500000000000013
  0
ELLIPSE
  5
248
330
1F
100
AcDbEntity
  8
1
  6
SLD-Сплошная
100
AcDbEllipse
 10
449.4326026687
 20
1762.0567122334
 30
0.0
 11
-0.2414427592460129
 21
0.3341475412566979
 31
0.0
210
0.0
220
0.0
230
1.0
 40
0.9702875252
 41
5.512866274278662
 42
7.053504340080303
  0
ELLIPSE
  5
249
330
1F
100
AcDbEntity
  8
1
  6
SLD-Сплошная
100
AcDbEllipse
 10
448.1799823582
 20
1763.7902908182
 30
0.0
 11
0.2414427592460129
 21
-0.3341475412569253
 31
0.0
210
0.0
220
0.0
230
1.0
 40
0.9702875252
 41
5.512866274278985
 42
7.053504340080626
  0
ELLIPSE
  5
24A
330
1F
100
AcDbEntity
  8
1
  6
SLD-Сплошная
100
AcDbEllipse
 10
449.6730818058
 20
1763.5498116811
 30
0.0
 11
-0.3341475412566979
 21
-0.2414427592461834
 31
0.0
210
0.0
220
0.0
230
0.9999999999999999
 40
0.9702875252
 41
5.512866274278226
 42
7.053504340080392
  0
LINE
  5
24B
330
1F
100
AcDbEntity
  8
1
  6
SLD-Сплошная
100
AcDbLine
 10
448.6392844146
 20
1765.1467488802
 30
0.0
 11
448.7787679509
 21
1764.9537090025
 31
0.0
  0
LINE
  5
24C
330
1F
100
AcDbEntity
  8
1
  6
SLD-Сплошная
100
AcDbLine
 10
448.7787679509
 20
1764.9537090025
 30
0.0
 11
448.5790377108
 21
1763.7136134389
 31
0.0
  0
LINE
  5
24D
330
1F
100
AcDbEntity
  8
1
  6
SLD-Сплошная
100
AcDbLine
 10
449.6629015788
 20
1764.9818847295
 30
0.0
 11
449.4698617011
 21
1764.8424011931
 31
0.0
  0
LINE
  5
24E
330
1F
100
AcDbEntity
  8
1
  6
SLD-Сплошная
100
AcDbLine
 10
449.270131461
 20
1763.6023056295
 30
0.0
 11
449.4698617011
 21
1764.8424011931
 31
0.0
  0
LINE
  5
24F
330
1F
100
AcDbEntity
  8
1
  6
SLD-Сплошная
100
AcDbLine
 10
446.583045159
 20
1762.756493427
 30
0.0
 11
446.7760850367
 21
1762.8959769633
 31
0.0
  0
LINE
  5
250
330
1F
100
AcDbEntity
  8
1
  6
SLD-Сплошная
100
AcDbLine
 10
446.7760850367
 20
1762.8959769633
 30
0.0
 11
448.0161806003
 21
1762.6962467233
 31
0.0
  0
LINE
  5
251
330
1F
100
AcDbEntity
  8
1
  6
SLD-Сплошная
100
AcDbLine
 10
448.9733006123
 20
1760.7002541715
 30
0.0
 11
448.833817076
 21
1760.8932940491
 31
0.0
  0
LINE
  5
252
330
1F
100
AcDbEntity
  8
1
  6
SLD-Сплошная
100
AcDbLine
 10
448.833817076
 20
1760.8932940491
 30
0.0
 11
449.033547316
 21
1762.1333896128
 31
0.0
  0
LINE
  5
253
330
1F
100
AcDbEntity
  8
1
  6
SLD-Сплошная
100
AcDbLine
 10
446.7479093098
 20
1763.7801105912
 30
0.0
 11
446.8873928461
 21
1763.5870707135
 31
0.0
  0
LINE
  5
254
330
1F
100
AcDbEntity
  8
1
  6
SLD-Сплошная
100
AcDbLine
 10
448.1274884097
 20
1763.3873404735
 30
0.0
 11
446.8873928461
 21
1763.5870707135
 31
0.0
  0
LINE
  5
255
330
1F
100
AcDbEntity
  8
1
  6
SLD-Сплошная
100
AcDbLine
 10
447.9496834481
 20
1760.8651183222
 30
0.0
 11
448.1427233258
 21
1761.0046018585
 31
0.0
  0
LINE
  5
256
330
1F
100
AcDbEntity
  8
1
  6
SLD-Сплошная
100
AcDbLine
 10
448.3424535658
 20
1762.2446974222
 30
0.0
 11
448.1427233258
 21
1761.0046018585
 31
0.0
  0
LINE
  5
257
330
1F
100
AcDbEntity
  8
1
  6
SLD-Сплошная
100
AcDbLine
 10
451.0295398678
 20
1763.0905096247
 30
0.0
 11
450.8364999901
 21
1762.9510260884
 31
0.0
  0
LINE
  5
258
330
1F
100
AcDbEntity
  8
1
  6
SLD-Сплошная
100
AcDbLine
 10
450.8364999901
 20
1762.9510260884
 30
0.0
 11
449.5964044265
 21
1763.1507563284
 31
0.0
  0
LINE
  5
259
330
1F
100
AcDbEntity
  8
1
  6
SLD-Сплошная
100
AcDbLine
 10
450.8646757171
 20
1762.0668924605
 30
0.0
 11
450.7251921807
 21
1762.2599323382
 31
0.0
  0
LINE
  5
25A
330
1F
100
AcDbEntity
  8
1
  6
SLD-Сплошная
100
AcDbLine
 10
449.4850966171
 20
1762.4596625782
 30
0.0
 11
450.7251921807
 21
1762.2599323382
 31
0.0
  0
LINE
  5
25B
330
1F
100
AcDbEntity
  8
1
  6
SLD-Сплошная
100
AcDbLine
 10
450.7251921807
 20
1762.2599323382
 30
0.0
 11
450.8364999901
 21
1762.9510260884
 31
0.0
  0
LINE
  5
25C
330
1F
100
AcDbEntity
  8
1
  6
SLD-Сплошная
100
AcDbLine
 10
449.4698617011
 20
1764.8424011931
 30
0.0
 11
448.7787679509
 21
1764.9537090025
 31
0.0
  0
LINE
  5
25D
330
1F
100
AcDbEntity
  8
1
  6
SLD-Сплошная
100
AcDbLine
 10
446.8873928461
 20
1763.5870707135
 30
0.0
 11
446.7760850367
 21
1762.8959769633
 31
0.0
  0
LINE
  5
25E
330
1F
100
AcDbEntity
  8
1
  6
SLD-Сплошная
100
AcDbLine
 10
448.1427233258
 20
1761.0046018585
 30
0.0
 11
448.833817076
 21
1760.8932940491
 31
0.0
  0
CIRCLE
  5
25F
330
1F
100
AcDbEntity
  8
1
  6
SLD-Сплошная
100
AcDbCircle
 10
448.8062925134
 20
1762.9235015258
 30
0.0
 40
5.000000000000207
  0
ELLIPSE
  5
260
330
1F
100
AcDbEntity
  8
1
  6
SLD-Сплошная
100
AcDbEllipse
 10
866.3062925134
 20
1841.8541147446
 30
0.0
 11
0.0
 21
0.4122489361056978
 31
0.0
210
0.0
220
0.0
230
1.0
 40
0.9702875252
 41
5.51286627427842
 42
7.053504340081174
  0
SPLINE
  5
261
330
1F
100
AcDbEntity
  8
1
  6
SLD-Сплошная
100
AcDbSpline
210
0.0
220
0.0
230
1.0
 70
     8
 71
     3
 72
    12
 73
     8
 74
     0
 42
0.00000001
 43
0.00000001
 40
0.0
 40
0.0
 40
0.0
 40
0.0
 40
0.2187857887072148
 40
0.4375776469534852
 40
0.656235365886402
 40
0.8748419359491034
 40
1.0
 40
1.0
 40
1.0
 40
1.0
 10
866.5848382095633
 20
1841.810391032036
 30
0.0
 10
866.5495128126943
 20
1841.837354458108
 30
0.0
 10
866.478861038962
 20
1841.891282058269
 30
0.0
 10
866.3448978103208
 20
1841.923877947243
 30
0.0
 10
866.2093551840409
 20
1841.914528816
 30
0.0
 10
866.1004573797469
 20
1841.870650057919
 30
0.0
 10
866.0471536689412
 20
1841.826474499632
 30
0.0
 10
866.0277468173072
 20
1841.810391032036
 30
0.0
  0
ELLIPSE
  5
262
330
1F
100
AcDbEntity
  8
1
  6
SLD-Сплошная
100
AcDbEllipse
 10
867.3756792947
 20
1842.9235015258
 30
0.0
 11
-0.4122489361055841
 21
0.0
 31
0.0
210
0.0
220
0.0
230
1.0
 40
0.9702875252
 41
5.512866274279238
 42
7.053504340080355
  0
SPLINE
  5
263
330
1F
100
AcDbEntity
  8
1
  6
SLD-Сплошная
100
AcDbSpline
210
0.0
220
0.0
230
1.0
 70
     8
 71
     3
 72
    12
 73
     8
 74
     0
 42
0.00000001
 43
0.00000001
 40
0.0
 40
0.0
 40
0.0
 40
0.0
 40
0.2187857887072109
 40
0.4375776469534843
 40
0.6562353658863843
 40
0.8748419359490952
 40
0.9999999999999999
 40
0.9999999999999999
 40
0.9999999999999999
 40
0.9999999999999999
 10
867.4194030072475
 20
1843.202047221976
 30
0.0
 10
867.3924395811754
 20
1843.166721825107
 30
0.0
 10
867.3385119810139
 20
1843.096070051374
 30
0.0
 10
867.3059160920409
 20
1842.962106822734
 30
0.0
 10
867.315265223283
 20
1842.826564196454
 30
0.0
 10
867.3591439813648
 20
1842.71766639216
 30
0.0
 10
867.4033195396512
 20
1842.664362681354
 30
0.0
 10
867.4194030072475
 20
1842.64495582972
 30
0.0
  0
ELLIPSE
  5
264
330
1F
100
AcDbEntity
  8
1
  6
SLD-Сплошная
100
AcDbEllipse
 10
866.3062925134
 20
1843.9928883071
 30
0.0
 11
0.0
 21
-0.4122489361059252
 31
0.0
210
0.0
220
0.0
230
1.0
 40
0.9702875252
 41
5.512866274278405
 42
7.053504340080373
  0
SPLINE
  5
265
330
1F
100
AcDbEntity
  8
1
  6
SLD-Сплошная
100
AcDbSpline
210
0.0
220
0.0
230
1.0
 70
     8
 71
     3
 72
    12
 73
     8
 74
     0
 42
0.00000001
 43
0.00000001
 40
0.0
 40
0.0
 40
0.0
 40
0.0
 40
0.2187857887071772
 40
0.4375776469534897
 40
0.656235365886361
 40
0.8748419359491035
 40
1.0
 40
1.0
 40
1.0
 40
1.0
 10
866.0277468173072
 20
1844.03661201966
 30
0.0
 10
866.0630722141761
 20
1844.009648593588
 30
0.0
 10
866.1337239879085
 20
1843.955720993427
 30
0.0
 10
866.2676872165496
 20
1843.923125104454
 30
0.0
 10
866.4032298428297
 20
1843.932474235696
 30
0.0
 10
866.5121276471235
 20
1843.976352993777
 30
0.0
 10
866.5654313579294
 20
1844.020528552064
 30
0.0
 10
866.5848382095633
 20
1844.03661201966
 30
0.0
  0
ARC
  5
266
330
1F
100
AcDbEntity
  8
1
  6
SLD-Сплошная
100
AcDbCircle
 10
883.5515604948
 20
1860.1687695072
 30
0.0
 40
26.56195549619569
100
AcDbArc
 50
223.8816987744
 51
226.1183012256
  0
ARC
  5
267
330
1F
100
AcDbEntity
  8
1
  6
SLD-Сплошная
100
AcDbCircle
 10
850.0648782774
 20
1858.9365244996
 30
0.0
 40
23.41191191620637
100
AcDbArc
 50
310.0824770913
 51
312.9865596106
  0
ARC
  5
268
330
1F
100
AcDbEntity
  8
1
  6
SLD-Сплошная
100
AcDbCircle
 10
882.5477067495
 20
1858.9365244996
 30
0.0
 40
23.41191191620629
100
AcDbArc
 50
227.0134403894
 51
229.9175229087
  0
ARC
  5
269
330
1F
100
AcDbEntity
  8
1
  6
SLD-Сплошная
100
AcDbCircle
 10
849.0610245323
 20
1860.168769507
 30
0.0
 40
26.56195549600472
100
AcDbArc
 50
313.8816987744
 51
316.1183012256
  0
ARC
  5
26A
330
1F
100
AcDbEntity
  8
1
  6
SLD-Сплошная
100
AcDbCircle
 10
850.2932695395
 20
1826.6820872897
 30
0.0
 40
23.4119119163693
100
AcDbArc
 50
40.0824770913
 51
42.9865596106
  0
ARC
  5
26B
330
1F
100
AcDbEntity
  8
1
  6
SLD-Сплошная
100
AcDbCircle
 10
850.2932695393
 20
1859.1649157622
 30
0.0
 40
23.41191191669153
100
AcDbArc
 50
317.0134403895
 51
319.9175229087
  0
ARC
  5
26C
330
1F
100
AcDbEntity
  8
1
  6
SLD-Сплошная
100
AcDbCircle
 10
849.0610245326
 20
1825.678233545
 30
0.0
 40
26.56195549550029
100
AcDbArc
 50
43.8816987744
 51
46.1183012256
  0
ARC
  5
26D
330
1F
100
AcDbEntity
  8
1
  6
SLD-Сплошная
100
AcDbCircle
 10
882.5477067494
 20
1826.9104785522
 30
0.0
 40
23.41191191606335
100
AcDbArc
 50
130.0824770913
 51
132.9865596106
  0
ARC
  5
26E
330
1F
100
AcDbEntity
  8
1
  6
SLD-Сплошная
100
AcDbCircle
 10
850.0648782775
 20
1826.9104785522
 30
0.0
 40
23.41191191606335
100
AcDbArc
 50
47.0134403894
 51
49.9175229087
  0
ARC
  5
26F
330
1F
100
AcDbEntity
  8
1
  6
SLD-Сплошная
100
AcDbCircle
 10
883.5515604944
 20
1825.6782335449
 30
0.0
 40
26.56195549569086
100
AcDbArc
 50
133.8816987744
 51
136.1183012256
  0
ARC
  5
270
330
1F
100
AcDbEntity
  8
1
  6
SLD-Сплошная
100
AcDbCircle
 10
882.3193154876
 20
1859.1649157622
 30
0.0
 40
23.41191191669159
100
AcDbArc
 50
220.0824770913
 51
222.9865596105
  0
SPLINE
  5
271
330
1F
100
AcDbEntity
  8
1
  6
SLD-Сплошная
100
AcDbSpline
210
0.0
220
0.0
230
1.0
 70
     8
 71
     3
 72
    12
 73
     8
 74
     0
 42
0.00000001
 43
0.00000001
 40
0.0
 40
0.0
 40
0.0
 40
0.0
 40
0.218785788707198
 40
0.4375776469534773
 40
0.6562353658863889
 40
0.8748419359491113
 40
1.0
 40
1.0
 40
1.0
 40
1.0
 10
865.1931820196229
 20
1842.64495582972
 30
0.0
 10
865.220145445695
 20
1842.680281226589
 30
0.0
 10
865.2740730458565
 20
1842.750933000321
 30
0.0
 10
865.3066689348295
 20
1842.884896228962
 30
0.0
 10
865.2973198035875
 20
1843.020438855242
 30
0.0
 10
865.2534410455057
 20
1843.129336659536
 30
0.0
 10
865.2092654872192
 20
1843.182640370342
 30
0.0
 10
865.1931820196229
 20
1843.202047221976
 30
0.0
  0
ARC
  5
272
330
1F
100
AcDbEntity
  8
1
  6
SLD-Сплошная
100
AcDbCircle
 10
882.3193154874
 20
1826.6820872896
 30
0.0
 40
23.41191191648823
100
AcDbArc
 50
137.0134403894
 51
139.9175229087
  0
CIRCLE
  5
273
330
1F
100
AcDbEntity
  8
1
  6
SLD-Сплошная
100
AcDbCircle
 10
866.3062925134
 20
1842.9235015258
 30
0.0
 40
3.50000000000027
  0
ELLIPSE
  5
274
330
1F
100
AcDbEntity
  8
1
  6
SLD-Сплошная
100
AcDbEllipse
 10
865.2369057322
 20
1842.9235015258
 30
0.0
 11
0.4122489361056978
 21
0.0
 31
0.0
210
0.0
220
0.0
230
1.0
 40
0.9702875252
 41
5.512866274278693
 42
7.053504340080086
  0
LINE
  5
275
330
1F
100
AcDbEntity
  8
1
  6
SLD-Сплошная
100
AcDbLine
 10
868.2061531672
 20
1844.0902277148
 30
0.0
 11
867.9679934492
 21
1844.0902277148
 31
0.0
  0
LINE
  5
276
330
1F
100
AcDbEntity
  8
1
  6
SLD-Сплошная
100
AcDbLine
 10
867.0798129564
 20
1843.202047222
 30
0.0
 11
867.9679934492
 21
1844.0902277148
 31
0.0
  0
LINE
  5
277
330
1F
100
AcDbEntity
  8
1
  6
SLD-Сплошная
100
AcDbLine
 10
867.4730187024
 20
1844.8233621797
 30
0.0
 11
867.4730187024
 21
1844.5852024616
 31
0.0
  0
LINE
  5
278
330
1F
100
AcDbEntity
  8
1
  6
SLD-Сплошная
100
AcDbLine
 10
867.4730187024
 20
1844.5852024616
 30
0.0
 11
866.5848382096
 21
1843.6970219688
 31
0.0
  0
LINE
  5
279
330
1F
100
AcDbEntity
  8
1
  6
SLD-Сплошная
100
AcDbLine
 10
864.4064318596
 20
1841.7567753369
 30
0.0
 11
864.6445915776
 21
1841.7567753369
 31
0.0
  0
LINE
  5
27A
330
1F
100
AcDbEntity
  8
1
  6
SLD-Сплошная
100
AcDbLine
 10
865.5327720705
 20
1842.6449558297
 30
0.0
 11
864.6445915776
 21
1841.7567753369
 31
0.0
  0
LINE
  5
27B
330
1F
100
AcDbEntity
  8
1
  6
SLD-Сплошная
100
AcDbLine
 10
868.2061531672
 20
1841.7567753369
 30
0.0
 11
867.9679934492
 21
1841.7567753369
 31
0.0
  0
LINE
  5
27C
330
1F
100
AcDbEntity
  8
1
  6
SLD-Сплошная
100
AcDbLine
 10
867.9679934492
 20
1841.7567753369
 30
0.0
 11
867.0798129564
 21
1842.6449558297
 31
0.0
  0
LINE
  5
27D
330
1F
100
AcDbEntity
  8
1
  6
SLD-Сплошная
100
AcDbLine
 10
865.1395663245
 20
1841.023640872
 30
0.0
 11
865.1395663245
 21
1841.2618005901
 31
0.0
  0
LINE
  5
27E
330
1F
100
AcDbEntity
  8
1
  6
SLD-Сплошная
100
AcDbLine
 10
865.1395663245
 20
1841.2618005901
 30
0.0
 11
866.0277468173
 21
1842.1499810829
 31
0.0
  0
LINE
  5
27F
330
1F
100
AcDbEntity
  8
1
  6
SLD-Сплошная
100
AcDbLine
 10
864.4064318596
 20
1844.0902277148
 30
0.0
 11
864.6445915776
 21
1844.0902277148
 31
0.0
  0
LINE
  5
280
330
1F
100
AcDbEntity
  8
1
  6
SLD-Сплошная
100
AcDbLine
 10
864.6445915776
 20
1844.0902277148
 30
0.0
 11
865.5327720705
 21
1843.202047222
 31
0.0
  0
LINE
  5
281
330
1F
100
AcDbEntity
  8
1
  6
SLD-Сплошная
100
AcDbLine
 10
867.4730187024
 20
1841.023640872
 30
0.0
 11
867.4730187024
 21
1841.2618005901
 31
0.0
  0
LINE
  5
282
330
1F
100
AcDbEntity
  8
1
  6
SLD-Сплошная
100
AcDbLine
 10
866.5848382096
 20
1842.1499810829
 30
0.0
 11
867.4730187024
 21
1841.2618005901
 31
0.0
  0
LINE
  5
283
330
1F
100
AcDbEntity
  8
1
  6
SLD-Сплошная
100
AcDbLine
 10
865.1395663245
 20
1844.8233621797
 30
0.0
 11
865.1395663245
 21
1844.5852024616
 31
0.0
  0
LINE
  5
284
330
1F
100
AcDbEntity
  8
1
  6
SLD-Сплошная
100
AcDbLine
 10
866.0277468173
 20
1843.6970219688
 30
0.0
 11
865.1395663245
 21
1844.5852024616
 31
0.0
  0
LINE
  5
285
330
1F
100
AcDbEntity
  8
1
  6
SLD-Сплошная
100
AcDbLine
 10
867.9679934492
 20
1844.0902277148
 30
0.0
 11
867.4730187024
 21
1844.5852024616
 31
0.0
  0
LINE
  5
286
330
1F
100
AcDbEntity
  8
1
  6
SLD-Сплошная
100
AcDbLine
 10
867.4730187024
 20
1841.2618005901
 30
0.0
 11
867.9679934492
 21
1841.7567753369
 31
0.0
  0
LINE
  5
287
330
1F
100
AcDbEntity
  8
1
  6
SLD-Сплошная
100
AcDbLine
 10
865.1395663245
 20
1844.5852024616
 30
0.0
 11
864.6445915776
 21
1844.0902277148
 31
0.0
  0
LINE
  5
288
330
1F
100
AcDbEntity
  8
1
  6
SLD-Сплошная
100
AcDbLine
 10
864.6445915776
 20
1841.7567753369
 30
0.0
 11
865.1395663245
 21
1841.2618005901
 31
0.0
  0
CIRCLE
  5
289
330
1F
100
AcDbEntity
  8
1
  6
SLD-Сплошная
100
AcDbCircle
 10
866.3062925134
 20
1842.9235015258
 30
0.0
 40
5.000000000000121
  0
ELLIPSE
  5
28A
330
1F
100
AcDbEntity
  8
1
  6
SLD-Сплошная
100
AcDbEllipse
 10
448.8062925134
 20
1824.3541147446
 30
0.0
 11
0.0
 21
0.4122489361056978
 31
0.0
210
0.0
220
0.0
230
1.0
 40
0.9702875252
 41
5.51286627427843
 42
7.053504340080655
  0
SPLINE
  5
28B
330
1F
100
AcDbEntity
  8
1
  6
SLD-Сплошная
100
AcDbSpline
210
0.0
220
0.0
230
1.0
 70
     8
 71
     3
 72
    12
 73
     8
 74
     0
 42
0.00000001
 43
0.00000001
 40
0.0
 40
0.0
 40
0.0
 40
0.0
 40
0.2187857887072125
 40
0.4375776469534837
 40
0.6562353658864009
 40
0.874841935949103
 40
1.0
 40
1.0
 40
1.0
 40
1.0
 10
449.0848382095633
 20
1824.310391032036
 30
0.0
 10
449.0495128126943
 20
1824.337354458108
 30
0.0
 10
448.978861038962
 20
1824.391282058269
 30
0.0
 10
448.844897810321
 20
1824.423877947242
 30
0.0
 10
448.709355184041
 20
1824.414528816
 30
0.0
 10
448.600457379747
 20
1824.370650057918
 30
0.0
 10
448.5471536689412
 20
1824.326474499632
 30
0.0
 10
448.5277468173073
 20
1824.310391032036
 30
0.0
  0
ELLIPSE
  5
28C
330
1F
100
AcDbEntity
  8
1
  6
SLD-Сплошная
100
AcDbEllipse
 10
449.8756792947
 20
1825.4235015258
 30
0.0
 11
-0.4122489361056409
 21
0.0
 31
0.0
210
0.0
220
0.0
230
1.0
 40
0.9702875252
 41
5.512866274278382
 42
7.053504340080805
  0
SPLINE
  5
28D
330
1F
100
AcDbEntity
  8
1
  6
SLD-Сплошная
100
AcDbSpline
210
0.0
220
0.0
230
1.0
 70
     8
 71
     3
 72
    12
 73
     8
 74
     0
 42
0.00000001
 43
0.00000001
 40
0.0
 40
0.0
 40
0.0
 40
0.0
 40
0.2187857887072064
 40
0.4375776469534798
 40
0.6562353658863799
 40
0.8748419359490909
 40
1.0
 40
1.0
 40
1.0
 40
1.0
 10
449.9194030072475
 20
1825.702047221976
 30
0.0
 10
449.8924395811754
 20
1825.666721825107
 30
0.0
 10
449.8385119810139
 20
1825.596070051374
 30
0.0
 10
449.8059160920409
 20
1825.462106822733
 30
0.0
 10
449.8152652232828
 20
1825.326564196453
 30
0.0
 10
449.8591439813649
 20
1825.21766639216
 30
0.0
 10
449.9033195396514
 20
1825.164362681354
 30
0.0
 10
449.9194030072475
 20
1825.14495582972
 30
0.0
  0
ARC
  5
28E
330
1F
100
AcDbEntity
  8
1
  6
SLD-Сплошная
100
AcDbCircle
 10
466.0515604952
 20
1842.6687695076
 30
0.0
 40
26.56195549678245
100
AcDbArc
 50
223.8816987744
 51
226.1183012256
  0
ARC
  5
28F
330
1F
100
AcDbEntity
  8
1
  6
SLD-Сплошная
100
AcDbCircle
 10
432.5648782773
 20
1841.4365244997
 30
0.0
 40
23.41191191628771
100
AcDbArc
 50
310.0824770913
 51
312.9865596106
  0
ARC
  5
290
330
1F
100
AcDbEntity
  8
1
  6
SLD-Сплошная
100
AcDbCircle
 10
465.0477067495
 20
1841.4365244996
 30
0.0
 40
23.41191191622533
100
AcDbArc
 50
227.0134403894
 51
229.9175229087
  0
ARC
  5
291
330
1F
100
AcDbEntity
  8
1
  6
SLD-Сплошная
100
AcDbCircle
 10
431.5610245318
 20
1842.6687695075
 30
0.0
 40
26.56195549659494
100
AcDbArc
 50
313.8816987744
 51
316.1183012256
  0
ARC
  5
292
330
1F
100
AcDbEntity
  8
1
  6
SLD-Сплошная
100
AcDbCircle
 10
432.7932695398
 20
1809.1820872899
 30
0.0
 40
23.41191191598677
100
AcDbArc
 50
40.0824770913
 51
42.9865596106
  0
ARC
  5
293
330
1F
100
AcDbEntity
  8
1
  6
SLD-Сплошная
100
AcDbCircle
 10
432.7932695398
 20
1841.6649157618
 30
0.0
 40
23.41191191598647
100
AcDbArc
 50
317.0134403894
 51
319.9175229087
  0
ARC
  5
294
330
1F
100
AcDbEntity
  8
1
  6
SLD-Сплошная
100
AcDbCircle
 10
431.5610245323
 20
1808.1782335448
 30
0.0
 40
26.56195549586929
100
AcDbArc
 50
43.8816987744
 51
46.1183012256
  0
ARC
  5
295
330
1F
100
AcDbEntity
  8
1
  6
SLD-Сплошная
100
AcDbCircle
 10
465.0477067495
 20
1809.410478552
 30
0.0
 40
23.41191191626502
100
AcDbArc
 50
130.0824770913
 51
132.9865596106
  0
SPLINE
  5
296
330
1F
100
AcDbEntity
  8
1
  6
SLD-Сплошная
100
AcDbSpline
210
0.0
220
0.0
230
1.0
 70
     8
 71
     3
 72
    12
 73
     8
 74
     0
 42
0.00000001
 43
0.00000001
 40
0.0
 40
0.0
 40
0.0
 40
0.0
 40
0.2187857887071746
 40
0.4375776469534888
 40
0.6562353658863603
 40
0.8748419359491033
 40
1.0
 40
1.0
 40
1.0
 40
1.0
 10
448.5277468173072
 20
1826.53661201966
 30
0.0
 10
448.5630722141762
 20
1826.509648593588
 30
0.0
 10
448.6337239879086
 20
1826.455720993426
 30
0.0
 10
448.7676872165496
 20
1826.423125104453
 30
0.0
 10
448.9032298428297
 20
1826.432474235696
 30
0.0
 10
449.0121276471235
 20
1826.476352993777
 30
0.0
 10
449.0654313579294
 20
1826.520528552064
 30
0.0
 10
449.0848382095633
 20
1826.53661201966
 30
0.0
  0
ARC
  5
297
330
1F
100
AcDbEntity
  8
1
  6
SLD-Сплошная
100
AcDbCircle
 10
432.5648782774
 20
1809.4104785521
 30
0.0
 40
23.41191191624781
100
AcDbArc
 50
47.0134403894
 51
49.9175229087
  0
ARC
  5
298
330
1F
100
AcDbEntity
  8
1
  6
SLD-Сплошная
100
AcDbCircle
 10
466.0515604952
 20
1808.1782335441
 30
0.0
 40
26.56195549678262
100
AcDbArc
 50
133.8816987744
 51
136.1183012256
  0
ARC
  5
299
330
1F
100
AcDbEntity
  8
1
  6
SLD-Сплошная
100
AcDbCircle
 10
464.819315487
 20
1841.6649157617
 30
0.0
 40
23.41191191596745
100
AcDbArc
 50
220.0824770913
 51
222.9865596106
  0
SPLINE
  5
29A
330
1F
100
AcDbEntity
  8
1
  6
SLD-Сплошная
100
AcDbSpline
210
0.0
220
0.0
230
1.0
 70
     8
 71
     3
 72
    12
 73
     8
 74
     0
 42
0.00000001
 43
0.00000001
 40
0.0
 40
0.0
 40
0.0
 40
0.0
 40
0.2187857887071931
 40
0.4375776469534778
 40
0.6562353658863891
 40
0.8748419359491114
 40
1.0
 40
1.0
 40
1.0
 40
1.0
 10
447.6931820196231
 20
1825.14495582972
 30
0.0
 10
447.720145445695
 20
1825.180281226589
 30
0.0
 10
447.7740730458565
 20
1825.250933000321
 30
0.0
 10
447.8066689348297
 20
1825.384896228962
 30
0.0
 10
447.7973198035875
 20
1825.520438855242
 30
0.0
 10
447.7534410455057
 20
1825.629336659536
 30
0.0
 10
447.7092654872192
 20
1825.682640370342
 30
0.0
 10
447.6931820196231
 20
1825.702047221976
 30
0.0
  0
ARC
  5
29B
330
1F
100
AcDbEntity
  8
1
  6
SLD-Сплошная
100
AcDbCircle
 10
464.8193154871
 20
1809.1820872899
 30
0.0
 40
23.41191191601169
100
AcDbArc
 50
137.0134403894
 51
139.9175229087
  0
CIRCLE
  5
29C
330
1F
100
AcDbEntity
  8
1
  6
SLD-Сплошная
100
AcDbCircle
 10
448.8062925134
 20
1825.4235015258
 30
0.0
 40
3.499999999999948
  0
ELLIPSE
  5
29D
330
1F
100
AcDbEntity
  8
1
  6
SLD-Сплошная
100
AcDbEllipse
 10
447.7369057322
 20
1825.4235015258
 30
0.0
 11
0.4122489361056409
 21
0.0
 31
0.0
210
0.0
220
0.0
230
1.0
 40
0.9702875252
 41
5.512866274278382
 42
7.053504340080805
  0
ELLIPSE
  5
29E
330
1F
100
AcDbEntity
  8
1
  6
SLD-Сплошная
100
AcDbEllipse
 10
448.8062925134
 20
1826.4928883071
 30
0.0
 11
0.0
 21
-0.4122489361056978
 31
0.0
210
0.0
220
0.0
230
1.0
 40
0.9702875252
 41
5.51286627427846
 42
7.053504340080828
  0
LINE
  5
29F
330
1F
100
AcDbEntity
  8
1
  6
SLD-Сплошная
100
AcDbLine
 10
449.9730187024
 20
1827.3233621797
 30
0.0
 11
449.9730187024
 21
1827.0852024616
 31
0.0
  0
LINE
  5
2A0
330
1F
100
AcDbEntity
  8
1
  6
SLD-Сплошная
100
AcDbLine
 10
449.9730187024
 20
1827.0852024616
 30
0.0
 11
449.0848382096
 21
1826.1970219688
 31
0.0
  0
LINE
  5
2A1
330
1F
100
AcDbEntity
  8
1
  6
SLD-Сплошная
100
AcDbLine
 10
450.7061531672
 20
1826.5902277148
 30
0.0
 11
450.4679934492
 21
1826.5902277148
 31
0.0
  0
LINE
  5
2A2
330
1F
100
AcDbEntity
  8
1
  6
SLD-Сплошная
100
AcDbLine
 10
449.5798129564
 20
1825.702047222
 30
0.0
 11
450.4679934492
 21
1826.5902277148
 31
0.0
  0
LINE
  5
2A3
330
1F
100
AcDbEntity
  8
1
  6
SLD-Сплошная
100
AcDbLine
 10
450.7061531672
 20
1824.2567753369
 30
0.0
 11
450.4679934492
 21
1824.2567753369
 31
0.0
  0
LINE
  5
2A4
330
1F
100
AcDbEntity
  8
1
  6
SLD-Сплошная
100
AcDbLine
 10
450.4679934492
 20
1824.2567753369
 30
0.0
 11
449.5798129564
 21
1825.1449558297
 31
0.0
  0
LINE
  5
2A5
330
1F
100
AcDbEntity
  8
1
  6
SLD-Сплошная
100
AcDbLine
 10
446.9064318596
 20
1824.2567753369
 30
0.0
 11
447.1445915776
 21
1824.2567753369
 31
0.0
  0
LINE
  5
2A6
330
1F
100
AcDbEntity
  8
1
  6
SLD-Сплошная
100
AcDbLine
 10
448.0327720705
 20
1825.1449558297
 30
0.0
 11
447.1445915776
 21
1824.2567753369
 31
0.0
  0
LINE
  5
2A7
330
1F
100
AcDbEntity
  8
1
  6
SLD-Сплошная
100
AcDbLine
 10
447.6395663245
 20
1827.3233621797
 30
0.0
 11
447.6395663245
 21
1827.0852024616
 31
0.0
  0
LINE
  5
2A8
330
1F
100
AcDbEntity
  8
1
  6
SLD-Сплошная
100
AcDbLine
 10
448.5277468173
 20
1826.1970219688
 30
0.0
 11
447.6395663245
 21
1827.0852024616
 31
0.0
  0
LINE
  5
2A9
330
1F
100
AcDbEntity
  8
1
  6
SLD-Сплошная
100
AcDbLine
 10
446.9064318596
 20
1826.5902277148
 30
0.0
 11
447.1445915776
 21
1826.5902277148
 31
0.0
  0
LINE
  5
2AA
330
1F
100
AcDbEntity
  8
1
  6
SLD-Сплошная
100
AcDbLine
 10
447.1445915776
 20
1826.5902277148
 30
0.0
 11
448.0327720705
 21
1825.702047222
 31
0.0
  0
LINE
  5
2AB
330
1F
100
AcDbEntity
  8
1
  6
SLD-Сплошная
100
AcDbLine
 10
449.9730187024
 20
1823.523640872
 30
0.0
 11
449.9730187024
 21
1823.7618005901
 31
0.0
  0
LINE
  5
2AC
330
1F
100
AcDbEntity
  8
1
  6
SLD-Сплошная
100
AcDbLine
 10
449.0848382096
 20
1824.6499810829
 30
0.0
 11
449.9730187024
 21
1823.7618005901
 31
0.0
  0
LINE
  5
2AD
330
1F
100
AcDbEntity
  8
1
  6
SLD-Сплошная
100
AcDbLine
 10
447.6395663245
 20
1823.523640872
 30
0.0
 11
447.6395663245
 21
1823.7618005901
 31
0.0
  0
LINE
  5
2AE
330
1F
100
AcDbEntity
  8
1
  6
SLD-Сплошная
100
AcDbLine
 10
447.6395663245
 20
1823.7618005901
 30
0.0
 11
448.5277468173
 21
1824.6499810829
 31
0.0
  0
LINE
  5
2AF
330
1F
100
AcDbEntity
  8
1
  6
SLD-Сплошная
100
AcDbLine
 10
450.4679934492
 20
1826.5902277148
 30
0.0
 11
449.9730187024
 21
1827.0852024616
 31
0.0
  0
LINE
  5
2B0
330
1F
100
AcDbEntity
  8
1
  6
SLD-Сплошная
100
AcDbLine
 10
449.9730187024
 20
1823.7618005901
 30
0.0
 11
450.4679934492
 21
1824.2567753369
 31
0.0
  0
LINE
  5
2B1
330
1F
100
AcDbEntity
  8
1
  6
SLD-Сплошная
100
AcDbLine
 10
447.6395663245
 20
1827.0852024616
 30
0.0
 11
447.1445915776
 21
1826.5902277148
 31
0.0
  0
LINE
  5
2B2
330
1F
100
AcDbEntity
  8
1
  6
SLD-Сплошная
100
AcDbLine
 10
447.1445915776
 20
1824.2567753369
 30
0.0
 11
447.6395663245
 21
1823.7618005901
 31
0.0
  0
CIRCLE
  5
2B3
330
1F
100
AcDbEntity
  8
1
  6
SLD-Сплошная
100
AcDbCircle
 10
448.8062925134
 20
1825.4235015258
 30
0.0
 40
4.99999999999992
  0
ELLIPSE
  5
2B4
330
1F
100
AcDbEntity
  8
1
  6
SLD-Сплошная
100
AcDbEllipse
 10
867.3756792947
 20
1682.9235015258
 30
0.0
 11
-0.4122489361055841
 21
0.0
 31
0.0
210
0.0
220
0.0
230
1.0
 40
0.9702875252
 41
5.512866274278355
 42
7.053504340080831
  0
SPLINE
  5
2B5
330
1F
100
AcDbEntity
  8
1
  6
SLD-Сплошная
100
AcDbSpline
210
0.0
220
0.0
230
1.0
 70
     8
 71
     3
 72
    12
 73
     8
 74
     0
 42
0.00000001
 43
0.00000001
 40
0.0
 40
0.0
 40
0.0
 40
0.0
 40
0.2187857887071872
 40
0.4375776469534928
 40
0.6562353658863584
 40
0.8748419359491
 40
1.0
 40
1.0
 40
1.0
 40
1.0
 10
867.4194030072475
 20
1683.202047221963
 30
0.0
 10
867.3924395811754
 20
1683.166721825094
 30
0.0
 10
867.3385119810139
 20
1683.096070051362
 30
0.0
 10
867.305916092041
 20
1682.96210682272
 30
0.0
 10
867.315265223283
 20
1682.826564196441
 30
0.0
 10
867.3591439813648
 20
1682.717666392147
 30
0.0
 10
867.4033195396513
 20
1682.664362681341
 30
0.0
 10
867.4194030072475
 20
1682.644955829707
 30
0.0
  0
ARC
  5
2B6
330
1F
100
AcDbEntity
  8
1
  6
SLD-Сплошная
100
AcDbCircle
 10
849.061024531
 20
1700.1687695082
 30
0.0
 40
26.56195549770148
100
AcDbArc
 50
313.8816987745
 51
316.1183012255
  0
ARC
  5
2B7
330
1F
100
AcDbEntity
  8
1
  6
SLD-Сплошная
100
AcDbCircle
 10
850.2932695395
 20
1666.6820872896
 30
0.0
 40
23.41191191641959
100
AcDbArc
 50
40.0824770913
 51
42.9865596106
  0
ARC
  5
2B8
330
1F
100
AcDbEntity
  8
1
  6
SLD-Сплошная
100
AcDbCircle
 10
850.2932695397
 20
1699.1649157619
 30
0.0
 40
23.41191191621645
100
AcDbArc
 50
317.0134403894
 51
319.9175229087
  0
ARC
  5
2B9
330
1F
100
AcDbEntity
  8
1
  6
SLD-Сплошная
100
AcDbCircle
 10
849.0610245319
 20
1665.6782335443
 30
0.0
 40
26.56195549651275
100
AcDbArc
 50
43.8816987744
 51
46.1183012256
  0
ARC
  5
2BA
330
1F
100
AcDbEntity
  8
1
  6
SLD-Сплошная
100
AcDbCircle
 10
882.5477067492
 20
1666.9104785524
 30
0.0
 40
23.41191191573369
100
AcDbArc
 50
130.0824770913
 51
132.9865596106
  0
SPLINE
  5
2BB
330
1F
100
AcDbEntity
  8
1
  6
SLD-Сплошная
100
AcDbSpline
210
0.0
220
0.0
230
1.0
 70
     8
 71
     3
 72
    12
 73
     8
 74
     0
 42
0.00000001
 43
0.00000001
 40
0.0
 40
0.0
 40
0.0
 40
0.0
 40
0.2187857887071718
 40
0.4375776469534864
 40
0.6562353658863612
 40
0.8748419359490948
 40
1.0
 40
1.0
 40
1.0
 40
1.0
 10
866.0277468173072
 20
1684.036612019647
 30
0.0
 10
866.0630722141763
 20
1684.009648593575
 30
0.0
 10
866.1337239879085
 20
1683.955720993414
 30
0.0
 10
866.2676872165496
 20
1683.923125104441
 30
0.0
 10
866.4032298428297
 20
1683.932474235683
 30
0.0
 10
866.5121276471235
 20
1683.976352993765
 30
0.0
 10
866.5654313579294
 20
1684.020528552051
 30
0.0
 10
866.5848382095634
 20
1684.036612019647
 30
0.0
  0
ARC
  5
2BC
330
1F
100
AcDbEntity
  8
1
  6
SLD-Сплошная
100
AcDbCircle
 10
850.0648782775
 20
1666.9104785522
 30
0.0
 40
23.41191191607067
100
AcDbArc
 50
47.0134403894
 51
49.9175229087
  0
ARC
  5
2BD
330
1F
100
AcDbEntity
  8
1
  6
SLD-Сплошная
100
AcDbCircle
 10
883.5515604952
 20
1665.6782335441
 30
0.0
 40
26.56195549677899
100
AcDbArc
 50
133.8816987744
 51
136.1183012256
  0
ARC
  5
2BE
330
1F
100
AcDbEntity
  8
1
  6
SLD-Сплошная
100
AcDbCircle
 10
882.3193154871
 20
1699.1649157618
 30
0.0
 40
23.41191191605114
100
AcDbArc
 50
220.0824770913
 51
222.9865596106
  0
SPLINE
  5
2BF
330
1F
100
AcDbEntity
  8
1
  6
SLD-Сплошная
100
AcDbSpline
210
0.0
220
0.0
230
1.0
 70
     8
 71
     3
 72
    12
 73
     8
 74
     0
 42
0.00000001
 43
0.00000001
 40
0.0
 40
0.0
 40
0.0
 40
0.0
 40
0.2187857887072096
 40
0.4375776469534813
 40
0.6562353658864019
 40
0.8748419359490944
 40
1.0
 40
1.0
 40
1.0
 40
1.0
 10
865.193182019623
 20
1682.644955829707
 30
0.0
 10
865.2201454456952
 20
1682.680281226576
 30
0.0
 10
865.2740730458565
 20
1682.750933000308
 30
0.0
 10
865.3066689348296
 20
1682.884896228949
 30
0.0
 10
865.2973198035876
 20
1683.020438855229
 30
0.0
 10
865.2534410455057
 20
1683.129336659523
 30
0.0
 10
865.2092654872192
 20
1683.182640370329
 30
0.0
 10
865.193182019623
 20
1683.202047221963
 30
0.0
  0
ARC
  5
2C0
330
1F
100
AcDbEntity
  8
1
  6
SLD-Сплошная
100
AcDbCircle
 10
882.3193154872
 20
1666.6820872898
 30
0.0
 40
23.41191191625443
100
AcDbArc
 50
137.0134403894
 51
139.9175229087
  0
ARC
  5
2C1
330
1F
100
AcDbEntity
  8
1
  6
SLD-Сплошная
100
AcDbCircle
 10
883.5515604954
 20
1700.1687695078
 30
0.0
 40
26.56195549711391
100
AcDbArc
 50
223.8816987744
 51
226.1183012255
  0
ARC
  5
2C2
330
1F
100
AcDbEntity
  8
1
  6
SLD-Сплошная
100
AcDbCircle
 10
850.0648782772
 20
1698.9365244997
 30
0.0
 40
23.41191191640443
100
AcDbArc
 50
310.0824770913
 51
312.9865596106
  0
SPLINE
  5
2C3
330
1F
100
AcDbEntity
  8
1
  6
SLD-Сплошная
100
AcDbSpline
210
0.0
220
0.0
230
1.0
 70
     8
 71
     3
 72
    12
 73
     8
 74
     0
 42
0.00000001
 43
0.00000001
 40
0.0
 40
0.0
 40
0.0
 40
0.0
 40
0.218785788707225
 40
0.4375776469534876
 40
0.656235365886399
 40
0.8748419359490996
 40
1.0
 40
1.0
 40
1.0
 40
1.0
 10
866.5848382095634
 20
1681.810391032023
 30
0.0
 10
866.5495128126943
 20
1681.837354458095
 30
0.0
 10
866.478861038962
 20
1681.891282058256
 30
0.0
 10
866.3448978103208
 20
1681.923877947229
 30
0.0
 10
866.209355184041
 20
1681.914528815987
 30
0.0
 10
866.1004573797469
 20
1681.870650057906
 30
0.0
 10
866.0471536689412
 20
1681.826474499619
 30
0.0
 10
866.0277468173072
 20
1681.810391032023
 30
0.0
  0
ARC
  5
2C4
330
1F
100
AcDbEntity
  8
1
  6
SLD-Сплошная
100
AcDbCircle
 10
882.5477067496
 20
1698.9365244997
 30
0.0
 40
23.41191191630378
100
AcDbArc
 50
227.0134403894
 51
229.9175229087
  0
CIRCLE
  5
2C5
330
1F
100
AcDbEntity
  8
1
  6
SLD-Сплошная
100
AcDbCircle
 10
866.3062925134
 20
1682.9235015258
 30
0.0
 40
3.499999999999948
  0
ELLIPSE
  5
2C6
330
1F
100
AcDbEntity
  8
1
  6
SLD-Сплошная
100
AcDbEllipse
 10
866.3062925134
 20
1683.9928883071
 30
0.0
 11
0.0
 21
-0.4122489361056978
 31
0.0
210
0.0
220
0.0
230
1.0
 40
0.9702875252
 41
5.512866274278154
 42
7.053504340080828
  0
ELLIPSE
  5
2C7
330
1F
100
AcDbEntity
  8
1
  6
SLD-Сплошная
100
AcDbEllipse
 10
865.2369057322
 20
1682.9235015258
 30
0.0
 11
0.4122489361055841
 21
0.0
 31
0.0
210
0.0
220
0.0
230
1.0
 40
0.9702875252
 41
5.512866274278355
 42
7.053504340080831
  0
ELLIPSE
  5
2C8
330
1F
100
AcDbEntity
  8
1
  6
SLD-Сплошная
100
AcDbEllipse
 10
866.3062925134
 20
1681.8541147446
 30
0.0
 11
0.0
 21
0.4122489361056978
 31
0.0
210
0.0
220
0.0
230
1.0
 40
0.9702875252
 41
5.512866274278217
 42
7.053504340081174
  0
LINE
  5
2C9
330
1F
100
AcDbEntity
  8
1
  6
SLD-Сплошная
100
AcDbLine
 10
867.4730187024
 20
1681.023640872
 30
0.0
 11
867.4730187024
 21
1681.26180059
 31
0.0
  0
LINE
  5
2CA
330
1F
100
AcDbEntity
  8
1
  6
SLD-Сплошная
100
AcDbLine
 10
866.5848382096
 20
1682.1499810829
 30
0.0
 11
867.4730187024
 21
1681.26180059
 31
0.0
  0
LINE
  5
2CB
330
1F
100
AcDbEntity
  8
1
  6
SLD-Сплошная
100
AcDbLine
 10
868.2061531672
 20
1681.7567753369
 30
0.0
 11
867.9679934492
 21
1681.7567753369
 31
0.0
  0
LINE
  5
2CC
330
1F
100
AcDbEntity
  8
1
  6
SLD-Сплошная
100
AcDbLine
 10
867.9679934492
 20
1681.7567753369
 30
0.0
 11
867.0798129564
 21
1682.6449558297
 31
0.0
  0
LINE
  5
2CD
330
1F
100
AcDbEntity
  8
1
  6
SLD-Сплошная
100
AcDbLine
 10
865.1395663245
 20
1681.023640872
 30
0.0
 11
865.1395663245
 21
1681.26180059
 31
0.0
  0
LINE
  5
2CE
330
1F
100
AcDbEntity
  8
1
  6
SLD-Сплошная
100
AcDbLine
 10
865.1395663245
 20
1681.26180059
 30
0.0
 11
866.0277468173
 21
1682.1499810829
 31
0.0
  0
LINE
  5
2CF
330
1F
100
AcDbEntity
  8
1
  6
SLD-Сплошная
100
AcDbLine
 10
864.4064318596
 20
1684.0902277148
 30
0.0
 11
864.6445915776
 21
1684.0902277148
 31
0.0
  0
LINE
  5
2D0
330
1F
100
AcDbEntity
  8
1
  6
SLD-Сплошная
100
AcDbLine
 10
864.6445915776
 20
1684.0902277148
 30
0.0
 11
865.5327720705
 21
1683.202047222
 31
0.0
  0
LINE
  5
2D1
330
1F
100
AcDbEntity
  8
1
  6
SLD-Сплошная
100
AcDbLine
 10
865.1395663245
 20
1684.8233621796
 30
0.0
 11
865.1395663245
 21
1684.5852024616
 31
0.0
  0
LINE
  5
2D2
330
1F
100
AcDbEntity
  8
1
  6
SLD-Сплошная
100
AcDbLine
 10
866.0277468173
 20
1683.6970219688
 30
0.0
 11
865.1395663245
 21
1684.5852024616
 31
0.0
  0
LINE
  5
2D3
330
1F
100
AcDbEntity
  8
1
  6
SLD-Сплошная
100
AcDbLine
 10
864.4064318596
 20
1681.7567753369
 30
0.0
 11
864.6445915776
 21
1681.7567753369
 31
0.0
  0
LINE
  5
2D4
330
1F
100
AcDbEntity
  8
1
  6
SLD-Сплошная
100
AcDbLine
 10
865.5327720705
 20
1682.6449558297
 30
0.0
 11
864.6445915776
 21
1681.7567753369
 31
0.0
  0
LINE
  5
2D5
330
1F
100
AcDbEntity
  8
1
  6
SLD-Сплошная
100
AcDbLine
 10
867.4730187024
 20
1684.8233621796
 30
0.0
 11
867.4730187024
 21
1684.5852024616
 31
0.0
  0
LINE
  5
2D6
330
1F
100
AcDbEntity
  8
1
  6
SLD-Сплошная
100
AcDbLine
 10
867.4730187024
 20
1684.5852024616
 30
0.0
 11
866.5848382096
 21
1683.6970219688
 31
0.0
  0
LINE
  5
2D7
330
1F
100
AcDbEntity
  8
1
  6
SLD-Сплошная
100
AcDbLine
 10
868.2061531672
 20
1684.0902277148
 30
0.0
 11
867.9679934492
 21
1684.0902277148
 31
0.0
  0
LINE
  5
2D8
330
1F
100
AcDbEntity
  8
1
  6
SLD-Сплошная
100
AcDbLine
 10
867.0798129564
 20
1683.202047222
 30
0.0
 11
867.9679934492
 21
1684.0902277148
 31
0.0
  0
LINE
  5
2D9
330
1F
100
AcDbEntity
  8
1
  6
SLD-Сплошная
100
AcDbLine
 10
867.4730187024
 20
1681.26180059
 30
0.0
 11
867.9679934492
 21
1681.7567753369
 31
0.0
  0
LINE
  5
2DA
330
1F
100
AcDbEntity
  8
1
  6
SLD-Сплошная
100
AcDbLine
 10
864.6445915776
 20
1681.7567753369
 30
0.0
 11
865.1395663245
 21
1681.26180059
 31
0.0
  0
LINE
  5
2DB
330
1F
100
AcDbEntity
  8
1
  6
SLD-Сплошная
100
AcDbLine
 10
867.9679934492
 20
1684.0902277148
 30
0.0
 11
867.4730187024
 21
1684.5852024616
 31
0.0
  0
LINE
  5
2DC
330
1F
100
AcDbEntity
  8
1
  6
SLD-Сплошная
100
AcDbLine
 10
865.1395663245
 20
1684.5852024616
 30
0.0
 11
864.6445915776
 21
1684.0902277148
 31
0.0
  0
CIRCLE
  5
2DD
330
1F
100
AcDbEntity
  8
1
  6
SLD-Сплошная
100
AcDbCircle
 10
866.3062925134
 20
1682.9235015258
 30
0.0
 40
5.000000000000041
  0
ELLIPSE
  5
2DE
330
1F
100
AcDbEntity
  8
1
  6
SLD-Сплошная
100
AcDbEllipse
 10
883.8062925134
 20
1699.3541147446
 30
0.0
 11
0.0
 21
0.4122489361054704
 31
0.0
210
0.0
220
0.0
230
1.0
 40
0.9702875252
 41
5.512866274278454
 42
7.053504340080936
  0
SPLINE
  5
2DF
330
1F
100
AcDbEntity
  8
1
  6
SLD-Сплошная
100
AcDbSpline
210
0.0
220
0.0
230
1.0
 70
     8
 71
     3
 72
    12
 73
     8
 74
     0
 42
0.00000001
 43
0.00000001
 40
0.0
 40
0.0
 40
0.0
 40
0.0
 40
0.218785788707225
 40
0.4375776469534876
 40
0.656235365886399
 40
0.8748419359490996
 40
1.0
 40
1.0
 40
1.0
 40
1.0
 10
884.0848382095633
 20
1699.310391032023
 30
0.0
 10
884.0495128126944
 20
1699.337354458095
 30
0.0
 10
883.9788610389619
 20
1699.391282058256
 30
0.0
 10
883.8448978103208
 20
1699.42387794723
 30
0.0
 10
883.7093551840409
 20
1699.414528815988
 30
0.0
 10
883.600457379747
 20
1699.370650057906
 30
0.0
 10
883.5471536689411
 20
1699.326474499619
 30
0.0
 10
883.5277468173073
 20
1699.310391032023
 30
0.0
  0
ELLIPSE
  5
2E0
330
1F
100
AcDbEntity
  8
1
  6
SLD-Сплошная
100
AcDbEllipse
 10
883.8062925134
 20
1701.4928883071
 30
0.0
 11
0.0
 21
-0.4122489361056978
 31
0.0
210
0.0
220
0.0
230
1.0
 40
0.9702875252
 41
5.512866274278501
 42
7.053504340080481
  0
SPLINE
  5
2E1
330
1F
100
AcDbEntity
  8
1
  6
SLD-Сплошная
100
AcDbSpline
210
0.0
220
0.0
230
1.0
 70
     8
 71
     3
 72
    12
 73
     8
 74
     0
 42
0.00000001
 43
0.00000001
 40
0.0
 40
0.0
 40
0.0
 40
0.0
 40
0.2187857887071718
 40
0.4375776469534864
 40
0.6562353658863612
 40
0.8748419359490948
 40
1.0
 40
1.0
 40
1.0
 40
1.0
 10
883.5277468173073
 20
1701.536612019647
 30
0.0
 10
883.5630722141763
 20
1701.509648593575
 30
0.0
 10
883.6337239879086
 20
1701.455720993414
 30
0.0
 10
883.7676872165497
 20
1701.423125104441
 30
0.0
 10
883.9032298428297
 20
1701.432474235683
 30
0.0
 10
884.0121276471235
 20
1701.476352993765
 30
0.0
 10
884.0654313579295
 20
1701.520528552051
 30
0.0
 10
884.0848382095633
 20
1701.536612019647
 30
0.0
  0
ARC
  5
2E2
330
1F
100
AcDbEntity
  8
1
  6
SLD-Сплошная
100
AcDbCircle
 10
866.5610245322
 20
1717.6687695071
 30
0.0
 40
26.56195549607927
100
AcDbArc
 50
313.8816987744
 51
316.1183012256
  0
ARC
  5
2E3
330
1F
100
AcDbEntity
  8
1
  6
SLD-Сплошная
100
AcDbCircle
 10
867.7932695397
 20
1684.1820872898
 30
0.0
 40
23.41191191611099
100
AcDbArc
 50
40.0824770913
 51
42.9865596106
  0
SPLINE
  5
2E4
330
1F
100
AcDbEntity
  8
1
  6
SLD-Сплошная
100
AcDbSpline
210
0.0
220
0.0
230
1.0
 70
     8
 71
     3
 72
    12
 73
     8
 74
     0
 42
0.00000001
 43
0.00000001
 40
0.0
 40
0.0
 40
0.0
 40
0.0
 40
0.2187857887071872
 40
0.4375776469534928
 40
0.6562353658863584
 40
0.8748419359491
 40
1.0
 40
1.0
 40
1.0
 40
1.0
 10
884.9194030072476
 20
1700.702047221963
 30
0.0
 10
884.8924395811755
 20
1700.666721825094
 30
0.0
 10
884.8385119810138
 20
1700.596070051362
 30
0.0
 10
884.805916092041
 20
1700.462106822721
 30
0.0
 10
884.815265223283
 20
1700.326564196441
 30
0.0
 10
884.8591439813649
 20
1700.217666392147
 30
0.0
 10
884.9033195396513
 20
1700.164362681341
 30
0.0
 10
884.9194030072476
 20
1700.144955829707
 30
0.0
  0
ARC
  5
2E5
330
1F
100
AcDbEntity
  8
1
  6
SLD-Сплошная
100
AcDbCircle
 10
867.7932695397
 20
1716.6649157619
 30
0.0
 40
23.41191191620337
100
AcDbArc
 50
317.0134403894
 51
319.9175229087
  0
ARC
  5
2E6
330
1F
100
AcDbEntity
  8
1
  6
SLD-Сплошная
100
AcDbCircle
 10
866.5610245323
 20
1683.1782335447
 30
0.0
 40
26.56195549593323
100
AcDbArc
 50
43.8816987744
 51
46.1183012256
  0
ARC
  5
2E7
330
1F
100
AcDbEntity
  8
1
  6
SLD-Сплошная
100
AcDbCircle
 10
900.0477067493
 20
1684.4104785522
 30
0.0
 40
23.41191191597807
100
AcDbArc
 50
130.0824770913
 51
132.9865596106
  0
ARC
  5
2E8
330
1F
100
AcDbEntity
  8
1
  6
SLD-Сплошная
100
AcDbCircle
 10
867.5648782773
 20
1684.410478552
 30
0.0
 40
23.41191191626553
100
AcDbArc
 50
47.0134403894
 51
49.9175229087
  0
ARC
  5
2E9
330
1F
100
AcDbEntity
  8
1
  6
SLD-Сплошная
100
AcDbCircle
 10
901.0515604953
 20
1683.178233544
 30
0.0
 40
26.56195549698564
100
AcDbArc
 50
133.8816987744
 51
136.1183012256
  0
ARC
  5
2EA
330
1F
100
AcDbEntity
  8
1
  6
SLD-Сплошная
100
AcDbCircle
 10
899.8193154874
 20
1716.664915762
 30
0.0
 40
23.41191191642367
100
AcDbArc
 50
220.0824770913
 51
222.9865596106
  0
SPLINE
  5
2EB
330
1F
100
AcDbEntity
  8
1
  6
SLD-Сплошная
100
AcDbSpline
210
0.0
220
0.0
230
1.0
 70
     8
 71
     3
 72
    12
 73
     8
 74
     0
 42
0.00000001
 43
0.00000001
 40
0.0
 40
0.0
 40
0.0
 40
0.0
 40
0.2187857887072096
 40
0.4375776469534813
 40
0.6562353658864019
 40
0.8748419359490944
 40
1.0
 40
1.0
 40
1.0
 40
1.0
 10
882.6931820196231
 20
1700.144955829707
 30
0.0
 10
882.7201454456952
 20
1700.180281226576
 30
0.0
 10
882.7740730458567
 20
1700.250933000308
 30
0.0
 10
882.8066689348298
 20
1700.384896228949
 30
0.0
 10
882.7973198035876
 20
1700.520438855229
 30
0.0
 10
882.7534410455058
 20
1700.629336659523
 30
0.0
 10
882.7092654872193
 20
1700.682640370329
 30
0.0
 10
882.693182019623
 20
1700.702047221963
 30
0.0
  0
ARC
  5
2EC
330
1F
100
AcDbEntity
  8
1
  6
SLD-Сплошная
100
AcDbCircle
 10
899.8193154873
 20
1684.1820872897
 30
0.0
 40
23.4119119163313
100
AcDbArc
 50
137.0134403894
 51
139.9175229087
  0
ARC
  5
2ED
330
1F
100
AcDbEntity
  8
1
  6
SLD-Сплошная
100
AcDbCircle
 10
901.0515604948
 20
1717.6687695072
 30
0.0
 40
26.56195549627618
100
AcDbArc
 50
223.8816987744
 51
226.1183012256
  0
ARC
  5
2EE
330
1F
100
AcDbEntity
  8
1
  6
SLD-Сплошная
100
AcDbCircle
 10
867.5648782774
 20
1716.4365244996
 30
0.0
 40
23.41191191617034
100
AcDbArc
 50
310.0824770913
 51
312.9865596106
  0
ARC
  5
2EF
330
1F
100
AcDbEntity
  8
1
  6
SLD-Сплошная
100
AcDbCircle
 10
900.0477067495
 20
1716.4365244996
 30
0.0
 40
23.41191191621636
100
AcDbArc
 50
227.0134403894
 51
229.9175229087
  0
CIRCLE
  5
2F0
330
1F
100
AcDbEntity
  8
1
  6
SLD-Сплошная
100
AcDbCircle
 10
883.8062925134
 20
1700.4235015258
 30
0.0
 40
3.499999999999948
  0
ELLIPSE
  5
2F1
330
1F
100
AcDbEntity
  8
1
  6
SLD-Сплошная
100
AcDbEllipse
 10
882.7369057322
 20
1700.4235015258
 30
0.0
 11
0.4122489361056978
 21
0.0
 31
0.0
210
0.0
220
0.0
230
1.0
 40
0.9702875252
 41
5.512866274278217
 42
7.05350434008097
  0
ELLIPSE
  5
2F2
330
1F
100
AcDbEntity
  8
1
  6
SLD-Сплошная
100
AcDbEllipse
 10
884.8756792947
 20
1700.4235015258
 30
0.0
 11
-0.4122489361055841
 21
0.0
 31
0.0
210
0.0
220
0.0
230
1.0
 40
0.9702875252
 41
5.512866274278831
 42
7.053504340080355
  0
LINE
  5
2F3
330
1F
100
AcDbEntity
  8
1
  6
SLD-Сплошная
100
AcDbLine
 10
885.7061531672
 20
1699.2567753369
 30
0.0
 11
885.4679934492
 21
1699.2567753369
 31
0.0
  0
LINE
  5
2F4
330
1F
100
AcDbEntity
  8
1
  6
SLD-Сплошная
100
AcDbLine
 10
885.4679934492
 20
1699.2567753369
 30
0.0
 11
884.5798129564
 21
1700.1449558297
 31
0.0
  0
LINE
  5
2F5
330
1F
100
AcDbEntity
  8
1
  6
SLD-Сплошная
100
AcDbLine
 10
884.9730187024
 20
1698.523640872
 30
0.0
 11
884.9730187024
 21
1698.76180059
 31
0.0
  0
LINE
  5
2F6
330
1F
100
AcDbEntity
  8
1
  6
SLD-Сплошная
100
AcDbLine
 10
884.0848382096
 20
1699.6499810829
 30
0.0
 11
884.9730187024
 21
1698.76180059
 31
0.0
  0
LINE
  5
2F7
330
1F
100
AcDbEntity
  8
1
  6
SLD-Сплошная
100
AcDbLine
 10
881.9064318596
 20
1701.5902277148
 30
0.0
 11
882.1445915776
 21
1701.5902277148
 31
0.0
  0
LINE
  5
2F8
330
1F
100
AcDbEntity
  8
1
  6
SLD-Сплошная
100
AcDbLine
 10
882.1445915776
 20
1701.5902277148
 30
0.0
 11
883.0327720705
 21
1700.702047222
 31
0.0
  0
LINE
  5
2F9
330
1F
100
AcDbEntity
  8
1
  6
SLD-Сплошная
100
AcDbLine
 10
884.9730187024
 20
1702.3233621796
 30
0.0
 11
884.9730187024
 21
1702.0852024616
 31
0.0
  0
LINE
  5
2FA
330
1F
100
AcDbEntity
  8
1
  6
SLD-Сплошная
100
AcDbLine
 10
884.9730187024
 20
1702.0852024616
 30
0.0
 11
884.0848382096
 21
1701.1970219688
 31
0.0
  0
LINE
  5
2FB
330
1F
100
AcDbEntity
  8
1
  6
SLD-Сплошная
100
AcDbLine
 10
882.6395663245
 20
1698.523640872
 30
0.0
 11
882.6395663245
 21
1698.76180059
 31
0.0
  0
LINE
  5
2FC
330
1F
100
AcDbEntity
  8
1
  6
SLD-Сплошная
100
AcDbLine
 10
882.6395663245
 20
1698.76180059
 30
0.0
 11
883.5277468173
 21
1699.6499810829
 31
0.0
  0
LINE
  5
2FD
330
1F
100
AcDbEntity
  8
1
  6
SLD-Сплошная
100
AcDbLine
 10
881.9064318596
 20
1699.2567753369
 30
0.0
 11
882.1445915776
 21
1699.2567753369
 31
0.0
  0
LINE
  5
2FE
330
1F
100
AcDbEntity
  8
1
  6
SLD-Сплошная
100
AcDbLine
 10
883.0327720705
 20
1700.1449558297
 30
0.0
 11
882.1445915776
 21
1699.2567753369
 31
0.0
  0
LINE
  5
2FF
330
1F
100
AcDbEntity
  8
1
  6
SLD-Сплошная
100
AcDbLine
 10
885.7061531672
 20
1701.5902277148
 30
0.0
 11
885.4679934492
 21
1701.5902277148
 31
0.0
  0
LINE
  5
300
330
1F
100
AcDbEntity
  8
1
  6
SLD-Сплошная
100
AcDbLine
 10
884.5798129564
 20
1700.702047222
 30
0.0
 11
885.4679934492
 21
1701.5902277148
 31
0.0
  0
LINE
  5
301
330
1F
100
AcDbEntity
  8
1
  6
SLD-Сплошная
100
AcDbLine
 10
882.6395663245
 20
1702.3233621796
 30
0.0
 11
882.6395663245
 21
1702.0852024616
 31
0.0
  0
LINE
  5
302
330
1F
100
AcDbEntity
  8
1
  6
SLD-Сплошная
100
AcDbLine
 10
883.5277468173
 20
1701.1970219688
 30
0.0
 11
882.6395663245
 21
1702.0852024616
 31
0.0
  0
LINE
  5
303
330
1F
100
AcDbEntity
  8
1
  6
SLD-Сплошная
100
AcDbLine
 10
885.4679934492
 20
1701.5902277148
 30
0.0
 11
884.9730187024
 21
1702.0852024616
 31
0.0
  0
LINE
  5
304
330
1F
100
AcDbEntity
  8
1
  6
SLD-Сплошная
100
AcDbLine
 10
882.1445915776
 20
1699.2567753369
 30
0.0
 11
882.6395663245
 21
1698.76180059
 31
0.0
  0
LINE
  5
305
330
1F
100
AcDbEntity
  8
1
  6
SLD-Сплошная
100
AcDbLine
 10
884.9730187024
 20
1698.76180059
 30
0.0
 11
885.4679934492
 21
1699.2567753369
 31
0.0
  0
LINE
  5
306
330
1F
100
AcDbEntity
  8
1
  6
SLD-Сплошная
100
AcDbLine
 10
882.6395663245
 20
1702.0852024616
 30
0.0
 11
882.1445915776
 21
1701.5902277148
 31
0.0
  0
CIRCLE
  5
307
330
1F
100
AcDbEntity
  8
1
  6
SLD-Сплошная
100
AcDbCircle
 10
883.8062925134
 20
1700.4235015258
 30
0.0
 40
5.000000000000041
  0
ELLIPSE
  5
308
330
1F
100
AcDbEntity
  8
1
  6
SLD-Сплошная
100
AcDbEllipse
 10
447.7369057322
 20
1700.4235015258
 30
0.0
 11
0.4122489361056409
 21
0.0
 31
0.0
210
0.0
220
0.0
230
1.0
 40
0.9702875252
 41
5.512866274278382
 42
7.053504340080805
  0
SPLINE
  5
309
330
1F
100
AcDbEntity
  8
1
  6
SLD-Сплошная
100
AcDbSpline
210
0.0
220
0.0
230
1.0
 70
     8
 71
     3
 72
    12
 73
     8
 74
     0
 42
0.00000001
 43
0.00000001
 40
0.0
 40
0.0
 40
0.0
 40
0.0
 40
0.2187857887072096
 40
0.4375776469534813
 40
0.6562353658864019
 40
0.8748419359490944
 40
1.0
 40
1.0
 40
1.0
 40
1.0
 10
447.6931820196231
 20
1700.144955829707
 30
0.0
 10
447.7201454456952
 20
1700.180281226576
 30
0.0
 10
447.7740730458566
 20
1700.250933000308
 30
0.0
 10
447.8066689348297
 20
1700.384896228949
 30
0.0
 10
447.7973198035876
 20
1700.520438855229
 30
0.0
 10
447.7534410455058
 20
1700.629336659523
 30
0.0
 10
447.7092654872193
 20
1700.682640370329
 30
0.0
 10
447.6931820196231
 20
1700.702047221963
 30
0.0
  0
ARC
  5
30A
330
1F
100
AcDbEntity
  8
1
  6
SLD-Сплошная
100
AcDbCircle
 10
431.5610245326
 20
1717.6687695067
 30
0.0
 40
26.56195549555909
100
AcDbArc
 50
313.8816987744
 51
316.1183012256
  0
ARC
  5
30B
330
1F
100
AcDbEntity
  8
1
  6
SLD-Сплошная
100
AcDbCircle
 10
432.7932695398
 20
1684.1820872899
 30
0.0
 40
23.41191191597489
100
AcDbArc
 50
40.0824770913
 51
42.9865596106
  0
SPLINE
  5
30C
330
1F
100
AcDbEntity
  8
1
  6
SLD-Сплошная
100
AcDbSpline
210
0.0
220
0.0
230
1.0
 70
     8
 71
     3
 72
    12
 73
     8
 74
     0
 42
0.00000001
 43
0.00000001
 40
0.0
 40
0.0
 40
0.0
 40
0.0
 40
0.2187857887072258
 40
0.4375776469534892
 40
0.6562353658863563
 40
0.8748419359490992
 40
1.0
 40
1.0
 40
1.0
 40
1.0
 10
449.9194030072476
 20
1700.702047221963
 30
0.0
 10
449.8924395811756
 20
1700.666721825094
 30
0.0
 10
449.8385119810141
 20
1700.596070051361
 30
0.0
 10
449.8059160920409
 20
1700.462106822721
 30
0.0
 10
449.8152652232831
 20
1700.32656419644
 30
0.0
 10
449.8591439813649
 20
1700.217666392147
 30
0.0
 10
449.9033195396514
 20
1700.164362681341
 30
0.0
 10
449.9194030072476
 20
1700.144955829707
 30
0.0
  0
ARC
  5
30D
330
1F
100
AcDbEntity
  8
1
  6
SLD-Сплошная
100
AcDbCircle
 10
432.7932695396
 20
1716.6649157619
 30
0.0
 40
23.41191191626598
100
AcDbArc
 50
317.0134403894
 51
319.9175229087
  0
ARC
  5
30E
330
1F
100
AcDbEntity
  8
1
  6
SLD-Сплошная
100
AcDbCircle
 10
431.5610245323
 20
1683.1782335447
 30
0.0
 40
26.56195549593757
100
AcDbArc
 50
43.8816987744
 51
46.1183012256
  0
ARC
  5
30F
330
1F
100
AcDbEntity
  8
1
  6
SLD-Сплошная
100
AcDbCircle
 10
465.0477067493
 20
1684.4104785523
 30
0.0
 40
23.41191191587955
100
AcDbArc
 50
130.0824770913
 51
132.9865596106
  0
SPLINE
  5
310
330
1F
100
AcDbEntity
  8
1
  6
SLD-Сплошная
100
AcDbSpline
210
0.0
220
0.0
230
1.0
 70
     8
 71
     3
 72
    12
 73
     8
 74
     0
 42
0.00000001
 43
0.00000001
 40
0.0
 40
0.0
 40
0.0
 40
0.0
 40
0.2187857887071718
 40
0.4375776469534864
 40
0.6562353658863612
 40
0.8748419359490948
 40
1.0
 40
1.0
 40
1.0
 40
1.0
 10
448.5277468173073
 20
1701.536612019647
 30
0.0
 10
448.5630722141763
 20
1701.509648593575
 30
0.0
 10
448.6337239879086
 20
1701.455720993413
 30
0.0
 10
448.7676872165497
 20
1701.42312510444
 30
0.0
 10
448.9032298428296
 20
1701.432474235683
 30
0.0
 10
449.0121276471237
 20
1701.476352993765
 30
0.0
 10
449.0654313579295
 20
1701.520528552051
 30
0.0
 10
449.0848382095634
 20
1701.536612019647
 30
0.0
  0
ARC
  5
311
330
1F
100
AcDbEntity
  8
1
  6
SLD-Сплошная
100
AcDbCircle
 10
432.5648782774
 20
1684.410478552
 30
0.0
 40
23.41191191623932
100
AcDbArc
 50
47.0134403894
 51
49.9175229087
  0
ARC
  5
312
330
1F
100
AcDbEntity
  8
1
  6
SLD-Сплошная
100
AcDbCircle
 10
466.0515604949
 20
1683.1782335443
 30
0.0
 40
26.56195549644063
100
AcDbArc
 50
133.8816987744
 51
136.1183012256
  0
ARC
  5
313
330
1F
100
AcDbEntity
  8
1
  6
SLD-Сплошная
100
AcDbCircle
 10
464.8193154873
 20
1716.664915762
 30
0.0
 40
23.4119119163496
100
AcDbArc
 50
220.0824770913
 51
222.9865596106
  0
ARC
  5
314
330
1F
100
AcDbEntity
  8
1
  6
SLD-Сплошная
100
AcDbCircle
 10
464.8193154871
 20
1684.1820872898
 30
0.0
 40
23.41191191614219
100
AcDbArc
 50
137.0134403894
 51
139.9175229087
  0
ARC
  5
315
330
1F
100
AcDbEntity
  8
1
  6
SLD-Сплошная
100
AcDbCircle
 10
466.0515604945
 20
1717.6687695069
 30
0.0
 40
26.56195549578291
100
AcDbArc
 50
223.8816987744
 51
226.1183012256
  0
ARC
  5
316
330
1F
100
AcDbEntity
  8
1
  6
SLD-Сплошная
100
AcDbCircle
 10
432.5648782776
 20
1716.4365244993
 30
0.0
 40
23.41191191580819
100
AcDbArc
 50
310.0824770913
 51
312.9865596106
  0
SPLINE
  5
317
330
1F
100
AcDbEntity
  8
1
  6
SLD-Сплошная
100
AcDbSpline
210
0.0
220
0.0
230
1.0
 70
     8
 71
     3
 72
    12
 73
     8
 74
     0
 42
0.00000001
 43
0.00000001
 40
0.0
 40
0.0
 40
0.0
 40
0.0
 40
0.218785788707225
 40
0.4375776469534876
 40
0.656235365886399
 40
0.8748419359490996
 40
1.0
 40
1.0
 40
1.0
 40
1.0
 10
449.0848382095634
 20
1699.310391032023
 30
0.0
 10
449.0495128126943
 20
1699.337354458095
 30
0.0
 10
448.978861038962
 20
1699.391282058256
 30
0.0
 10
448.844897810321
 20
1699.423877947229
 30
0.0
 10
448.709355184041
 20
1699.414528815987
 30
0.0
 10
448.6004573797471
 20
1699.370650057905
 30
0.0
 10
448.5471536689412
 20
1699.326474499619
 30
0.0
 10
448.5277468173073
 20
1699.310391032023
 30
0.0
  0
ARC
  5
318
330
1F
100
AcDbEntity
  8
1
  6
SLD-Сплошная
100
AcDbCircle
 10
465.0477067492
 20
1716.4365244993
 30
0.0
 40
23.4119119157839
100
AcDbArc
 50
227.0134403894
 51
229.9175229087
  0
CIRCLE
  5
319
330
1F
100
AcDbEntity
  8
1
  6
SLD-Сплошная
100
AcDbCircle
 10
448.8062925134
 20
1700.4235015258
 30
0.0
 40
3.499999999999988
  0
ELLIPSE
  5
31A
330
1F
100
AcDbEntity
  8
1
  6
SLD-Сплошная
100
AcDbEllipse
 10
449.8756792947
 20
1700.4235015258
 30
0.0
 11
-0.4122489361056409
 21
0.0
 31
0.0
210
0.0
220
0.0
230
1.0
 40
0.9702875252
 41
5.512866274278665
 42
7.05350434008052
  0
ELLIPSE
  5
31B
330
1F
100
AcDbEntity
  8
1
  6
SLD-Сплошная
100
AcDbEllipse
 10
448.8062925134
 20
1699.3541147446
 30
0.0
 11
0.0
 21
0.4122489361054704
 31
0.0
210
0.0
220
0.0
230
1.0
 40
0.9702875252
 41
5.512866274278322
 42
7.053504340080763
  0
ELLIPSE
  5
31C
330
1F
100
AcDbEntity
  8
1
  6
SLD-Сплошная
100
AcDbEllipse
 10
448.8062925134
 20
1701.4928883071
 30
0.0
 11
0.0
 21
-0.4122489361054704
 31
0.0
210
0.0
220
0.0
230
1.0
 40
0.9702875252
 41
5.512866274278736
 42
7.053504340080551
  0
LINE
  5
31D
330
1F
100
AcDbEntity
  8
1
  6
SLD-Сплошная
100
AcDbLine
 10
450.7061531672
 20
1699.2567753369
 30
0.0
 11
450.4679934492
 21
1699.2567753369
 31
0.0
  0
LINE
  5
31E
330
1F
100
AcDbEntity
  8
1
  6
SLD-Сплошная
100
AcDbLine
 10
450.4679934492
 20
1699.2567753369
 30
0.0
 11
449.5798129564
 21
1700.1449558297
 31
0.0
  0
LINE
  5
31F
330
1F
100
AcDbEntity
  8
1
  6
SLD-Сплошная
100
AcDbLine
 10
449.9730187024
 20
1698.523640872
 30
0.0
 11
449.9730187024
 21
1698.76180059
 31
0.0
  0
LINE
  5
320
330
1F
100
AcDbEntity
  8
1
  6
SLD-Сплошная
100
AcDbLine
 10
449.0848382096
 20
1699.6499810829
 30
0.0
 11
449.9730187024
 21
1698.76180059
 31
0.0
  0
LINE
  5
321
330
1F
100
AcDbEntity
  8
1
  6
SLD-Сплошная
100
AcDbLine
 10
446.9064318596
 20
1699.2567753369
 30
0.0
 11
447.1445915776
 21
1699.2567753369
 31
0.0
  0
LINE
  5
322
330
1F
100
AcDbEntity
  8
1
  6
SLD-Сплошная
100
AcDbLine
 10
448.0327720705
 20
1700.1449558297
 30
0.0
 11
447.1445915776
 21
1699.2567753369
 31
0.0
  0
LINE
  5
323
330
1F
100
AcDbEntity
  8
1
  6
SLD-Сплошная
100
AcDbLine
 10
446.9064318596
 20
1701.5902277148
 30
0.0
 11
447.1445915776
 21
1701.5902277148
 31
0.0
  0
LINE
  5
324
330
1F
100
AcDbEntity
  8
1
  6
SLD-Сплошная
100
AcDbLine
 10
447.1445915776
 20
1701.5902277148
 30
0.0
 11
448.0327720705
 21
1700.702047222
 31
0.0
  0
LINE
  5
325
330
1F
100
AcDbEntity
  8
1
  6
SLD-Сплошная
100
AcDbLine
 10
449.9730187024
 20
1702.3233621796
 30
0.0
 11
449.9730187024
 21
1702.0852024616
 31
0.0
  0
LINE
  5
326
330
1F
100
AcDbEntity
  8
1
  6
SLD-Сплошная
100
AcDbLine
 10
449.9730187024
 20
1702.0852024616
 30
0.0
 11
449.0848382096
 21
1701.1970219688
 31
0.0
  0
LINE
  5
327
330
1F
100
AcDbEntity
  8
1
  6
SLD-Сплошная
100
AcDbLine
 10
447.6395663245
 20
1702.3233621796
 30
0.0
 11
447.6395663245
 21
1702.0852024616
 31
0.0
  0
LINE
  5
328
330
1F
100
AcDbEntity
  8
1
  6
SLD-Сплошная
100
AcDbLine
 10
448.5277468173
 20
1701.1970219688
 30
0.0
 11
447.6395663245
 21
1702.0852024616
 31
0.0
  0
LINE
  5
329
330
1F
100
AcDbEntity
  8
1
  6
SLD-Сплошная
100
AcDbLine
 10
450.7061531672
 20
1701.5902277148
 30
0.0
 11
450.4679934492
 21
1701.5902277148
 31
0.0
  0
LINE
  5
32A
330
1F
100
AcDbEntity
  8
1
  6
SLD-Сплошная
100
AcDbLine
 10
449.5798129564
 20
1700.702047222
 30
0.0
 11
450.4679934492
 21
1701.5902277148
 31
0.0
  0
LINE
  5
32B
330
1F
100
AcDbEntity
  8
1
  6
SLD-Сплошная
100
AcDbLine
 10
447.6395663245
 20
1698.523640872
 30
0.0
 11
447.6395663245
 21
1698.76180059
 31
0.0
  0
LINE
  5
32C
330
1F
100
AcDbEntity
  8
1
  6
SLD-Сплошная
100
AcDbLine
 10
447.6395663245
 20
1698.76180059
 30
0.0
 11
448.5277468173
 21
1699.6499810829
 31
0.0
  0
LINE
  5
32D
330
1F
100
AcDbEntity
  8
1
  6
SLD-Сплошная
100
AcDbLine
 10
447.1445915776
 20
1699.2567753369
 30
0.0
 11
447.6395663245
 21
1698.76180059
 31
0.0
  0
LINE
  5
32E
330
1F
100
AcDbEntity
  8
1
  6
SLD-Сплошная
100
AcDbLine
 10
450.4679934492
 20
1701.5902277148
 30
0.0
 11
449.9730187024
 21
1702.0852024616
 31
0.0
  0
LINE
  5
32F
330
1F
100
AcDbEntity
  8
1
  6
SLD-Сплошная
100
AcDbLine
 10
449.9730187024
 20
1698.76180059
 30
0.0
 11
450.4679934492
 21
1699.2567753369
 31
0.0
  0
LINE
  5
330
330
1F
100
AcDbEntity
  8
1
  6
SLD-Сплошная
100
AcDbLine
 10
447.6395663245
 20
1702.0852024616
 30
0.0
 11
447.1445915776
 21
1701.5902277148
 31
0.0
  0
CIRCLE
  5
331
330
1F
100
AcDbEntity
  8
1
  6
SLD-Сплошная
100
AcDbCircle
 10
448.8062925134
 20
1700.4235015258
 30
0.0
 40
4.99999999999992
  0
ELLIPSE
  5
332
330
1F
100
AcDbEntity
  8
1
  6
SLD-Сплошная
100
AcDbEllipse
 10
667.2195059674
 20
1683.4799449421
 30
0.0
 11
-0.352044069943986
 21
-0.2145091096842862
 31
0.0
210
0.0
220
0.0
230
1.0
 40
0.9702875252
 41
5.512866274277872
 42
7.0535043400807
  0
SPLINE
  5
333
330
1F
100
AcDbEntity
  8
1
  6
SLD-Сплошная
100
AcDbSpline
210
0.0
220
0.0
230
1.0
 70
     8
 71
     3
 72
    12
 73
     8
 74
     0
 42
0.00000001
 43
0.00000001
 40
0.0
 40
0.0
 40
0.0
 40
0.0
 40
0.2187857887071978
 40
0.4375776469535061
 40
0.6562353658863957
 40
0.87484193594909
 40
1.0
 40
1.0
 40
1.0
 40
1.0
 10
667.1119061370716
 20
1683.74056294683
 30
0.0
 10
667.1072616258193
 20
1683.696366357315
 30
0.0
 10
667.0979724744674
 20
1683.607971952188
 30
0.0
 10
667.1398431549637
 20
1683.476611818507
 30
0.0
 10
667.2183550235601
 20
1683.365728563308
 30
0.0
 10
667.3124894754072
 20
1683.295566022261
 30
0.0
 10
667.3779496197898
 20
1683.273033045693
 30
0.0
 10
667.4017823941081
 20
1683.264829224111
 30
0.0
  0
ARC
  5
334
330
1F
100
AcDbEntity
  8
1
  6
SLD-Сплошная
100
AcDbCircle
 10
642.6061430347
 20
1688.676887499
 30
0.0
 40
26.56195549572058
100
AcDbArc
 50
345.2366779053
 51
347.4732803565
  0
ARC
  5
335
330
1F
100
AcDbEntity
  8
1
  6
SLD-Сплошная
100
AcDbCircle
 10
661.0828503564
 20
1660.7217877813
 30
0.0
 40
23.41191191661078
100
AcDbArc
 50
71.4374562222
 51
74.3415387414
  0
ARC
  5
336
330
1F
100
AcDbEntity
  8
1
  6
SLD-Сплошная
100
AcDbCircle
 10
644.1807749227
 20
1688.4608214991
 30
0.0
 40
23.41191191620472
100
AcDbArc
 50
348.3684195203
 51
351.2725020396
  0
ARC
  5
337
330
1F
100
AcDbEntity
  8
1
  6
SLD-Сплошная
100
AcDbCircle
 10
660.5529065404
 20
1659.2233520475
 30
0.0
 40
26.56195549528645
100
AcDbArc
 50
75.2366779052
 51
77.4732803565
  0
ARC
  5
338
330
1F
100
AcDbEntity
  8
1
  6
SLD-Сплошная
100
AcDbCircle
 10
688.5080062575
 20
1677.7000593689
 30
0.0
 40
23.41191191607611
100
AcDbArc
 50
161.4374562222
 51
164.3415387415
  0
SPLINE
  5
339
330
1F
100
AcDbEntity
  8
1
  6
SLD-Сплошная
100
AcDbSpline
210
0.0
220
0.0
230
1.0
 70
     8
 71
     3
 72
    12
 73
     8
 74
     0
 42
0.00000001
 43
0.00000001
 40
0.0
 40
0.0
 40
0.0
 40
0.0
 40
0.2187857887072001
 40
0.4375776469534799
 40
0.656235365886367
 40
0.8748419359490702
 40
1.0
 40
1.0
 40
1.0
 40
1.0
 10
665.4892310924405
 20
1683.729115149471
 30
0.0
 10
665.5334276819551
 20
1683.724470638219
 30
0.0
 10
665.6218220870827
 20
1683.715181486867
 30
0.0
 10
665.7531822207635
 20
1683.757052167364
 30
0.0
 10
665.8640654759619
 20
1683.83556403596
 30
0.0
 10
665.9342280170098
 20
1683.929698487807
 30
0.0
 10
665.9567609935776
 20
1683.995158632189
 30
0.0
 10
665.9649648151598
 20
1684.018991406508
 30
0.0
  0
ARC
  5
33A
330
1F
100
AcDbEntity
  8
1
  6
SLD-Сплошная
100
AcDbCircle
 10
660.7689725401
 20
1660.7979839349
 30
0.0
 40
23.41191191636802
100
AcDbArc
 50
78.3684195203
 51
81.2725020395
  0
ARC
  5
33B
330
1F
100
AcDbEntity
  8
1
  6
SLD-Сплошная
100
AcDbCircle
 10
690.0064419929
 20
1677.1701155525
 30
0.0
 40
26.56195549642866
100
AcDbArc
 50
165.2366779053
 51
167.4732803564
  0
ARC
  5
33C
330
1F
100
AcDbEntity
  8
1
  6
SLD-Сплошная
100
AcDbCircle
 10
671.5297346704
 20
1705.1252152701
 30
0.0
 40
23.41191191634016
100
AcDbArc
 50
251.4374562222
 51
254.3415387414
  0
SPLINE
  5
33D
330
1F
100
AcDbEntity
  8
1
  6
SLD-Сплошная
100
AcDbSpline
210
0.0
220
0.0
230
1.0
 70
     8
 71
     3
 72
    12
 73
     8
 74
     0
 42
0.00000001
 43
0.00000001
 40
0.0
 40
0.0
 40
0.0
 40
0.0
 40
0.218785788707163
 40
0.4375776469534813
 40
0.6562353658863813
 40
0.8748419359490848
 40
1.0
 40
1.0
 40
1.0
 40
1.0
 10
665.500678889799
 20
1682.10644010484
 30
0.0
 10
665.5053234010512
 20
1682.150636694355
 30
0.0
 10
665.5146125524033
 20
1682.239031099482
 30
0.0
 10
665.4727418719068
 20
1682.370391233163
 30
0.0
 10
665.3942300033106
 20
1682.481274488362
 30
0.0
 10
665.3000955514634
 20
1682.551437029409
 30
0.0
 10
665.2346354070809
 20
1682.573970005977
 30
0.0
 10
665.2108026327626
 20
1682.582173827559
 30
0.0
  0
ARC
  5
33E
330
1F
100
AcDbEntity
  8
1
  6
SLD-Сплошная
100
AcDbCircle
 10
688.4318101039
 20
1677.3861815526
 30
0.0
 40
23.41191191586827
100
AcDbArc
 50
168.3684195203
 51
171.2725020396
  0
ARC
  5
33F
330
1F
100
AcDbEntity
  8
1
  6
SLD-Сплошная
100
AcDbCircle
 10
672.0596784866
 20
1706.6236510048
 30
0.0
 40
26.56195549592996
100
AcDbArc
 50
255.2366779053
 51
257.4732803565
  0
ARC
  5
340
330
1F
100
AcDbEntity
  8
1
  6
SLD-Сплошная
100
AcDbCircle
 10
644.1045787694
 20
1688.1469436827
 30
0.0
 40
23.41191191607611
100
AcDbArc
 50
341.4374562222
 51
344.3415387415
  0
SPLINE
  5
341
330
1F
100
AcDbEntity
  8
1
  6
SLD-Сплошная
100
AcDbSpline
210
0.0
220
0.0
230
1.0
 70
     8
 71
     3
 72
    12
 73
     8
 74
     0
 42
0.00000001
 43
0.00000001
 40
0.0
 40
0.0
 40
0.0
 40
0.0
 40
0.2187857887071963
 40
0.4375776469534701
 40
0.6562353658863769
 40
0.8748419359490738
 40
1.0
 40
1.0
 40
1.0
 40
1.0
 10
667.1233539344302
 20
1682.117887902199
 30
0.0
 10
667.0791573449155
 20
1682.122532413451
 30
0.0
 10
666.9907629397878
 20
1682.131821564803
 30
0.0
 10
666.8594028061071
 20
1682.089950884307
 30
0.0
 10
666.7485195509088
 20
1682.01143901571
 30
0.0
 10
666.6783570098609
 20
1681.917304563863
 30
0.0
 10
666.655824033293
 20
1681.851844419481
 30
0.0
 10
666.6476202117109
 20
1681.828011645162
 30
0.0
  0
ARC
  5
342
330
1F
100
AcDbEntity
  8
1
  6
SLD-Сплошная
100
AcDbCircle
 10
671.8436124867
 20
1705.0490191168
 30
0.0
 40
23.41191191637919
100
AcDbArc
 50
258.3684195203
 51
261.2725020395
  0
CIRCLE
  5
343
330
1F
100
AcDbEntity
  8
1
  6
SLD-Сплошная
100
AcDbCircle
 10
666.3062925134
 20
1682.9235015258
 30
0.0
 40
3.499999999999991
  0
ELLIPSE
  5
344
330
1F
100
AcDbEntity
  8
1
  6
SLD-Сплошная
100
AcDbEllipse
 10
666.8627359297
 20
1682.0102880719
 30
0.0
 11
-0.2145091096840588
 21
0.3520440699442134
 31
0.0
210
0.0
220
0.0
230
1.0
 40
0.9702875252
 41
5.512866274279241
 42
7.053504340080424
  0
ELLIPSE
  5
345
330
1F
100
AcDbEntity
  8
1
  6
SLD-Сплошная
100
AcDbEllipse
 10
665.7498490972
 20
1683.8367149798
 30
0.0
 11
0.2145091096840588
 21
-0.3520440699442134
 31
0.0
210
0.0
220
0.0
230
1.0
 40
0.9702875252
 41
5.512866274279241
 42
7.053504340080424
  0
ELLIPSE
  5
346
330
1F
100
AcDbEntity
  8
1
  6
SLD-Сплошная
100
AcDbEllipse
 10
665.3930790595
 20
1682.3670581096
 30
0.0
 11
0.3520440699438723
 21
0.2145091096842861
 31
0.0
210
0.0
220
0.0
230
1.0
 40
0.9702875252
 41
5.512866274277789
 42
7.053504340080438
  0
LINE
  5
347
330
1F
100
AcDbEntity
  8
1
  6
SLD-Сплошная
100
AcDbLine
 10
668.2912011009
 20
1681.9081895524
 30
0.0
 11
668.1672773631
 21
1682.111568407
 31
0.0
  0
LINE
  5
348
330
1F
100
AcDbEntity
  8
1
  6
SLD-Сплошная
100
AcDbLine
 10
666.9466520607
 20
1682.4078841961
 30
0.0
 11
668.1672773631
 21
1682.111568407
 31
0.0
  0
LINE
  5
349
330
1F
100
AcDbEntity
  8
1
  6
SLD-Сплошная
100
AcDbLine
 10
668.5357902572
 20
1682.9157352991
 30
0.0
 11
668.3324114027
 21
1682.7918115613
 31
0.0
  0
LINE
  5
34A
330
1F
100
AcDbEntity
  8
1
  6
SLD-Сплошная
100
AcDbLine
 10
668.3324114027
 20
1682.7918115613
 30
0.0
 11
667.1117861003
 21
1683.0881273503
 31
0.0
  0
LINE
  5
34B
330
1F
100
AcDbEntity
  8
1
  6
SLD-Сплошная
100
AcDbLine
 10
664.321383926
 20
1683.9388134992
 30
0.0
 11
664.4453076638
 21
1683.7354346447
 31
0.0
  0
LINE
  5
34C
330
1F
100
AcDbEntity
  8
1
  6
SLD-Сплошная
100
AcDbLine
 10
665.6659329662
 20
1683.4391188556
 30
0.0
 11
664.4453076638
 21
1683.7354346447
 31
0.0
  0
LINE
  5
34D
330
1F
100
AcDbEntity
  8
1
  6
SLD-Сплошная
100
AcDbLine
 10
666.3140587401
 20
1685.1529992696
 30
0.0
 11
666.437982478
 21
1684.9496204151
 31
0.0
  0
LINE
  5
34E
330
1F
100
AcDbEntity
  8
1
  6
SLD-Сплошная
100
AcDbLine
 10
666.437982478
 20
1684.9496204151
 30
0.0
 11
666.1416666889
 21
1683.7289951127
 31
0.0
  0
LINE
  5
34F
330
1F
100
AcDbEntity
  8
1
  6
SLD-Сплошная
100
AcDbLine
 10
667.3216044868
 20
1684.9084101133
 30
0.0
 11
667.1182256323
 21
1684.7844863755
 31
0.0
  0
LINE
  5
350
330
1F
100
AcDbEntity
  8
1
  6
SLD-Сплошная
100
AcDbLine
 10
666.8219098432
 20
1683.5638610731
 30
0.0
 11
667.1182256323
 21
1684.7844863755
 31
0.0
  0
LINE
  5
351
330
1F
100
AcDbEntity
  8
1
  6
SLD-Сплошная
100
AcDbLine
 10
665.29098054
 20
1680.9385929384
 30
0.0
 11
665.4943593946
 21
1681.0625166762
 31
0.0
  0
LINE
  5
352
330
1F
100
AcDbEntity
  8
1
  6
SLD-Сплошная
100
AcDbLine
 10
665.7906751837
 20
1682.2831419786
 30
0.0
 11
665.4943593946
 21
1681.0625166762
 31
0.0
  0
LINE
  5
353
330
1F
100
AcDbEntity
  8
1
  6
SLD-Сплошная
100
AcDbLine
 10
666.2985262867
 20
1680.694003782
 30
0.0
 11
666.1746025489
 21
1680.8973826366
 31
0.0
  0
LINE
  5
354
330
1F
100
AcDbEntity
  8
1
  6
SLD-Сплошная
100
AcDbLine
 10
666.1746025489
 20
1680.8973826366
 30
0.0
 11
666.4709183379
 21
1682.118007939
 31
0.0
  0
LINE
  5
355
330
1F
100
AcDbEntity
  8
1
  6
SLD-Сплошная
100
AcDbLine
 10
664.0767947696
 20
1682.9312677525
 30
0.0
 11
664.2801736242
 21
1683.0551914904
 31
0.0
  0
LINE
  5
356
330
1F
100
AcDbEntity
  8
1
  6
SLD-Сплошная
100
AcDbLine
 10
664.2801736242
 20
1683.0551914904
 30
0.0
 11
665.5007989266
 21
1682.7588757013
 31
0.0
  0
LINE
  5
357
330
1F
100
AcDbEntity
  8
1
  6
SLD-Сплошная
100
AcDbLine
 10
667.1182256323
 20
1684.7844863755
 30
0.0
 11
666.437982478
 21
1684.9496204151
 31
0.0
  0
LINE
  5
358
330
1F
100
AcDbEntity
  8
1
  6
SLD-Сплошная
100
AcDbLine
 10
668.1672773631
 20
1682.111568407
 30
0.0
 11
668.3324114027
 21
1682.7918115613
 31
0.0
  0
LINE
  5
359
330
1F
100
AcDbEntity
  8
1
  6
SLD-Сплошная
100
AcDbLine
 10
665.4943593946
 20
1681.0625166762
 30
0.0
 11
666.1746025489
 21
1680.8973826366
 31
0.0
  0
LINE
  5
35A
330
1F
100
AcDbEntity
  8
1
  6
SLD-Сплошная
100
AcDbLine
 10
664.4453076638
 20
1683.7354346447
 30
0.0
 11
664.2801736242
 21
1683.0551914904
 31
0.0
  0
CIRCLE
  5
35B
330
1F
100
AcDbEntity
  8
1
  6
SLD-Сплошная
100
AcDbCircle
 10
666.3062925134
 20
1682.9235015258
 30
0.0
 40
4.999999999999972
  0
ELLIPSE
  5
35C
330
1F
100
AcDbEntity
  8
1
  6
SLD-Сплошная
100
AcDbEllipse
 10
667.2195059674
 20
1842.3670581096
 30
0.0
 11
-0.3520440699439859
 21
0.2145091096840588
 31
0.0
210
0.0
220
0.0
230
1.0
 40
0.9702875252
 41
5.512866274278233
 42
7.053504340080567
  0
SPLINE
  5
35D
330
1F
100
AcDbEntity
  8
1
  6
SLD-Сплошная
100
AcDbSpline
210
0.0
220
0.0
230
1.0
 70
     8
 71
     3
 72
    12
 73
     8
 74
     0
 42
0.00000001
 43
0.00000001
 40
0.0
 40
0.0
 40
0.0
 40
0.0
 40
0.2187857887072011
 40
0.4375776469534828
 40
0.6562353658863843
 40
0.8748419359490948
 40
1.0
 40
1.0
 40
1.0
 40
1.0
 10
667.401782394108
 20
1842.582173827572
 30
0.0
 10
667.3603755348281
 20
1842.56603747067
 30
0.0
 10
667.277560667562
 20
1842.533764309213
 30
0.0
 10
667.1800188213573
 20
1842.436325985927
 30
0.0
 10
667.1174745195617
 20
1842.315713299585
 30
0.0
 10
667.0982814695051
 20
1842.199887119382
 30
0.0
 10
667.1082696378731
 20
1842.131381630344
 30
0.0
 10
667.1119061370716
 20
1842.106440104853
 30
0.0
  0
ELLIPSE
  5
35E
330
1F
100
AcDbEntity
  8
1
  6
SLD-Сплошная
100
AcDbEllipse
 10
665.7498490972
 20
1842.0102880719
 30
0.0
 11
0.2145091096841724
 21
0.352044069943986
 31
0.0
210
0.0
220
0.0
230
1.0
 40
0.9702875252
 41
5.512866274278639
 42
7.05350434008069
  0
SPLINE
  5
35F
330
1F
100
AcDbEntity
  8
1
  6
SLD-Сплошная
100
AcDbSpline
210
0.0
220
0.0
230
1.0
 70
     8
 71
     3
 72
    12
 73
     8
 74
     0
 42
0.00000001
 43
0.00000001
 40
0.0
 40
0.0
 40
0.0
 40
0.0
 40
0.218785788707199
 40
0.4375776469534809
 40
0.6562353658863849
 40
0.8748419359490969
 40
1.0
 40
1.0
 40
1.0
 40
1.0
 10
665.9649648151596
 20
1841.828011645175
 30
0.0
 10
665.9488284582579
 20
1841.869418504455
 30
0.0
 10
665.9165552968009
 20
1841.952233371721
 30
0.0
 10
665.8191169735146
 20
1842.049775217926
 30
0.0
 10
665.698504287172
 20
1842.112319519721
 30
0.0
 10
665.5826781069693
 20
1842.131512569778
 30
0.0
 10
665.5141726179319
 20
1842.12152440141
 30
0.0
 10
665.4892310924405
 20
1842.117887902212
 30
0.0
  0
ELLIPSE
  5
360
330
1F
100
AcDbEntity
  8
1
  6
SLD-Сплошная
100
AcDbEllipse
 10
665.3930790595
 20
1843.4799449421
 30
0.0
 11
0.3520440699439859
 21
-0.2145091096840588
 31
0.0
210
0.0
220
0.0
230
1.0
 40
0.9702875252
 41
5.512866274278475
 42
7.053504340080382
  0
SPLINE
  5
361
330
1F
100
AcDbEntity
  8
1
  6
SLD-Сплошная
100
AcDbSpline
210
0.0
220
0.0
230
1.0
 70
     8
 71
     3
 72
    12
 73
     8
 74
     0
 42
0.00000001
 43
0.00000001
 40
0.0
 40
0.0
 40
0.0
 40
0.0
 40
0.2187857887072006
 40
0.4375776469534783
 40
0.6562353658863845
 40
0.8748419359490949
 40
1.0
 40
1.0
 40
1.0
 40
1.0
 10
665.2108026327626
 20
1843.264829224123
 30
0.0
 10
665.2522094920424
 20
1843.280965581025
 30
0.0
 10
665.3350243593084
 20
1843.313238742482
 30
0.0
 10
665.4325662055132
 20
1843.410677065769
 30
0.0
 10
665.4951105073088
 20
1843.531289752111
 30
0.0
 10
665.5143035573655
 20
1843.647115932314
 30
0.0
 10
665.5043153889973
 20
1843.715621421351
 30
0.0
 10
665.5006788897989
 20
1843.740562946843
 30
0.0
  0
ARC
  5
362
330
1F
100
AcDbEntity
  8
1
  6
SLD-Сплошная
100
AcDbCircle
 10
690.0064419923
 20
1848.676887499
 30
0.0
 40
26.56195549581588
100
AcDbArc
 50
192.5267196435
 51
194.7633220947
  0
ARC
  5
363
330
1F
100
AcDbEntity
  8
1
  6
SLD-Сплошная
100
AcDbCircle
 10
660.7689725402
 20
1865.0490191164
 30
0.0
 40
23.41191191596529
100
AcDbArc
 50
278.7274979604
 51
281.6315804797
  0
ARC
  5
364
330
1F
100
AcDbEntity
  8
1
  6
SLD-Сплошная
100
AcDbCircle
 10
688.5080062578
 20
1848.1469436828
 30
0.0
 40
23.41191191637409
100
AcDbArc
 50
195.6584612586
 51
198.5625437778
  0
ARC
  5
365
330
1F
100
AcDbEntity
  8
1
  6
SLD-Сплошная
100
AcDbCircle
 10
660.5529065402
 20
1866.623651005
 30
0.0
 40
26.56195549615632
100
AcDbArc
 50
282.5267196435
 51
284.7633220947
  0
ARC
  5
366
330
1F
100
AcDbEntity
  8
1
  6
SLD-Сплошная
100
AcDbCircle
 10
644.1807749227
 20
1837.3861815526
 30
0.0
 40
23.41191191615737
100
AcDbArc
 50
8.7274979604
 51
11.6315804797
  0
ARC
  5
367
330
1F
100
AcDbEntity
  8
1
  6
SLD-Сплошная
100
AcDbCircle
 10
661.0828503564
 20
1865.1252152705
 30
0.0
 40
23.41191191668289
100
AcDbArc
 50
285.6584612586
 51
288.5625437778
  0
ARC
  5
368
330
1F
100
AcDbEntity
  8
1
  6
SLD-Сплошная
100
AcDbCircle
 10
642.6061430343
 20
1837.1701155526
 30
0.0
 40
26.56195549604937
100
AcDbArc
 50
12.5267196435
 51
14.7633220947
  0
ARC
  5
369
330
1F
100
AcDbEntity
  8
1
  6
SLD-Сплошная
100
AcDbCircle
 10
671.8436124867
 20
1820.7979839351
 30
0.0
 40
23.41191191617705
100
AcDbArc
 50
98.7274979604
 51
101.6315804797
  0
SPLINE
  5
36A
330
1F
100
AcDbEntity
  8
1
  6
SLD-Сплошная
100
AcDbSpline
210
0.0
220
0.0
230
1.0
 70
     8
 71
     3
 72
    12
 73
     8
 74
     0
 42
0.00000001
 43
0.00000001
 40
0.0
 40
0.0
 40
0.0
 40
0.0
 40
0.2187857887072036
 40
0.4375776469534812
 40
0.6562353658863853
 40
0.8748419359490971
 40
0.9999999999999999
 40
0.9999999999999999
 40
0.9999999999999999
 40
0.9999999999999999
 10
666.6476202117109
 20
1844.018991406521
 30
0.0
 10
666.6637565686126
 20
1843.977584547241
 30
0.0
 10
666.6960297300697
 20
1843.894769679975
 30
0.0
 10
666.7934680533559
 20
1843.79722783377
 30
0.0
 10
666.9140807396985
 20
1843.734683531974
 30
0.0
 10
667.0299069199012
 20
1843.715490481918
 30
0.0
 10
667.0984124089387
 20
1843.725478650286
 30
0.0
 10
667.12335393443
 20
1843.729115149484
 30
0.0
  0
ARC
  5
36B
330
1F
100
AcDbEntity
  8
1
  6
SLD-Сплошная
100
AcDbCircle
 10
644.1045787689
 20
1837.7000593688
 30
0.0
 40
23.4119119165445
100
AcDbArc
 50
15.6584612586
 51
18.5625437778
  0
ARC
  5
36C
330
1F
100
AcDbEntity
  8
1
  6
SLD-Сплошная
100
AcDbCircle
 10
672.0596784866
 20
1819.223352047
 30
0.0
 40
26.56195549585307
100
AcDbArc
 50
102.5267196435
 51
104.7633220947
  0
ARC
  5
36D
330
1F
100
AcDbEntity
  8
1
  6
SLD-Сплошная
100
AcDbCircle
 10
688.4318101042
 20
1848.4608214991
 30
0.0
 40
23.41191191619774
100
AcDbArc
 50
188.7274979604
 51
191.6315804797
  0
ARC
  5
36E
330
1F
100
AcDbEntity
  8
1
  6
SLD-Сплошная
100
AcDbCircle
 10
671.5297346702
 20
1820.7217877822
 30
0.0
 40
23.41191191569516
100
AcDbArc
 50
105.6584612585
 51
108.5625437778
  0
CIRCLE
  5
36F
330
1F
100
AcDbEntity
  8
1
  6
SLD-Сплошная
100
AcDbCircle
 10
666.3062925134
 20
1842.9235015258
 30
0.0
 40
3.500000000000102
  0
ELLIPSE
  5
370
330
1F
100
AcDbEntity
  8
1
  6
SLD-Сплошная
100
AcDbEllipse
 10
666.8627359297
 20
1843.8367149798
 30
0.0
 11
-0.2145091096840588
 21
-0.3520440699439859
 31
0.0
210
0.0
220
0.0
230
1.0
 40
0.9702875252
 41
5.512866274278206
 42
7.053504340080651
  0
LINE
  5
371
330
1F
100
AcDbEntity
  8
1
  6
SLD-Сплошная
100
AcDbLine
 10
668.5357902572
 20
1842.9312677526
 30
0.0
 11
668.3324114027
 21
1843.0551914904
 31
0.0
  0
LINE
  5
372
330
1F
100
AcDbEntity
  8
1
  6
SLD-Сплошная
100
AcDbLine
 10
667.1117861003
 20
1842.7588757013
 30
0.0
 11
668.3324114027
 21
1843.0551914904
 31
0.0
  0
LINE
  5
373
330
1F
100
AcDbEntity
  8
1
  6
SLD-Сплошная
100
AcDbLine
 10
668.2912011009
 20
1843.9388134993
 30
0.0
 11
668.1672773631
 21
1843.7354346447
 31
0.0
  0
LINE
  5
374
330
1F
100
AcDbEntity
  8
1
  6
SLD-Сплошная
100
AcDbLine
 10
668.1672773631
 20
1843.7354346447
 30
0.0
 11
666.9466520607
 21
1843.4391188556
 31
0.0
  0
LINE
  5
375
330
1F
100
AcDbEntity
  8
1
  6
SLD-Сплошная
100
AcDbLine
 10
667.3216044868
 20
1840.9385929384
 30
0.0
 11
667.1182256323
 21
1841.0625166762
 31
0.0
  0
LINE
  5
376
330
1F
100
AcDbEntity
  8
1
  6
SLD-Сплошная
100
AcDbLine
 10
667.1182256323
 20
1841.0625166762
 30
0.0
 11
666.8219098432
 21
1842.2831419786
 31
0.0
  0
LINE
  5
377
330
1F
100
AcDbEntity
  8
1
  6
SLD-Сплошная
100
AcDbLine
 10
664.321383926
 20
1841.9081895524
 30
0.0
 11
664.4453076638
 21
1842.111568407
 31
0.0
  0
LINE
  5
378
330
1F
100
AcDbEntity
  8
1
  6
SLD-Сплошная
100
AcDbLine
 10
664.4453076638
 20
1842.111568407
 30
0.0
 11
665.6659329662
 21
1842.4078841961
 31
0.0
  0
LINE
  5
379
330
1F
100
AcDbEntity
  8
1
  6
SLD-Сплошная
100
AcDbLine
 10
666.3140587401
 20
1840.694003782
 30
0.0
 11
666.437982478
 21
1840.8973826366
 31
0.0
  0
LINE
  5
37A
330
1F
100
AcDbEntity
  8
1
  6
SLD-Сплошная
100
AcDbLine
 10
666.1416666889
 20
1842.118007939
 30
0.0
 11
666.437982478
 21
1840.8973826366
 31
0.0
  0
LINE
  5
37B
330
1F
100
AcDbEntity
  8
1
  6
SLD-Сплошная
100
AcDbLine
 10
664.0767947696
 20
1842.9157352991
 30
0.0
 11
664.2801736242
 21
1842.7918115613
 31
0.0
  0
LINE
  5
37C
330
1F
100
AcDbEntity
  8
1
  6
SLD-Сплошная
100
AcDbLine
 10
665.5007989266
 20
1843.0881273504
 30
0.0
 11
664.2801736242
 21
1842.7918115613
 31
0.0
  0
LINE
  5
37D
330
1F
100
AcDbEntity
  8
1
  6
SLD-Сплошная
100
AcDbLine
 10
665.29098054
 20
1844.9084101133
 30
0.0
 11
665.4943593946
 21
1844.7844863755
 31
0.0
  0
LINE
  5
37E
330
1F
100
AcDbEntity
  8
1
  6
SLD-Сплошная
100
AcDbLine
 10
665.4943593946
 20
1844.7844863755
 30
0.0
 11
665.7906751837
 21
1843.5638610731
 31
0.0
  0
LINE
  5
37F
330
1F
100
AcDbEntity
  8
1
  6
SLD-Сплошная
100
AcDbLine
 10
666.2985262867
 20
1845.1529992696
 30
0.0
 11
666.1746025489
 21
1844.9496204151
 31
0.0
  0
LINE
  5
380
330
1F
100
AcDbEntity
  8
1
  6
SLD-Сплошная
100
AcDbLine
 10
666.4709183379
 20
1843.7289951127
 30
0.0
 11
666.1746025489
 21
1844.9496204151
 31
0.0
  0
LINE
  5
381
330
1F
100
AcDbEntity
  8
1
  6
SLD-Сплошная
100
AcDbLine
 10
668.3324114027
 20
1843.0551914904
 30
0.0
 11
668.1672773631
 21
1843.7354346447
 31
0.0
  0
LINE
  5
382
330
1F
100
AcDbEntity
  8
1
  6
SLD-Сплошная
100
AcDbLine
 10
666.1746025489
 20
1844.9496204151
 30
0.0
 11
665.4943593946
 21
1844.7844863755
 31
0.0
  0
LINE
  5
383
330
1F
100
AcDbEntity
  8
1
  6
SLD-Сплошная
100
AcDbLine
 10
666.437982478
 20
1840.8973826366
 30
0.0
 11
667.1182256323
 21
1841.0625166762
 31
0.0
  0
LINE
  5
384
330
1F
100
AcDbEntity
  8
1
  6
SLD-Сплошная
100
AcDbLine
 10
664.2801736242
 20
1842.7918115613
 30
0.0
 11
664.4453076638
 21
1842.111568407
 31
0.0
  0
CIRCLE
  5
385
330
1F
100
AcDbEntity
  8
1
  6
SLD-Сплошная
100
AcDbCircle
 10
666.3062925134
 20
1842.9235015258
 30
0.0
 40
5.000000000000082
  0
ARC
  5
386
330
1F
100
AcDbEntity
  8
1
  6
SLD-Сплошная
100
AcDbCircle
 10
583.5515604952
 20
1860.1687695076
 30
0.0
 40
26.56195549685442
100
AcDbArc
 50
223.8816987744
 51
226.1183012256
  0
ARC
  5
387
330
1F
100
AcDbEntity
  8
1
  6
SLD-Сплошная
100
AcDbCircle
 10
550.0648782774
 20
1858.9365244996
 30
0.0
 40
23.4119119161714
100
AcDbArc
 50
310.0824770913
 51
312.9865596106
  0
SPLINE
  5
388
330
1F
100
AcDbEntity
  8
1
  6
SLD-Сплошная
100
AcDbSpline
210
0.0
220
0.0
230
1.0
 70
     8
 71
     3
 72
    12
 73
     8
 74
     0
 42
0.00000001
 43
0.00000001
 40
0.0
 40
0.0
 40
0.0
 40
0.0
 40
0.2187857887072152
 40
0.4375776469534859
 40
0.6562353658863807
 40
0.8748419359491033
 40
1.0
 40
1.0
 40
1.0
 40
1.0
 10
566.5848382095631
 20
1841.810391032036
 30
0.0
 10
566.5495128126943
 20
1841.837354458108
 30
0.0
 10
566.4788610389618
 20
1841.891282058269
 30
0.0
 10
566.344897810321
 20
1841.923877947242
 30
0.0
 10
566.2093551840408
 20
1841.914528816
 30
0.0
 10
566.100457379747
 20
1841.870650057918
 30
0.0
 10
566.047153668941
 20
1841.826474499632
 30
0.0
 10
566.0277468173072
 20
1841.810391032036
 30
0.0
  0
ARC
  5
389
330
1F
100
AcDbEntity
  8
1
  6
SLD-Сплошная
100
AcDbCircle
 10
582.5477067492
 20
1858.9365244993
 30
0.0
 40
23.41191191578116
100
AcDbArc
 50
227.0134403894
 51
229.9175229087
  0
ARC
  5
38A
330
1F
100
AcDbEntity
  8
1
  6
SLD-Сплошная
100
AcDbCircle
 10
549.0610245321
 20
1860.1687695072
 30
0.0
 40
26.56195549625512
100
AcDbArc
 50
313.8816987744
 51
316.1183012256
  0
ARC
  5
38B
330
1F
100
AcDbEntity
  8
1
  6
SLD-Сплошная
100
AcDbCircle
 10
550.2932695401
 20
1826.6820872902
 30
0.0
 40
23.4119119155866
100
AcDbArc
 50
40.0824770913
 51
42.9865596106
  0
SPLINE
  5
38C
330
1F
100
AcDbEntity
  8
1
  6
SLD-Сплошная
100
AcDbSpline
210
0.0
220
0.0
230
1.0
 70
     8
 71
     3
 72
    12
 73
     8
 74
     0
 42
0.00000001
 43
0.00000001
 40
0.0
 40
0.0
 40
0.0
 40
0.0
 40
0.2187857887072017
 40
0.4375776469534837
 40
0.6562353658863882
 40
0.8748419359490935
 40
1.0
 40
1.0
 40
1.0
 40
1.0
 10
567.4194030072475
 20
1843.202047221976
 30
0.0
 10
567.3924395811755
 20
1843.166721825107
 30
0.0
 10
567.3385119810139
 20
1843.096070051374
 30
0.0
 10
567.3059160920409
 20
1842.962106822734
 30
0.0
 10
567.315265223283
 20
1842.826564196453
 30
0.0
 10
567.3591439813648
 20
1842.71766639216
 30
0.0
 10
567.4033195396513
 20
1842.664362681354
 30
0.0
 10
567.4194030072475
 20
1842.64495582972
 30
0.0
  0
ARC
  5
38D
330
1F
100
AcDbEntity
  8
1
  6
SLD-Сплошная
100
AcDbCircle
 10
550.2932695397
 20
1859.1649157619
 30
0.0
 40
23.41191191616499
100
AcDbArc
 50
317.0134403894
 51
319.9175229087
  0
ARC
  5
38E
330
1F
100
AcDbEntity
  8
1
  6
SLD-Сплошная
100
AcDbCircle
 10
549.0610245318
 20
1825.6782335442
 30
0.0
 40
26.56195549664887
100
AcDbArc
 50
43.8816987744
 51
46.1183012256
  0
ARC
  5
38F
330
1F
100
AcDbEntity
  8
1
  6
SLD-Сплошная
100
AcDbCircle
 10
582.5477067497
 20
1826.9104785519
 30
0.0
 40
23.41191191645863
100
AcDbArc
 50
130.0824770913
 51
132.9865596106
  0
SPLINE
  5
390
330
1F
100
AcDbEntity
  8
1
  6
SLD-Сплошная
100
AcDbSpline
210
0.0
220
0.0
230
1.0
 70
     8
 71
     3
 72
    12
 73
     8
 74
     0
 42
0.00000001
 43
0.00000001
 40
0.0
 40
0.0
 40
0.0
 40
0.0
 40
0.2187857887072151
 40
0.4375776469534844
 40
0.6562353658864016
 40
0.8748419359491032
 40
1.0
 40
1.0
 40
1.0
 40
1.0
 10
566.0277468173072
 20
1844.03661201966
 30
0.0
 10
566.0630722141761
 20
1844.009648593588
 30
0.0
 10
566.1337239879085
 20
1843.955720993426
 30
0.0
 10
566.2676872165496
 20
1843.923125104453
 30
0.0
 10
566.4032298428295
 20
1843.932474235696
 30
0.0
 10
566.5121276471235
 20
1843.976352993777
 30
0.0
 10
566.5654313579294
 20
1844.020528552064
 30
0.0
 10
566.5848382095631
 20
1844.03661201966
 30
0.0
  0
ARC
  5
391
330
1F
100
AcDbEntity
  8
1
  6
SLD-Сплошная
100
AcDbCircle
 10
550.0648782773
 20
1826.910478552
 30
0.0
 40
23.41191191626643
100
AcDbArc
 50
47.0134403894
 51
49.9175229087
  0
ARC
  5
392
330
1F
100
AcDbEntity
  8
1
  6
SLD-Сплошная
100
AcDbCircle
 10
583.5515604951
 20
1825.6782335442
 30
0.0
 40
26.5619554967231
100
AcDbArc
 50
133.8816987744
 51
136.1183012256
  0
ARC
  5
393
330
1F
100
AcDbEntity
  8
1
  6
SLD-Сплошная
100
AcDbCircle
 10
582.3193154871
 20
1859.1649157618
 30
0.0
 40
23.41191191600889
100
AcDbArc
 50
220.0824770913
 51
222.9865596106
  0
SPLINE
  5
394
330
1F
100
AcDbEntity
  8
1
  6
SLD-Сплошная
100
AcDbSpline
210
0.0
220
0.0
230
1.0
 70
     8
 71
     3
 72
    12
 73
     8
 74
     0
 42
0.00000001
 43
0.00000001
 40
0.0
 40
0.0
 40
0.0
 40
0.0
 40
0.2187857887072019
 40
0.4375776469534788
 40
0.6562353658863835
 40
0.8748419359490891
 40
1.0
 40
1.0
 40
1.0
 40
1.0
 10
565.193182019623
 20
1842.64495582972
 30
0.0
 10
565.220145445695
 20
1842.680281226589
 30
0.0
 10
565.2740730458565
 20
1842.750933000321
 30
0.0
 10
565.3066689348296
 20
1842.884896228962
 30
0.0
 10
565.2973198035876
 20
1843.020438855242
 30
0.0
 10
565.2534410455057
 20
1843.129336659536
 30
0.0
 10
565.2092654872192
 20
1843.182640370342
 30
0.0
 10
565.193182019623
 20
1843.202047221976
 30
0.0
  0
ARC
  5
395
330
1F
100
AcDbEntity
  8
1
  6
SLD-Сплошная
100
AcDbCircle
 10
582.3193154866
 20
1826.6820872903
 30
0.0
 40
23.4119119154302
100
AcDbArc
 50
137.0134403894
 51
139.9175229087
  0
CIRCLE
  5
396
330
1F
100
AcDbEntity
  8
1
  6
SLD-Сплошная
100
AcDbCircle
 10
566.3062925134
 20
1842.9235015258
 30
0.0
 40
3.499999999999948
  0
ELLIPSE
  5
397
330
1F
100
AcDbEntity
  8
1
  6
SLD-Сплошная
100
AcDbEllipse
 10
567.3756792947
 20
1842.9235015258
 30
0.0
 11
-0.4122489361055841
 21
0.0
 31
0.0
210
0.0
220
0.0
230
1.0
 40
0.9702875252
 41
5.512866274278639
 42
7.053504340080548
  0
ELLIPSE
  5
398
330
1F
100
AcDbEntity
  8
1
  6
SLD-Сплошная
100
AcDbEllipse
 10
566.3062925134
 20
1843.9928883071
 30
0.0
 11
0.0
 21
-0.4122489361056978
 31
0.0
210
0.0
220
0.0
230
1.0
 40
0.9702875252
 41
5.512866274278359
 42
7.053504340080828
  0
ELLIPSE
  5
399
330
1F
100
AcDbEntity
  8
1
  6
SLD-Сплошная
100
AcDbEllipse
 10
566.3062925134
 20
1841.8541147446
 30
0.0
 11
0.0
 21
0.4122489361054704
 31
0.0
210
0.0
220
0.0
230
1.0
 40
0.9702875252
 41
5.512866274278251
 42
7.053504340080936
  0
ELLIPSE
  5
39A
330
1F
100
AcDbEntity
  8
1
  6
SLD-Сплошная
100
AcDbEllipse
 10
565.2369057322
 20
1842.9235015258
 30
0.0
 11
0.4122489361055841
 21
0.0
 31
0.0
210
0.0
220
0.0
230
1.0
 40
0.9702875252
 41
5.512866274278163
 42
7.053504340081024
  0
LINE
  5
39B
330
1F
100
AcDbEntity
  8
1
  6
SLD-Сплошная
100
AcDbLine
 10
567.4730187024
 20
1844.8233621797
 30
0.0
 11
567.4730187024
 21
1844.5852024616
 31
0.0
  0
LINE
  5
39C
330
1F
100
AcDbEntity
  8
1
  6
SLD-Сплошная
100
AcDbLine
 10
567.4730187024
 20
1844.5852024616
 30
0.0
 11
566.5848382096
 21
1843.6970219688
 31
0.0
  0
LINE
  5
39D
330
1F
100
AcDbEntity
  8
1
  6
SLD-Сплошная
100
AcDbLine
 10
568.2061531672
 20
1844.0902277148
 30
0.0
 11
567.9679934492
 21
1844.0902277148
 31
0.0
  0
LINE
  5
39E
330
1F
100
AcDbEntity
  8
1
  6
SLD-Сплошная
100
AcDbLine
 10
567.0798129564
 20
1843.202047222
 30
0.0
 11
567.9679934492
 21
1844.0902277148
 31
0.0
  0
LINE
  5
39F
330
1F
100
AcDbEntity
  8
1
  6
SLD-Сплошная
100
AcDbLine
 10
565.1395663245
 20
1841.023640872
 30
0.0
 11
565.1395663245
 21
1841.2618005901
 31
0.0
  0
LINE
  5
3A0
330
1F
100
AcDbEntity
  8
1
  6
SLD-Сплошная
100
AcDbLine
 10
565.1395663245
 20
1841.2618005901
 30
0.0
 11
566.0277468173
 21
1842.1499810829
 31
0.0
  0
LINE
  5
3A1
330
1F
100
AcDbEntity
  8
1
  6
SLD-Сплошная
100
AcDbLine
 10
568.2061531672
 20
1841.7567753369
 30
0.0
 11
567.9679934492
 21
1841.7567753369
 31
0.0
  0
LINE
  5
3A2
330
1F
100
AcDbEntity
  8
1
  6
SLD-Сплошная
100
AcDbLine
 10
567.9679934492
 20
1841.7567753369
 30
0.0
 11
567.0798129564
 21
1842.6449558297
 31
0.0
  0
LINE
  5
3A3
330
1F
100
AcDbEntity
  8
1
  6
SLD-Сплошная
100
AcDbLine
 10
564.4064318596
 20
1841.7567753369
 30
0.0
 11
564.6445915776
 21
1841.7567753369
 31
0.0
  0
LINE
  5
3A4
330
1F
100
AcDbEntity
  8
1
  6
SLD-Сплошная
100
AcDbLine
 10
565.5327720705
 20
1842.6449558297
 30
0.0
 11
564.6445915776
 21
1841.7567753369
 31
0.0
  0
LINE
  5
3A5
330
1F
100
AcDbEntity
  8
1
  6
SLD-Сплошная
100
AcDbLine
 10
567.4730187024
 20
1841.023640872
 30
0.0
 11
567.4730187024
 21
1841.2618005901
 31
0.0
  0
LINE
  5
3A6
330
1F
100
AcDbEntity
  8
1
  6
SLD-Сплошная
100
AcDbLine
 10
566.5848382096
 20
1842.1499810829
 30
0.0
 11
567.4730187024
 21
1841.2618005901
 31
0.0
  0
LINE
  5
3A7
330
1F
100
AcDbEntity
  8
1
  6
SLD-Сплошная
100
AcDbLine
 10
564.4064318596
 20
1844.0902277148
 30
0.0
 11
564.6445915776
 21
1844.0902277148
 31
0.0
  0
LINE
  5
3A8
330
1F
100
AcDbEntity
  8
1
  6
SLD-Сплошная
100
AcDbLine
 10
564.6445915776
 20
1844.0902277148
 30
0.0
 11
565.5327720705
 21
1843.202047222
 31
0.0
  0
LINE
  5
3A9
330
1F
100
AcDbEntity
  8
1
  6
SLD-Сплошная
100
AcDbLine
 10
565.1395663245
 20
1844.8233621797
 30
0.0
 11
565.1395663245
 21
1844.5852024616
 31
0.0
  0
LINE
  5
3AA
330
1F
100
AcDbEntity
  8
1
  6
SLD-Сплошная
100
AcDbLine
 10
566.0277468173
 20
1843.6970219688
 30
0.0
 11
565.1395663245
 21
1844.5852024616
 31
0.0
  0
LINE
  5
3AB
330
1F
100
AcDbEntity
  8
1
  6
SLD-Сплошная
100
AcDbLine
 10
567.9679934492
 20
1844.0902277148
 30
0.0
 11
567.4730187024
 21
1844.5852024616
 31
0.0
  0
LINE
  5
3AC
330
1F
100
AcDbEntity
  8
1
  6
SLD-Сплошная
100
AcDbLine
 10
567.4730187024
 20
1841.2618005901
 30
0.0
 11
567.9679934492
 21
1841.7567753369
 31
0.0
  0
LINE
  5
3AD
330
1F
100
AcDbEntity
  8
1
  6
SLD-Сплошная
100
AcDbLine
 10
565.1395663245
 20
1844.5852024616
 30
0.0
 11
564.6445915776
 21
1844.0902277148
 31
0.0
  0
LINE
  5
3AE
330
1F
100
AcDbEntity
  8
1
  6
SLD-Сплошная
100
AcDbLine
 10
564.6445915776
 20
1841.7567753369
 30
0.0
 11
565.1395663245
 21
1841.2618005901
 31
0.0
  0
CIRCLE
  5
3AF
330
1F
100
AcDbEntity
  8
1
  6
SLD-Сплошная
100
AcDbCircle
 10
566.3062925134
 20
1842.9235015258
 30
0.0
 40
4.99999999999996
  0
ELLIPSE
  5
3B0
330
1F
100
AcDbEntity
  8
1
  6
SLD-Сплошная
100
AcDbEllipse
 10
466.3062925134
 20
1683.9928883071
 30
0.0
 11
0.0
 21
-0.4122489361059252
 31
0.0
210
0.0
220
0.0
230
1.0
 40
0.9702875252
 41
5.512866274278537
 42
7.053504340080547
  0
SPLINE
  5
3B1
330
1F
100
AcDbEntity
  8
1
  6
SLD-Сплошная
100
AcDbSpline
210
0.0
220
0.0
230
1.0
 70
     8
 71
     3
 72
    12
 73
     8
 74
     0
 42
0.00000001
 43
0.00000001
 40
0.0
 40
0.0
 40
0.0
 40
0.0
 40
0.2187857887071718
 40
0.4375776469534864
 40
0.6562353658863612
 40
0.8748419359490948
 40
1.0
 40
1.0
 40
1.0
 40
1.0
 10
466.0277468173072
 20
1684.036612019647
 30
0.0
 10
466.0630722141761
 20
1684.009648593575
 30
0.0
 10
466.1337239879085
 20
1683.955720993413
 30
0.0
 10
466.2676872165495
 20
1683.92312510444
 30
0.0
 10
466.4032298428295
 20
1683.932474235683
 30
0.0
 10
466.5121276471236
 20
1683.976352993764
 30
0.0
 10
466.5654313579295
 20
1684.020528552051
 30
0.0
 10
466.5848382095633
 20
1684.036612019647
 30
0.0
  0
ARC
  5
3B2
330
1F
100
AcDbEntity
  8
1
  6
SLD-Сплошная
100
AcDbCircle
 10
449.0610245317
 20
1700.1687695076
 30
0.0
 40
26.56195549684542
100
AcDbArc
 50
313.8816987744
 51
316.1183012256
  0
ARC
  5
3B3
330
1F
100
AcDbEntity
  8
1
  6
SLD-Сплошная
100
AcDbCircle
 10
450.2932695398
 20
1666.6820872899
 30
0.0
 40
23.41191191607246
100
AcDbArc
 50
40.0824770913
 51
42.9865596106
  0
SPLINE
  5
3B4
330
1F
100
AcDbEntity
  8
1
  6
SLD-Сплошная
100
AcDbSpline
210
0.0
220
0.0
230
1.0
 70
     8
 71
     3
 72
    12
 73
     8
 74
     0
 42
0.00000001
 43
0.00000001
 40
0.0
 40
0.0
 40
0.0
 40
0.0
 40
0.2187857887072258
 40
0.4375776469534892
 40
0.6562353658863563
 40
0.8748419359490992
 40
1.0
 40
1.0
 40
1.0
 40
1.0
 10
467.4194030072475
 20
1683.202047221963
 30
0.0
 10
467.3924395811755
 20
1683.166721825094
 30
0.0
 10
467.3385119810139
 20
1683.096070051361
 30
0.0
 10
467.3059160920409
 20
1682.96210682272
 30
0.0
 10
467.3152652232831
 20
1682.826564196441
 30
0.0
 10
467.3591439813648
 20
1682.717666392147
 30
0.0
 10
467.4033195396513
 20
1682.664362681341
 30
0.0
 10
467.4194030072475
 20
1682.644955829707
 30
0.0
  0
ARC
  5
3B5
330
1F
100
AcDbEntity
  8
1
  6
SLD-Сплошная
100
AcDbCircle
 10
450.2932695398
 20
1699.1649157618
 30
0.0
 40
23.4119119160726
100
AcDbArc
 50
317.0134403894
 51
319.9175229087
  0
ARC
  5
3B6
330
1F
100
AcDbEntity
  8
1
  6
SLD-Сплошная
100
AcDbCircle
 10
449.0610245322
 20
1665.6782335446
 30
0.0
 40
26.56195549612383
100
AcDbArc
 50
43.8816987744
 51
46.1183012256
  0
ARC
  5
3B7
330
1F
100
AcDbEntity
  8
1
  6
SLD-Сплошная
100
AcDbCircle
 10
482.5477067495
 20
1666.910478552
 30
0.0
 40
23.41191191628558
100
AcDbArc
 50
130.0824770913
 51
132.9865596106
  0
ARC
  5
3B8
330
1F
100
AcDbEntity
  8
1
  6
SLD-Сплошная
100
AcDbCircle
 10
450.0648782773
 20
1666.910478552
 30
0.0
 40
23.4119119162631
100
AcDbArc
 50
47.0134403894
 51
49.9175229087
  0
ARC
  5
3B9
330
1F
100
AcDbEntity
  8
1
  6
SLD-Сплошная
100
AcDbCircle
 10
483.5515604945
 20
1665.6782335447
 30
0.0
 40
26.56195549586636
100
AcDbArc
 50
133.8816987744
 51
136.1183012256
  0
ARC
  5
3BA
330
1F
100
AcDbEntity
  8
1
  6
SLD-Сплошная
100
AcDbCircle
 10
482.3193154872
 20
1699.1649157619
 30
0.0
 40
23.41191191618785
100
AcDbArc
 50
220.0824770913
 51
222.9865596106
  0
SPLINE
  5
3BB
330
1F
100
AcDbEntity
  8
1
  6
SLD-Сплошная
100
AcDbSpline
210
0.0
220
0.0
230
1.0
 70
     8
 71
     3
 72
    12
 73
     8
 74
     0
 42
0.00000001
 43
0.00000001
 40
0.0
 40
0.0
 40
0.0
 40
0.0
 40
0.2187857887072096
 40
0.4375776469534813
 40
0.6562353658864019
 40
0.8748419359490944
 40
1.0
 40
1.0
 40
1.0
 40
1.0
 10
465.193182019623
 20
1682.644955829707
 30
0.0
 10
465.220145445695
 20
1682.680281226576
 30
0.0
 10
465.2740730458565
 20
1682.750933000308
 30
0.0
 10
465.3066689348296
 20
1682.884896228949
 30
0.0
 10
465.2973198035875
 20
1683.020438855229
 30
0.0
 10
465.2534410455058
 20
1683.129336659523
 30
0.0
 10
465.2092654872192
 20
1683.182640370329
 30
0.0
 10
465.193182019623
 20
1683.202047221963
 30
0.0
  0
ARC
  5
3BC
330
1F
100
AcDbEntity
  8
1
  6
SLD-Сплошная
100
AcDbCircle
 10
482.319315487
 20
1666.68208729
 30
0.0
 40
23.41191191593062
100
AcDbArc
 50
137.0134403894
 51
139.9175229087
  0
ARC
  5
3BD
330
1F
100
AcDbEntity
  8
1
  6
SLD-Сплошная
100
AcDbCircle
 10
483.5515604949
 20
1700.1687695073
 30
0.0
 40
26.56195549642487
100
AcDbArc
 50
223.8816987744
 51
226.1183012256
  0
ARC
  5
3BE
330
1F
100
AcDbEntity
  8
1
  6
SLD-Сплошная
100
AcDbCircle
 10
450.0648782772
 20
1698.9365244998
 30
0.0
 40
23.4119119164962
100
AcDbArc
 50
310.0824770913
 51
312.9865596106
  0
SPLINE
  5
3BF
330
1F
100
AcDbEntity
  8
1
  6
SLD-Сплошная
100
AcDbSpline
210
0.0
220
0.0
230
1.0
 70
     8
 71
     3
 72
    12
 73
     8
 74
     0
 42
0.00000001
 43
0.00000001
 40
0.0
 40
0.0
 40
0.0
 40
0.0
 40
0.218785788707225
 40
0.4375776469534876
 40
0.656235365886399
 40
0.8748419359490996
 40
1.0
 40
1.0
 40
1.0
 40
1.0
 10
466.5848382095633
 20
1681.810391032023
 30
0.0
 10
466.5495128126943
 20
1681.837354458095
 30
0.0
 10
466.478861038962
 20
1681.891282058256
 30
0.0
 10
466.344897810321
 20
1681.923877947229
 30
0.0
 10
466.2093551840408
 20
1681.914528815987
 30
0.0
 10
466.100457379747
 20
1681.870650057905
 30
0.0
 10
466.0471536689411
 20
1681.826474499619
 30
0.0
 10
466.0277468173072
 20
1681.810391032023
 30
0.0
  0
ARC
  5
3C0
330
1F
100
AcDbEntity
  8
1
  6
SLD-Сплошная
100
AcDbCircle
 10
482.5477067496
 20
1698.9365244997
 30
0.0
 40
23.41191191637365
100
AcDbArc
 50
227.0134403894
 51
229.9175229087
  0
CIRCLE
  5
3C1
330
1F
100
AcDbEntity
  8
1
  6
SLD-Сплошная
100
AcDbCircle
 10
466.3062925134
 20
1682.9235015258
 30
0.0
 40
3.499999999999948
  0
ELLIPSE
  5
3C2
330
1F
100
AcDbEntity
  8
1
  6
SLD-Сплошная
100
AcDbEllipse
 10
466.3062925134
 20
1681.8541147446
 30
0.0
 11
0.0
 21
0.4122489361056978
 31
0.0
210
0.0
220
0.0
230
1.0
 40
0.9702875252
 41
5.51286627427846
 42
7.053504340080828
  0
ELLIPSE
  5
3C3
330
1F
100
AcDbEntity
  8
1
  6
SLD-Сплошная
100
AcDbEllipse
 10
465.2369057322
 20
1682.9235015258
 30
0.0
 11
0.4122489361056409
 21
0.0
 31
0.0
210
0.0
220
0.0
230
1.0
 40
0.9702875252
 41
5.512866274278382
 42
7.053504340080805
  0
ELLIPSE
  5
3C4
330
1F
100
AcDbEntity
  8
1
  6
SLD-Сплошная
100
AcDbEllipse
 10
467.3756792947
 20
1682.9235015258
 30
0.0
 11
-0.4122489361056409
 21
0.0
 31
0.0
210
0.0
220
0.0
230
1.0
 40
0.9702875252
 41
5.512866274278478
 42
7.053504340080709
  0
LINE
  5
3C5
330
1F
100
AcDbEntity
  8
1
  6
SLD-Сплошная
100
AcDbLine
 10
467.4730187024
 20
1681.023640872
 30
0.0
 11
467.4730187024
 21
1681.26180059
 31
0.0
  0
LINE
  5
3C6
330
1F
100
AcDbEntity
  8
1
  6
SLD-Сплошная
100
AcDbLine
 10
466.5848382096
 20
1682.1499810829
 30
0.0
 11
467.4730187024
 21
1681.26180059
 31
0.0
  0
LINE
  5
3C7
330
1F
100
AcDbEntity
  8
1
  6
SLD-Сплошная
100
AcDbLine
 10
468.2061531672
 20
1681.7567753369
 30
0.0
 11
467.9679934492
 21
1681.7567753369
 31
0.0
  0
LINE
  5
3C8
330
1F
100
AcDbEntity
  8
1
  6
SLD-Сплошная
100
AcDbLine
 10
467.9679934492
 20
1681.7567753369
 30
0.0
 11
467.0798129564
 21
1682.6449558297
 31
0.0
  0
LINE
  5
3C9
330
1F
100
AcDbEntity
  8
1
  6
SLD-Сплошная
100
AcDbLine
 10
465.1395663245
 20
1684.8233621796
 30
0.0
 11
465.1395663245
 21
1684.5852024616
 31
0.0
  0
LINE
  5
3CA
330
1F
100
AcDbEntity
  8
1
  6
SLD-Сплошная
100
AcDbLine
 10
466.0277468173
 20
1683.6970219688
 30
0.0
 11
465.1395663245
 21
1684.5852024616
 31
0.0
  0
LINE
  5
3CB
330
1F
100
AcDbEntity
  8
1
  6
SLD-Сплошная
100
AcDbLine
 10
465.1395663245
 20
1681.023640872
 30
0.0
 11
465.1395663245
 21
1681.26180059
 31
0.0
  0
LINE
  5
3CC
330
1F
100
AcDbEntity
  8
1
  6
SLD-Сплошная
100
AcDbLine
 10
465.1395663245
 20
1681.26180059
 30
0.0
 11
466.0277468173
 21
1682.1499810829
 31
0.0
  0
LINE
  5
3CD
330
1F
100
AcDbEntity
  8
1
  6
SLD-Сплошная
100
AcDbLine
 10
464.4064318596
 20
1681.7567753369
 30
0.0
 11
464.6445915776
 21
1681.7567753369
 31
0.0
  0
LINE
  5
3CE
330
1F
100
AcDbEntity
  8
1
  6
SLD-Сплошная
100
AcDbLine
 10
465.5327720705
 20
1682.6449558297
 30
0.0
 11
464.6445915776
 21
1681.7567753369
 31
0.0
  0
LINE
  5
3CF
330
1F
100
AcDbEntity
  8
1
  6
SLD-Сплошная
100
AcDbLine
 10
468.2061531672
 20
1684.0902277148
 30
0.0
 11
467.9679934492
 21
1684.0902277148
 31
0.0
  0
LINE
  5
3D0
330
1F
100
AcDbEntity
  8
1
  6
SLD-Сплошная
100
AcDbLine
 10
467.0798129564
 20
1683.202047222
 30
0.0
 11
467.9679934492
 21
1684.0902277148
 31
0.0
  0
LINE
  5
3D1
330
1F
100
AcDbEntity
  8
1
  6
SLD-Сплошная
100
AcDbLine
 10
467.4730187024
 20
1684.8233621796
 30
0.0
 11
467.4730187024
 21
1684.5852024616
 31
0.0
  0
LINE
  5
3D2
330
1F
100
AcDbEntity
  8
1
  6
SLD-Сплошная
100
AcDbLine
 10
467.4730187024
 20
1684.5852024616
 30
0.0
 11
466.5848382096
 21
1683.6970219688
 31
0.0
  0
LINE
  5
3D3
330
1F
100
AcDbEntity
  8
1
  6
SLD-Сплошная
100
AcDbLine
 10
464.4064318596
 20
1684.0902277148
 30
0.0
 11
464.6445915776
 21
1684.0902277148
 31
0.0
  0
LINE
  5
3D4
330
1F
100
AcDbEntity
  8
1
  6
SLD-Сплошная
100
AcDbLine
 10
464.6445915776
 20
1684.0902277148
 30
0.0
 11
465.5327720705
 21
1683.202047222
 31
0.0
  0
LINE
  5
3D5
330
1F
100
AcDbEntity
  8
1
  6
SLD-Сплошная
100
AcDbLine
 10
464.6445915776
 20
1681.7567753369
 30
0.0
 11
465.1395663245
 21
1681.26180059
 31
0.0
  0
LINE
  5
3D6
330
1F
100
AcDbEntity
  8
1
  6
SLD-Сплошная
100
AcDbLine
 10
467.9679934492
 20
1684.0902277148
 30
0.0
 11
467.4730187024
 21
1684.5852024616
 31
0.0
  0
LINE
  5
3D7
330
1F
100
AcDbEntity
  8
1
  6
SLD-Сплошная
100
AcDbLine
 10
467.4730187024
 20
1681.26180059
 30
0.0
 11
467.9679934492
 21
1681.7567753369
 31
0.0
  0
LINE
  5
3D8
330
1F
100
AcDbEntity
  8
1
  6
SLD-Сплошная
100
AcDbLine
 10
465.1395663245
 20
1684.5852024616
 30
0.0
 11
464.6445915776
 21
1684.0902277148
 31
0.0
  0
CIRCLE
  5
3D9
330
1F
100
AcDbEntity
  8
1
  6
SLD-Сплошная
100
AcDbCircle
 10
466.3062925134
 20
1682.9235015258
 30
0.0
 40
4.99999999999992
  0
ARC
  5
3DA
330
1F
100
AcDbEntity
  8
1
  6
SLD-Сплошная
100
AcDbCircle
 10
901.0515604953
 20
1780.1687695077
 30
0.0
 40
26.56195549698564
100
AcDbArc
 50
223.8816987744
 51
226.1183012256
  0
ARC
  5
3DB
330
1F
100
AcDbEntity
  8
1
  6
SLD-Сплошная
100
AcDbCircle
 10
867.5648782771
 20
1778.9365244999
 30
0.0
 40
23.41191191658054
100
AcDbArc
 50
310.0824770913
 51
312.9865596106
  0
SPLINE
  5
3DC
330
1F
100
AcDbEntity
  8
1
  6
SLD-Сплошная
100
AcDbSpline
210
0.0
220
0.0
230
1.0
 70
     8
 71
     3
 72
    12
 73
     8
 74
     0
 42
0.00000001
 43
0.00000001
 40
0.0
 40
0.0
 40
0.0
 40
0.0
 40
0.2187857887072158
 40
0.437577646953487
 40
0.656235365886403
 40
0.874841935949098
 40
1.0
 40
1.0
 40
1.0
 40
1.0
 10
884.0848382095633
 20
1761.810391032029
 30
0.0
 10
884.0495128126944
 20
1761.837354458101
 30
0.0
 10
883.9788610389619
 20
1761.891282058263
 30
0.0
 10
883.844897810321
 20
1761.923877947236
 30
0.0
 10
883.7093551840409
 20
1761.914528815994
 30
0.0
 10
883.600457379747
 20
1761.870650057912
 30
0.0
 10
883.5471536689411
 20
1761.826474499625
 30
0.0
 10
883.5277468173073
 20
1761.810391032029
 30
0.0
  0
ARC
  5
3DD
330
1F
100
AcDbEntity
  8
1
  6
SLD-Сплошная
100
AcDbCircle
 10
900.0477067498
 20
1778.9365244999
 30
0.0
 40
23.41191191662674
100
AcDbArc
 50
227.0134403895
 51
229.9175229087
  0
ARC
  5
3DE
330
1F
100
AcDbEntity
  8
1
  6
SLD-Сплошная
100
AcDbCircle
 10
866.5610245319
 20
1780.1687695073
 30
0.0
 40
26.56195549645798
100
AcDbArc
 50
313.8816987744
 51
316.1183012256
  0
ARC
  5
3DF
330
1F
100
AcDbEntity
  8
1
  6
SLD-Сплошная
100
AcDbCircle
 10
867.7932695397
 20
1746.6820872898
 30
0.0
 40
23.4119119162015
100
AcDbArc
 50
40.0824770913
 51
42.9865596106
  0
SPLINE
  5
3E0
330
1F
100
AcDbEntity
  8
1
  6
SLD-Сплошная
100
AcDbSpline
210
0.0
220
0.0
230
1.0
 70
     8
 71
     3
 72
    12
 73
     8
 74
     0
 42
0.00000001
 43
0.00000001
 40
0.0
 40
0.0
 40
0.0
 40
0.0
 40
0.2187857887072255
 40
0.4375776469534884
 40
0.6562353658863777
 40
0.8748419359490994
 40
1.0
 40
1.0
 40
1.0
 40
1.0
 10
884.9194030072476
 20
1763.20204722197
 30
0.0
 10
884.8924395811755
 20
1763.166721825101
 30
0.0
 10
884.8385119810139
 20
1763.096070051368
 30
0.0
 10
884.805916092041
 20
1762.962106822727
 30
0.0
 10
884.8152652232831
 20
1762.826564196447
 30
0.0
 10
884.8591439813648
 20
1762.717666392153
 30
0.0
 10
884.9033195396513
 20
1762.664362681347
 30
0.0
 10
884.9194030072476
 20
1762.644955829714
 30
0.0
  0
ARC
  5
3E1
330
1F
100
AcDbEntity
  8
1
  6
SLD-Сплошная
100
AcDbCircle
 10
867.7932695398
 20
1779.1649157618
 30
0.0
 40
23.41191191602917
100
AcDbArc
 50
317.0134403894
 51
319.9175229087
  0
ARC
  5
3E2
330
1F
100
AcDbEntity
  8
1
  6
SLD-Сплошная
100
AcDbCircle
 10
866.5610245326
 20
1745.678233545
 30
0.0
 40
26.56195549555137
100
AcDbArc
 50
43.8816987744
 51
46.1183012256
  0
ARC
  5
3E3
330
1F
100
AcDbEntity
  8
1
  6
SLD-Сплошная
100
AcDbCircle
 10
900.0477067495
 20
1746.910478552
 30
0.0
 40
23.41191191629081
100
AcDbArc
 50
130.0824770913
 51
132.9865596106
  0
SPLINE
  5
3E4
330
1F
100
AcDbEntity
  8
1
  6
SLD-Сплошная
100
AcDbSpline
210
0.0
220
0.0
230
1.0
 70
     8
 71
     3
 72
    12
 73
     8
 74
     0
 42
0.00000001
 43
0.00000001
 40
0.0
 40
0.0
 40
0.0
 40
0.0
 40
0.2187857887071779
 40
0.4375776469534922
 40
0.6562353658863623
 40
0.8748419359490983
 40
1.0
 40
1.0
 40
1.0
 40
1.0
 10
883.5277468173073
 20
1764.036612019654
 30
0.0
 10
883.5630722141761
 20
1764.009648593582
 30
0.0
 10
883.6337239879086
 20
1763.95572099342
 30
0.0
 10
883.7676872165496
 20
1763.923125104447
 30
0.0
 10
883.9032298428297
 20
1763.932474235689
 30
0.0
 10
884.0121276471235
 20
1763.976352993771
 30
0.0
 10
884.0654313579295
 20
1764.020528552058
 30
0.0
 10
884.0848382095633
 20
1764.036612019654
 30
0.0
  0
ARC
  5
3E5
330
1F
100
AcDbEntity
  8
1
  6
SLD-Сплошная
100
AcDbCircle
 10
867.5648782774
 20
1746.910478552
 30
0.0
 40
23.41191191624468
100
AcDbArc
 50
47.0134403894
 51
49.9175229087
  0
ARC
  5
3E6
330
1F
100
AcDbEntity
  8
1
  6
SLD-Сплошная
100
AcDbCircle
 10
901.0515604947
 20
1745.6782335446
 30
0.0
 40
26.5619554960791
100
AcDbArc
 50
133.8816987744
 51
136.1183012256
  0
ARC
  5
3E7
330
1F
100
AcDbEntity
  8
1
  6
SLD-Сплошная
100
AcDbCircle
 10
899.8193154871
 20
1779.1649157618
 30
0.0
 40
23.41191191612981
100
AcDbArc
 50
220.0824770913
 51
222.9865596106
  0
SPLINE
  5
3E8
330
1F
100
AcDbEntity
  8
1
  6
SLD-Сплошная
100
AcDbSpline
210
0.0
220
0.0
230
1.0
 70
     8
 71
     3
 72
    12
 73
     8
 74
     0
 42
0.00000001
 43
0.00000001
 40
0.0
 40
0.0
 40
0.0
 40
0.0
 40
0.2187857887072118
 40
0.4375776469534857
 40
0.6562353658864084
 40
0.8748419359491202
 40
1.0
 40
1.0
 40
1.0
 40
1.0
 10
882.6931820196231
 20
1762.644955829714
 30
0.0
 10
882.7201454456952
 20
1762.680281226583
 30
0.0
 10
882.7740730458567
 20
1762.750933000315
 30
0.0
 10
882.8066689348298
 20
1762.884896228956
 30
0.0
 10
882.7973198035876
 20
1763.020438855236
 30
0.0
 10
882.7534410455057
 20
1763.12933665953
 30
0.0
 10
882.7092654872193
 20
1763.182640370336
 30
0.0
 10
882.693182019623
 20
1763.20204722197
 30
0.0
  0
ARC
  5
3E9
330
1F
100
AcDbEntity
  8
1
  6
SLD-Сплошная
100
AcDbCircle
 10
899.8193154874
 20
1746.6820872896
 30
0.0
 40
23.41191191642158
100
AcDbArc
 50
137.0134403894
 51
139.9175229087
  0
CIRCLE
  5
3EA
330
1F
100
AcDbEntity
  8
1
  6
SLD-Сплошная
100
AcDbCircle
 10
883.8062925134
 20
1762.9235015258
 30
0.0
 40
3.500000000000028
  0
ELLIPSE
  5
3EB
330
1F
100
AcDbEntity
  8
1
  6
SLD-Сплошная
100
AcDbEllipse
 10
883.8062925134
 20
1763.9928883071
 30
0.0
 11
0.0
 21
-0.4122489361054704
 31
0.0
210
0.0
220
0.0
230
1.0
 40
0.9702875252
 41
5.512866274278776
 42
7.053504340080206
  0
ELLIPSE
  5
3EC
330
1F
100
AcDbEntity
  8
1
  6
SLD-Сплошная
100
AcDbEllipse
 10
882.7369057322
 20
1762.9235015258
 30
0.0
 11
0.4122489361056978
 21
0.0
 31
0.0
210
0.0
220
0.0
230
1.0
 40
0.9702875252
 41
5.512866274278501
 42
7.053504340080686
  0
ELLIPSE
  5
3ED
330
1F
100
AcDbEntity
  8
1
  6
SLD-Сплошная
100
AcDbEllipse
 10
884.8756792947
 20
1762.9235015258
 30
0.0
 11
-0.4122489361055841
 21
0.0
 31
0.0
210
0.0
220
0.0
230
1.0
 40
0.9702875252
 41
5.512866274278546
 42
7.053504340080639
  0
ELLIPSE
  5
3EE
330
1F
100
AcDbEntity
  8
1
  6
SLD-Сплошная
100
AcDbEllipse
 10
883.8062925134
 20
1761.8541147446
 30
0.0
 11
0.0
 21
0.4122489361054704
 31
0.0
210
0.0
220
0.0
230
1.0
 40
0.9702875252
 41
5.512866274278838
 42
7.053504340080551
  0
LINE
  5
3EF
330
1F
100
AcDbEntity
  8
1
  6
SLD-Сплошная
100
AcDbLine
 10
884.9730187024
 20
1764.8233621796
 30
0.0
 11
884.9730187024
 21
1764.5852024616
 31
0.0
  0
LINE
  5
3F0
330
1F
100
AcDbEntity
  8
1
  6
SLD-Сплошная
100
AcDbLine
 10
884.9730187024
 20
1764.5852024616
 30
0.0
 11
884.0848382096
 21
1763.6970219688
 31
0.0
  0
LINE
  5
3F1
330
1F
100
AcDbEntity
  8
1
  6
SLD-Сплошная
100
AcDbLine
 10
885.7061531672
 20
1764.0902277148
 30
0.0
 11
885.4679934492
 21
1764.0902277148
 31
0.0
  0
LINE
  5
3F2
330
1F
100
AcDbEntity
  8
1
  6
SLD-Сплошная
100
AcDbLine
 10
884.5798129564
 20
1763.202047222
 30
0.0
 11
885.4679934492
 21
1764.0902277148
 31
0.0
  0
LINE
  5
3F3
330
1F
100
AcDbEntity
  8
1
  6
SLD-Сплошная
100
AcDbLine
 10
882.6395663245
 20
1764.8233621796
 30
0.0
 11
882.6395663245
 21
1764.5852024616
 31
0.0
  0
LINE
  5
3F4
330
1F
100
AcDbEntity
  8
1
  6
SLD-Сплошная
100
AcDbLine
 10
883.5277468173
 20
1763.6970219688
 30
0.0
 11
882.6395663245
 21
1764.5852024616
 31
0.0
  0
LINE
  5
3F5
330
1F
100
AcDbEntity
  8
1
  6
SLD-Сплошная
100
AcDbLine
 10
881.9064318596
 20
1764.0902277148
 30
0.0
 11
882.1445915776
 21
1764.0902277148
 31
0.0
  0
LINE
  5
3F6
330
1F
100
AcDbEntity
  8
1
  6
SLD-Сплошная
100
AcDbLine
 10
882.1445915776
 20
1764.0902277148
 30
0.0
 11
883.0327720705
 21
1763.202047222
 31
0.0
  0
LINE
  5
3F7
330
1F
100
AcDbEntity
  8
1
  6
SLD-Сплошная
100
AcDbLine
 10
881.9064318596
 20
1761.7567753369
 30
0.0
 11
882.1445915776
 21
1761.7567753369
 31
0.0
  0
LINE
  5
3F8
330
1F
100
AcDbEntity
  8
1
  6
SLD-Сплошная
100
AcDbLine
 10
883.0327720705
 20
1762.6449558297
 30
0.0
 11
882.1445915776
 21
1761.7567753369
 31
0.0
  0
LINE
  5
3F9
330
1F
100
AcDbEntity
  8
1
  6
SLD-Сплошная
100
AcDbLine
 10
884.9730187024
 20
1761.023640872
 30
0.0
 11
884.9730187024
 21
1761.2618005901
 31
0.0
  0
LINE
  5
3FA
330
1F
100
AcDbEntity
  8
1
  6
SLD-Сплошная
100
AcDbLine
 10
884.0848382096
 20
1762.1499810829
 30
0.0
 11
884.9730187024
 21
1761.2618005901
 31
0.0
  0
LINE
  5
3FB
330
1F
100
AcDbEntity
  8
1
  6
SLD-Сплошная
100
AcDbLine
 10
885.7061531672
 20
1761.7567753369
 30
0.0
 11
885.4679934492
 21
1761.7567753369
 31
0.0
  0
LINE
  5
3FC
330
1F
100
AcDbEntity
  8
1
  6
SLD-Сплошная
100
AcDbLine
 10
885.4679934492
 20
1761.7567753369
 30
0.0
 11
884.5798129564
 21
1762.6449558297
 31
0.0
  0
LINE
  5
3FD
330
1F
100
AcDbEntity
  8
1
  6
SLD-Сплошная
100
AcDbLine
 10
882.6395663245
 20
1761.023640872
 30
0.0
 11
882.6395663245
 21
1761.2618005901
 31
0.0
  0
LINE
  5
3FE
330
1F
100
AcDbEntity
  8
1
  6
SLD-Сплошная
100
AcDbLine
 10
882.6395663245
 20
1761.2618005901
 30
0.0
 11
883.5277468173
 21
1762.1499810829
 31
0.0
  0
LINE
  5
3FF
330
1F
100
AcDbEntity
  8
1
  6
SLD-Сплошная
100
AcDbLine
 10
884.9730187024
 20
1761.2618005901
 30
0.0
 11
885.4679934492
 21
1761.7567753369
 31
0.0
  0
LINE
  5
400
330
1F
100
AcDbEntity
  8
1
  6
SLD-Сплошная
100
AcDbLine
 10
885.4679934492
 20
1764.0902277148
 30
0.0
 11
884.9730187024
 21
1764.5852024616
 31
0.0
  0
LINE
  5
401
330
1F
100
AcDbEntity
  8
1
  6
SLD-Сплошная
100
AcDbLine
 10
882.6395663245
 20
1764.5852024616
 30
0.0
 11
882.1445915776
 21
1764.0902277148
 31
0.0
  0
LINE
  5
402
330
1F
100
AcDbEntity
  8
1
  6
SLD-Сплошная
100
AcDbLine
 10
882.1445915776
 20
1761.7567753369
 30
0.0
 11
882.6395663245
 21
1761.2618005901
 31
0.0
  0
CIRCLE
  5
403
330
1F
100
AcDbEntity
  8
1
  6
SLD-Сплошная
100
AcDbCircle
 10
883.8062925134
 20
1762.9235015258
 30
0.0
 40
4.99999999999996
  0
ELLIPSE
  5
404
330
1F
100
AcDbEntity
  8
1
  6
SLD-Сплошная
100
AcDbEllipse
 10
466.3062925134
 20
1841.8541147446
 30
0.0
 11
0.0
 21
0.4122489361054704
 31
0.0
210
0.0
220
0.0
230
1.0
 40
0.9702875252
 41
5.512866274278353
 42
7.053504340080936
  0
SPLINE
  5
405
330
1F
100
AcDbEntity
  8
1
  6
SLD-Сплошная
100
AcDbSpline
210
0.0
220
0.0
230
1.0
 70
     8
 71
     3
 72
    12
 73
     8
 74
     0
 42
0.00000001
 43
0.00000001
 40
0.0
 40
0.0
 40
0.0
 40
0.0
 40
0.2187857887072148
 40
0.4375776469534852
 40
0.656235365886402
 40
0.8748419359491034
 40
1.0
 40
1.0
 40
1.0
 40
1.0
 10
466.5848382095632
 20
1841.810391032036
 30
0.0
 10
466.5495128126942
 20
1841.837354458108
 30
0.0
 10
466.4788610389618
 20
1841.891282058269
 30
0.0
 10
466.3448978103208
 20
1841.923877947242
 30
0.0
 10
466.2093551840407
 20
1841.914528816
 30
0.0
 10
466.1004573797468
 20
1841.870650057918
 30
0.0
 10
466.047153668941
 20
1841.826474499632
 30
0.0
 10
466.0277468173072
 20
1841.810391032036
 30
0.0
  0
ELLIPSE
  5
406
330
1F
100
AcDbEntity
  8
1
  6
SLD-Сплошная
100
AcDbEllipse
 10
465.2369057322
 20
1842.9235015258
 30
0.0
 11
0.4122489361056409
 21
0.0
 31
0.0
210
0.0
220
0.0
230
1.0
 40
0.9702875252
 41
5.512866274278382
 42
7.053504340080805
  0
SPLINE
  5
407
330
1F
100
AcDbEntity
  8
1
  6
SLD-Сплошная
100
AcDbSpline
210
0.0
220
0.0
230
1.0
 70
     8
 71
     3
 72
    12
 73
     8
 74
     0
 42
0.00000001
 43
0.00000001
 40
0.0
 40
0.0
 40
0.0
 40
0.0
 40
0.218785788707198
 40
0.4375776469534773
 40
0.6562353658863889
 40
0.8748419359491113
 40
1.0
 40
1.0
 40
1.0
 40
1.0
 10
465.1931820196229
 20
1842.64495582972
 30
0.0
 10
465.220145445695
 20
1842.680281226589
 30
0.0
 10
465.2740730458564
 20
1842.750933000321
 30
0.0
 10
465.3066689348296
 20
1842.884896228962
 30
0.0
 10
465.2973198035874
 20
1843.020438855242
 30
0.0
 10
465.2534410455056
 20
1843.129336659536
 30
0.0
 10
465.2092654872192
 20
1843.182640370342
 30
0.0
 10
465.1931820196229
 20
1843.202047221976
 30
0.0
  0
ELLIPSE
  5
408
330
1F
100
AcDbEntity
  8
1
  6
SLD-Сплошная
100
AcDbEllipse
 10
466.3062925134
 20
1843.9928883071
 30
0.0
 11
0.0
 21
-0.4122489361056978
 31
0.0
210
0.0
220
0.0
230
1.0
 40
0.9702875252
 41
5.51286627427843
 42
7.053504340080655
  0
SPLINE
  5
409
330
1F
100
AcDbEntity
  8
1
  6
SLD-Сплошная
100
AcDbSpline
210
0.0
220
0.0
230
1.0
 70
     8
 71
     3
 72
    12
 73
     8
 74
     0
 42
0.00000001
 43
0.00000001
 40
0.0
 40
0.0
 40
0.0
 40
0.0
 40
0.2187857887071772
 40
0.4375776469534897
 40
0.656235365886361
 40
0.8748419359491035
 40
1.0
 40
1.0
 40
1.0
 40
1.0
 10
466.0277468173072
 20
1844.03661201966
 30
0.0
 10
466.0630722141761
 20
1844.009648593588
 30
0.0
 10
466.1337239879085
 20
1843.955720993426
 30
0.0
 10
466.2676872165496
 20
1843.923125104453
 30
0.0
 10
466.4032298428294
 20
1843.932474235696
 30
0.0
 10
466.5121276471235
 20
1843.976352993777
 30
0.0
 10
466.5654313579294
 20
1844.020528552064
 30
0.0
 10
466.5848382095632
 20
1844.03661201966
 30
0.0
  0
ARC
  5
40A
330
1F
100
AcDbEntity
  8
1
  6
SLD-Сплошная
100
AcDbCircle
 10
483.551560495
 20
1860.1687695075
 30
0.0
 40
26.5619554965963
100
AcDbArc
 50
223.8816987744
 51
226.1183012256
  0
ARC
  5
40B
330
1F
100
AcDbEntity
  8
1
  6
SLD-Сплошная
100
AcDbCircle
 10
450.0648782774
 20
1858.9365244995
 30
0.0
 40
23.41191191611973
100
AcDbArc
 50
310.0824770913
 51
312.9865596106
  0
ARC
  5
40C
330
1F
100
AcDbEntity
  8
1
  6
SLD-Сплошная
100
AcDbCircle
 10
482.5477067494
 20
1858.9365244996
 30
0.0
 40
23.41191191614408
100
AcDbArc
 50
227.0134403894
 51
229.9175229087
  0
ARC
  5
40D
330
1F
100
AcDbEntity
  8
1
  6
SLD-Сплошная
100
AcDbCircle
 10
449.0610245317
 20
1860.1687695076
 30
0.0
 40
26.56195549685358
100
AcDbArc
 50
313.8816987744
 51
316.1183012256
  0
ARC
  5
40E
330
1F
100
AcDbEntity
  8
1
  6
SLD-Сплошная
100
AcDbCircle
 10
450.29326954
 20
1826.6820872901
 30
0.0
 40
23.41191191577315
100
AcDbArc
 50
40.0824770913
 51
42.9865596106
  0
SPLINE
  5
40F
330
1F
100
AcDbEntity
  8
1
  6
SLD-Сплошная
100
AcDbSpline
210
0.0
220
0.0
230
1.0
 70
     8
 71
     3
 72
    12
 73
     8
 74
     0
 42
0.00000001
 43
0.00000001
 40
0.0
 40
0.0
 40
0.0
 40
0.0
 40
0.2187857887072109
 40
0.4375776469534843
 40
0.6562353658863843
 40
0.8748419359490952
 40
0.9999999999999999
 40
0.9999999999999999
 40
0.9999999999999999
 40
0.9999999999999999
 10
467.4194030072475
 20
1843.202047221976
 30
0.0
 10
467.3924395811754
 20
1843.166721825107
 30
0.0
 10
467.3385119810139
 20
1843.096070051374
 30
0.0
 10
467.3059160920408
 20
1842.962106822734
 30
0.0
 10
467.3152652232829
 20
1842.826564196453
 30
0.0
 10
467.3591439813647
 20
1842.71766639216
 30
0.0
 10
467.4033195396512
 20
1842.664362681354
 30
0.0
 10
467.4194030072475
 20
1842.64495582972
 30
0.0
  0
ARC
  5
410
330
1F
100
AcDbEntity
  8
1
  6
SLD-Сплошная
100
AcDbCircle
 10
450.2932695395
 20
1859.164915762
 30
0.0
 40
23.41191191641165
100
AcDbArc
 50
317.0134403894
 51
319.9175229087
  0
ARC
  5
411
330
1F
100
AcDbEntity
  8
1
  6
SLD-Сплошная
100
AcDbCircle
 10
449.0610245321
 20
1825.6782335445
 30
0.0
 40
26.56195549619754
100
AcDbArc
 50
43.8816987744
 51
46.1183012256
  0
ARC
  5
412
330
1F
100
AcDbEntity
  8
1
  6
SLD-Сплошная
100
AcDbCircle
 10
482.5477067493
 20
1826.9104785523
 30
0.0
 40
23.41191191590577
100
AcDbArc
 50
130.0824770913
 51
132.9865596106
  0
ARC
  5
413
330
1F
100
AcDbEntity
  8
1
  6
SLD-Сплошная
100
AcDbCircle
 10
450.0648782776
 20
1826.9104785523
 30
0.0
 40
23.41191191588155
100
AcDbArc
 50
47.0134403894
 51
49.9175229087
  0
ARC
  5
414
330
1F
100
AcDbEntity
  8
1
  6
SLD-Сплошная
100
AcDbCircle
 10
483.5515604947
 20
1825.6782335446
 30
0.0
 40
26.56195549607149
100
AcDbArc
 50
133.8816987744
 51
136.1183012256
  0
ARC
  5
415
330
1F
100
AcDbEntity
  8
1
  6
SLD-Сплошная
100
AcDbCircle
 10
482.3193154873
 20
1859.164915762
 30
0.0
 40
23.41191191635225
100
AcDbArc
 50
220.0824770913
 51
222.9865596106
  0
ARC
  5
416
330
1F
100
AcDbEntity
  8
1
  6
SLD-Сплошная
100
AcDbCircle
 10
482.3193154868
 20
1826.6820872901
 30
0.0
 40
23.41191191568969
100
AcDbArc
 50
137.0134403894
 51
139.9175229087
  0
CIRCLE
  5
417
330
1F
100
AcDbEntity
  8
1
  6
SLD-Сплошная
100
AcDbCircle
 10
466.3062925134
 20
1842.9235015258
 30
0.0
 40
3.500000000000028
  0
ELLIPSE
  5
418
330
1F
100
AcDbEntity
  8
1
  6
SLD-Сплошная
100
AcDbEllipse
 10
467.3756792947
 20
1842.9235015258
 30
0.0
 11
-0.4122489361056409
 21
0.0
 31
0.0
210
0.0
220
0.0
230
1.0
 40
0.9702875252
 41
5.512866274278762
 42
7.053504340080424
  0
LINE
  5
419
330
1F
100
AcDbEntity
  8
1
  6
SLD-Сплошная
100
AcDbLine
 10
467.4730187024
 20
1844.8233621797
 30
0.0
 11
467.4730187024
 21
1844.5852024616
 31
0.0
  0
LINE
  5
41A
330
1F
100
AcDbEntity
  8
1
  6
SLD-Сплошная
100
AcDbLine
 10
467.4730187024
 20
1844.5852024616
 30
0.0
 11
466.5848382096
 21
1843.6970219688
 31
0.0
  0
LINE
  5
41B
330
1F
100
AcDbEntity
  8
1
  6
SLD-Сплошная
100
AcDbLine
 10
468.2061531672
 20
1844.0902277148
 30
0.0
 11
467.9679934492
 21
1844.0902277148
 31
0.0
  0
LINE
  5
41C
330
1F
100
AcDbEntity
  8
1
  6
SLD-Сплошная
100
AcDbLine
 10
467.0798129564
 20
1843.202047222
 30
0.0
 11
467.9679934492
 21
1844.0902277148
 31
0.0
  0
LINE
  5
41D
330
1F
100
AcDbEntity
  8
1
  6
SLD-Сплошная
100
AcDbLine
 10
465.1395663245
 20
1844.8233621797
 30
0.0
 11
465.1395663245
 21
1844.5852024616
 31
0.0
  0
LINE
  5
41E
330
1F
100
AcDbEntity
  8
1
  6
SLD-Сплошная
100
AcDbLine
 10
466.0277468173
 20
1843.6970219688
 30
0.0
 11
465.1395663245
 21
1844.5852024616
 31
0.0
  0
LINE
  5
41F
330
1F
100
AcDbEntity
  8
1
  6
SLD-Сплошная
100
AcDbLine
 10
465.1395663245
 20
1841.023640872
 30
0.0
 11
465.1395663245
 21
1841.2618005901
 31
0.0
  0
LINE
  5
420
330
1F
100
AcDbEntity
  8
1
  6
SLD-Сплошная
100
AcDbLine
 10
465.1395663245
 20
1841.2618005901
 30
0.0
 11
466.0277468173
 21
1842.1499810829
 31
0.0
  0
LINE
  5
421
330
1F
100
AcDbEntity
  8
1
  6
SLD-Сплошная
100
AcDbLine
 10
467.4730187024
 20
1841.023640872
 30
0.0
 11
467.4730187024
 21
1841.2618005901
 31
0.0
  0
LINE
  5
422
330
1F
100
AcDbEntity
  8
1
  6
SLD-Сплошная
100
AcDbLine
 10
466.5848382096
 20
1842.1499810829
 30
0.0
 11
467.4730187024
 21
1841.2618005901
 31
0.0
  0
LINE
  5
423
330
1F
100
AcDbEntity
  8
1
  6
SLD-Сплошная
100
AcDbLine
 10
464.4064318596
 20
1841.7567753369
 30
0.0
 11
464.6445915776
 21
1841.7567753369
 31
0.0
  0
LINE
  5
424
330
1F
100
AcDbEntity
  8
1
  6
SLD-Сплошная
100
AcDbLine
 10
465.5327720705
 20
1842.6449558297
 30
0.0
 11
464.6445915776
 21
1841.7567753369
 31
0.0
  0
LINE
  5
425
330
1F
100
AcDbEntity
  8
1
  6
SLD-Сплошная
100
AcDbLine
 10
464.4064318596
 20
1844.0902277148
 30
0.0
 11
464.6445915776
 21
1844.0902277148
 31
0.0
  0
LINE
  5
426
330
1F
100
AcDbEntity
  8
1
  6
SLD-Сплошная
100
AcDbLine
 10
464.6445915776
 20
1844.0902277148
 30
0.0
 11
465.5327720705
 21
1843.202047222
 31
0.0
  0
LINE
  5
427
330
1F
100
AcDbEntity
  8
1
  6
SLD-Сплошная
100
AcDbLine
 10
468.2061531672
 20
1841.7567753369
 30
0.0
 11
467.9679934492
 21
1841.7567753369
 31
0.0
  0
LINE
  5
428
330
1F
100
AcDbEntity
  8
1
  6
SLD-Сплошная
100
AcDbLine
 10
467.9679934492
 20
1841.7567753369
 30
0.0
 11
467.0798129564
 21
1842.6449558297
 31
0.0
  0
LINE
  5
429
330
1F
100
AcDbEntity
  8
1
  6
SLD-Сплошная
100
AcDbLine
 10
467.4730187024
 20
1841.2618005901
 30
0.0
 11
467.9679934492
 21
1841.7567753369
 31
0.0
  0
LINE
  5
42A
330
1F
100
AcDbEntity
  8
1
  6
SLD-Сплошная
100
AcDbLine
 10
465.1395663245
 20
1844.5852024616
 30
0.0
 11
464.6445915776
 21
1844.0902277148
 31
0.0
  0
LINE
  5
42B
330
1F
100
AcDbEntity
  8
1
  6
SLD-Сплошная
100
AcDbLine
 10
467.9679934492
 20
1844.0902277148
 30
0.0
 11
467.4730187024
 21
1844.5852024616
 31
0.0
  0
LINE
  5
42C
330
1F
100
AcDbEntity
  8
1
  6
SLD-Сплошная
100
AcDbLine
 10
464.6445915776
 20
1841.7567753369
 30
0.0
 11
465.1395663245
 21
1841.2618005901
 31
0.0
  0
CIRCLE
  5
42D
330
1F
100
AcDbEntity
  8
1
  6
SLD-Сплошная
100
AcDbCircle
 10
466.3062925134
 20
1842.9235015258
 30
0.0
 40
5.00000000000008
  0
ELLIPSE
  5
42E
330
1F
100
AcDbEntity
  8
1
  6
SLD-Сплошная
100
AcDbEllipse
 10
882.7369057322
 20
1825.4235015258
 30
0.0
 11
0.4122489361056978
 21
0.0
 31
0.0
210
0.0
220
0.0
230
1.0
 40
0.9702875252
 41
5.512866274278409
 42
7.053504340080777
  0
SPLINE
  5
42F
330
1F
100
AcDbEntity
  8
1
  6
SLD-Сплошная
100
AcDbSpline
210
0.0
220
0.0
230
1.0
 70
     8
 71
     3
 72
    12
 73
     8
 74
     0
 42
0.00000001
 43
0.00000001
 40
0.0
 40
0.0
 40
0.0
 40
0.0
 40
0.2187857887071931
 40
0.4375776469534778
 40
0.6562353658863891
 40
0.8748419359491114
 40
1.0
 40
1.0
 40
1.0
 40
1.0
 10
882.693182019623
 20
1825.14495582972
 30
0.0
 10
882.720145445695
 20
1825.180281226589
 30
0.0
 10
882.7740730458567
 20
1825.250933000321
 30
0.0
 10
882.8066689348295
 20
1825.384896228962
 30
0.0
 10
882.7973198035876
 20
1825.520438855242
 30
0.0
 10
882.7534410455057
 20
1825.629336659536
 30
0.0
 10
882.7092654872192
 20
1825.682640370342
 30
0.0
 10
882.693182019623
 20
1825.702047221976
 30
0.0
  0
ARC
  5
430
330
1F
100
AcDbEntity
  8
1
  6
SLD-Сплошная
100
AcDbCircle
 10
901.0515604954
 20
1842.6687695078
 30
0.0
 40
26.56195549712268
100
AcDbArc
 50
223.8816987745
 51
226.1183012255
  0
ARC
  5
431
330
1F
100
AcDbEntity
  8
1
  6
SLD-Сплошная
100
AcDbCircle
 10
867.564878277
 20
1841.4365245
 30
0.0
 40
23.41191191679189
100
AcDbArc
 50
310.0824770914
 51
312.9865596106
  0
SPLINE
  5
432
330
1F
100
AcDbEntity
  8
1
  6
SLD-Сплошная
100
AcDbSpline
210
0.0
220
0.0
230
1.0
 70
     8
 71
     3
 72
    12
 73
     8
 74
     0
 42
0.00000001
 43
0.00000001
 40
0.0
 40
0.0
 40
0.0
 40
0.0
 40
0.2187857887072125
 40
0.4375776469534837
 40
0.6562353658864009
 40
0.874841935949103
 40
1.0
 40
1.0
 40
1.0
 40
1.0
 10
884.0848382095631
 20
1824.310391032036
 30
0.0
 10
884.0495128126944
 20
1824.337354458108
 30
0.0
 10
883.9788610389619
 20
1824.391282058269
 30
0.0
 10
883.8448978103208
 20
1824.423877947242
 30
0.0
 10
883.7093551840408
 20
1824.414528816
 30
0.0
 10
883.6004573797469
 20
1824.370650057919
 30
0.0
 10
883.547153668941
 20
1824.326474499632
 30
0.0
 10
883.5277468173073
 20
1824.310391032036
 30
0.0
  0
ARC
  5
433
330
1F
100
AcDbEntity
  8
1
  6
SLD-Сплошная
100
AcDbCircle
 10
900.0477067499
 20
1841.4365245
 30
0.0
 40
23.41191191675872
100
AcDbArc
 50
227.0134403895
 51
229.9175229086
  0
ARC
  5
434
330
1F
100
AcDbEntity
  8
1
  6
SLD-Сплошная
100
AcDbCircle
 10
866.5610245315
 20
1842.6687695078
 30
0.0
 40
26.56195549704965
100
AcDbArc
 50
313.8816987745
 51
316.1183012256
  0
ARC
  5
435
330
1F
100
AcDbEntity
  8
1
  6
SLD-Сплошная
100
AcDbCircle
 10
867.7932695396
 20
1809.1820872897
 30
0.0
 40
23.4119119162806
100
AcDbArc
 50
40.0824770913
 51
42.9865596106
  0
SPLINE
  5
436
330
1F
100
AcDbEntity
  8
1
  6
SLD-Сплошная
100
AcDbSpline
210
0.0
220
0.0
230
1.0
 70
     8
 71
     3
 72
    12
 73
     8
 74
     0
 42
0.00000001
 43
0.00000001
 40
0.0
 40
0.0
 40
0.0
 40
0.0
 40
0.2187857887072064
 40
0.4375776469534798
 40
0.6562353658863799
 40
0.8748419359490909
 40
1.0
 40
1.0
 40
1.0
 40
1.0
 10
884.9194030072476
 20
1825.702047221976
 30
0.0
 10
884.8924395811755
 20
1825.666721825107
 30
0.0
 10
884.838511981014
 20
1825.596070051375
 30
0.0
 10
884.8059160920408
 20
1825.462106822734
 30
0.0
 10
884.8152652232831
 20
1825.326564196454
 30
0.0
 10
884.8591439813647
 20
1825.21766639216
 30
0.0
 10
884.9033195396512
 20
1825.164362681354
 30
0.0
 10
884.9194030072475
 20
1825.14495582972
 30
0.0
  0
ARC
  5
437
330
1F
100
AcDbEntity
  8
1
  6
SLD-Сплошная
100
AcDbCircle
 10
867.7932695398
 20
1841.6649157618
 30
0.0
 40
23.41191191608166
100
AcDbArc
 50
317.0134403894
 51
319.9175229087
  0
ARC
  5
438
330
1F
100
AcDbEntity
  8
1
  6
SLD-Сплошная
100
AcDbCircle
 10
866.5610245323
 20
1808.1782335447
 30
0.0
 40
26.56195549599177
100
AcDbArc
 50
43.8816987744
 51
46.1183012256
  0
ARC
  5
439
330
1F
100
AcDbEntity
  8
1
  6
SLD-Сплошная
100
AcDbCircle
 10
900.0477067495
 20
1809.4104785521
 30
0.0
 40
23.41191191616851
100
AcDbArc
 50
130.0824770913
 51
132.9865596106
  0
SPLINE
  5
43A
330
1F
100
AcDbEntity
  8
1
  6
SLD-Сплошная
100
AcDbSpline
210
0.0
220
0.0
230
1.0
 70
     8
 71
     3
 72
    12
 73
     8
 74
     0
 42
0.00000001
 43
0.00000001
 40
0.0
 40
0.0
 40
0.0
 40
0.0
 40
0.2187857887071746
 40
0.4375776469534888
 40
0.6562353658863603
 40
0.8748419359491033
 40
1.0
 40
1.0
 40
1.0
 40
1.0
 10
883.5277468173073
 20
1826.53661201966
 30
0.0
 10
883.5630722141761
 20
1826.509648593588
 30
0.0
 10
883.6337239879085
 20
1826.455720993427
 30
0.0
 10
883.7676872165497
 20
1826.423125104454
 30
0.0
 10
883.9032298428295
 20
1826.432474235696
 30
0.0
 10
884.0121276471235
 20
1826.476352993777
 30
0.0
 10
884.0654313579295
 20
1826.520528552064
 30
0.0
 10
884.0848382095631
 20
1826.53661201966
 30
0.0
  0
ARC
  5
43B
330
1F
100
AcDbEntity
  8
1
  6
SLD-Сплошная
100
AcDbCircle
 10
867.5648782775
 20
1809.4104785522
 30
0.0
 40
23.41191191604397
100
AcDbArc
 50
47.0134403894
 51
49.9175229087
  0
ARC
  5
43C
330
1F
100
AcDbEntity
  8
1
  6
SLD-Сплошная
100
AcDbCircle
 10
901.0515604947
 20
1808.1782335446
 30
0.0
 40
26.56195549606487
100
AcDbArc
 50
133.8816987744
 51
136.1183012256
  0
ARC
  5
43D
330
1F
100
AcDbEntity
  8
1
  6
SLD-Сплошная
100
AcDbCircle
 10
899.819315487
 20
1841.6649157617
 30
0.0
 40
23.41191191589714
100
AcDbArc
 50
220.0824770913
 51
222.9865596106
  0
ARC
  5
43E
330
1F
100
AcDbEntity
  8
1
  6
SLD-Сплошная
100
AcDbCircle
 10
899.819315487
 20
1809.18208729
 30
0.0
 40
23.41191191589714
100
AcDbArc
 50
137.0134403894
 51
139.9175229087
  0
CIRCLE
  5
43F
330
1F
100
AcDbEntity
  8
1
  6
SLD-Сплошная
100
AcDbCircle
 10
883.8062925134
 20
1825.4235015258
 30
0.0
 40
3.499999999999948
  0
ELLIPSE
  5
440
330
1F
100
AcDbEntity
  8
1
  6
SLD-Сплошная
100
AcDbEllipse
 10
883.8062925134
 20
1826.4928883071
 30
0.0
 11
0.0
 21
-0.4122489361056978
 31
0.0
210
0.0
220
0.0
230
1.0
 40
0.9702875252
 41
5.512866274278704
 42
7.053504340080481
  0
ELLIPSE
  5
441
330
1F
100
AcDbEntity
  8
1
  6
SLD-Сплошная
100
AcDbEllipse
 10
883.8062925134
 20
1824.3541147446
 30
0.0
 11
0.0
 21
0.4122489361056978
 31
0.0
210
0.0
220
0.0
230
1.0
 40
0.9702875252
 41
5.512866274278704
 42
7.053504340080481
  0
ELLIPSE
  5
442
330
1F
100
AcDbEntity
  8
1
  6
SLD-Сплошная
100
AcDbEllipse
 10
884.8756792947
 20
1825.4235015258
 30
0.0
 11
-0.4122489361056978
 21
0.0
 31
0.0
210
0.0
220
0.0
230
1.0
 40
0.9702875252
 41
5.5128662742786
 42
7.053504340080586
  0
LINE
  5
443
330
1F
100
AcDbEntity
  8
1
  6
SLD-Сплошная
100
AcDbLine
 10
884.9730187024
 20
1827.3233621797
 30
0.0
 11
884.9730187024
 21
1827.0852024616
 31
0.0
  0
LINE
  5
444
330
1F
100
AcDbEntity
  8
1
  6
SLD-Сплошная
100
AcDbLine
 10
884.9730187024
 20
1827.0852024616
 30
0.0
 11
884.0848382096
 21
1826.1970219688
 31
0.0
  0
LINE
  5
445
330
1F
100
AcDbEntity
  8
1
  6
SLD-Сплошная
100
AcDbLine
 10
885.7061531672
 20
1826.5902277148
 30
0.0
 11
885.4679934492
 21
1826.5902277148
 31
0.0
  0
LINE
  5
446
330
1F
100
AcDbEntity
  8
1
  6
SLD-Сплошная
100
AcDbLine
 10
884.5798129564
 20
1825.702047222
 30
0.0
 11
885.4679934492
 21
1826.5902277148
 31
0.0
  0
LINE
  5
447
330
1F
100
AcDbEntity
  8
1
  6
SLD-Сплошная
100
AcDbLine
 10
884.9730187024
 20
1823.523640872
 30
0.0
 11
884.9730187024
 21
1823.7618005901
 31
0.0
  0
LINE
  5
448
330
1F
100
AcDbEntity
  8
1
  6
SLD-Сплошная
100
AcDbLine
 10
884.0848382096
 20
1824.6499810829
 30
0.0
 11
884.9730187024
 21
1823.7618005901
 31
0.0
  0
LINE
  5
449
330
1F
100
AcDbEntity
  8
1
  6
SLD-Сплошная
100
AcDbLine
 10
882.6395663245
 20
1827.3233621797
 30
0.0
 11
882.6395663245
 21
1827.0852024616
 31
0.0
  0
LINE
  5
44A
330
1F
100
AcDbEntity
  8
1
  6
SLD-Сплошная
100
AcDbLine
 10
883.5277468173
 20
1826.1970219688
 30
0.0
 11
882.6395663245
 21
1827.0852024616
 31
0.0
  0
LINE
  5
44B
330
1F
100
AcDbEntity
  8
1
  6
SLD-Сплошная
100
AcDbLine
 10
885.7061531672
 20
1824.2567753369
 30
0.0
 11
885.4679934492
 21
1824.2567753369
 31
0.0
  0
LINE
  5
44C
330
1F
100
AcDbEntity
  8
1
  6
SLD-Сплошная
100
AcDbLine
 10
885.4679934492
 20
1824.2567753369
 30
0.0
 11
884.5798129564
 21
1825.1449558297
 31
0.0
  0
LINE
  5
44D
330
1F
100
AcDbEntity
  8
1
  6
SLD-Сплошная
100
AcDbLine
 10
881.9064318596
 20
1824.2567753369
 30
0.0
 11
882.1445915776
 21
1824.2567753369
 31
0.0
  0
LINE
  5
44E
330
1F
100
AcDbEntity
  8
1
  6
SLD-Сплошная
100
AcDbLine
 10
883.0327720705
 20
1825.1449558297
 30
0.0
 11
882.1445915776
 21
1824.2567753369
 31
0.0
  0
LINE
  5
44F
330
1F
100
AcDbEntity
  8
1
  6
SLD-Сплошная
100
AcDbLine
 10
881.9064318596
 20
1826.5902277148
 30
0.0
 11
882.1445915776
 21
1826.5902277148
 31
0.0
  0
LINE
  5
450
330
1F
100
AcDbEntity
  8
1
  6
SLD-Сплошная
100
AcDbLine
 10
882.1445915776
 20
1826.5902277148
 30
0.0
 11
883.0327720705
 21
1825.702047222
 31
0.0
  0
LINE
  5
451
330
1F
100
AcDbEntity
  8
1
  6
SLD-Сплошная
100
AcDbLine
 10
882.6395663245
 20
1823.523640872
 30
0.0
 11
882.6395663245
 21
1823.7618005901
 31
0.0
  0
LINE
  5
452
330
1F
100
AcDbEntity
  8
1
  6
SLD-Сплошная
100
AcDbLine
 10
882.6395663245
 20
1823.7618005901
 30
0.0
 11
883.5277468173
 21
1824.6499810829
 31
0.0
  0
LINE
  5
453
330
1F
100
AcDbEntity
  8
1
  6
SLD-Сплошная
100
AcDbLine
 10
882.6395663245
 20
1827.0852024616
 30
0.0
 11
882.1445915776
 21
1826.5902277148
 31
0.0
  0
LINE
  5
454
330
1F
100
AcDbEntity
  8
1
  6
SLD-Сплошная
100
AcDbLine
 10
885.4679934492
 20
1826.5902277148
 30
0.0
 11
884.9730187024
 21
1827.0852024616
 31
0.0
  0
LINE
  5
455
330
1F
100
AcDbEntity
  8
1
  6
SLD-Сплошная
100
AcDbLine
 10
884.9730187024
 20
1823.7618005901
 30
0.0
 11
885.4679934492
 21
1824.2567753369
 31
0.0
  0
LINE
  5
456
330
1F
100
AcDbEntity
  8
1
  6
SLD-Сплошная
100
AcDbLine
 10
882.1445915776
 20
1824.2567753369
 30
0.0
 11
882.6395663245
 21
1823.7618005901
 31
0.0
  0
CIRCLE
  5
457
330
1F
100
AcDbEntity
  8
1
  6
SLD-Сплошная
100
AcDbCircle
 10
883.8062925134
 20
1825.4235015258
 30
0.0
 40
5.000000000000121
  0
ELLIPSE
  5
458
330
1F
100
AcDbEntity
  8
1
  6
SLD-Сплошная
100
AcDbEllipse
 10
566.3062925134
 20
1681.8541147446
 30
0.0
 11
0.0
 21
0.4122489361059252
 31
0.0
210
0.0
220
0.0
230
1.0
 40
0.9702875252
 41
5.512866274278609
 42
7.053504340080373
  0
SPLINE
  5
459
330
1F
100
AcDbEntity
  8
1
  6
SLD-Сплошная
100
AcDbSpline
210
0.0
220
0.0
230
1.0
 70
     8
 71
     3
 72
    12
 73
     8
 74
     0
 42
0.00000001
 43
0.00000001
 40
0.0
 40
0.0
 40
0.0
 40
0.0
 40
0.2187857887072212
 40
0.4375776469534799
 40
0.6562353658863874
 40
0.8748419359490842
 40
1.0
 40
1.0
 40
1.0
 40
1.0
 10
566.5848382095633
 20
1681.810391032023
 30
0.0
 10
566.5495128126944
 20
1681.837354458095
 30
0.0
 10
566.4788610389619
 20
1681.891282058256
 30
0.0
 10
566.344897810321
 20
1681.923877947229
 30
0.0
 10
566.2093551840409
 20
1681.914528815987
 30
0.0
 10
566.100457379747
 20
1681.870650057905
 30
0.0
 10
566.0471536689411
 20
1681.826474499619
 30
0.0
 10
566.0277468173073
 20
1681.810391032023
 30
0.0
  0
ELLIPSE
  5
45A
330
1F
100
AcDbEntity
  8
1
  6
SLD-Сплошная
100
AcDbEllipse
 10
567.3756792947
 20
1682.9235015258
 30
0.0
 11
-0.4122489361056978
 21
0.0
 31
0.0
210
0.0
220
0.0
230
1.0
 40
0.9702875252
 41
5.512866274278816
 42
7.053504340080777
  0
SPLINE
  5
45B
330
1F
100
AcDbEntity
  8
1
  6
SLD-Сплошная
100
AcDbSpline
210
0.0
220
0.0
230
1.0
 70
     8
 71
     3
 72
    12
 73
     8
 74
     0
 42
0.00000001
 43
0.00000001
 40
0.0
 40
0.0
 40
0.0
 40
0.0
 40
0.2187857887071795
 40
0.4375776469534897
 40
0.65623536588636
 40
0.8748419359490974
 40
1.0
 40
1.0
 40
1.0
 40
1.0
 10
567.4194030072475
 20
1683.202047221963
 30
0.0
 10
567.3924395811755
 20
1683.166721825094
 30
0.0
 10
567.3385119810139
 20
1683.096070051362
 30
0.0
 10
567.3059160920409
 20
1682.96210682272
 30
0.0
 10
567.3152652232831
 20
1682.826564196441
 30
0.0
 10
567.3591439813648
 20
1682.717666392147
 30
0.0
 10
567.4033195396513
 20
1682.664362681341
 30
0.0
 10
567.4194030072475
 20
1682.644955829707
 30
0.0
  0
ARC
  5
45C
330
1F
100
AcDbEntity
  8
1
  6
SLD-Сплошная
100
AcDbCircle
 10
549.0610245316
 20
1700.1687695077
 30
0.0
 40
26.56195549691158
100
AcDbArc
 50
313.8816987745
 51
316.1183012256
  0
ARC
  5
45D
330
1F
100
AcDbEntity
  8
1
  6
SLD-Сплошная
100
AcDbCircle
 10
550.2932695396
 20
1666.6820872897
 30
0.0
 40
23.41191191633198
100
AcDbArc
 50
40.0824770913
 51
42.9865596106
  0
ARC
  5
45E
330
1F
100
AcDbEntity
  8
1
  6
SLD-Сплошная
100
AcDbCircle
 10
550.2932695396
 20
1699.164915762
 30
0.0
 40
23.41191191632988
100
AcDbArc
 50
317.0134403894
 51
319.9175229087
  0
ARC
  5
45F
330
1F
100
AcDbEntity
  8
1
  6
SLD-Сплошная
100
AcDbCircle
 10
549.0610245323
 20
1665.6782335446
 30
0.0
 40
26.56195549600753
100
AcDbArc
 50
43.8816987744
 51
46.1183012256
  0
ARC
  5
460
330
1F
100
AcDbEntity
  8
1
  6
SLD-Сплошная
100
AcDbCircle
 10
582.5477067494
 20
1666.9104785521
 30
0.0
 40
23.41191191611577
100
AcDbArc
 50
130.0824770913
 51
132.9865596106
  0
SPLINE
  5
461
330
1F
100
AcDbEntity
  8
1
  6
SLD-Сплошная
100
AcDbSpline
210
0.0
220
0.0
230
1.0
 70
     8
 71
     3
 72
    12
 73
     8
 74
     0
 42
0.00000001
 43
0.00000001
 40
0.0
 40
0.0
 40
0.0
 40
0.0
 40
0.2187857887071912
 40
0.4375776469534632
 40
0.656235365886384
 40
0.8748419359490767
 40
1.0
 40
1.0
 40
1.0
 40
1.0
 10
566.0277468173073
 20
1684.036612019647
 30
0.0
 10
566.0630722141761
 20
1684.009648593575
 30
0.0
 10
566.1337239879086
 20
1683.955720993414
 30
0.0
 10
566.2676872165496
 20
1683.923125104441
 30
0.0
 10
566.4032298428297
 20
1683.932474235683
 30
0.0
 10
566.5121276471235
 20
1683.976352993764
 30
0.0
 10
566.5654313579295
 20
1684.020528552051
 30
0.0
 10
566.5848382095633
 20
1684.036612019647
 30
0.0
  0
ARC
  5
462
330
1F
100
AcDbEntity
  8
1
  6
SLD-Сплошная
100
AcDbCircle
 10
550.0648782776
 20
1666.9104785523
 30
0.0
 40
23.41191191583424
100
AcDbArc
 50
47.0134403894
 51
49.9175229087
  0
ARC
  5
463
330
1F
100
AcDbEntity
  8
1
  6
SLD-Сплошная
100
AcDbCircle
 10
583.5515604944
 20
1665.6782335448
 30
0.0
 40
26.56195549575142
100
AcDbArc
 50
133.8816987744
 51
136.1183012256
  0
ARC
  5
464
330
1F
100
AcDbEntity
  8
1
  6
SLD-Сплошная
100
AcDbCircle
 10
582.3193154872
 20
1699.1649157619
 30
0.0
 40
23.41191191621348
100
AcDbArc
 50
220.0824770913
 51
222.9865596106
  0
SPLINE
  5
465
330
1F
100
AcDbEntity
  8
1
  6
SLD-Сплошная
100
AcDbSpline
210
0.0
220
0.0
230
1.0
 70
     8
 71
     3
 72
    12
 73
     8
 74
     0
 42
0.00000001
 43
0.00000001
 40
0.0
 40
0.0
 40
0.0
 40
0.0
 40
0.2187857887072142
 40
0.4375776469534839
 40
0.6562353658863967
 40
0.8748419359490988
 40
1.0
 40
1.0
 40
1.0
 40
1.0
 10
565.193182019623
 20
1682.644955829707
 30
0.0
 10
565.2201454456952
 20
1682.680281226576
 30
0.0
 10
565.2740730458565
 20
1682.750933000308
 30
0.0
 10
565.3066689348296
 20
1682.884896228949
 30
0.0
 10
565.2973198035876
 20
1683.020438855229
 30
0.0
 10
565.2534410455058
 20
1683.129336659523
 30
0.0
 10
565.2092654872192
 20
1683.182640370329
 30
0.0
 10
565.193182019623
 20
1683.202047221963
 30
0.0
  0
ARC
  5
466
330
1F
100
AcDbEntity
  8
1
  6
SLD-Сплошная
100
AcDbCircle
 10
582.3193154872
 20
1666.6820872898
 30
0.0
 40
23.41191191621581
100
AcDbArc
 50
137.0134403894
 51
139.9175229087
  0
ARC
  5
467
330
1F
100
AcDbEntity
  8
1
  6
SLD-Сплошная
100
AcDbCircle
 10
583.5515604951
 20
1700.1687695075
 30
0.0
 40
26.5619554966553
100
AcDbArc
 50
223.8816987744
 51
226.1183012256
  0
ARC
  5
468
330
1F
100
AcDbEntity
  8
1
  6
SLD-Сплошная
100
AcDbCircle
 10
550.0648782773
 20
1698.9365244997
 30
0.0
 40
23.41191191632688
100
AcDbArc
 50
310.0824770913
 51
312.9865596106
  0
ARC
  5
469
330
1F
100
AcDbEntity
  8
1
  6
SLD-Сплошная
100
AcDbCircle
 10
582.5477067496
 20
1698.9365244997
 30
0.0
 40
23.41191191637291
100
AcDbArc
 50
227.0134403894
 51
229.9175229087
  0
CIRCLE
  5
46A
330
1F
100
AcDbEntity
  8
1
  6
SLD-Сплошная
100
AcDbCircle
 10
566.3062925134
 20
1682.9235015258
 30
0.0
 40
3.500000000000189
  0
ELLIPSE
  5
46B
330
1F
100
AcDbEntity
  8
1
  6
SLD-Сплошная
100
AcDbEllipse
 10
566.3062925134
 20
1683.9928883071
 30
0.0
 11
0.0
 21
-0.4122489361056978
 31
0.0
210
0.0
220
0.0
230
1.0
 40
0.9702875252
 41
5.512866274278947
 42
7.053504340080444
  0
ELLIPSE
  5
46C
330
1F
100
AcDbEntity
  8
1
  6
SLD-Сплошная
100
AcDbEllipse
 10
565.2369057322
 20
1682.9235015258
 30
0.0
 11
0.4122489361056978
 21
0.0
 31
0.0
210
0.0
220
0.0
230
1.0
 40
0.9702875252
 41
5.512866274278501
 42
7.053504340080278
  0
LINE
  5
46D
330
1F
100
AcDbEntity
  8
1
  6
SLD-Сплошная
100
AcDbLine
 10
568.2061531672
 20
1681.7567753369
 30
0.0
 11
567.9679934492
 21
1681.7567753369
 31
0.0
  0
LINE
  5
46E
330
1F
100
AcDbEntity
  8
1
  6
SLD-Сплошная
100
AcDbLine
 10
567.9679934492
 20
1681.7567753369
 30
0.0
 11
567.0798129564
 21
1682.6449558297
 31
0.0
  0
LINE
  5
46F
330
1F
100
AcDbEntity
  8
1
  6
SLD-Сплошная
100
AcDbLine
 10
567.4730187024
 20
1681.023640872
 30
0.0
 11
567.4730187024
 21
1681.26180059
 31
0.0
  0
LINE
  5
470
330
1F
100
AcDbEntity
  8
1
  6
SLD-Сплошная
100
AcDbLine
 10
566.5848382096
 20
1682.1499810829
 30
0.0
 11
567.4730187024
 21
1681.26180059
 31
0.0
  0
LINE
  5
471
330
1F
100
AcDbEntity
  8
1
  6
SLD-Сплошная
100
AcDbLine
 10
565.1395663245
 20
1681.023640872
 30
0.0
 11
565.1395663245
 21
1681.26180059
 31
0.0
  0
LINE
  5
472
330
1F
100
AcDbEntity
  8
1
  6
SLD-Сплошная
100
AcDbLine
 10
565.1395663245
 20
1681.26180059
 30
0.0
 11
566.0277468173
 21
1682.1499810829
 31
0.0
  0
LINE
  5
473
330
1F
100
AcDbEntity
  8
1
  6
SLD-Сплошная
100
AcDbLine
 10
568.2061531672
 20
1684.0902277148
 30
0.0
 11
567.9679934492
 21
1684.0902277148
 31
0.0
  0
LINE
  5
474
330
1F
100
AcDbEntity
  8
1
  6
SLD-Сплошная
100
AcDbLine
 10
567.0798129564
 20
1683.202047222
 30
0.0
 11
567.9679934492
 21
1684.0902277148
 31
0.0
  0
LINE
  5
475
330
1F
100
AcDbEntity
  8
1
  6
SLD-Сплошная
100
AcDbLine
 10
564.4064318596
 20
1684.0902277148
 30
0.0
 11
564.6445915776
 21
1684.0902277148
 31
0.0
  0
LINE
  5
476
330
1F
100
AcDbEntity
  8
1
  6
SLD-Сплошная
100
AcDbLine
 10
564.6445915776
 20
1684.0902277148
 30
0.0
 11
565.5327720705
 21
1683.202047222
 31
0.0
  0
LINE
  5
477
330
1F
100
AcDbEntity
  8
1
  6
SLD-Сплошная
100
AcDbLine
 10
564.4064318596
 20
1681.7567753369
 30
0.0
 11
564.6445915776
 21
1681.7567753369
 31
0.0
  0
LINE
  5
478
330
1F
100
AcDbEntity
  8
1
  6
SLD-Сплошная
100
AcDbLine
 10
565.5327720705
 20
1682.6449558297
 30
0.0
 11
564.6445915776
 21
1681.7567753369
 31
0.0
  0
LINE
  5
479
330
1F
100
AcDbEntity
  8
1
  6
SLD-Сплошная
100
AcDbLine
 10
565.1395663245
 20
1684.8233621796
 30
0.0
 11
565.1395663245
 21
1684.5852024616
 31
0.0
  0
LINE
  5
47A
330
1F
100
AcDbEntity
  8
1
  6
SLD-Сплошная
100
AcDbLine
 10
566.0277468173
 20
1683.6970219688
 30
0.0
 11
565.1395663245
 21
1684.5852024616
 31
0.0
  0
LINE
  5
47B
330
1F
100
AcDbEntity
  8
1
  6
SLD-Сплошная
100
AcDbLine
 10
567.4730187024
 20
1684.8233621796
 30
0.0
 11
567.4730187024
 21
1684.5852024616
 31
0.0
  0
LINE
  5
47C
330
1F
100
AcDbEntity
  8
1
  6
SLD-Сплошная
100
AcDbLine
 10
567.4730187024
 20
1684.5852024616
 30
0.0
 11
566.5848382096
 21
1683.6970219688
 31
0.0
  0
LINE
  5
47D
330
1F
100
AcDbEntity
  8
1
  6
SLD-Сплошная
100
AcDbLine
 10
567.9679934492
 20
1684.0902277148
 30
0.0
 11
567.4730187024
 21
1684.5852024616
 31
0.0
  0
LINE
  5
47E
330
1F
100
AcDbEntity
  8
1
  6
SLD-Сплошная
100
AcDbLine
 10
564.6445915776
 20
1681.7567753369
 30
0.0
 11
565.1395663245
 21
1681.26180059
 31
0.0
  0
LINE
  5
47F
330
1F
100
AcDbEntity
  8
1
  6
SLD-Сплошная
100
AcDbLine
 10
567.4730187024
 20
1681.26180059
 30
0.0
 11
567.9679934492
 21
1681.7567753369
 31
0.0
  0
LINE
  5
480
330
1F
100
AcDbEntity
  8
1
  6
SLD-Сплошная
100
AcDbLine
 10
565.1395663245
 20
1684.5852024616
 30
0.0
 11
564.6445915776
 21
1684.0902277148
 31
0.0
  0
CIRCLE
  5
481
330
1F
100
AcDbEntity
  8
1
  6
SLD-Сплошная
100
AcDbCircle
 10
566.3062925134
 20
1682.9235015258
 30
0.0
 40
5.000000000000121
  0
ELLIPSE
  5
482
330
1F
100
AcDbEntity
  8
1
  6
SLD-Сплошная
100
AcDbEllipse
 10
766.3062925134
 20
1841.8541147446
 30
0.0
 11
0.0
 21
0.4122489361054704
 31
0.0
210
0.0
220
0.0
230
1.0
 40
0.9702875252
 41
5.512866274278393
 42
7.053504340080591
  0
SPLINE
  5
483
330
1F
100
AcDbEntity
  8
1
  6
SLD-Сплошная
100
AcDbSpline
210
0.0
220
0.0
230
1.0
 70
     8
 71
     3
 72
    12
 73
     8
 74
     0
 42
0.00000001
 43
0.00000001
 40
0.0
 40
0.0
 40
0.0
 40
0.0
 40
0.2187857887072152
 40
0.4375776469534859
 40
0.6562353658863807
 40
0.8748419359491033
 40
1.0
 40
1.0
 40
1.0
 40
1.0
 10
766.5848382095633
 20
1841.810391032036
 30
0.0
 10
766.5495128126944
 20
1841.837354458108
 30
0.0
 10
766.4788610389619
 20
1841.891282058269
 30
0.0
 10
766.3448978103208
 20
1841.923877947242
 30
0.0
 10
766.209355184041
 20
1841.914528816
 30
0.0
 10
766.100457379747
 20
1841.870650057918
 30
0.0
 10
766.0471536689411
 20
1841.826474499632
 30
0.0
 10
766.0277468173073
 20
1841.810391032036
 30
0.0
  0
ELLIPSE
  5
484
330
1F
100
AcDbEntity
  8
1
  6
SLD-Сплошная
100
AcDbEllipse
 10
766.3062925134
 20
1843.9928883071
 30
0.0
 11
0.0
 21
-0.4122489361056978
 31
0.0
210
0.0
220
0.0
230
1.0
 40
0.9702875252
 41
5.512866274278562
 42
7.053504340080828
  0
SPLINE
  5
485
330
1F
100
AcDbEntity
  8
1
  6
SLD-Сплошная
100
AcDbSpline
210
0.0
220
0.0
230
1.0
 70
     8
 71
     3
 72
    12
 73
     8
 74
     0
 42
0.00000001
 43
0.00000001
 40
0.0
 40
0.0
 40
0.0
 40
0.0
 40
0.2187857887072151
 40
0.4375776469534844
 40
0.6562353658864016
 40
0.8748419359491032
 40
1.0
 40
1.0
 40
1.0
 40
1.0
 10
766.0277468173073
 20
1844.03661201966
 30
0.0
 10
766.0630722141761
 20
1844.009648593588
 30
0.0
 10
766.1337239879085
 20
1843.955720993426
 30
0.0
 10
766.2676872165496
 20
1843.923125104453
 30
0.0
 10
766.4032298428297
 20
1843.932474235696
 30
0.0
 10
766.5121276471235
 20
1843.976352993777
 30
0.0
 10
766.5654313579295
 20
1844.020528552064
 30
0.0
 10
766.5848382095633
 20
1844.03661201966
 30
0.0
  0
ELLIPSE
  5
486
330
1F
100
AcDbEntity
  8
1
  6
SLD-Сплошная
100
AcDbEllipse
 10
767.3756792947
 20
1842.9235015258
 30
0.0
 11
-0.4122489361056978
 21
0.0
 31
0.0
210
0.0
220
0.0
230
1.0
 40
0.9702875252
 41
5.512866274278501
 42
7.053504340080686
  0
SPLINE
  5
487
330
1F
100
AcDbEntity
  8
1
  6
SLD-Сплошная
100
AcDbSpline
210
0.0
220
0.0
230
1.0
 70
     8
 71
     3
 72
    12
 73
     8
 74
     0
 42
0.00000001
 43
0.00000001
 40
0.0
 40
0.0
 40
0.0
 40
0.0
 40
0.2187857887072017
 40
0.4375776469534837
 40
0.6562353658863882
 40
0.8748419359490935
 40
1.0
 40
1.0
 40
1.0
 40
1.0
 10
767.4194030072475
 20
1843.202047221976
 30
0.0
 10
767.3924395811754
 20
1843.166721825107
 30
0.0
 10
767.338511981014
 20
1843.096070051374
 30
0.0
 10
767.3059160920408
 20
1842.962106822734
 30
0.0
 10
767.315265223283
 20
1842.826564196453
 30
0.0
 10
767.3591439813647
 20
1842.71766639216
 30
0.0
 10
767.4033195396512
 20
1842.664362681354
 30
0.0
 10
767.4194030072475
 20
1842.64495582972
 30
0.0
  0
ELLIPSE
  5
488
330
1F
100
AcDbEntity
  8
1
  6
SLD-Сплошная
100
AcDbEllipse
 10
765.2369057322
 20
1842.9235015258
 30
0.0
 11
0.4122489361055841
 21
0.0
 31
0.0
210
0.0
220
0.0
230
1.0
 40
0.9702875252
 41
5.512866274278546
 42
7.053504340080639
  0
SPLINE
  5
489
330
1F
100
AcDbEntity
  8
1
  6
SLD-Сплошная
100
AcDbSpline
210
0.0
220
0.0
230
1.0
 70
     8
 71
     3
 72
    12
 73
     8
 74
     0
 42
0.00000001
 43
0.00000001
 40
0.0
 40
0.0
 40
0.0
 40
0.0
 40
0.2187857887072019
 40
0.4375776469534788
 40
0.6562353658863835
 40
0.8748419359490891
 40
1.0
 40
1.0
 40
1.0
 40
1.0
 10
765.1931820196229
 20
1842.64495582972
 30
0.0
 10
765.220145445695
 20
1842.680281226589
 30
0.0
 10
765.2740730458565
 20
1842.750933000321
 30
0.0
 10
765.3066689348296
 20
1842.884896228962
 30
0.0
 10
765.2973198035875
 20
1843.020438855242
 30
0.0
 10
765.2534410455057
 20
1843.129336659536
 30
0.0
 10
765.2092654872192
 20
1843.182640370342
 30
0.0
 10
765.1931820196229
 20
1843.202047221976
 30
0.0
  0
ARC
  5
48A
330
1F
100
AcDbEntity
  8
1
  6
SLD-Сплошная
100
AcDbCircle
 10
783.551560495
 20
1860.1687695074
 30
0.0
 40
26.56195549659205
100
AcDbArc
 50
223.8816987744
 51
226.1183012256
  0
ARC
  5
48B
330
1F
100
AcDbEntity
  8
1
  6
SLD-Сплошная
100
AcDbCircle
 10
750.0648782774
 20
1858.9365244996
 30
0.0
 40
23.41191191621661
100
AcDbArc
 50
310.0824770913
 51
312.9865596106
  0
ARC
  5
48C
330
1F
100
AcDbEntity
  8
1
  6
SLD-Сплошная
100
AcDbCircle
 10
782.5477067495
 20
1858.9365244996
 30
0.0
 40
23.41191191617115
100
AcDbArc
 50
227.0134403894
 51
229.9175229087
  0
ARC
  5
48D
330
1F
100
AcDbEntity
  8
1
  6
SLD-Сплошная
100
AcDbCircle
 10
749.0610245315
 20
1860.1687695078
 30
0.0
 40
26.56195549711689
100
AcDbArc
 50
313.8816987744
 51
316.1183012255
  0
ARC
  5
48E
330
1F
100
AcDbEntity
  8
1
  6
SLD-Сплошная
100
AcDbCircle
 10
750.2932695399
 20
1826.68208729
 30
0.0
 40
23.41191191584088
100
AcDbArc
 50
40.0824770913
 51
42.9865596106
  0
ARC
  5
48F
330
1F
100
AcDbEntity
  8
1
  6
SLD-Сплошная
100
AcDbCircle
 10
750.2932695395
 20
1859.164915762
 30
0.0
 40
23.41191191641965
100
AcDbArc
 50
317.0134403894
 51
319.9175229087
  0
ARC
  5
490
330
1F
100
AcDbEntity
  8
1
  6
SLD-Сплошная
100
AcDbCircle
 10
749.0610245316
 20
1825.678233544
 30
0.0
 40
26.56195549698556
100
AcDbArc
 50
43.8816987744
 51
46.1183012256
  0
ARC
  5
491
330
1F
100
AcDbEntity
  8
1
  6
SLD-Сплошная
100
AcDbCircle
 10
782.5477067495
 20
1826.910478552
 30
0.0
 40
23.41191191626667
100
AcDbArc
 50
130.0824770913
 51
132.9865596106
  0
ARC
  5
492
330
1F
100
AcDbEntity
  8
1
  6
SLD-Сплошная
100
AcDbCircle
 10
750.0648782775
 20
1826.9104785523
 30
0.0
 40
23.41191191597814
100
AcDbArc
 50
47.0134403894
 51
49.9175229087
  0
ARC
  5
493
330
1F
100
AcDbEntity
  8
1
  6
SLD-Сплошная
100
AcDbCircle
 10
783.5515604946
 20
1825.6782335447
 30
0.0
 40
26.56195549593596
100
AcDbArc
 50
133.8816987744
 51
136.1183012256
  0
ARC
  5
494
330
1F
100
AcDbEntity
  8
1
  6
SLD-Сплошная
100
AcDbCircle
 10
782.3193154872
 20
1859.1649157619
 30
0.0
 40
23.41191191620321
100
AcDbArc
 50
220.0824770913
 51
222.9865596106
  0
ARC
  5
495
330
1F
100
AcDbEntity
  8
1
  6
SLD-Сплошная
100
AcDbCircle
 10
782.3193154868
 20
1826.6820872902
 30
0.0
 40
23.41191191562497
100
AcDbArc
 50
137.0134403894
 51
139.9175229087
  0
CIRCLE
  5
496
330
1F
100
AcDbEntity
  8
1
  6
SLD-Сплошная
100
AcDbCircle
 10
766.3062925134
 20
1842.9235015258
 30
0.0
 40
3.499999999999948
  0
LINE
  5
497
330
1F
100
AcDbEntity
  8
1
  6
SLD-Сплошная
100
AcDbLine
 10
767.4730187024
 20
1844.8233621797
 30
0.0
 11
767.4730187024
 21
1844.5852024616
 31
0.0
  0
LINE
  5
498
330
1F
100
AcDbEntity
  8
1
  6
SLD-Сплошная
100
AcDbLine
 10
767.4730187024
 20
1844.5852024616
 30
0.0
 11
766.5848382096
 21
1843.6970219688
 31
0.0
  0
LINE
  5
499
330
1F
100
AcDbEntity
  8
1
  6
SLD-Сплошная
100
AcDbLine
 10
768.2061531672
 20
1844.0902277148
 30
0.0
 11
767.9679934492
 21
1844.0902277148
 31
0.0
  0
LINE
  5
49A
330
1F
100
AcDbEntity
  8
1
  6
SLD-Сплошная
100
AcDbLine
 10
767.0798129564
 20
1843.202047222
 30
0.0
 11
767.9679934492
 21
1844.0902277148
 31
0.0
  0
LINE
  5
49B
330
1F
100
AcDbEntity
  8
1
  6
SLD-Сплошная
100
AcDbLine
 10
764.4064318596
 20
1844.0902277148
 30
0.0
 11
764.6445915776
 21
1844.0902277148
 31
0.0
  0
LINE
  5
49C
330
1F
100
AcDbEntity
  8
1
  6
SLD-Сплошная
100
AcDbLine
 10
764.6445915776
 20
1844.0902277148
 30
0.0
 11
765.5327720705
 21
1843.202047222
 31
0.0
  0
LINE
  5
49D
330
1F
100
AcDbEntity
  8
1
  6
SLD-Сплошная
100
AcDbLine
 10
764.4064318596
 20
1841.7567753369
 30
0.0
 11
764.6445915776
 21
1841.7567753369
 31
0.0
  0
LINE
  5
49E
330
1F
100
AcDbEntity
  8
1
  6
SLD-Сплошная
100
AcDbLine
 10
765.5327720705
 20
1842.6449558297
 30
0.0
 11
764.6445915776
 21
1841.7567753369
 31
0.0
  0
LINE
  5
49F
330
1F
100
AcDbEntity
  8
1
  6
SLD-Сплошная
100
AcDbLine
 10
765.1395663245
 20
1844.8233621797
 30
0.0
 11
765.1395663245
 21
1844.5852024616
 31
0.0
  0
LINE
  5
4A0
330
1F
100
AcDbEntity
  8
1
  6
SLD-Сплошная
100
AcDbLine
 10
766.0277468173
 20
1843.6970219688
 30
0.0
 11
765.1395663245
 21
1844.5852024616
 31
0.0
  0
LINE
  5
4A1
330
1F
100
AcDbEntity
  8
1
  6
SLD-Сплошная
100
AcDbLine
 10
767.4730187024
 20
1841.023640872
 30
0.0
 11
767.4730187024
 21
1841.2618005901
 31
0.0
  0
LINE
  5
4A2
330
1F
100
AcDbEntity
  8
1
  6
SLD-Сплошная
100
AcDbLine
 10
766.5848382096
 20
1842.1499810829
 30
0.0
 11
767.4730187024
 21
1841.2618005901
 31
0.0
  0
LINE
  5
4A3
330
1F
100
AcDbEntity
  8
1
  6
SLD-Сплошная
100
AcDbLine
 10
768.2061531672
 20
1841.7567753369
 30
0.0
 11
767.9679934492
 21
1841.7567753369
 31
0.0
  0
LINE
  5
4A4
330
1F
100
AcDbEntity
  8
1
  6
SLD-Сплошная
100
AcDbLine
 10
767.9679934492
 20
1841.7567753369
 30
0.0
 11
767.0798129564
 21
1842.6449558297
 31
0.0
  0
LINE
  5
4A5
330
1F
100
AcDbEntity
  8
1
  6
SLD-Сплошная
100
AcDbLine
 10
765.1395663245
 20
1841.023640872
 30
0.0
 11
765.1395663245
 21
1841.2618005901
 31
0.0
  0
LINE
  5
4A6
330
1F
100
AcDbEntity
  8
1
  6
SLD-Сплошная
100
AcDbLine
 10
765.1395663245
 20
1841.2618005901
 30
0.0
 11
766.0277468173
 21
1842.1499810829
 31
0.0
  0
LINE
  5
4A7
330
1F
100
AcDbEntity
  8
1
  6
SLD-Сплошная
100
AcDbLine
 10
765.1395663245
 20
1844.5852024616
 30
0.0
 11
764.6445915776
 21
1844.0902277148
 31
0.0
  0
LINE
  5
4A8
330
1F
100
AcDbEntity
  8
1
  6
SLD-Сплошная
100
AcDbLine
 10
767.9679934492
 20
1844.0902277148
 30
0.0
 11
767.4730187024
 21
1844.5852024616
 31
0.0
  0
LINE
  5
4A9
330
1F
100
AcDbEntity
  8
1
  6
SLD-Сплошная
100
AcDbLine
 10
767.4730187024
 20
1841.2618005901
 30
0.0
 11
767.9679934492
 21
1841.7567753369
 31
0.0
  0
LINE
  5
4AA
330
1F
100
AcDbEntity
  8
1
  6
SLD-Сплошная
100
AcDbLine
 10
764.6445915776
 20
1841.7567753369
 30
0.0
 11
765.1395663245
 21
1841.2618005901
 31
0.0
  0
CIRCLE
  5
4AB
330
1F
100
AcDbEntity
  8
1
  6
SLD-Сплошная
100
AcDbCircle
 10
766.3062925134
 20
1842.9235015258
 30
0.0
 40
4.999999999999879
  0
CIRCLE
  5
4AC
330
1F
100
AcDbEntity
  8
1
  6
SLD-Сплошная
100
AcDbCircle
 10
951.3062925134
 20
1859.4735015258
 30
0.0
 40
8.299999999999955
  0
LINE
  5
4AD
330
1F
100
AcDbEntity
  8
1
  6
SLD-Сплошная
100
AcDbLine
 10
438.3062925134
 20
1902.3735015258
 30
0.0
 11
410.3062925134
 21
1902.3735015258
 31
0.0
  0
LINE
  5
4AE
330
1F
100
AcDbEntity
  8
1
  6
SLD-Сплошная
100
AcDbLine
 10
435.3062925134
 20
1905.3735015258
 30
0.0
 11
413.3062925134
 21
1905.3735015258
 31
0.0
  0
LINE
  5
4AF
330
1F
100
AcDbEntity
  8
1
  6
SLD-Сплошная
100
AcDbLine
 10
962.3062925134
 20
1875.4735015258
 30
0.0
 11
962.3062925134
 21
1874.4735015258
 31
0.0
  0
LINE
  5
4B0
330
1F
100
AcDbEntity
  8
1
  6
SLD-Сплошная
100
AcDbLine
 10
960.3062925134
 20
1876.4735015258
 30
0.0
 11
961.3062925134
 21
1876.4735015258
 31
0.0
  0
SPLINE
  5
4B1
330
1F
100
AcDbEntity
  8
1
  6
SLD-Сплошная
100
AcDbSpline
210
0.0
220
0.0
230
1.0
 70
     8
 71
     3
 72
    12
 73
     8
 74
     0
 42
0.00000001
 43
0.00000001
 40
0.0
 40
0.0
 40
0.0
 40
0.0
 40
0.2178231110881949
 40
0.4765675029999367
 40
0.8410160589292539
 40
0.9961871477581012
 40
1.0
 40
1.0
 40
1.0
 40
1.0
 10
961.3062925133991
 20
1876.473501525848
 30
0.0
 10
961.4474290834327
 20
1876.454148332437
 30
0.0
 10
961.7562168076867
 20
1876.411806163083
 30
0.0
 10
962.1140269360471
 20
1876.117658408215
 30
0.0
 10
962.2802772020701
 20
1875.783667913614
 30
0.0
 10
962.3061661068879
 20
1875.546995727223
 30
0.0
 10
962.3062895528412
 20
1875.475222828368
 30
0.0
 10
962.3062925133993
 20
1875.473501525848
 30
0.0
  0
LINE
  5
4B2
330
1F
100
AcDbEntity
  8
1
  6
SLD-Сплошная
100
AcDbLine
 10
949.8062925134
 20
1876.4735015258
 30
0.0
 11
960.3062925134
 21
1876.4735015258
 31
0.0
  0
ARC
  5
4B3
330
1F
100
AcDbEntity
  8
1
  6
SLD-Сплошная
100
AcDbCircle
 10
949.8062925134
 20
1877.4735015258
 30
0.0
 40
1.000000000000227
100
AcDbArc
 50
180.0
 51
270.0
  0
ARC
  5
4B4
330
1F
100
AcDbEntity
  8
1
  6
SLD-Сплошная
100
AcDbCircle
 10
949.8062925134
 20
1877.4735015258
 30
0.0
 40
3.000000000000227
100
AcDbArc
 50
180.0
 51
270.0
  0
LINE
  5
4B5
330
1F
100
AcDbEntity
  8
1
  6
SLD-Сплошная
100
AcDbLine
 10
946.8062925134
 20
1882.3735015258
 30
0.0
 11
946.8062925134
 21
1877.4735015258
 31
0.0
  0
LINE
  5
4B6
330
1F
100
AcDbEntity
  8
1
  6
SLD-Сплошная
100
AcDbLine
 10
948.8062925134
 20
1882.3735015258
 30
0.0
 11
948.8062925134
 21
1877.4735015258
 31
0.0
  0
LINE
  5
4B7
330
1F
100
AcDbEntity
  8
1
  6
SLD-Сплошная
100
AcDbLine
 10
958.5589837069
 20
1876.5735015258
 30
0.0
 11
959.9062925134
 21
1876.5735015258
 31
0.0
  0
LINE
  5
4B8
330
1F
100
AcDbEntity
  8
1
  6
SLD-Сплошная
100
AcDbLine
 10
950.7062925134
 20
1876.5735015258
 30
0.0
 11
958.5589837069
 21
1876.5735015258
 31
0.0
  0
LINE
  5
4B9
330
1F
100
AcDbEntity
  8
1
  6
SLD-Сплошная
100
AcDbLine
 10
958.5589837069
 20
1876.9735015258
 30
0.0
 11
959.9062925134
 21
1876.9735015258
 31
0.0
  0
LINE
  5
4BA
330
1F
100
AcDbEntity
  8
1
  6
SLD-Сплошная
100
AcDbLine
 10
950.7062925134
 20
1876.9735015258
 30
0.0
 11
958.5589837069
 21
1876.9735015258
 31
0.0
  0
ARC
  5
4BB
330
1F
100
AcDbEntity
  8
1
  6
SLD-Сплошная
100
AcDbCircle
 10
949.3062925134
 20
1876.9735015258
 30
0.0
 40
2.5
100
AcDbArc
 50
180.0
 51
270.0
  0
LINE
  5
4BC
330
1F
100
AcDbEntity
  8
1
  6
SLD-Сплошная
100
AcDbLine
 10
946.8062925134
 20
1877.4735015258
 30
0.0
 11
946.8062925134
 21
1876.9735015258
 31
0.0
  0
LINE
  5
4BD
330
1F
100
AcDbEntity
  8
1
  6
SLD-Сплошная
100
AcDbLine
 10
1636.5604357325
 20
1137.6319219188
 30
0.0
 11
1636.5604357325
 21
143.9905573437
 31
0.0
  0
ARC
  5
4BE
330
1F
100
AcDbEntity
  8
1
  6
SLD-Сплошная
100
AcDbCircle
 10
1629.8258117712
 20
225.9612396313
 30
0.0
 40
0.2000000000001308
100
AcDbArc
 50
270.0
 51
338.1849373759
  0
ARC
  5
4BF
330
1F
100
AcDbEntity
  8
1
  6
SLD-Сплошная
100
AcDbCircle
 10
1629.8258117712
 20
235.6612396313
 30
0.0
 40
0.2000000000001308
100
AcDbArc
 50
21.8150626241
 51
90.0
  0
LINE
  5
4C0
330
1F
100
AcDbEntity
  8
1
  6
SLD-Сплошная
100
AcDbLine
 10
1628.6604357325
 20
225.7612396313
 30
0.0
 11
1629.8258117712
 21
225.7612396313
 31
0.0
  0
LINE
  5
4C1
330
1F
100
AcDbEntity
  8
1
  6
SLD-Сплошная
100
AcDbLine
 10
1629.8258117712
 20
235.8612396313
 30
0.0
 11
1628.6604357325
 21
235.8612396313
 31
0.0
  0
ARC
  5
4C2
330
1F
100
AcDbEntity
  8
1
  6
SLD-Сплошная
100
AcDbCircle
 10
1617.7091857325
 20
230.8112396313
 30
0.0
 40
13.25125000000012
100
AcDbArc
 50
338.1849373759
 51
0.0
  0
ARC
  5
4C3
330
1F
100
AcDbEntity
  8
1
  6
SLD-Сплошная
100
AcDbCircle
 10
1617.7091857325
 20
230.8112396313
 30
0.0
 40
13.25125000000012
100
AcDbArc
 50
0.0
 51
21.8150626241
  0
ARC
  5
4C4
330
1F
100
AcDbEntity
  8
1
  6
SLD-Сплошная
100
AcDbCircle
 10
1629.8258117712
 20
1045.9612396313
 30
0.0
 40
0.200000000000078
100
AcDbArc
 50
270.0
 51
338.1849373759
  0
ARC
  5
4C5
330
1F
100
AcDbEntity
  8
1
  6
SLD-Сплошная
100
AcDbCircle
 10
1629.8258117712
 20
1055.6612396313
 30
0.0
 40
0.2000000000001625
100
AcDbArc
 50
21.8150626241
 51
90.0
  0
LINE
  5
4C6
330
1F
100
AcDbEntity
  8
1
  6
SLD-Сплошная
100
AcDbLine
 10
1628.6604357325
 20
1045.7612396313
 30
0.0
 11
1629.8258117712
 21
1045.7612396313
 31
0.0
  0
LINE
  5
4C7
330
1F
100
AcDbEntity
  8
1
  6
SLD-Сплошная
100
AcDbLine
 10
1629.8258117712
 20
1055.8612396313
 30
0.0
 11
1628.6604357325
 21
1055.8612396313
 31
0.0
  0
ARC
  5
4C8
330
1F
100
AcDbEntity
  8
1
  6
SLD-Сплошная
100
AcDbCircle
 10
1617.7091857325
 20
1050.8112396313
 30
0.0
 40
13.25125000000003
100
AcDbArc
 50
338.1849373759
 51
0.0
  0
ARC
  5
4C9
330
1F
100
AcDbEntity
  8
1
  6
SLD-Сплошная
100
AcDbCircle
 10
1617.7091857325
 20
1050.8112396313
 30
0.0
 40
13.2512500000002
100
AcDbArc
 50
0.0
 51
21.8150626241
  0
ARC
  5
4CA
330
1F
100
AcDbEntity
  8
1
  6
SLD-Сплошная
100
AcDbCircle
 10
1629.8258117712
 20
635.9612396313
 30
0.0
 40
0.1999999999999318
100
AcDbArc
 50
270.0
 51
338.1849373759
  0
ARC
  5
4CB
330
1F
100
AcDbEntity
  8
1
  6
SLD-Сплошная
100
AcDbCircle
 10
1629.8258117712
 20
645.6612396313
 30
0.0
 40
0.2000000000000455
100
AcDbArc
 50
21.8150626241
 51
90.0
  0
LINE
  5
4CC
330
1F
100
AcDbEntity
  8
1
  6
SLD-Сплошная
100
AcDbLine
 10
1628.6604357325
 20
635.7612396313
 30
0.0
 11
1629.8258117712
 21
635.7612396313
 31
0.0
  0
LINE
  5
4CD
330
1F
100
AcDbEntity
  8
1
  6
SLD-Сплошная
100
AcDbLine
 10
1629.8258117712
 20
645.8612396313
 30
0.0
 11
1628.6604357325
 21
645.8612396313
 31
0.0
  0
ARC
  5
4CE
330
1F
100
AcDbEntity
  8
1
  6
SLD-Сплошная
100
AcDbCircle
 10
1617.7091857325
 20
640.8112396313
 30
0.0
 40
13.2512499999999
100
AcDbArc
 50
338.1849373759
 51
0.0
  0
ARC
  5
4CF
330
1F
100
AcDbEntity
  8
1
  6
SLD-Сплошная
100
AcDbCircle
 10
1617.7091857325
 20
640.8112396313
 30
0.0
 40
13.2512499999999
100
AcDbArc
 50
0.0
 51
21.8150626241
  0
ARC
  5
4D0
330
1F
100
AcDbEntity
  8
1
  6
SLD-Сплошная
100
AcDbCircle
 10
1606.3604357325
 20
139.6054775737
 30
0.0
 40
1.0
100
AcDbArc
 50
180.0
 51
257.5813184942
  0
ARC
  5
4D1
330
1F
100
AcDbEntity
  8
1
  6
SLD-Сплошная
100
AcDbCircle
 10
1620.9604357325
 20
139.6054775737
 30
0.0
 40
1.0
100
AcDbArc
 50
282.4186815058
 51
0.0
  0
LINE
  5
4D2
330
1F
100
AcDbEntity
  8
1
  6
SLD-Сплошная
100
AcDbLine
 10
1605.3604357325
 20
140.8112396313
 30
0.0
 11
1605.3604357325
 21
139.6054775737
 31
0.0
  0
LINE
  5
4D3
330
1F
100
AcDbEntity
  8
1
  6
SLD-Сплошная
100
AcDbLine
 10
1621.9604357325
 20
139.6054775737
 30
0.0
 11
1621.9604357325
 21
140.8112396313
 31
0.0
  0
ARC
  5
4D4
330
1F
100
AcDbEntity
  8
1
  6
SLD-Сплошная
100
AcDbCircle
 10
1613.6604357325
 20
172.7562396313
 30
0.0
 40
34.94500000000015
100
AcDbArc
 50
270.0104111827
 51
282.4186815058
  0
ARC
  5
4D5
330
1F
100
AcDbEntity
  8
1
  6
SLD-Сплошная
100
AcDbCircle
 10
1613.6604357325
 20
172.7562396313
 30
0.0
 40
34.94500000000006
100
AcDbArc
 50
257.5813184942
 51
270.0104111827
  0
LINE
  5
4D6
330
1F
100
AcDbEntity
  8
1
  6
SLD-Сплошная
100
AcDbLine
 10
1655.5604357325
 20
626.8112396313
 30
0.0
 11
1656.5604357325
 21
626.8112396313
 31
0.0
  0
LINE
  5
4D7
330
1F
100
AcDbEntity
  8
1
  6
SLD-Сплошная
100
AcDbLine
 10
1656.5604357325
 20
654.8112396313
 30
0.0
 11
1655.5604357325
 21
654.8112396313
 31
0.0
  0
LINE
  5
4D8
330
1F
100
AcDbEntity
  8
1
  6
SLD-Сплошная
100
AcDbLine
 10
1656.5604357325
 20
626.8112396313
 30
0.0
 11
1659.5604357325
 21
629.8112396313
 31
0.0
  0
LINE
  5
4D9
330
1F
100
AcDbEntity
  8
1
  6
SLD-Сплошная
100
AcDbLine
 10
1659.5604357325
 20
651.8112396313
 30
0.0
 11
1656.5604357325
 21
654.8112396313
 31
0.0
  0
LINE
  5
4DA
330
1F
100
AcDbEntity
  8
1
  6
SLD-Сплошная
100
AcDbLine
 10
1408.2604357325
 20
143.2112396313
 30
0.0
 11
1626.2604357325
 21
143.2112396313
 31
0.0
  0
CIRCLE
  5
4DB
330
1F
100
AcDbEntity
  8
1
  6
SLD-Сплошная
100
AcDbCircle
 10
1588.6604357325
 20
190.8112396313
 30
0.0
 40
0.5
  0
CIRCLE
  5
4DC
330
1F
100
AcDbEntity
  8
1
  6
SLD-Сплошная
100
AcDbCircle
 10
1588.6604357325
 20
1090.8112396313
 30
0.0
 40
0.5
  0
CIRCLE
  5
4DD
330
1F
100
AcDbEntity
  8
1
  6
SLD-Сплошная
100
AcDbCircle
 10
1588.6604357325
 20
640.8112396313
 30
0.0
 40
0.5
  0
CIRCLE
  5
4DE
330
1F
100
AcDbEntity
  8
1
  6
SLD-Сплошная
100
AcDbCircle
 10
1538.6604357325
 20
1100.8112396313
 30
0.0
 40
0.4999999999997726
  0
LINE
  5
4DF
330
1F
100
AcDbEntity
  8
1
  6
SLD-Сплошная
100
AcDbLine
 10
1408.2604357325
 20
1140.8112396313
 30
0.0
 11
1626.2604357325
 21
1140.8112396313
 31
0.0
  0
LINE
  5
4E0
330
1F
100
AcDbEntity
  8
1
  6
SLD-Сплошная
100
AcDbLine
 10
1626.2604357325
 20
1138.4112396313
 30
0.0
 11
1626.2604357325
 21
1140.8112396313
 31
0.0
  0
LINE
  5
4E1
330
1F
100
AcDbEntity
  8
1
  6
SLD-Сплошная
100
AcDbLine
 10
1408.2604357325
 20
1138.4112396313
 30
0.0
 11
1408.2604357325
 21
1140.8112396313
 31
0.0
  0
ELLIPSE
  5
4E2
330
1F
100
AcDbEntity
  8
1
  6
SLD-Сплошная
100
AcDbEllipse
 10
1408.2604357325
 20
1137.8405289532
 30
0.0
 11
2.899999999999864
 21
0.0
 31
0.0
210
0.0
220
0.0
230
1.0
 40
0.5172413793
 41
2.751284095331138
 42
3.141592653589793
  0
LINE
  5
4E3
330
1F
100
AcDbEntity
  8
1
  6
SLD-Сплошная
100
AcDbLine
 10
1405.5785397864
 20
1138.4112396313
 30
0.0
 11
1408.2604357325
 21
1138.4112396313
 31
0.0
  0
ELLIPSE
  5
4E4
330
1F
100
AcDbEntity
  8
1
  6
SLD-Сплошная
100
AcDbEllipse
 10
1408.2604357325
 20
143.7819503093
 30
0.0
 11
2.899999999999864
 21
0.0
 31
0.0
210
0.0
220
0.0
230
1.0
 40
0.5172413793
 41
3.141592653589793
 42
3.531901211848433
  0
LINE
  5
4E5
330
1F
100
AcDbEntity
  8
1
  6
SLD-Сплошная
100
AcDbLine
 10
1405.3604357325
 20
143.7819503093
 30
0.0
 11
1405.3604357325
 21
1137.8405289532
 31
0.0
  0
LINE
  5
4E6
330
1F
100
AcDbEntity
  8
1
  6
SLD-Сплошная
100
AcDbLine
 10
1405.5785397864
 20
143.2112396313
 30
0.0
 11
1408.2604357325
 21
143.2112396313
 31
0.0
  0
LINE
  5
4E7
330
1F
100
AcDbEntity
  8
1
  6
SLD-Сплошная
100
AcDbLine
 10
1628.6604357325
 20
1138.3405289533
 30
0.0
 11
1626.2604357325
 21
1138.4112396313
 31
0.0
  0
LINE
  5
4E8
330
1F
100
AcDbEntity
  8
1
  6
SLD-Сплошная
100
AcDbLine
 10
1628.6604357325
 20
143.2819503092
 30
0.0
 11
1626.2604357325
 21
143.2112396313
 31
0.0
  0
LINE
  5
4E9
330
1F
100
AcDbEntity
  8
1
  6
SLD-Сплошная
100
AcDbLine
 10
1628.6604357325
 20
1138.3405289533
 30
0.0
 11
1628.6604357325
 21
143.2819503092
 31
0.0
  0
LINE
  5
4EA
330
1F
100
AcDbEntity
  8
1
  6
SLD-Сплошная
100
AcDbLine
 10
1408.2604357325
 20
141.3377402317
 30
0.0
 11
1408.2604357325
 21
143.2112396313
 31
0.0
  0
LINE
  5
4EB
330
1F
100
AcDbEntity
  8
1
  6
SLD-Сплошная
100
AcDbLine
 10
1626.2604357325
 20
143.2112396313
 30
0.0
 11
1626.2604357325
 21
141.3377402317
 31
0.0
  0
LINE
  5
4EC
330
1F
100
AcDbEntity
  8
1
  6
SLD-Сплошная
100
AcDbLine
 10
1626.2604357325
 20
140.8112396313
 30
0.0
 11
1408.2604357325
 21
140.8112396313
 31
0.0
  0
ARC
  5
4ED
330
1F
100
AcDbEntity
  8
1
  6
SLD-Сплошная
100
AcDbCircle
 10
1408.2604357325
 20
1137.9112396313
 30
0.0
 40
1.500000000000227
100
AcDbArc
 50
90.0
 51
157.6369669039
  0
LINE
  5
4EE
330
1F
100
AcDbEntity
  8
1
  6
SLD-Сплошная
100
AcDbLine
 10
1405.5785397864
 20
1139.0146136088
 30
0.0
 11
1406.8732481742
 21
1138.4819503093
 31
0.0
  0
ARC
  5
4EF
330
1F
100
AcDbEntity
  8
1
  6
SLD-Сплошная
100
AcDbCircle
 10
1408.2604357325
 20
1137.9112396313
 30
0.0
 40
2.900000000000318
100
AcDbArc
 50
90.0
 51
157.6369669039
  0
LINE
  5
4F0
330
1F
100
AcDbEntity
  8
1
  6
SLD-Сплошная
100
AcDbLine
 10
1405.5785397864
 20
142.6078656538
 30
0.0
 11
1406.8732481742
 21
143.1405289532
 31
0.0
  0
LINE
  5
4F1
330
1F
100
AcDbEntity
  8
1
  6
SLD-Сплошная
100
AcDbLine
 10
1408.2604357325
 20
141.3377402317
 30
0.0
 11
1408.2604357325
 21
140.8112396313
 31
0.0
  0
ARC
  5
4F2
330
1F
100
AcDbEntity
  8
1
  6
SLD-Сплошная
100
AcDbCircle
 10
1408.2604357325
 20
143.7112396313
 30
0.0
 40
2.900000000000047
100
AcDbArc
 50
202.3630330961
 51
270.0
  0
ARC
  5
4F3
330
1F
100
AcDbEntity
  8
1
  6
SLD-Сплошная
100
AcDbCircle
 10
1408.2604357325
 20
143.7112396313
 30
0.0
 40
1.500000000000105
100
AcDbArc
 50
202.3630330961
 51
270.0
  0
LINE
  5
4F4
330
1F
100
AcDbEntity
  8
1
  6
SLD-Сплошная
100
AcDbLine
 10
1405.3604357325
 20
1137.9112396313
 30
0.0
 11
1405.3636597468
 21
1137.9112396313
 31
0.0
  0
ARC
  5
4F5
330
1F
100
AcDbEntity
  8
1
  6
SLD-Сплошная
100
AcDbCircle
 10
1408.2604357325
 20
1137.9112396313
 30
0.0
 40
2.900000000000091
100
AcDbArc
 50
157.6369669039
 51
180.0
  0
LINE
  5
4F6
330
1F
100
AcDbEntity
  8
1
  6
SLD-Сплошная
100
AcDbLine
 10
1405.3604357325
 20
143.7112396313
 30
0.0
 11
1405.3636597468
 21
143.7112396313
 31
0.0
  0
ARC
  5
4F7
330
1F
100
AcDbEntity
  8
1
  6
SLD-Сплошная
100
AcDbCircle
 10
1408.2604357325
 20
143.7112396313
 30
0.0
 40
2.900000000000091
100
AcDbArc
 50
180.0
 51
202.3630330961
  0
ARC
  5
4F8
330
1F
100
AcDbEntity
  8
1
  6
SLD-Сплошная
100
AcDbCircle
 10
1626.2604357325
 20
143.2112396313
 30
0.0
 40
2.400000000000091
100
AcDbArc
 50
270.0
 51
360.0
  0
LINE
  5
4F9
330
1F
100
AcDbEntity
  8
1
  6
SLD-Сплошная
100
AcDbLine
 10
1626.2604357325
 20
140.8112396313
 30
0.0
 11
1626.2604357325
 21
141.3377402317
 31
0.0
  0
ARC
  5
4FA
330
1F
100
AcDbEntity
  8
1
  6
SLD-Сплошная
100
AcDbCircle
 10
1626.2604357325
 20
143.2112396313
 30
0.0
 40
1.0
100
AcDbArc
 50
270.0
 51
360.0
  0
LINE
  5
4FB
330
1F
100
AcDbEntity
  8
1
  6
SLD-Сплошная
100
AcDbLine
 10
1627.2604357325
 20
143.2112396313
 30
0.0
 11
1628.6604357325
 21
143.2112396313
 31
0.0
  0
LINE
  5
4FC
330
1F
100
AcDbEntity
  8
1
  6
SLD-Сплошная
100
AcDbLine
 10
1627.2604357325
 20
1138.4112396313
 30
0.0
 11
1628.6604357325
 21
1138.4112396313
 31
0.0
  0
ARC
  5
4FD
330
1F
100
AcDbEntity
  8
1
  6
SLD-Сплошная
100
AcDbCircle
 10
1626.2604357325
 20
1138.4112396313
 30
0.0
 40
2.400000000000318
100
AcDbArc
 50
0.0
 51
90.0
  0
ARC
  5
4FE
330
1F
100
AcDbEntity
  8
1
  6
SLD-Сплошная
100
AcDbCircle
 10
1626.2604357325
 20
1138.4112396313
 30
0.0
 40
1.000000000000227
100
AcDbArc
 50
0.0
 51
90.0
  0
LINE
  5
4FF
330
1F
100
AcDbEntity
  8
1
  6
SLD-Сплошная
100
AcDbLine
 10
1627.2604357325
 20
143.2112396313
 30
0.0
 11
1627.2604357325
 21
143.2407024138
 31
0.0
  0
LINE
  5
500
330
1F
100
AcDbEntity
  8
1
  6
SLD-Сплошная
100
AcDbLine
 10
1628.6604357325
 20
143.2112396313
 30
0.0
 11
1628.6604357325
 21
143.2819503093
 31
0.0
  0
LINE
  5
501
330
1F
100
AcDbEntity
  8
1
  6
SLD-Сплошная
100
AcDbLine
 10
1627.2604357325
 20
1138.4112396313
 30
0.0
 11
1627.2604357325
 21
1138.3817768488
 31
0.0
  0
LINE
  5
502
330
1F
100
AcDbEntity
  8
1
  6
SLD-Сплошная
100
AcDbLine
 10
1628.6604357325
 20
1138.4112396313
 30
0.0
 11
1628.6604357325
 21
1138.3405289533
 31
0.0
  0
LINE
  5
503
330
1F
100
AcDbEntity
  8
1
  6
SLD-Сплошная
100
AcDbLine
 10
1405.3604357325
 20
1137.9112396313
 30
0.0
 11
1405.3604357325
 21
1137.8405289532
 31
0.0
  0
LINE
  5
504
330
1F
100
AcDbEntity
  8
1
  6
SLD-Сплошная
100
AcDbLine
 10
1405.3604357325
 20
143.7112396313
 30
0.0
 11
1405.3604357325
 21
143.7819503093
 31
0.0
  0
ELLIPSE
  5
505
330
1F
100
AcDbEntity
  8
1
  6
SLD-Сплошная
100
AcDbEllipse
 10
1629.6604357325
 20
159.8819503092
 30
0.0
 11
0.0
 21
2.399999999999835
 31
0.0
210
0.0
220
0.0
230
1.0
 40
0.4166666667
 41
0.0
 42
1.570796326794897
  0
ELLIPSE
  5
506
330
1F
100
AcDbEntity
  8
1
  6
SLD-Сплошная
100
AcDbEllipse
 10
1629.6604357325
 20
1121.7405289533
 30
0.0
 11
0.0
 21
2.399999999999864
 31
0.0
210
0.0
220
0.0
230
1.0
 40
0.4166666667
 41
1.570796326794897
 42
3.141592653589793
  0
ARC
  5
507
330
1F
100
AcDbEntity
  8
1
  6
SLD-Сплошная
100
AcDbCircle
 10
1629.6604357325
 20
159.8112396313
 30
0.0
 40
2.399999999999977
100
AcDbArc
 50
90.0
 51
96.3209984382
  0
ARC
  5
508
330
1F
100
AcDbEntity
  8
1
  6
SLD-Сплошная
100
AcDbCircle
 10
1629.6604357325
 20
159.8112396313
 30
0.0
 40
1.000000000000114
100
AcDbArc
 50
90.0
 51
180.0
  0
ARC
  5
509
330
1F
100
AcDbEntity
  8
1
  6
SLD-Сплошная
100
AcDbCircle
 10
1629.6604357325
 20
1121.8112396313
 30
0.0
 40
2.400000000000104
100
AcDbArc
 50
263.6790015618
 51
270.0
  0
ARC
  5
50A
330
1F
100
AcDbEntity
  8
1
  6
SLD-Сплошная
100
AcDbCircle
 10
1629.6604357325
 20
1121.8112396313
 30
0.0
 40
1.0
100
AcDbArc
 50
180.0
 51
270.0
  0
LINE
  5
50B
330
1F
100
AcDbEntity
  8
1
  6
SLD-Сплошная
100
AcDbLine
 10
1629.6604357325
 20
162.2819503093
 30
0.0
 11
1636.5604357325
 21
162.2819503092
 31
0.0
  0
LINE
  5
50C
330
1F
100
AcDbEntity
  8
1
  6
SLD-Сплошная
100
AcDbLine
 10
1629.6604357325
 20
1119.3405289533
 30
0.0
 11
1636.5604357325
 21
1119.3405289533
 31
0.0
  0
LINE
  5
50D
330
1F
100
AcDbEntity
  8
1
  6
SLD-Сплошная
100
AcDbLine
 10
1636.5604357325
 20
1119.4112396313
 30
0.0
 11
1629.6604357325
 21
1119.4112396313
 31
0.0
  0
LINE
  5
50E
330
1F
100
AcDbEntity
  8
1
  6
SLD-Сплошная
100
AcDbLine
 10
1636.5604357325
 20
1120.8112396313
 30
0.0
 11
1629.6604357325
 21
1120.8112396313
 31
0.0
  0
LINE
  5
50F
330
1F
100
AcDbEntity
  8
1
  6
SLD-Сплошная
100
AcDbLine
 10
1636.5604357325
 20
160.8112396313
 30
0.0
 11
1629.6604357325
 21
160.8112396313
 31
0.0
  0
LINE
  5
510
330
1F
100
AcDbEntity
  8
1
  6
SLD-Сплошная
100
AcDbLine
 10
1636.5604357325
 20
162.2112396313
 30
0.0
 11
1629.6604357325
 21
162.2112396313
 31
0.0
  0
LINE
  5
511
330
1F
100
AcDbEntity
  8
1
  6
SLD-Сплошная
100
AcDbLine
 10
1638.0104357325
 20
143.9940823437
 30
0.0
 11
1652.4604357325
 21
143.9940823437
 31
0.0
  0
LINE
  5
512
330
1F
100
AcDbEntity
  8
1
  6
SLD-Сплошная
100
AcDbLine
 10
1638.0104357325
 20
1137.6283969188
 30
0.0
 11
1652.4604357325
 21
1137.6283969188
 31
0.0
  0
SPLINE
  5
513
330
1F
100
AcDbEntity
  8
1
  6
SLD-Сплошная
100
AcDbSpline
210
0.0
220
0.0
230
1.0
 70
     8
 71
     3
 72
    11
 73
     7
 74
     0
 42
0.00000001
 43
0.00000001
 40
0.0
 40
0.0
 40
0.0
 40
0.0
 40
0.2500000000000001
 40
0.5000000000000048
 40
0.7500000000000009
 40
1.0
 40
1.0
 40
1.0
 40
1.0
 10
1638.010435732496
 20
1137.628396918801
 30
0.0
 10
1637.820432018977
 20
1137.624230252134
 30
0.0
 10
1637.440424591939
 20
1137.615896918801
 30
0.0
 10
1636.961134433149
 20
1137.603396918801
 30
0.0
 10
1636.625823074121
 20
1137.590896918801
 30
0.0
 10
1636.582231513038
 20
1137.582563585468
 30
0.0
 10
1636.560435732496
 20
1137.578396918801
 30
0.0
  0
SPLINE
  5
514
330
1F
100
AcDbEntity
  8
1
  6
SLD-Сплошная
100
AcDbSpline
210
0.0
220
0.0
230
1.0
 70
     8
 71
     3
 72
    11
 73
     7
 74
     0
 42
0.00000001
 43
0.00000001
 40
0.0
 40
0.0
 40
0.0
 40
0.0
 40
0.2500000000000206
 40
0.5000000000000058
 40
0.7500000000000006
 40
1.0
 40
1.0
 40
1.0
 40
1.0
 10
1636.560435732496
 20
144.0440823437061
 30
0.0
 10
1636.582231513036
 20
144.0399156770393
 30
0.0
 10
1636.625823074116
 20
144.031582343706
 30
0.0
 10
1636.961134433143
 20
144.0190823437063
 30
0.0
 10
1637.440424591935
 20
144.0065823437068
 30
0.0
 10
1637.820432018976
 20
143.9982490103733
 30
0.0
 10
1638.010435732496
 20
143.9940823437066
 30
0.0
  0
ELLIPSE
  5
515
330
1F
100
AcDbEntity
  8
1
  6
SLD-Сплошная
100
AcDbEllipse
 10
1652.4604357325
 20
1136.2112396313
 30
0.0
 11
3.100000000000136
 21
0.0
 31
0.0
210
0.0
220
0.0
230
1.0
 40
0.4571475121
 41
0.0
 42
1.570796326794897
  0
LINE
  5
516
330
1F
100
AcDbEntity
  8
1
  6
SLD-Сплошная
100
AcDbLine
 10
1655.5604357325
 20
1136.2112396313
 30
0.0
 11
1655.5604357325
 21
145.4112396313
 31
0.0
  0
ELLIPSE
  5
517
330
1F
100
AcDbEntity
  8
1
  6
SLD-Сплошная
100
AcDbEllipse
 10
1652.4604357325
 20
145.4112396313
 30
0.0
 11
3.099999999999909
 21
0.0
 31
0.0
210
0.0
220
0.0
230
1.0
 40
0.4571475121
 41
4.712388980384622
 42
6.283185307179586
  0
LINE
  5
518
330
1F
100
AcDbEntity
  8
1
  6
SLD-Сплошная
100
AcDbLine
 10
1637.9604357325
 20
1137.8612396313
 30
0.0
 11
1636.5604357325
 21
1137.8612396313
 31
0.0
  0
SPLINE
  5
519
330
1F
100
AcDbEntity
  8
1
  6
SLD-Сплошная
100
AcDbSpline
210
0.0
220
0.0
230
1.0
 70
     8
 71
     3
 72
    11
 73
     7
 74
     0
 42
0.00000001
 43
0.00000001
 40
0.0
 40
0.0
 40
0.0
 40
0.0
 40
0.2499999999999969
 40
0.5000000000000066
 40
0.7499999999999997
 40
1.0
 40
1.0
 40
1.0
 40
1.0
 10
1636.560435732496
 20
1137.861239631254
 30
0.0
 10
1636.582231513038
 20
1138.051243344773
 30
0.0
 10
1636.625823074121
 20
1138.431250771811
 30
0.0
 10
1636.961134433149
 20
1138.910540930601
 30
0.0
 10
1637.440424591939
 20
1139.245852289629
 30
0.0
 10
1637.820432018977
 20
1139.289443850712
 30
0.0
 10
1638.010435732496
 20
1139.311239631254
 30
0.0
  0
LINE
  5
51A
330
1F
100
AcDbEntity
  8
1
  6
SLD-Сплошная
100
AcDbLine
 10
1638.0104357325
 20
1139.3112396313
 30
0.0
 11
1638.0104357325
 21
1137.9112396313
 31
0.0
  0
SPLINE
  5
51B
330
1F
100
AcDbEntity
  8
1
  6
SLD-Сплошная
100
AcDbSpline
210
0.0
220
0.0
230
1.0
 70
     8
 71
     3
 72
    11
 73
     7
 74
     0
 42
0.00000001
 43
0.00000001
 40
0.0
 40
0.0
 40
0.0
 40
0.0
 40
0.2499999999998797
 40
0.500000000000012
 40
0.7499999999999782
 40
0.9999999999999999
 40
0.9999999999999999
 40
0.9999999999999999
 40
0.9999999999999999
 10
1637.960435732496
 20
1137.861239631254
 30
0.0
 10
1637.961187311136
 20
1137.867791483444
 30
0.0
 10
1637.962690468414
 20
1137.880895187825
 30
0.0
 10
1637.97425292907
 20
1137.897422434679
 30
0.0
 10
1637.990780175925
 20
1137.908984895335
 30
0.0
 10
1638.003883880306
 20
1137.910488052614
 30
0.0
 10
1638.010435732496
 20
1137.911239631254
 30
0.0
  0
LINE
  5
51C
330
1F
100
AcDbEntity
  8
1
  6
SLD-Сплошная
100
AcDbLine
 10
1652.4604357325
 20
1139.3112396313
 30
0.0
 11
1638.0104357325
 21
1139.3112396313
 31
0.0
  0
LINE
  5
51D
330
1F
100
AcDbEntity
  8
1
  6
SLD-Сплошная
100
AcDbLine
 10
1652.4604357325
 20
1137.9112396313
 30
0.0
 11
1638.0104357325
 21
1137.9112396313
 31
0.0
  0
LINE
  5
51E
330
1F
100
AcDbEntity
  8
1
  6
SLD-Сплошная
100
AcDbLine
 10
1638.0104357325
 20
142.3112396313
 30
0.0
 11
1638.0104357325
 21
143.7112396313
 31
0.0
  0
LINE
  5
51F
330
1F
100
AcDbEntity
  8
1
  6
SLD-Сплошная
100
AcDbLine
 10
1637.9604357325
 20
143.7612396313
 30
0.0
 11
1636.5604357325
 21
143.7612396313
 31
0.0
  0
SPLINE
  5
520
330
1F
100
AcDbEntity
  8
1
  6
SLD-Сплошная
100
AcDbSpline
210
0.0
220
0.0
230
1.0
 70
     8
 71
     3
 72
    11
 73
     7
 74
     0
 42
0.00000001
 43
0.00000001
 40
0.0
 40
0.0
 40
0.0
 40
0.0
 40
0.2500000000001024
 40
0.5000000000001495
 40
0.7500000000000395
 40
1.0
 40
1.0
 40
1.0
 40
1.0
 10
1638.010435732496
 20
143.7112396312539
 30
0.0
 10
1638.003883880306
 20
143.7119912098933
 30
0.0
 10
1637.990780175925
 20
143.7134943671721
 30
0.0
 10
1637.97425292907
 20
143.7250568278281
 30
0.0
 10
1637.962690468414
 20
143.7415840746829
 30
0.0
 10
1637.961187311135
 20
143.7546877790635
 30
0.0
 10
1637.960435732496
 20
143.761239631254
 30
0.0
  0
SPLINE
  5
521
330
1F
100
AcDbEntity
  8
1
  6
SLD-Сплошная
100
AcDbSpline
210
0.0
220
0.0
230
1.0
 70
     8
 71
     3
 72
    11
 73
     7
 74
     0
 42
0.00000001
 43
0.00000001
 40
0.0
 40
0.0
 40
0.0
 40
0.0
 40
0.2500000000000017
 40
0.5000000000000003
 40
0.7499999999999956
 40
1.0
 40
1.0
 40
1.0
 40
1.0
 10
1638.010435732496
 20
142.3112396312539
 30
0.0
 10
1637.820432018977
 20
142.3330354117955
 30
0.0
 10
1637.440424591939
 20
142.3766269728788
 30
0.0
 10
1636.961134433148
 20
142.7119383319062
 30
0.0
 10
1636.625823074121
 20
143.1912284906968
 30
0.0
 10
1636.582231513038
 20
143.571235917735
 30
0.0
 10
1636.560435732496
 20
143.761239631254
 30
0.0
  0
LINE
  5
522
330
1F
100
AcDbEntity
  8
1
  6
SLD-Сплошная
100
AcDbLine
 10
1652.4604357325
 20
142.3112396313
 30
0.0
 11
1638.0104357325
 21
142.3112396313
 31
0.0
  0
LINE
  5
523
330
1F
100
AcDbEntity
  8
1
  6
SLD-Сплошная
100
AcDbLine
 10
1652.4604357325
 20
143.7112396313
 30
0.0
 11
1638.0104357325
 21
143.7112396313
 31
0.0
  0
ARC
  5
524
330
1F
100
AcDbEntity
  8
1
  6
SLD-Сплошная
100
AcDbCircle
 10
1652.4604357325
 20
1136.2112396313
 30
0.0
 40
3.100000000000136
100
AcDbArc
 50
360.0
 51
90.0
  0
ARC
  5
525
330
1F
100
AcDbEntity
  8
1
  6
SLD-Сплошная
100
AcDbCircle
 10
1652.4604357325
 20
1136.2112396313
 30
0.0
 40
1.700000000000045
100
AcDbArc
 50
51.6088531375
 51
90.0
  0
ARC
  5
526
330
1F
100
AcDbEntity
  8
1
  6
SLD-Сплошная
100
AcDbCircle
 10
1652.4604357325
 20
145.4112396313
 30
0.0
 40
1.700000000000159
100
AcDbArc
 50
270.0
 51
308.391146863
  0
ARC
  5
527
330
1F
100
AcDbEntity
  8
1
  6
SLD-Сплошная
100
AcDbCircle
 10
1652.4604357325
 20
145.4112396313
 30
0.0
 40
3.100000000000108
100
AcDbArc
 50
270.0
 51
0.0
  0
LINE
  5
528
330
1F
100
AcDbEntity
  8
1
  6
SLD-Сплошная
100
AcDbLine
 10
1638.0104357325
 20
1137.6283969188
 30
0.0
 11
1638.0104357325
 21
1137.8112396313
 31
0.0
  0
SPLINE
  5
529
330
1F
100
AcDbEntity
  8
1
  6
SLD-Сплошная
100
AcDbSpline
210
0.0
220
0.0
230
1.0
 70
     8
 71
     3
 72
     9
 73
     5
 74
     0
 42
0.00000001
 43
0.00000001
 40
0.0
 40
0.0
 40
0.0
 40
0.0
 40
0.3631393845140638
 40
1.0
 40
1.0
 40
1.0
 40
1.0
 10
1638.010435732496
 20
1137.811239631254
 30
0.0
 10
1637.995815229
 20
1137.817092184937
 30
0.0
 10
1637.955553819415
 20
1137.833208733934
 30
0.0
 10
1637.958536304934
 20
1137.850333525779
 30
0.0
 10
1637.960435732496
 20
1137.861239631254
 30
0.0
  0
LINE
  5
52A
330
1F
100
AcDbEntity
  8
1
  6
SLD-Сплошная
100
AcDbLine
 10
1636.6401279174
 20
1137.4671549232
 30
0.0
 11
1636.5604357325
 21
1137.8612396313
 31
0.0
  0
LINE
  5
52B
330
1F
100
AcDbEntity
  8
1
  6
SLD-Сплошная
100
AcDbLine
 10
1638.0104357325
 20
143.9940823437
 30
0.0
 11
1638.0104357325
 21
143.8112396313
 31
0.0
  0
SPLINE
  5
52C
330
1F
100
AcDbEntity
  8
1
  6
SLD-Сплошная
100
AcDbSpline
210
0.0
220
0.0
230
1.0
 70
     8
 71
     3
 72
     9
 73
     5
 74
     0
 42
0.00000001
 43
0.00000001
 40
0.0
 40
0.0
 40
0.0
 40
0.0
 40
0.6368606154826595
 40
1.0
 40
1.0
 40
1.0
 40
1.0
 10
1637.960435732496
 20
143.761239631254
 30
0.0
 10
1637.958536304934
 20
143.7721457367285
 30
0.0
 10
1637.955553819416
 20
143.7892705285737
 30
0.0
 10
1637.995815229
 20
143.8053870775709
 30
0.0
 10
1638.010435732496
 20
143.8112396312541
 30
0.0
  0
LINE
  5
52D
330
1F
100
AcDbEntity
  8
1
  6
SLD-Сплошная
100
AcDbLine
 10
1636.5604357325
 20
143.7612396313
 30
0.0
 11
1636.6176252189
 21
144.0440823438
 31
0.0
  0
LINE
  5
52E
330
1F
100
AcDbEntity
  8
1
  6
SLD-Сплошная
100
AcDbLine
 10
1651.6504357325
 20
1137.8112396313
 30
0.0
 11
1638.0104357325
 21
1137.8112396313
 31
0.0
  0
LINE
  5
52F
330
1F
100
AcDbEntity
  8
1
  6
SLD-Сплошная
100
AcDbLine
 10
1651.6504357325
 20
1137.6283969188
 30
0.0
 11
1651.6504357325
 21
1137.8112396313
 31
0.0
  0
LINE
  5
530
330
1F
100
AcDbEntity
  8
1
  6
SLD-Сплошная
100
AcDbLine
 10
1651.6504357325
 20
143.8112396313
 30
0.0
 11
1638.0104357325
 21
143.8112396313
 31
0.0
  0
LINE
  5
531
330
1F
100
AcDbEntity
  8
1
  6
SLD-Сплошная
100
AcDbLine
 10
1651.6504357325
 20
143.9940823438
 30
0.0
 11
1651.6504357325
 21
143.8112396313
 31
0.0
  0
ARC
  5
532
330
1F
100
AcDbEntity
  8
1
  6
SLD-Сплошная
100
AcDbCircle
 10
1651.6504357325
 20
1135.4012396313
 30
0.0
 40
2.409999999999854
100
AcDbArc
 50
67.3217650444
 51
90.0
  0
ARC
  5
533
330
1F
100
AcDbEntity
  8
1
  6
SLD-Сплошная
100
AcDbCircle
 10
1651.6504357325
 20
146.2212396313
 30
0.0
 40
2.410000000000025
100
AcDbArc
 50
270.0
 51
292.5208324544
  0
LINE
  5
534
330
1F
100
AcDbEntity
  8
1
  6
SLD-Сплошная
100
AcDbLine
 10
1457.6104357325
 20
140.3112396313
 30
0.0
 11
1447.1187618446
 21
140.3112396313
 31
0.0
  0
ARC
  5
535
330
1F
100
AcDbEntity
  8
1
  6
SLD-Сплошная
100
AcDbCircle
 10
1447.1187618446
 20
142.7112396313
 30
0.0
 40
2.399999999999949
100
AcDbArc
 50
232.3415379936
 51
270.0
  0
LINE
  5
536
330
1F
100
AcDbEntity
  8
1
  6
SLD-Сплошная
100
AcDbLine
 10
1576.6104357325
 20
140.3112396313
 30
0.0
 11
1457.6104357325
 21
140.3112396313
 31
0.0
  0
LINE
  5
537
330
1F
100
AcDbEntity
  8
1
  6
SLD-Сплошная
100
AcDbLine
 10
1587.1021096204
 20
140.3112396313
 30
0.0
 11
1576.6104357325
 21
140.3112396313
 31
0.0
  0
ARC
  5
538
330
1F
100
AcDbEntity
  8
1
  6
SLD-Сплошная
100
AcDbCircle
 10
1587.1021096204
 20
142.7112396313
 30
0.0
 40
2.399999999999949
100
AcDbArc
 50
270.0
 51
307.658462006
  0
LINE
  5
539
330
1F
100
AcDbEntity
  8
1
  6
SLD-Сплошная
100
AcDbLine
 10
1656.5604357325
 20
626.8112396313
 30
0.0
 11
1656.5604357325
 21
654.8112396313
 31
0.0
  0
LINE
  5
53A
330
1F
100
AcDbEntity
  8
1
  6
SLD-Сплошная
100
AcDbLine
 10
1659.5604357325
 20
629.8112396313
 30
0.0
 11
1659.5604357325
 21
651.8112396313
 31
0.0
  0
ENDSEC
  0
SECTION
  2
OBJECTS
  0
DICTIONARY
  5
C
330
0
100
AcDbDictionary
281
     1
  3
ACAD_GROUP
350
D
  3
ACAD_LAYOUT
350
1A
  3
ACAD_MLINESTYLE
350
17
  3
ACAD_PLOTSETTINGS
350
19
  3
ACAD_PLOTSTYLENAME
350
E
  3
ACAD_SCALELIST
350
47
  3
DWGPROPS
350
53B
  0
DICTIONARY
  5
D
102
{ACAD_REACTORS
330
C
102
}
330
C
100
AcDbDictionary
281
     1
  0
DICTIONARY
  5
1A
102
{ACAD_REACTORS
330
C
102
}
330
C
100
AcDbDictionary
281
     1
  3
Layout1
350
1E
  3
Layout2
350
26
  3
Model
350
22
  0
DICTIONARY
  5
17
102
{ACAD_REACTORS
330
C
102
}
330
C
100
AcDbDictionary
281
     1
  3
Standard
350
18
  0
DICTIONARY
  5
19
102
{ACAD_REACTORS
330
C
102
}
330
C
100
AcDbDictionary
281
     1
  0
ACDBDICTIONARYWDFLT
  5
E
102
{ACAD_REACTORS
330
C
102
}
330
C
100
AcDbDictionary
281
     1
  3
Normal
350
F
100
AcDbDictionaryWithDefault
340
F
  0
DICTIONARY
  5
47
102
{ACAD_REACTORS
330
C
102
}
330
C
100
AcDbDictionary
281
     1
  3
A0
350
48
  3
A1
350
49
  3
A2
350
4A
  3
A3
350
4B
  3
A4
350
4C
  3
A5
350
4D
  3
A6
350
4E
  3
A7
350
4F
  3
A8
350
50
  3
A9
350
51
  3
B0
350
52
  3
B1
350
53
  3
B2
350
54
  3
B3
350
55
  3
B4
350
56
  3
B5
350
57
  3
B6
350
58
  0
XRECORD
  5
53B
102
{ACAD_REACTORS
330
C
102
}
330
C
100
AcDbXrecord
280
     1
  1
DWGPROPS COOKIE
  2

  3

  4

  6

  7

  8
ignatieved
  9

300
=
301
=
302
=
303
=
304
=
305
=
306
=
307
=
308
=
309
=
 40
0.0
 41
2460213.509959757
 42
2460213.50996037
  1

 90
        0
  0
LAYOUT
  5
1E
102
{ACAD_REACTORS
330
1A
102
}
330
1A
100
AcDbPlotSettings
  1

  2
none_device
  4

  6

 40
0.0
 41
0.0
 42
0.0
 43
0.0
 44
0.0
 45
0.0
 46
0.0
 47
0.0
 48
0.0
 49
0.0
140
0.0
141
0.0
142
1.0
143
1.0
 70
   688
 72
     1
 73
     0
 74
     5
  7

 75
    16
147
1.0
148
0.0
149
0.0
100
AcDbLayout
  1
Layout1
 70
     1
 71
     1
 10
0.0
 20
0.0
 11
420.0
 21
297.0
 12
0.0
 22
0.0
 32
0.0
 14
1.0000000000E+20
 24
1.0000000000E+20
 34
1.0000000000E+20
 15
-1.0000000000E+20
 25
-1.0000000000E+20
 35
-1.0000000000E+20
146
0.0
 13
0.0
 23
0.0
 33
0.0
 16
1.0
 26
0.0
 36
0.0
 17
0.0
 27
1.0
 37
0.0
 76
     0
330
1B
  0
LAYOUT
  5
26
102
{ACAD_REACTORS
330
1A
102
}
330
1A
100
AcDbPlotSettings
  1

  2
none_device
  4

  6

 40
0.0
 41
0.0
 42
0.0
 43
0.0
 44
0.0
 45
0.0
 46
0.0
 47
0.0
 48
0.0
 49
0.0
140
0.0
141
0.0
142
1.0
143
1.0
 70
   688
 72
     1
 73
     0
 74
     5
  7

 75
    16
147
1.0
148
0.0
149
0.0
100
AcDbLayout
  1
Layout2
 70
     1
 71
     2
 10
0.0
 20
0.0
 11
0.0
 21
0.0
 12
0.0
 22
0.0
 32
0.0
 14
0.0
 24
0.0
 34
0.0
 15
0.0
 25
0.0
 35
0.0
146
0.0
 13
0.0
 23
0.0
 33
0.0
 16
1.0
 26
0.0
 36
0.0
 17
0.0
 27
1.0
 37
0.0
 76
     0
330
23
  0
LAYOUT
  5
22
102
{ACAD_REACTORS
330
1A
102
}
330
1A
100
AcDbPlotSettings
  1

  2
none_device
  4
Letter_(8.50_x_11.00_Inches)
  6

 40
6.35
 41
6.35
 42
6.35000508
 43
6.35000508
 44
215.9
 45
279.4
 46
0.0
 47
0.0
 48
0.0
 49
0.0
140
0.0
141
0.0
142
1.0
143
1.0
 70
  1712
 72
     1
 73
     0
 74
     0
  7

 75
     0
147
1.0
148
0.0
149
0.0
100
AcDbLayout
  1
Model
 70
     1
 71
     0
 10
0.0
 20
0.0
 11
2000.0
 21
2500.0
 12
0.0
 22
0.0
 32
0.0
 14
0.0
 24
0.0
 34
0.0
 15
2000.0
 25
2500.0
 35
0.0
146
0.0
 13
0.0
 23
0.0
 33
0.0
 16
1.0
 26
0.0
 36
0.0
 17
0.0
 27
1.0
 37
0.0
 76
     0
330
1F
331
29
  0
MLINESTYLE
  5
18
102
{ACAD_REACTORS
330
17
102
}
330
17
100
AcDbMlineStyle
  2
Standard
 70
     0
  3

 62
   256
 51
90.0
 52
90.0
 71
     2
 49
0.5
 62
   256
  6
BYLAYER
 49
-0.5
 62
   256
  6
BYLAYER
  0
ACDBPLACEHOLDER
  5
F
102
{ACAD_REACTORS
330
E
102
}
330
E
  0
SCALE
  5
48
102
{ACAD_REACTORS
330
47
102
}
330
47
100
AcDbScale
 70
     0
300
1:1
140
1.0
141
1.0
290
     1
  0
SCALE
  5
49
102
{ACAD_REACTORS
330
47
102
}
330
47
100
AcDbScale
 70
     0
300
1:2
140
1.0
141
2.0
290
     0
  0
SCALE
  5
4A
102
{ACAD_REACTORS
330
47
102
}
330
47
100
AcDbScale
 70
     0
300
1:4
140
1.0
141
4.0
290
     0
  0
SCALE
  5
4B
102
{ACAD_REACTORS
330
47
102
}
330
47
100
AcDbScale
 70
     0
300
1:5
140
1.0
141
5.0
290
     0
  0
SCALE
  5
4C
102
{ACAD_REACTORS
330
47
102
}
330
47
100
AcDbScale
 70
     0
300
1:8
140
1.0
141
8.0
290
     0
  0
SCALE
  5
4D
102
{ACAD_REACTORS
330
47
102
}
330
47
100
AcDbScale
 70
     0
300
1:10
140
1.0
141
10.0
290
     0
  0
SCALE
  5
4E
102
{ACAD_REACTORS
330
47
102
}
330
47
100
AcDbScale
 70
     0
300
1:16
140
1.0
141
16.0
290
     0
  0
SCALE
  5
4F
102
{ACAD_REACTORS
330
47
102
}
330
47
100
AcDbScale
 70
     0
300
1:20
140
1.0
141
20.0
290
     0
  0
SCALE
  5
50
102
{ACAD_REACTORS
330
47
102
}
330
47
100
AcDbScale
 70
     0
300
1:30
140
1.0
141
30.0
290
     0
  0
SCALE
  5
51
102
{ACAD_REACTORS
330
47
102
}
330
47
100
AcDbScale
 70
     0
300
1:40
140
1.0
141
40.0
290
     0
  0
SCALE
  5
52
102
{ACAD_REACTORS
330
47
102
}
330
47
100
AcDbScale
 70
     0
300
1:50
140
1.0
141
50.0
290
     0
  0
SCALE
  5
53
102
{ACAD_REACTORS
330
47
102
}
330
47
100
AcDbScale
 70
     0
300
1:100
140
1.0
141
100.0
290
     0
  0
SCALE
  5
54
102
{ACAD_REACTORS
330
47
102
}
330
47
100
AcDbScale
 70
     0
300
2:1
140
2.0
141
1.0
290
     0
  0
SCALE
  5
55
102
{ACAD_REACTORS
330
47
102
}
330
47
100
AcDbScale
 70
     0
300
4:1
140
4.0
141
1.0
290
     0
  0
SCALE
  5
56
102
{ACAD_REACTORS
330
47
102
}
330
47
100
AcDbScale
 70
     0
300
8:1
140
8.0
141
1.0
290
     0
  0
SCALE
  5
57
102
{ACAD_REACTORS
330
47
102
}
330
47
100
AcDbScale
 70
     0
300
10:1
140
10.0
141
1.0
290
     0
  0
SCALE
  5
58
102
{ACAD_REACTORS
330
47
102
}
330
47
100
AcDbScale
 70
     0
300
100:1
140
100.0
141
1.0
290
     0
  0
ENDSEC
  0
EOF
