ISO-10303-21;
HEADER;
FILE_DESCRIPTION (( 'STEP AP203' ),
    '1' );
FILE_NAME ('YIS31 Óãëîâîé èçîëÿòîð äëÿ  Î øèíû æåëòûé (200 øòóê).STEP',
    '2016-09-08T06:37:56',
    ( '' ),
    ( '' ),
    'SwSTEP 2.0',
    'SolidWorks 2014',
    '' );
FILE_SCHEMA (( 'CONFIG_CONTROL_DESIGN' ));
ENDSEC;

DATA;
#1 = AXIS2_PLACEMENT_3D ( 'NONE', #347, #344, #334 ) ;
#2 = ADVANCED_FACE ( 'NONE', ( #309, #124 ), #263, .T. ) ;
#3 = EDGE_LOOP ( 'NONE', ( #150 ) ) ;
#4 = VERTEX_POINT ( 'NONE', #234 ) ;
#5 = DATE_TIME_ROLE ( 'classification_date' ) ;
#6 = PERSON_AND_ORGANIZATION_ROLE ( 'classification_officer' ) ;
#7 = SECURITY_CLASSIFICATION_LEVEL ( 'unclassified' ) ;
#8 = PERSON_AND_ORGANIZATION_ROLE ( 'design_supplier' ) ;
#9 = AXIS2_PLACEMENT_3D ( 'NONE', #141, #129, #128 ) ;
#10 = ORIENTED_EDGE ( 'NONE', *, *, #354, .F. ) ;
#11 = PERSON_AND_ORGANIZATION_ROLE ( 'creator' ) ;
#12 = APPROVAL_DATE_TIME ( #21, #30 ) ;
#13 = APPROVAL_ROLE ( '' ) ;
#14 = CC_DESIGN_DATE_AND_TIME_ASSIGNMENT ( #102, #5, ( #342 ) ) ;
#15 = APPROVAL_STATUS ( 'not_yet_approved' ) ;
#16 = DATE_TIME_ROLE ( 'creation_date' ) ;
#17 = PERSON_AND_ORGANIZATION_ROLE ( 'creator' ) ;
#18 = CARTESIAN_POINT ( 'NONE',  ( 0.0000000000000000000, 9.500000000000000000, -7.000000000000000000 ) ) ;
#19 = AXIS2_PLACEMENT_3D ( 'NONE', #314, #312, #302 ) ;
#20 = APPROVAL_ROLE ( '' ) ;
#21 = DATE_AND_TIME ( #29, #41 ) ;
#22 = APPROVAL_STATUS ( 'not_yet_approved' ) ;
#23 = AXIS2_PLACEMENT_3D ( 'NONE', #162, #161, #158 ) ;
#24 = ORIENTED_EDGE ( 'NONE', *, *, #222, .T. ) ;
#25 =( GEOMETRIC_REPRESENTATION_CONTEXT ( 3 ) GLOBAL_UNCERTAINTY_ASSIGNED_CONTEXT ( ( #289 ) ) GLOBAL_UNIT_ASSIGNED_CONTEXT ( ( #48, #46, #45 ) ) REPRESENTATION_CONTEXT ( 'NONE', 'WORKASPACE' ) );
#26 = APPLICATION_PROTOCOL_DEFINITION ( 'international standard', 'config_control_design', 1994, #31 ) ;
#27 = ORIENTED_EDGE ( 'NONE', *, *, #304, .T. ) ;
#28 = ORIENTED_EDGE ( 'NONE', *, *, #262, .T. ) ;
#29 = CALENDAR_DATE ( 2016, 8, 9 ) ;
#30 = APPROVAL ( #53, 'UNSPECIFIED' ) ;
#31 = APPLICATION_CONTEXT ( 'configuration controlled 3d designs of mechanical parts and assemblies' ) ;
#32 = PERSON_AND_ORGANIZATION_ROLE ( 'design_owner' ) ;
#33 = CYLINDRICAL_SURFACE ( 'NONE', #92, 7.000000000000000000 ) ;
#34 = MECHANICAL_CONTEXT ( 'NONE', #36, 'mechanical' ) ;
#35 = DIRECTION ( 'NONE',  ( 1.000000000000000000, 0.0000000000000000000, 0.0000000000000000000 ) ) ;
#36 = APPLICATION_CONTEXT ( 'configuration controlled 3d designs of mechanical parts and assemblies' ) ;
#37 = ADVANCED_FACE ( 'NONE', ( #227, #310 ), #33, .T. ) ;
#38 = APPLICATION_PROTOCOL_DEFINITION ( 'international standard', 'config_control_design', 1994, #36 ) ;
#39 = ORIENTED_EDGE ( 'NONE', *, *, #199, .F. ) ;
#40 = ORIENTED_EDGE ( 'NONE', *, *, #85, .T. ) ;
#41 = LOCAL_TIME ( 9, 37, 56.00000000000000000, #51 ) ;
#42 = AXIS2_PLACEMENT_3D ( 'NONE', #299, #294, #292 ) ;
#43 = DIRECTION ( 'NONE',  ( 0.0000000000000000000, 1.000000000000000000, 0.0000000000000000000 ) ) ;
#44 = AXIS2_PLACEMENT_3D ( 'NONE', #273, #202, #242 ) ;
#45 =( NAMED_UNIT ( * ) SI_UNIT ( $, .STERADIAN. ) SOLID_ANGLE_UNIT ( ) );
#46 =( NAMED_UNIT ( * ) PLANE_ANGLE_UNIT ( ) SI_UNIT ( $, .RADIAN. ) );
#47 = FACE_BOUND ( 'NONE', #108, .T. ) ;
#48 =( LENGTH_UNIT ( ) NAMED_UNIT ( * ) SI_UNIT ( .MILLI., .METRE. ) );
#49 = AXIS2_PLACEMENT_3D ( 'NONE', #143, #121, #119 ) ;
#50 = ORIENTED_EDGE ( 'NONE', *, *, #229, .F. ) ;
#51 = COORDINATED_UNIVERSAL_TIME_OFFSET ( 3, 0, .AHEAD. ) ;
#52 = DIRECTION ( 'NONE',  ( 0.0000000000000000000, 0.0000000000000000000, 1.000000000000000000 ) ) ;
#53 = APPROVAL_STATUS ( 'not_yet_approved' ) ;
#54 = PRODUCT_DEFINITION_SHAPE ( 'NONE', 'NONE',  #197 ) ;
#55 = EDGE_LOOP ( 'NONE', ( #39 ) ) ;
#56 = CC_DESIGN_APPROVAL ( #30, ( #342 ) ) ;
#57 = ORIENTED_EDGE ( 'NONE', *, *, #262, .F. ) ;
#58 = ORIENTED_EDGE ( 'NONE', *, *, #238, .F. ) ;
#59 = APPROVAL_PERSON_ORGANIZATION ( #65, #30, #122 ) ;
#60 = EDGE_CURVE ( 'NONE', #135, #135, #328, .T. ) ;
#61 = AXIS2_PLACEMENT_3D ( 'NONE', #264, #254, #253 ) ;
#62 = CIRCLE ( 'NONE', #125, 7.000000000000000000 ) ;
#63 = EDGE_CURVE ( 'NONE', #99, #171, #107, .T. ) ;
#64 = EDGE_LOOP ( 'NONE', ( #241 ) ) ;
#65 = PERSON_AND_ORGANIZATION ( #183, #205 ) ;
#66 = AXIS2_PLACEMENT_3D ( 'NONE', #137, #239, #113 ) ;
#67 = CARTESIAN_POINT ( 'NONE',  ( 0.0000000000000000000, 15.00000000000000000, 2.000000000000000000 ) ) ;
#68 = ADVANCED_FACE ( 'NONE', ( #368, #315 ), #258, .F. ) ;
#69 = DIRECTION ( 'NONE',  ( 0.0000000000000000000, -0.0000000000000000000, 1.000000000000000000 ) ) ;
#70 = CIRCLE ( 'NONE', #86, 7.000000000000000000 ) ;
#71 = ORIENTED_EDGE ( 'NONE', *, *, #213, .T. ) ;
#72 = CARTESIAN_POINT ( 'NONE',  ( 0.0000000000000000000, 11.00000000000000000, -2.000000000000000000 ) ) ;
#73 = CARTESIAN_POINT ( 'NONE',  ( 0.0000000000000000000, 15.00000000000000000, 7.000000000000000000 ) ) ;
#74 = VERTEX_POINT ( 'NONE', #72 ) ;
#75 = FACE_OUTER_BOUND ( 'NONE', #247, .T. ) ;
#76 = ORIENTED_EDGE ( 'NONE', *, *, #313, .T. ) ;
#77 = CC_DESIGN_SECURITY_CLASSIFICATION ( #342, ( #252 ) ) ;
#78 = CARTESIAN_POINT ( 'NONE',  ( 14.00000000000000200, 0.0000000000000000000, 2.000000000000003100 ) ) ;
#79 = VERTEX_POINT ( 'NONE', #83 ) ;
#80 = CARTESIAN_POINT ( 'NONE',  ( 14.00000000000000200, 9.500000000000000000, 2.000000000000003100 ) ) ;
#81 = CARTESIAN_POINT ( 'NONE',  ( 0.0000000000000000000, 0.0000000000000000000, 0.0000000000000000000 ) ) ;
#82 = VERTEX_POINT ( 'NONE', #18 ) ;
#83 = CARTESIAN_POINT ( 'NONE',  ( 0.0000000000000000000, 0.0000000000000000000, -3.500000000000000000 ) ) ;
#84 = DIRECTION ( 'NONE',  ( -0.0000000000000000000, -1.000000000000000000, -0.0000000000000000000 ) ) ;
#85 = EDGE_CURVE ( 'NONE', #279, #99, #320, .T. ) ;
#86 = AXIS2_PLACEMENT_3D ( 'NONE', #206, #204, #203 ) ;
#87 = DIRECTION ( 'NONE',  ( 1.000000000000000000, 0.0000000000000000000, 0.0000000000000000000 ) ) ;
#88 = EDGE_LOOP ( 'NONE', ( #259 ) ) ;
#89 = EDGE_LOOP ( 'NONE', ( #27, #228, #10, #28 ) ) ;
#90 = ORIENTED_EDGE ( 'NONE', *, *, #186, .T. ) ;
#91 = DIRECTION ( 'NONE',  ( 1.000000000000000000, 0.0000000000000000000, -0.0000000000000000000 ) ) ;
#92 = AXIS2_PLACEMENT_3D ( 'NONE', #261, #159, #250 ) ;
#93 = CYLINDRICAL_SURFACE ( 'NONE', #118, 3.500000000000000000 ) ;
#94 = CARTESIAN_POINT ( 'NONE',  ( 0.0000000000000000000, 9.500000000000000000, 7.000000000000000000 ) ) ;
#95 = AXIS2_PLACEMENT_3D ( 'NONE', #117, #126, #123 ) ;
#96 = ADVANCED_FACE ( 'NONE', ( #353 ), #297, .F. ) ;
#97 = VECTOR ( 'NONE', #331, 1000.000000000000000 ) ;
#98 = ORIENTED_EDGE ( 'NONE', *, *, #85, .F. ) ;
#99 = VERTEX_POINT ( 'NONE', #301 ) ;
#100 = ORIENTED_EDGE ( 'NONE', *, *, #313, .F. ) ;
#101 = ADVANCED_FACE ( 'NONE', ( #182, #152 ), #208, .T. ) ;
#102 = DATE_AND_TIME ( #112, #138 ) ;
#103 = CARTESIAN_POINT ( 'NONE',  ( 0.0000000000000000000, 9.500000000000000000, 0.0000000000000000000 ) ) ;
#104 = ADVANCED_BREP_SHAPE_REPRESENTATION ( 'YIS31 Lóûþòþù ø÷þû ªþ¨ ôû   + °øýv öõûªvù (200 °ªºú)', ( #223, #165 ), #25 ) ;
#105 = DIRECTION ( 'NONE',  ( 0.0000000000000000000, 0.0000000000000000000, 1.000000000000000000 ) ) ;
#106 = CARTESIAN_POINT ( 'NONE',  ( 0.0000000000000000000, 11.00000000000000000, 0.0000000000000000000 ) ) ;
#107 = LINE ( 'NONE', #274, #265 ) ;
#108 = EDGE_LOOP ( 'NONE', ( #100 ) ) ;
#109 = EDGE_LOOP ( 'NONE', ( #181, #339, #71, #178 ) ) ;
#110 = EDGE_CURVE ( 'NONE', #79, #79, #216, .T. ) ;
#111 = DIRECTION ( 'NONE',  ( 0.0000000000000000000, 1.000000000000000000, 0.0000000000000000000 ) ) ;
#112 = CALENDAR_DATE ( 2016, 8, 9 ) ;
#113 = DIRECTION ( 'NONE',  ( 0.0000000000000000000, 0.0000000000000000000, 1.000000000000000000 ) ) ;
#114 = VERTEX_POINT ( 'NONE', #73 ) ;
#115 = DIRECTION ( 'NONE',  ( 0.0000000000000000000, 0.0000000000000000000, -1.000000000000000000 ) ) ;
#116 = CARTESIAN_POINT ( 'NONE',  ( 0.0000000000000000000, 11.00000000000000000, -3.500000000000000000 ) ) ;
#117 = CARTESIAN_POINT ( 'NONE',  ( 0.0000000000000000000, 9.500000000000000000, 0.0000000000000000000 ) ) ;
#118 = AXIS2_PLACEMENT_3D ( 'NONE', #106, #84, #115 ) ;
#119 = DIRECTION ( 'NONE',  ( -1.000000000000000000, 0.0000000000000000000, -0.0000000000000000000 ) ) ;
#120 = EDGE_LOOP ( 'NONE', ( #170 ) ) ;
#121 = DIRECTION ( 'NONE',  ( 0.0000000000000000000, 0.0000000000000000000, -1.000000000000000000 ) ) ;
#122 = APPROVAL_ROLE ( '' ) ;
#123 = DIRECTION ( 'NONE',  ( 0.0000000000000000000, 0.0000000000000000000, -1.000000000000000000 ) ) ;
#124 = FACE_BOUND ( 'NONE', #64, .T. ) ;
#125 = AXIS2_PLACEMENT_3D ( 'NONE', #187, #185, #179 ) ;
#126 = DIRECTION ( 'NONE',  ( -0.0000000000000000000, -1.000000000000000000, -0.0000000000000000000 ) ) ;
#127 = PRODUCT ( 'YIS31 Óãëîâîé èçîëÿòîð äëÿ  Î øèíû æåëòûé (200 øòóê)', 'YIS31 Óãëîâîé èçîëÿòîð äëÿ  Î øèíû æåëòûé (200 øòóê)', '', ( #34 ) ) ;
#128 = DIRECTION ( 'NONE',  ( 0.0000000000000000000, -0.0000000000000000000, -1.000000000000000000 ) ) ;
#129 = DIRECTION ( 'NONE',  ( 0.0000000000000000000, -1.000000000000000000, 0.0000000000000000000 ) ) ;
#130 = DIRECTION ( 'NONE',  ( 0.0000000000000000000, 0.0000000000000000000, 1.000000000000000000 ) ) ;
#131 = ORIENTED_EDGE ( 'NONE', *, *, #280, .T. ) ;
#132 = ORIENTED_EDGE ( 'NONE', *, *, #298, .T. ) ;
#133 = DIRECTION ( 'NONE',  ( 0.0000000000000000000, 1.000000000000000000, 0.0000000000000000000 ) ) ;
#134 = CARTESIAN_POINT ( 'NONE',  ( 0.0000000000000000000, 15.00000000000000000, 0.0000000000000000000 ) ) ;
#135 = VERTEX_POINT ( 'NONE', #80 ) ;
#136 = CLOSED_SHELL ( 'NONE', ( #352, #101, #285, #37, #346, #316, #96, #68, #2, #369, #340 ) ) ;
#137 = CARTESIAN_POINT ( 'NONE',  ( 14.00000000000000200, 9.500000000000000000, 0.0000000000000000000 ) ) ;
#138 = LOCAL_TIME ( 9, 37, 56.00000000000000000, #142 ) ;
#139 = PLANE ( 'NONE',  #9 ) ;
#140 = CIRCLE ( 'NONE', #19, 3.500000000000000000 ) ;
#141 = CARTESIAN_POINT ( 'NONE',  ( 0.0000000000000000000, 11.00000000000000000, 0.0000000000000000000 ) ) ;
#142 = COORDINATED_UNIVERSAL_TIME_OFFSET ( 3, 0, .AHEAD. ) ;
#143 = CARTESIAN_POINT ( 'NONE',  ( 0.0000000000000000000, 9.500000000000000000, 7.000000000000000000 ) ) ;
#144 = SHAPE_DEFINITION_REPRESENTATION ( #54, #104 ) ;
#145 = AXIS2_PLACEMENT_3D ( 'NONE', #231, #201, #69 ) ;
#146 = PERSON_AND_ORGANIZATION ( #183, #205 ) ;
#147 = CARTESIAN_POINT ( 'NONE',  ( 14.00000000000000200, 9.500000000000000000, 7.000000000000000000 ) ) ;
#148 = CARTESIAN_POINT ( 'NONE',  ( 14.00000000000000200, 0.0000000000000000000, 0.0000000000000000000 ) ) ;
#149 = CIRCLE ( 'NONE', #61, 7.000000000000000000 ) ;
#150 = ORIENTED_EDGE ( 'NONE', *, *, #186, .F. ) ;
#151 = PERSON_AND_ORGANIZATION ( #183, #205 ) ;
#152 = FACE_BOUND ( 'NONE', #345, .T. ) ;
#153 = ORIENTED_EDGE ( 'NONE', *, *, #196, .F. ) ;
#154 = PERSON_AND_ORGANIZATION ( #183, #205 ) ;
#155 = DIRECTION ( 'NONE',  ( 0.0000000000000000000, 0.0000000000000000000, 1.000000000000000000 ) ) ;
#156 = ORIENTED_EDGE ( 'NONE', *, *, #280, .F. ) ;
#157 = DIRECTION ( 'NONE',  ( 0.0000000000000000000, -0.0000000000000000000, 1.000000000000000000 ) ) ;
#158 = DIRECTION ( 'NONE',  ( 0.0000000000000000000, 0.0000000000000000000, -1.000000000000000000 ) ) ;
#159 = DIRECTION ( 'NONE',  ( -0.0000000000000000000, -1.000000000000000000, -0.0000000000000000000 ) ) ;
#160 = APPROVAL_DATE_TIME ( #168, #269 ) ;
#161 = DIRECTION ( 'NONE',  ( 0.0000000000000000000, -1.000000000000000000, 0.0000000000000000000 ) ) ;
#162 = CARTESIAN_POINT ( 'NONE',  ( 0.0000000000000000000, 11.00000000000000000, 0.0000000000000000000 ) ) ;
#163 = DIRECTION ( 'NONE',  ( 0.0000000000000000000, 0.0000000000000000000, -1.000000000000000000 ) ) ;
#164 = VECTOR ( 'NONE', #271, 1000.000000000000000 ) ;
#165 = AXIS2_PLACEMENT_3D ( 'NONE', #81, #52, #35 ) ;
#166 = DIRECTION ( 'NONE',  ( -0.0000000000000000000, -1.000000000000000000, -0.0000000000000000000 ) ) ;
#167 = EDGE_LOOP ( 'NONE', ( #323, #57, #132, #24 ) ) ;
#168 = DATE_AND_TIME ( #184, #212 ) ;
#169 = EDGE_LOOP ( 'NONE', ( #76 ) ) ;
#170 = ORIENTED_EDGE ( 'NONE', *, *, #110, .F. ) ;
#171 = VERTEX_POINT ( 'NONE', #360 ) ;
#172 = PERSON_AND_ORGANIZATION ( #183, #205 ) ;
#173 = APPROVAL ( #22, 'UNSPECIFIED' ) ;
#174 = VERTEX_POINT ( 'NONE', #78 ) ;
#175 = PLANE ( 'NONE',  #49 ) ;
#176 = ORIENTED_EDGE ( 'NONE', *, *, #60, .F. ) ;
#177 = EDGE_LOOP ( 'NONE', ( #329 ) ) ;
#178 = ORIENTED_EDGE ( 'NONE', *, *, #196, .T. ) ;
#179 = DIRECTION ( 'NONE',  ( 0.0000000000000000000, 0.0000000000000000000, 1.000000000000000000 ) ) ;
#180 = CC_DESIGN_PERSON_AND_ORGANIZATION_ASSIGNMENT ( #217, #32, ( #127 ) ) ;
#181 = ORIENTED_EDGE ( 'NONE', *, *, #298, .F. ) ;
#182 = FACE_OUTER_BOUND ( 'NONE', #109, .T. ) ;
#183 = PERSON ( 'UNSPECIFIED', 'UNSPECIFIED', 'UNSPECIFIED', ('UNSPECIFIED'), ('UNSPECIFIED'), ('UNSPECIFIED') ) ;
#184 = CALENDAR_DATE ( 2016, 8, 9 ) ;
#185 = DIRECTION ( 'NONE',  ( 0.0000000000000000000, 1.000000000000000000, 0.0000000000000000000 ) ) ;
#186 = EDGE_CURVE ( 'NONE', #174, #174, #221, .T. ) ;
#187 = CARTESIAN_POINT ( 'NONE',  ( 0.0000000000000000000, 9.500000000000000000, 0.0000000000000000000 ) ) ;
#188 = CARTESIAN_POINT ( 'NONE',  ( 14.00000000000000200, 9.500000000000000000, 0.0000000000000000000 ) ) ;
#189 = CARTESIAN_POINT ( 'NONE',  ( 0.0000000000000000000, 0.0000000000000000000, 7.000000000000000000 ) ) ;
#190 = ORIENTED_EDGE ( 'NONE', *, *, #199, .T. ) ;
#191 = COORDINATED_UNIVERSAL_TIME_OFFSET ( 3, 0, .AHEAD. ) ;
#192 = CARTESIAN_POINT ( 'NONE',  ( 0.0000000000000000000, 0.0000000000000000000, 7.000000000000000000 ) ) ;
#193 = CC_DESIGN_APPROVAL ( #173, ( #197 ) ) ;
#194 = DIRECTION ( 'NONE',  ( 1.000000000000000000, 0.0000000000000000000, 0.0000000000000000000 ) ) ;
#195 = ORIENTED_EDGE ( 'NONE', *, *, #213, .F. ) ;
#196 = EDGE_CURVE ( 'NONE', #296, #82, #219, .T. ) ;
#197 = PRODUCT_DEFINITION ( 'UNKNOWN', '', #252, #211 ) ;
#198 = VERTEX_POINT ( 'NONE', #116 ) ;
#199 = EDGE_CURVE ( 'NONE', #198, #198, #140, .T. ) ;
#200 = DIRECTION ( 'NONE',  ( -0.0000000000000000000, -1.000000000000000000, -0.0000000000000000000 ) ) ;
#201 = DIRECTION ( 'NONE',  ( 0.0000000000000000000, 1.000000000000000000, 0.0000000000000000000 ) ) ;
#202 = DIRECTION ( 'NONE',  ( 0.0000000000000000000, 1.000000000000000000, 0.0000000000000000000 ) ) ;
#203 = DIRECTION ( 'NONE',  ( 0.0000000000000000000, 0.0000000000000000000, 1.000000000000000000 ) ) ;
#204 = DIRECTION ( 'NONE',  ( 0.0000000000000000000, 1.000000000000000000, 0.0000000000000000000 ) ) ;
#205 = ORGANIZATION ( 'UNSPECIFIED', 'UNSPECIFIED', '' ) ;
#206 = CARTESIAN_POINT ( 'NONE',  ( 0.0000000000000000000, 15.00000000000000000, 0.0000000000000000000 ) ) ;
#207 = FACE_OUTER_BOUND ( 'NONE', #169, .T. ) ;
#208 = PLANE ( 'NONE',  #350 ) ;
#209 = CC_DESIGN_PERSON_AND_ORGANIZATION_ASSIGNMENT ( #349, #17, ( #197 ) ) ;
#210 = LINE ( 'NONE', #326, #303 ) ;
#211 = DESIGN_CONTEXT ( 'detailed design', #31, 'design' ) ;
#212 = LOCAL_TIME ( 9, 37, 56.00000000000000000, #251 ) ;
#213 = EDGE_CURVE ( 'NONE', #321, #296, #286, .T. ) ;
#214 = LINE ( 'NONE', #94, #226 ) ;
#215 = LINE ( 'NONE', #288, #164 ) ;
#216 = CIRCLE ( 'NONE', #333, 3.500000000000000000 ) ;
#217 = PERSON_AND_ORGANIZATION ( #183, #205 ) ;
#218 = DIRECTION ( 'NONE',  ( -1.000000000000000000, -0.0000000000000000000, -0.0000000000000000000 ) ) ;
#219 = LINE ( 'NONE', #351, #97 ) ;
#220 = DIRECTION ( 'NONE',  ( -0.0000000000000000000, -1.000000000000000000, -0.0000000000000000000 ) ) ;
#221 = CIRCLE ( 'NONE', #1, 2.000000000000003100 ) ;
#222 = EDGE_CURVE ( 'NONE', #82, #171, #210, .T. ) ;
#223 = MANIFOLD_SOLID_BREP ( 'Âûðåç-Âûòÿíóòü1', #136 ) ;
#224 = FACE_OUTER_BOUND ( 'NONE', #177, .T. ) ;
#225 = EDGE_LOOP ( 'NONE', ( #282, #249, #153, #255 ) ) ;
#226 = VECTOR ( 'NONE', #87, 1000.000000000000000 ) ;
#227 = FACE_OUTER_BOUND ( 'NONE', #167, .T. ) ;
#228 = ORIENTED_EDGE ( 'NONE', *, *, #268, .F. ) ;
#229 = EDGE_CURVE ( 'NONE', #296, #99, #248, .T. ) ;
#230 = CC_DESIGN_DATE_AND_TIME_ASSIGNMENT ( #305, #16, ( #197 ) ) ;
#231 = CARTESIAN_POINT ( 'NONE',  ( 0.0000000000000000000, 0.0000000000000000000, 0.0000000000000000000 ) ) ;
#232 = FACE_OUTER_BOUND ( 'NONE', #89, .T. ) ;
#233 = ORIENTED_EDGE ( 'NONE', *, *, #63, .F. ) ;
#234 = CARTESIAN_POINT ( 'NONE',  ( 0.0000000000000000000, 9.500000000000000000, 7.000000000000000000 ) ) ;
#235 = AXIS2_PLACEMENT_3D ( 'NONE', #148, #43, #155 ) ;
#236 = EDGE_LOOP ( 'NONE', ( #156 ) ) ;
#237 = CARTESIAN_POINT ( 'NONE',  ( 14.00000000000000200, 9.500000000000000000, -7.000000000000000000 ) ) ;
#238 = EDGE_CURVE ( 'NONE', #171, #311, #149, .T. ) ;
#239 = DIRECTION ( 'NONE',  ( 0.0000000000000000000, 1.000000000000000000, 0.0000000000000000000 ) ) ;
#240 = VERTEX_POINT ( 'NONE', #67 ) ;
#241 = ORIENTED_EDGE ( 'NONE', *, *, #336, .F. ) ;
#242 = DIRECTION ( 'NONE',  ( 0.0000000000000000000, -0.0000000000000000000, 1.000000000000000000 ) ) ;
#243 = APPROVAL_DATE_TIME ( #283, #173 ) ;
#244 = CARTESIAN_POINT ( 'NONE',  ( 14.00000000000000200, 0.0000000000000000000, 7.000000000000000000 ) ) ;
#245 = CYLINDRICAL_SURFACE ( 'NONE', #95, 2.000000000000000000 ) ;
#246 = PLANE ( 'NONE',  #145 ) ;
#247 = EDGE_LOOP ( 'NONE', ( #58, #233, #98, #343 ) ) ;
#248 = LINE ( 'NONE', #290, #275 ) ;
#249 = ORIENTED_EDGE ( 'NONE', *, *, #222, .F. ) ;
#250 = DIRECTION ( 'NONE',  ( 0.0000000000000000000, 0.0000000000000000000, -1.000000000000000000 ) ) ;
#251 = COORDINATED_UNIVERSAL_TIME_OFFSET ( 3, 0, .AHEAD. ) ;
#252 = PRODUCT_DEFINITION_FORMATION_WITH_SPECIFIED_SOURCE ( 'ANY', '', #127, .NOT_KNOWN. ) ;
#253 = DIRECTION ( 'NONE',  ( 0.0000000000000000000, 0.0000000000000000000, 1.000000000000000000 ) ) ;
#254 = DIRECTION ( 'NONE',  ( 0.0000000000000000000, 1.000000000000000000, 0.0000000000000000000 ) ) ;
#255 = ORIENTED_EDGE ( 'NONE', *, *, #229, .T. ) ;
#256 = FACE_OUTER_BOUND ( 'NONE', #88, .T. ) ;
#257 = AXIS2_PLACEMENT_3D ( 'NONE', #295, #200, #318 ) ;
#258 = CYLINDRICAL_SURFACE ( 'NONE', #257, 2.000000000000003100 ) ;
#259 = ORIENTED_EDGE ( 'NONE', *, *, #110, .T. ) ;
#260 = LOCAL_TIME ( 9, 37, 56.00000000000000000, #191 ) ;
#261 = CARTESIAN_POINT ( 'NONE',  ( 0.0000000000000000000, 9.500000000000000000, 0.0000000000000000000 ) ) ;
#262 = EDGE_CURVE ( 'NONE', #4, #311, #215, .T. ) ;
#263 = PLANE ( 'NONE',  #44 ) ;
#264 = CARTESIAN_POINT ( 'NONE',  ( 0.0000000000000000000, 0.0000000000000000000, 0.0000000000000000000 ) ) ;
#265 = VECTOR ( 'NONE', #218, 1000.000000000000000 ) ;
#266 = ORIENTED_EDGE ( 'NONE', *, *, #60, .T. ) ;
#267 = CARTESIAN_POINT ( 'NONE',  ( 14.00000000000000200, 9.500000000000000000, 7.000000000000000000 ) ) ;
#268 = EDGE_CURVE ( 'NONE', #321, #279, #293, .T. ) ;
#269 = APPROVAL ( #15, 'UNSPECIFIED' ) ;
#270 = FACE_BOUND ( 'NONE', #322, .T. ) ;
#271 = DIRECTION ( 'NONE',  ( -0.0000000000000000000, -1.000000000000000000, -0.0000000000000000000 ) ) ;
#272 = APPROVAL_PERSON_ORGANIZATION ( #276, #269, #13 ) ;
#273 = CARTESIAN_POINT ( 'NONE',  ( 0.0000000000000000000, 15.00000000000000000, 0.0000000000000000000 ) ) ;
#274 = CARTESIAN_POINT ( 'NONE',  ( 0.0000000000000000000, 0.0000000000000000000, -7.000000000000000000 ) ) ;
#275 = VECTOR ( 'NONE', #324, 1000.000000000000000 ) ;
#276 = PERSON_AND_ORGANIZATION ( #183, #205 ) ;
#277 = DIRECTION ( 'NONE',  ( -0.0000000000000000000, -1.000000000000000000, -0.0000000000000000000 ) ) ;
#278 = CYLINDRICAL_SURFACE ( 'NONE', #337, 7.000000000000000000 ) ;
#279 = VERTEX_POINT ( 'NONE', #244 ) ;
#280 = EDGE_CURVE ( 'NONE', #114, #114, #70, .T. ) ;
#281 = CALENDAR_DATE ( 2016, 8, 9 ) ;
#282 = ORIENTED_EDGE ( 'NONE', *, *, #63, .T. ) ;
#283 = DATE_AND_TIME ( #281, #260 ) ;
#284 = CIRCLE ( 'NONE', #319, 2.000000000000000000 ) ;
#285 = ADVANCED_FACE ( 'NONE', ( #348, #75, #270 ), #246, .F. ) ;
#286 = CIRCLE ( 'NONE', #42, 7.000000000000000000 ) ;
#287 = CC_DESIGN_APPROVAL ( #269, ( #252 ) ) ;
#288 = CARTESIAN_POINT ( 'NONE',  ( 0.0000000000000000000, 9.500000000000000000, 7.000000000000000000 ) ) ;
#289 = UNCERTAINTY_MEASURE_WITH_UNIT (LENGTH_MEASURE( 1.000000000000000100E-005 ), #48, 'distance_accuracy_value', 'NONE');
#290 = CARTESIAN_POINT ( 'NONE',  ( 14.00000000000000200, 9.500000000000000000, -7.000000000000000000 ) ) ;
#291 = FACE_OUTER_BOUND ( 'NONE', #362, .T. ) ;
#292 = DIRECTION ( 'NONE',  ( 0.0000000000000000000, 0.0000000000000000000, 1.000000000000000000 ) ) ;
#293 = LINE ( 'NONE', #267, #338 ) ;
#294 = DIRECTION ( 'NONE',  ( 0.0000000000000000000, 1.000000000000000000, 0.0000000000000000000 ) ) ;
#295 = CARTESIAN_POINT ( 'NONE',  ( 14.00000000000000200, 9.500000000000000000, 0.0000000000000000000 ) ) ;
#296 = VERTEX_POINT ( 'NONE', #237 ) ;
#297 = PLANE ( 'NONE',  #308 ) ;
#298 = EDGE_CURVE ( 'NONE', #4, #82, #62, .T. ) ;
#299 = CARTESIAN_POINT ( 'NONE',  ( 14.00000000000000200, 9.500000000000000000, 0.0000000000000000000 ) ) ;
#300 = VECTOR ( 'NONE', #194, 1000.000000000000000 ) ;
#301 = CARTESIAN_POINT ( 'NONE',  ( 14.00000000000000200, 0.0000000000000000000, -7.000000000000000000 ) ) ;
#302 = DIRECTION ( 'NONE',  ( 0.0000000000000000000, 0.0000000000000000000, -1.000000000000000000 ) ) ;
#303 = VECTOR ( 'NONE', #220, 1000.000000000000000 ) ;
#304 = EDGE_CURVE ( 'NONE', #311, #279, #330, .T. ) ;
#305 = DATE_AND_TIME ( #317, #325 ) ;
#306 = CC_DESIGN_PERSON_AND_ORGANIZATION_ASSIGNMENT ( #154, #11, ( #252 ) ) ;
#307 = FACE_OUTER_BOUND ( 'NONE', #55, .T. ) ;
#308 = AXIS2_PLACEMENT_3D ( 'NONE', #361, #105, #91 ) ;
#309 = FACE_OUTER_BOUND ( 'NONE', #367, .T. ) ;
#310 = FACE_OUTER_BOUND ( 'NONE', #236, .T. ) ;
#311 = VERTEX_POINT ( 'NONE', #189 ) ;
#312 = DIRECTION ( 'NONE',  ( 0.0000000000000000000, -1.000000000000000000, 0.0000000000000000000 ) ) ;
#313 = EDGE_CURVE ( 'NONE', #74, #74, #364, .T. ) ;
#314 = CARTESIAN_POINT ( 'NONE',  ( 0.0000000000000000000, 11.00000000000000000, 0.0000000000000000000 ) ) ;
#315 = FACE_OUTER_BOUND ( 'NONE', #3, .T. ) ;
#316 = ADVANCED_FACE ( 'NONE', ( #291 ), #278, .T. ) ;
#317 = CALENDAR_DATE ( 2016, 8, 9 ) ;
#318 = DIRECTION ( 'NONE',  ( 0.0000000000000000000, 0.0000000000000000000, -1.000000000000000000 ) ) ;
#319 = AXIS2_PLACEMENT_3D ( 'NONE', #134, #133, #130 ) ;
#320 = CIRCLE ( 'NONE', #235, 7.000000000000000000 ) ;
#321 = VERTEX_POINT ( 'NONE', #147 ) ;
#322 = EDGE_LOOP ( 'NONE', ( #90 ) ) ;
#323 = ORIENTED_EDGE ( 'NONE', *, *, #238, .T. ) ;
#324 = DIRECTION ( 'NONE',  ( -0.0000000000000000000, -1.000000000000000000, -0.0000000000000000000 ) ) ;
#325 = LOCAL_TIME ( 9, 37, 56.00000000000000000, #335 ) ;
#326 = CARTESIAN_POINT ( 'NONE',  ( 0.0000000000000000000, 9.500000000000000000, -7.000000000000000000 ) ) ;
#327 = CC_DESIGN_PERSON_AND_ORGANIZATION_ASSIGNMENT ( #151, #8, ( #252 ) ) ;
#328 = CIRCLE ( 'NONE', #66, 2.000000000000003100 ) ;
#329 = ORIENTED_EDGE ( 'NONE', *, *, #336, .T. ) ;
#330 = LINE ( 'NONE', #192, #300 ) ;
#331 = DIRECTION ( 'NONE',  ( -1.000000000000000000, -0.0000000000000000000, -0.0000000000000000000 ) ) ;
#332 = EDGE_LOOP ( 'NONE', ( #190 ) ) ;
#333 = AXIS2_PLACEMENT_3D ( 'NONE', #357, #356, #355 ) ;
#334 = DIRECTION ( 'NONE',  ( 0.0000000000000000000, 0.0000000000000000000, 1.000000000000000000 ) ) ;
#335 = COORDINATED_UNIVERSAL_TIME_OFFSET ( 3, 0, .AHEAD. ) ;
#336 = EDGE_CURVE ( 'NONE', #240, #240, #284, .T. ) ;
#337 = AXIS2_PLACEMENT_3D ( 'NONE', #188, #166, #163 ) ;
#338 = VECTOR ( 'NONE', #277, 1000.000000000000000 ) ;
#339 = ORIENTED_EDGE ( 'NONE', *, *, #354, .T. ) ;
#340 = ADVANCED_FACE ( 'NONE', ( #47, #341 ), #139, .T. ) ;
#341 = FACE_OUTER_BOUND ( 'NONE', #332, .T. ) ;
#342 = SECURITY_CLASSIFICATION ( '', '', #7 ) ;
#343 = ORIENTED_EDGE ( 'NONE', *, *, #304, .F. ) ;
#344 = DIRECTION ( 'NONE',  ( 0.0000000000000000000, 1.000000000000000000, 0.0000000000000000000 ) ) ;
#345 = EDGE_LOOP ( 'NONE', ( #176 ) ) ;
#346 = ADVANCED_FACE ( 'NONE', ( #232 ), #175, .F. ) ;
#347 = CARTESIAN_POINT ( 'NONE',  ( 14.00000000000000200, 0.0000000000000000000, 0.0000000000000000000 ) ) ;
#348 = FACE_BOUND ( 'NONE', #120, .T. ) ;
#349 = PERSON_AND_ORGANIZATION ( #183, #205 ) ;
#350 = AXIS2_PLACEMENT_3D ( 'NONE', #103, #111, #157 ) ;
#351 = CARTESIAN_POINT ( 'NONE',  ( 0.0000000000000000000, 9.500000000000000000, -7.000000000000000000 ) ) ;
#352 = ADVANCED_FACE ( 'NONE', ( #224, #207 ), #245, .F. ) ;
#353 = FACE_OUTER_BOUND ( 'NONE', #225, .T. ) ;
#354 = EDGE_CURVE ( 'NONE', #4, #321, #214, .T. ) ;
#355 = DIRECTION ( 'NONE',  ( 0.0000000000000000000, 0.0000000000000000000, -1.000000000000000000 ) ) ;
#356 = DIRECTION ( 'NONE',  ( 0.0000000000000000000, -1.000000000000000000, 0.0000000000000000000 ) ) ;
#357 = CARTESIAN_POINT ( 'NONE',  ( 0.0000000000000000000, 0.0000000000000000000, 0.0000000000000000000 ) ) ;
#358 = ORIENTED_EDGE ( 'NONE', *, *, #268, .T. ) ;
#359 = APPROVAL_PERSON_ORGANIZATION ( #172, #173, #20 ) ;
#360 = CARTESIAN_POINT ( 'NONE',  ( 0.0000000000000000000, 0.0000000000000000000, -7.000000000000000000 ) ) ;
#361 = CARTESIAN_POINT ( 'NONE',  ( 0.0000000000000000000, 9.500000000000000000, -7.000000000000000000 ) ) ;
#362 = EDGE_LOOP ( 'NONE', ( #40, #50, #195, #358 ) ) ;
#363 = CC_DESIGN_PERSON_AND_ORGANIZATION_ASSIGNMENT ( #146, #6, ( #342 ) ) ;
#364 = CIRCLE ( 'NONE', #23, 2.000000000000000000 ) ;
#365 = PRODUCT_RELATED_PRODUCT_CATEGORY ( 'detail', '', ( #127 ) ) ;
#366 = EDGE_LOOP ( 'NONE', ( #266 ) ) ;
#367 = EDGE_LOOP ( 'NONE', ( #131 ) ) ;
#368 = FACE_OUTER_BOUND ( 'NONE', #366, .T. ) ;
#369 = ADVANCED_FACE ( 'NONE', ( #307, #256 ), #93, .F. ) ;
ENDSEC;
END-ISO-10303-21;
