  0
SECTION
  2
HEADER
  9
$ACADVER
  1
AC1032
  9
$ACADMAINTVER
 90
       55
  9
$DWGCODEPAGE
  3
ANSI_1251
  9
$LASTSAVEDBY
  1
rachkov
  9
$REQUIREDVERSIONS
160
                 0
  9
$INSBASE
 10
0.0
 20
0.0
 30
0.0
  9
$EXTMIN
 10
0.0
 20
0.0
 30
0.0
  9
$EXTMAX
 10
90.0
 20
110.0
 30
0.0
  9
$LIMMIN
 10
0.0
 20
0.0
  9
$LIMMAX
 10
90.0
 20
110.0
  9
$ORTHOMODE
 70
     0
  9
$REGENMODE
 70
     1
  9
$FILLMODE
 70
     1
  9
$QTEXTMODE
 70
     0
  9
$MIRRTEXT
 70
     1
  9
$LTSCALE
 40
1.0
  9
$ATTMODE
 70
     1
  9
$TEXTSIZE
 40
2.47
  9
$TRACEWID
 40
1.0
  9
$TEXTSTYLE
  7
STANDARD
  9
$CLAYER
  8
0
  9
$CELTYPE
  6
ByLayer
  9
$CECOLOR
 62
   256
  9
$CELTSCALE
 40
1.0
  9
$DISPSILH
 70
     0
  9
$DIMSCALE
 40
1.0
  9
$DIMASZ
 40
2.0
  9
$DIMEXO
 40
0.0
  9
$DIMDLI
 40
3.75
  9
$DIMRND
 40
0.0
  9
$DIMDLE
 40
0.0
  9
$DIMEXE
 40
1.0
  9
$DIMTP
 40
0.0
  9
$DIMTM
 40
0.0
  9
$DIMTXT
 40
2.47
  9
$DIMCEN
 40
2.5
  9
$DIMTSZ
 40
0.0
  9
$DIMTOL
 70
     0
  9
$DIMLIM
 70
     0
  9
$DIMTIH
 70
     1
  9
$DIMTOH
 70
     1
  9
$DIMSE1
 70
     0
  9
$DIMSE2
 70
     0
  9
$DIMTAD
 70
     1
  9
$DIMZIN
 70
     0
  9
$DIMBLK
  1

  9
$DIMASO
 70
     1
  9
$DIMSHO
 70
     1
  9
$DIMPOST
  1

  9
$DIMAPOST
  1

  9
$DIMALT
 70
     0
  9
$DIMALTD
 70
     3
  9
$DIMALTF
 40
0.0393700787
  9
$DIMLFAC
 40
1.0
  9
$DIMTOFL
 70
     1
  9
$DIMTVP
 40
0.0
  9
$DIMTIX
 70
     0
  9
$DIMSOXD
 70
     0
  9
$DIMSAH
 70
     0
  9
$DIMBLK1
  1

  9
$DIMBLK2
  1

  9
$DIMSTYLE
  2
ISO-25
  9
$DIMCLRD
 70
     0
  9
$DIMCLRE
 70
     0
  9
$DIMCLRT
 70
     0
  9
$DIMTFAC
 40
1.0
  9
$DIMGAP
 40
2.0
  9
$DIMJUST
 70
     0
  9
$DIMSD1
 70
     0
  9
$DIMSD2
 70
     0
  9
$DIMTOLJ
 70
     0
  9
$DIMTZIN
 70
     0
  9
$DIMALTZ
 70
     0
  9
$DIMALTTZ
 70
     0
  9
$DIMUPT
 70
     0
  9
$DIMDEC
 70
     1
  9
$DIMTDEC
 70
     1
  9
$DIMALTU
 70
     2
  9
$DIMALTTD
 70
     3
  9
$DIMTXSTY
  7
STANDARD
  9
$DIMAUNIT
 70
     0
  9
$DIMADEC
 70
     1
  9
$DIMALTRND
 40
0.0
  9
$DIMAZIN
 70
     0
  9
$DIMDSEP
 70
    44
  9
$DIMATFIT
 70
     3
  9
$DIMFRAC
 70
     0
  9
$DIMLDRBLK
  1

  9
$DIMLUNIT
 70
     2
  9
$DIMLWD
 70
    -2
  9
$DIMLWE
 70
    -2
  9
$DIMTMOVE
 70
     0
  9
$DIMFXL
 40
1.0
  9
$DIMFXLON
 70
     0
  9
$DIMJOGANG
 40
0.7853981634
  9
$DIMTFILL
 70
     0
  9
$DIMTFILLCLR
 70
     0
  9
$DIMARCSYM
 70
     0
  9
$DIMLTYPE
  6

  9
$DIMLTEX1
  6

  9
$DIMLTEX2
  6

  9
$DIMTXTDIRECTION
 70
     0
  9
$LUNITS
 70
     2
  9
$LUPREC
 70
     1
  9
$SKETCHINC
 40
1.0
  9
$FILLETRAD
 40
0.0
  9
$AUNITS
 70
     0
  9
$AUPREC
 70
     1
  9
$MENU
  1
.
  9
$ELEVATION
 40
0.0
  9
$PELEVATION
 40
0.0
  9
$THICKNESS
 40
0.0
  9
$LIMCHECK
 70
     0
  9
$CHAMFERA
 40
0.0
  9
$CHAMFERB
 40
0.0
  9
$CHAMFERC
 40
0.0
  9
$CHAMFERD
 40
0.0
  9
$SKPOLY
 70
     0
  9
$TDCREATE
 40
2460714.686598368
  9
$TDUCREATE
 40
2460714.561598368
  9
$TDUPDATE
 40
2460714.686598704
  9
$TDUUPDATE
 40
2460714.561598704
  9
$TDINDWG
 40
0.0000000116
  9
$TDUSRTIMER
 40
0.0000000116
  9
$USRTIMER
 70
     1
  9
$ANGBASE
 50
0.0
  9
$ANGDIR
 70
     0
  9
$PDMODE
 70
     0
  9
$PDSIZE
 40
-1.0
  9
$PLINEWID
 40
0.0
  9
$SPLFRAME
 70
     0
  9
$SPLINETYPE
 70
     6
  9
$SPLINESEGS
 70
     8
  9
$HANDSEED
  5
1EB
  9
$SURFTAB1
 70
     6
  9
$SURFTAB2
 70
     6
  9
$SURFTYPE
 70
     6
  9
$SURFU
 70
     6
  9
$SURFV
 70
     6
  9
$UCSBASE
  2

  9
$UCSNAME
  2

  9
$UCSORG
 10
0.0
 20
0.0
 30
0.0
  9
$UCSXDIR
 10
1.0
 20
0.0
 30
0.0
  9
$UCSYDIR
 10
0.0
 20
1.0
 30
0.0
  9
$UCSORTHOREF
  2

  9
$UCSORTHOVIEW
 70
     0
  9
$UCSORGTOP
 10
0.0
 20
0.0
 30
0.0
  9
$UCSORGBOTTOM
 10
0.0
 20
0.0
 30
0.0
  9
$UCSORGLEFT
 10
0.0
 20
0.0
 30
0.0
  9
$UCSORGRIGHT
 10
0.0
 20
0.0
 30
0.0
  9
$UCSORGFRONT
 10
0.0
 20
0.0
 30
0.0
  9
$UCSORGBACK
 10
0.0
 20
0.0
 30
0.0
  9
$PUCSBASE
  2

  9
$PUCSNAME
  2

  9
$PUCSORG
 10
0.0
 20
0.0
 30
0.0
  9
$PUCSXDIR
 10
1.0
 20
0.0
 30
0.0
  9
$PUCSYDIR
 10
0.0
 20
1.0
 30
0.0
  9
$PUCSORTHOREF
  2

  9
$PUCSORTHOVIEW
 70
     0
  9
$PUCSORGTOP
 10
0.0
 20
0.0
 30
0.0
  9
$PUCSORGBOTTOM
 10
0.0
 20
0.0
 30
0.0
  9
$PUCSORGLEFT
 10
0.0
 20
0.0
 30
0.0
  9
$PUCSORGRIGHT
 10
0.0
 20
0.0
 30
0.0
  9
$PUCSORGFRONT
 10
0.0
 20
0.0
 30
0.0
  9
$PUCSORGBACK
 10
0.0
 20
0.0
 30
0.0
  9
$USERI1
 70
     0
  9
$USERI2
 70
     0
  9
$USERI3
 70
     0
  9
$USERI4
 70
     0
  9
$USERI5
 70
     0
  9
$USERR1
 40
0.0
  9
$USERR2
 40
0.0
  9
$USERR3
 40
0.0
  9
$USERR4
 40
0.0
  9
$USERR5
 40
0.0
  9
$WORLDVIEW
 70
     1
  9
$SHADEDGE
 70
     3
  9
$SHADEDIF
 70
    70
  9
$TILEMODE
 70
     1
  9
$MAXACTVP
 70
    64
  9
$PINSBASE
 10
0.0
 20
0.0
 30
0.0
  9
$PLIMCHECK
 70
     0
  9
$PEXTMIN
 10
1.0000000000E+20
 20
1.0000000000E+20
 30
1.0000000000E+20
  9
$PEXTMAX
 10
-1.0000000000E+20
 20
-1.0000000000E+20
 30
-1.0000000000E+20
  9
$PLIMMIN
 10
0.0
 20
0.0
  9
$PLIMMAX
 10
420.0
 20
297.0
  9
$UNITMODE
 70
     0
  9
$VISRETAIN
 70
     1
  9
$PLINEGEN
 70
     0
  9
$PSLTSCALE
 70
     1
  9
$TREEDEPTH
 70
  3020
  9
$CMLSTYLE
  2
Standard
  9
$CMLJUST
 70
     0
  9
$CMLSCALE
 40
20.0
  9
$PROXYGRAPHICS
 70
     1
  9
$MEASUREMENT
 70
     1
  9
$CELWEIGHT
370
    -1
  9
$ENDCAPS
280
     0
  9
$JOINSTYLE
280
     0
  9
$LWDISPLAY
290
     1
  9
$INSUNITS
 70
     4
  9
$HYPERLINKBASE
  1

  9
$STYLESHEET
  1

  9
$XEDIT
290
     1
  9
$CEPSNTYPE
380
     0
  9
$PSTYLEMODE
290
     1
  9
$FINGERPRINTGUID
  2
{27ca43e3-83e5-4a26-a70d-adcf1dcc6840}
  9
$VERSIONGUID
  2
{FAEB1C32-E019-11D5-929B-00C0DF256EC4}
  9
$EXTNAMES
290
     1
  9
$PSVPSCALE
 40
0.0
  9
$OLESTARTUP
290
     0
  9
$SORTENTS
280
   127
  9
$INDEXCTL
280
     0
  9
$HIDETEXT
280
     1
  9
$XCLIPFRAME
280
     2
  9
$HALOGAP
280
     0
  9
$OBSCOLOR
 70
   257
  9
$OBSLTYPE
280
     0
  9
$INTERSECTIONDISPLAY
280
     0
  9
$INTERSECTIONCOLOR
 70
   257
  9
$DIMASSOC
280
     2
  9
$PROJECTNAME
  1

  9
$CAMERADISPLAY
290
     0
  9
$LENSLENGTH
 40
50.0
  9
$CAMERAHEIGHT
 40
0.0
  9
$STEPSPERSEC
 40
2.0
  9
$STEPSIZE
 40
6.0
  9
$3DDWFPREC
 40
2.0
  9
$PSOLWIDTH
 40
5.0
  9
$PSOLHEIGHT
 40
80.0
  9
$LOFTANG1
 40
1.5707963268
  9
$LOFTANG2
 40
1.5707963268
  9
$LOFTMAG1
 40
0.0
  9
$LOFTMAG2
 40
0.0
  9
$LOFTPARAM
 70
     7
  9
$LOFTNORMALS
280
     1
  9
$LATITUDE
 40
37.795
  9
$LONGITUDE
 40
-122.394
  9
$NORTHDIRECTION
 40
0.0
  9
$TIMEZONE
 70
 -8000
  9
$LIGHTGLYPHDISPLAY
280
     1
  9
$TILEMODELIGHTSYNCH
280
     1
  9
$CMATERIAL
347
44
  9
$SOLIDHIST
280
     0
  9
$SHOWHIST
280
     1
  9
$DWFFRAME
280
     2
  9
$DGNFRAME
280
     2
  9
$REALWORLDSCALE
290
     1
  9
$INTERFERECOLOR
 62
   256
  9
$CSHADOW
280
     0
  9
$SHADOWPLANELOCATION
 40
0.0
  0
ENDSEC
  0
SECTION
  2
CLASSES
  0
CLASS
  1
ACDBDICTIONARYWDFLT
  2
AcDbDictionaryWithDefault
  3
ObjectDBX Classes
 90
        0
 91
        3
280
     0
281
     0
  0
CLASS
  1
VISUALSTYLE
  2
AcDbVisualStyle
  3
ObjectDBX Classes
 90
     4095
 91
        3
280
     0
281
     0
  0
CLASS
  1
MATERIAL
  2
AcDbMaterial
  3
ObjectDBX Classes
 90
     1153
 91
        3
280
     0
281
     0
  0
CLASS
  1
SCALE
  2
AcDbScale
  3
ObjectDBX Classes
 90
     1153
 91
        3
280
     0
281
     0
  0
CLASS
  1
TABLESTYLE
  2
AcDbTableStyle
  3
ObjectDBX Classes
 90
     4095
 91
        3
280
     0
281
     0
  0
CLASS
  1
MLEADERSTYLE
  2
AcDbMLeaderStyle
  3
ACDB_MLEADERSTYLE_CLASS
 90
     4095
 91
        3
280
     0
281
     0
  0
CLASS
  1
SUN
  2
AcDbSun
  3
SCENEOE
 90
     1153
 91
        3
280
     0
281
     0
  0
CLASS
  1
DICTIONARYVAR
  2
AcDbDictionaryVar
  3
ObjectDBX Classes
 90
        0
 91
        3
280
     0
281
     0
  0
CLASS
  1
CELLSTYLEMAP
  2
AcDbCellStyleMap
  3
ObjectDBX Classes
 90
     1152
 91
        3
280
     0
281
     0
  0
ENDSEC
  0
SECTION
  2
TABLES
  0
TABLE
  2
VPORT
  5
8
330
0
100
AcDbSymbolTable
 70
     1
  0
VPORT
  5
29
330
8
100
AcDbSymbolTableRecord
100
AcDbViewportTableRecord
  2
*Active
 70
     0
 10
0.0
 20
0.0
 11
1.0
 21
1.0
 12
45.0
 22
55.0
 13
0.0
 23
0.0
 14
10.0
 24
10.0
 15
10.0
 25
10.0
 16
0.0
 26
0.0
 36
1.0
 17
0.0
 27
0.0
 37
0.0
 40
110.0
 41
0.8181818182
 42
50.0
 43
0.0
 44
0.0
 50
0.0
 51
0.0
 71
     0
 72
  2000
 73
     1
 74
     3
 75
     0
 76
     0
 77
     0
 78
     0
281
     0
 65
     1
110
0.0
120
0.0
130
0.0
111
1.0
121
0.0
131
0.0
112
0.0
122
1.0
132
0.0
 79
     0
146
0.0
348
2F
 60
     3
 61
     5
292
     1
282
     1
141
0.0
142
0.0
 63
   250
361
5D
  0
ENDTAB
  0
TABLE
  2
LTYPE
  5
5
330
0
100
AcDbSymbolTable
 70
     8
  0
LTYPE
  5
14
330
5
100
AcDbSymbolTableRecord
100
AcDbLinetypeTableRecord
  2
ByBlock
 70
     0
  3

 72
    65
 73
     0
 40
0.0
  0
LTYPE
  5
15
330
5
100
AcDbSymbolTableRecord
100
AcDbLinetypeTableRecord
  2
ByLayer
 70
     0
  3

 72
    65
 73
     0
 40
0.0
  0
LTYPE
  5
16
330
5
100
AcDbSymbolTableRecord
100
AcDbLinetypeTableRecord
  2
Continuous
 70
     0
  3
Solid line
 72
    65
 73
     0
 40
0.0
  0
LTYPE
  5
5E
330
5
100
AcDbSymbolTableRecord
100
AcDbLinetypeTableRecord
  2
SLD-Сплошная
 70
     0
  3
SolidWorks Line Style
 72
    65
 73
     0
 40
0.0
  0
LTYPE
  5
5F
330
5
100
AcDbSymbolTableRecord
100
AcDbLinetypeTableRecord
  2
SLD-Штриховая
 70
     0
  3
SolidWorks Line Style
 72
    65
 73
     2
 40
1.905
 49
1.27
 74
     0
 49
-0.635
 74
     0
  0
LTYPE
  5
60
330
5
100
AcDbSymbolTableRecord
100
AcDbLinetypeTableRecord
  2
SLD-Штрихпункт.-с-двумя-точками
 70
     0
  3
SolidWorks Line Style
 72
    65
 73
     6
 40
12.7
 49
6.35
 74
     0
 49
-1.27
 74
     0
 49
1.27
 74
     0
 49
-1.27
 74
     0
 49
1.27
 74
     0
 49
-1.27
 74
     0
  0
LTYPE
  5
61
330
5
100
AcDbSymbolTableRecord
100
AcDbLinetypeTableRecord
  2
SLD-Штрихпункт.-утолщ.
 70
     0
  3
SolidWorks Line Style
 72
    65
 73
     4
 40
10.16
 49
6.35
 74
     0
 49
-1.27
 74
     0
 49
1.27
 74
     0
 49
-1.27
 74
     0
  0
LTYPE
  5
62
330
5
100
AcDbSymbolTableRecord
100
AcDbLinetypeTableRecord
  2
SLD-Осевая
 70
     0
  3
SolidWorks Line Style
 72
    65
 73
     4
 40
19.05
 49
15.24
 74
     0
 49
-1.27
 74
     0
 49
1.27
 74
     0
 49
-1.27
 74
     0
  0
LTYPE
  5
63
330
5
100
AcDbSymbolTableRecord
100
AcDbLinetypeTableRecord
  2
SLD-Сшитая
 70
     0
  3
SolidWorks Line Style
 72
    65
 73
     2
 40
0.635
 49
0.0
 74
     0
 49
-0.635
 74
     0
  0
LTYPE
  5
64
330
5
100
AcDbSymbolTableRecord
100
AcDbLinetypeTableRecord
  2
SLD-Тонкая-Толстая
 70
     0
  3
SolidWorks Line Style
 72
    65
 73
     4
 40
2.54
 49
0.0
 74
     0
 49
-1.27
 74
     0
 49
0.0
 74
     0
 49
-1.27
 74
     0
  0
ENDTAB
  0
TABLE
  2
LAYER
  5
2
330
0
100
AcDbSymbolTable
 70
     3
  0
LAYER
  5
10
330
2
100
AcDbSymbolTableRecord
100
AcDbLayerTableRecord
  2
0
 70
     0
 62
     7
  6
Continuous
370
    -3
390
F
347
46
348
0
  0
LAYER
  5
65
330
2
100
AcDbSymbolTableRecord
100
AcDbLayerTableRecord
  2
SLD-0
 70
     0
 62
     7
  6
SLD-Сплошная
370
    25
390
F
347
46
348
0
  0
LAYER
  5
66
330
2
100
AcDbSymbolTableRecord
100
AcDbLayerTableRecord
  2
OSNOVA
 70
     0
 62
     5
  6
SLD-Сплошная
370
    -3
390
F
347
46
348
0
  0
ENDTAB
  0
TABLE
  2
STYLE
  5
3
330
0
100
AcDbSymbolTable
 70
     1
  0
STYLE
  5
11
330
3
100
AcDbSymbolTableRecord
100
AcDbTextStyleTableRecord
  2
STANDARD
 70
     0
 40
0.0
 41
1.0
 50
0.0
 71
     0
 42
2.47
  3
GOST type A
  4

1001
ACAD
1000
GOST TYPE A
1071
 16777472
  0
ENDTAB
  0
TABLE
  2
VIEW
  5
6
330
0
100
AcDbSymbolTable
 70
     0
  0
ENDTAB
  0
TABLE
  2
UCS
  5
7
330
0
100
AcDbSymbolTable
 70
     0
  0
ENDTAB
  0
TABLE
  2
APPID
  5
9
330
0
100
AcDbSymbolTable
 70
     1
  0
APPID
  5
12
330
9
100
AcDbSymbolTableRecord
100
AcDbRegAppTableRecord
  2
ACAD
 70
     0
  0
ENDTAB
  0
TABLE
  2
DIMSTYLE
  5
A
330
0
100
AcDbSymbolTable
 70
     1
100
AcDbDimStyleTable
  0
DIMSTYLE
105
27
330
A
100
AcDbSymbolTableRecord
100
AcDbDimStyleTableRecord
  2
ISO-25
 70
     0
 41
2.5
 42
0.625
 43
3.75
 44
1.25
 73
     0
 74
     0
 77
     1
 78
     8
140
2.5
141
2.5
143
0.0393700787
147
0.625
171
     3
172
     1
178
     0
271
     2
272
     2
274
     3
278
    44
283
     0
284
     8
340
11
  0
ENDTAB
  0
TABLE
  2
BLOCK_RECORD
  5
1
330
0
100
AcDbSymbolTable
 70
     1
  0
BLOCK_RECORD
  5
1F
330
1
100
AcDbSymbolTableRecord
100
AcDbBlockTableRecord
  2
*Model_Space
340
22
 70
     0
280
     1
281
     0
  0
BLOCK_RECORD
  5
1B
330
1
100
AcDbSymbolTableRecord
100
AcDbBlockTableRecord
  2
*Paper_Space
340
1E
 70
     0
280
     1
281
     0
  0
BLOCK_RECORD
  5
23
330
1
100
AcDbSymbolTableRecord
100
AcDbBlockTableRecord
  2
*Paper_Space0
340
26
 70
     0
280
     1
281
     0
  0
ENDTAB
  0
ENDSEC
  0
SECTION
  2
BLOCKS
  0
BLOCK
  5
20
330
1F
100
AcDbEntity
  8
0
100
AcDbBlockBegin
  2
*Model_Space
 70
     0
 10
0.0
 20
0.0
 30
0.0
  3
*Model_Space
  1

  0
ENDBLK
  5
21
330
1F
100
AcDbEntity
  8
0
100
AcDbBlockEnd
  0
BLOCK
  5
1C
330
1B
100
AcDbEntity
 67
     1
  8
0
100
AcDbBlockBegin
  2
*Paper_Space
 70
     0
 10
0.0
 20
0.0
 30
0.0
  3
*Paper_Space
  1

  0
ENDBLK
  5
1D
330
1B
100
AcDbEntity
 67
     1
  8
0
100
AcDbBlockEnd
  0
BLOCK
  5
24
330
23
100
AcDbEntity
  8
0
100
AcDbBlockBegin
  2
*Paper_Space0
 70
     0
 10
0.0
 20
0.0
 30
0.0
  3
*Paper_Space0
  1

  0
ENDBLK
  5
25
330
23
100
AcDbEntity
  8
0
100
AcDbBlockEnd
  0
ENDSEC
  0
SECTION
  2
ENTITIES
  0
LINE
  5
67
330
1F
100
AcDbEntity
  8
0
  6
SLD-Сплошная
 62
     7
370
    25
100
AcDbLine
 10
-77.10540108
 20
-40.1013793103
 30
0.0
 11
-77.10540108
 21
-49.1013793103
 31
0.0
  0
LINE
  5
68
330
1F
100
AcDbEntity
  8
0
  6
SLD-Сплошная
 62
     7
370
    25
100
AcDbLine
 10
-66.10540108
 20
-28.1013793103
 30
0.0
 11
-66.10540108
 21
-40.1013793103
 31
0.0
  0
LINE
  5
69
330
1F
100
AcDbEntity
  8
0
  6
SLD-Сплошная
 62
     7
370
    25
100
AcDbLine
 10
-77.10540108
 20
-28.1013793103
 30
0.0
 11
-66.10540108
 21
-28.1013793103
 31
0.0
  0
LINE
  5
6A
330
1F
100
AcDbEntity
  8
0
  6
SLD-Сплошная
 62
     7
370
    25
100
AcDbLine
 10
-33.10540108
 20
-19.1013793103
 30
0.0
 11
-77.10540108
 21
-19.1013793103
 31
0.0
  0
LINE
  5
6B
330
1F
100
AcDbEntity
  8
0
  6
SLD-Сплошная
 62
     7
370
    25
100
AcDbLine
 10
-77.10540108
 20
-19.1013793103
 30
0.0
 11
-77.10540108
 21
-28.1013793103
 31
0.0
  0
LINE
  5
6C
330
1F
100
AcDbEntity
  8
0
  6
SLD-Сплошная
 62
     7
370
    25
100
AcDbLine
 10
-77.10540108
 20
-49.1013793103
 30
0.0
 11
-33.10540108
 21
-49.1013793103
 31
0.0
  0
LINE
  5
6D
330
1F
100
AcDbEntity
  8
0
  6
SLD-Сплошная
 62
     7
370
    25
100
AcDbLine
 10
-33.10540108
 20
-49.1013793103
 30
0.0
 11
-33.10540108
 21
-19.1013793103
 31
0.0
  0
LINE
  5
6E
330
1F
100
AcDbEntity
  8
0
  6
SLD-Сплошная
 62
     7
370
    25
100
AcDbLine
 10
-66.10540108
 20
-40.1013793103
 30
0.0
 11
-77.10540108
 21
-40.1013793103
 31
0.0
  0
CIRCLE
  5
6F
330
1F
100
AcDbEntity
  8
0
  6
SLD-Сплошная
 62
     7
370
    25
100
AcDbCircle
 10
84.8738729778
 20
63.8986206897
 30
0.0
 40
34.33012701892204
  0
LINE
  5
70
330
1F
100
AcDbEntity
  8
0
  6
SLD-Сплошная
 62
     7
370
    25
100
AcDbLine
 10
-77.10540108
 20
146.8986206897
 30
0.0
 11
-33.10540108
 21
146.8986206897
 31
0.0
  0
LINE
  5
71
330
1F
100
AcDbEntity
  8
0
  6
SLD-Сплошная
 62
     7
370
    25
100
AcDbLine
 10
-33.10540108
 20
146.8986206897
 30
0.0
 11
-33.10540108
 21
176.8986206897
 31
0.0
  0
LINE
  5
72
330
1F
100
AcDbEntity
  8
0
  6
SLD-Сплошная
 62
     7
370
    25
100
AcDbLine
 10
-33.10540108
 20
176.8986206897
 30
0.0
 11
-77.10540108
 21
176.8986206897
 31
0.0
  0
LINE
  5
73
330
1F
100
AcDbEntity
  8
0
  6
SLD-Сплошная
 62
     7
370
    25
100
AcDbLine
 10
-77.10540108
 20
176.8986206897
 30
0.0
 11
-77.10540108
 21
185.4678400713
 31
0.0
  0
LINE
  5
74
330
1F
100
AcDbEntity
  8
0
  6
SLD-Сплошная
 62
     7
370
    25
100
AcDbLine
 10
-77.10540108
 20
185.4678400713
 30
0.0
 11
-62.10540108
 21
185.4678400713
 31
0.0
  0
LINE
  5
75
330
1F
100
AcDbEntity
  8
0
  6
SLD-Сплошная
 62
     7
370
    25
100
AcDbLine
 10
-62.10540108
 20
185.4678400713
 30
0.0
 11
-62.10540108
 21
197.7922561263
 31
0.0
  0
ELLIPSE
  5
76
330
1F
100
AcDbEntity
  8
0
  6
SLD-Сплошная
 62
     7
370
    25
100
AcDbEllipse
 10
-4.611168527
 20
160.4043881366
 30
0.0
 11
-52.2263034960306
 21
52.22630349603065
 31
0.0
210
0.0
220
0.0
230
1.0
 40
0.4603356729
 41
5.851769552538425
 42
6.714601061820772
  0
LINE
  5
77
330
1F
100
AcDbEntity
  8
0
  6
SLD-Сплошная
 62
     7
370
    25
100
AcDbLine
 10
-41.9990365167
 20
217.8986206897
 30
0.0
 11
115.7882343566
 21
217.8986206897
 31
0.0
  0
ELLIPSE
  5
78
330
1F
100
AcDbEntity
  8
0
  6
SLD-Сплошная
 62
     7
370
    25
100
AcDbEllipse
 10
78.400366367
 20
160.4043881366
 30
0.0
 11
52.22630349603067
 21
52.22630349603073
 31
0.0
210
0.0
220
0.0
230
1.0
 40
0.4603356729
 41
5.851769552538429
 42
6.714601061820787
  0
LINE
  5
79
330
1F
100
AcDbEntity
  8
0
  6
SLD-Сплошная
 62
     7
370
    25
100
AcDbLine
 10
135.89459892
 20
197.7922561263
 30
0.0
 11
135.89459892
 21
-69.995014747
 31
0.0
  0
ELLIPSE
  5
7A
330
1F
100
AcDbEntity
  8
0
  6
SLD-Сплошная
 62
     7
370
    25
100
AcDbEllipse
 10
78.400366367
 20
-32.6071467573
 30
0.0
 11
-52.22630349603067
 21
52.22630349603074
 31
0.0
210
0.0
220
0.0
230
1.0
 40
0.4603356729
 41
2.710176898948597
 42
3.573008408231019
  0
LINE
  5
7B
330
1F
100
AcDbEntity
  8
0
  6
SLD-Сплошная
 62
     7
370
    25
100
AcDbLine
 10
115.7882343566
 20
-90.1013793103
 30
0.0
 11
-41.9990365167
 21
-90.1013793103
 31
0.0
  0
ELLIPSE
  5
7C
330
1F
100
AcDbEntity
  8
0
  6
SLD-Сплошная
 62
     7
370
    25
100
AcDbEllipse
 10
-4.611168527
 20
-32.6071467573
 30
0.0
 11
-52.22630349603052
 21
-52.22630349603073
 31
0.0
210
0.0
220
0.0
230
1.0
 40
0.4603356729
 41
5.851769552538407
 42
6.714601061820766
  0
LINE
  5
7D
330
1F
100
AcDbEntity
  8
0
  6
SLD-Сплошная
 62
     7
370
    25
100
AcDbLine
 10
-62.10540108
 20
-69.995014747
 30
0.0
 11
-62.10540108
 21
-57.670598692
 31
0.0
  0
LINE
  5
7E
330
1F
100
AcDbEntity
  8
0
  6
SLD-Сплошная
 62
     7
370
    25
100
AcDbLine
 10
-77.10540108
 20
-10.5321599287
 30
0.0
 11
-57.0323805607
 21
-10.5321599287
 31
0.0
  0
LINE
  5
7F
330
1F
100
AcDbEntity
  8
0
  6
SLD-Сплошная
 62
     7
370
    25
100
AcDbLine
 10
-57.0323805607
 20
-10.5321599287
 30
0.0
 11
-57.0323805607
 21
138.329401308
 31
0.0
  0
LINE
  5
80
330
1F
100
AcDbEntity
  8
0
  6
SLD-Сплошная
 62
     7
370
    25
100
AcDbLine
 10
-77.10540108
 20
-57.670598692
 30
0.0
 11
-77.10540108
 21
-49.1013793103
 31
0.0
  0
LINE
  5
81
330
1F
100
AcDbEntity
  8
0
  6
SLD-Сплошная
 62
     7
370
    25
100
AcDbLine
 10
-62.10540108
 20
-57.670598692
 30
0.0
 11
-77.10540108
 21
-57.670598692
 31
0.0
  0
LINE
  5
82
330
1F
100
AcDbEntity
  8
0
  6
SLD-Сплошная
 62
     7
370
    25
100
AcDbLine
 10
-57.0323805607
 20
138.329401308
 30
0.0
 11
-77.10540108
 21
138.329401308
 31
0.0
  0
LINE
  5
83
330
1F
100
AcDbEntity
  8
0
  6
SLD-Сплошная
 62
     7
370
    25
100
AcDbLine
 10
-77.10540108
 20
-19.1013793103
 30
0.0
 11
-77.10540108
 21
-10.5321599287
 31
0.0
  0
LINE
  5
84
330
1F
100
AcDbEntity
  8
0
  6
SLD-Сплошная
 62
     7
370
    25
100
AcDbLine
 10
-77.10540108
 20
138.329401308
 30
0.0
 11
-77.10540108
 21
146.8986206897
 31
0.0
  0
CIRCLE
  5
85
330
1F
100
AcDbEntity
  8
0
  6
SLD-Сплошная
 62
     7
370
    25
100
AcDbCircle
 10
84.8738729778
 20
63.8986206897
 30
0.0
 40
27.97927405783616
  0
LINE
  5
86
330
1F
100
AcDbEntity
  8
0
  6
SLD-Сплошная
 62
     7
370
    25
100
AcDbLine
 10
150.89459892
 20
-84.995014747
 30
0.0
 11
150.89459892
 21
212.7922561263
 31
0.0
  0
LINE
  5
87
330
1F
100
AcDbEntity
  8
0
  6
SLD-Сплошная
 62
     7
370
    25
100
AcDbLine
 10
130.7882343566
 20
232.8986206897
 30
0.0
 11
-56.9990365167
 21
232.8986206897
 31
0.0
  0
LINE
  5
88
330
1F
100
AcDbEntity
  8
0
  6
SLD-Сплошная
 62
     7
370
    25
100
AcDbLine
 10
-56.9990365167
 20
-105.1013793103
 30
0.0
 11
130.7882343566
 21
-105.1013793103
 31
0.0
  0
LINE
  5
89
330
1F
100
AcDbEntity
  8
0
  6
SLD-Сплошная
 62
     7
370
    25
100
AcDbLine
 10
-77.10540108
 20
212.7922561263
 30
0.0
 11
-77.10540108
 21
212.8986206897
 31
0.0
  0
SPLINE
  5
8A
330
1F
100
AcDbEntity
  8
0
  6
SLD-Сплошная
 62
     7
370
    25
100
AcDbSpline
210
0.0
220
0.0
230
1.0
 70
     8
 71
     3
 72
    32
 73
    28
 74
     0
 42
0.00000001
 43
0.00000001
 40
0.0
 40
0.0
 40
0.0
 40
0.0
 40
0.0135588789958687
 40
0.0277174783232717
 40
0.0424762557895927
 40
0.057835615034584
 40
0.073795913630122
 40
0.0903574697220242
 40
0.1075205675169467
 40
0.1252854618465562
 40
0.1611836829983122
 40
0.250168862678225
 40
0.3232954986751154
 40
0.3894260672908262
 40
0.448563716456674
 40
0.5007138685540661
 40
0.5741509744034738
 40
0.6573389066247926
 40
0.7502880767496628
 40
0.8131108053789544
 40
0.8548151833060511
 40
0.8753898019467962
 40
0.9036379278434721
 40
0.9302218017818034
 40
0.9551425031634377
 40
0.9784013554129546
 40
1.0
 40
1.0
 40
1.0
 40
1.0
 10
-77.10540108003974
 20
212.8986206603422
 30
0.0
 10
-77.10452502650712
 20
213.040618408725
 30
0.0
 10
-77.10273417087608
 20
213.33089458229
 30
0.0
 10
-77.08776834486142
 20
213.7755198001787
 30
0.0
 10
-77.06237213723188
 20
214.2385086771129
 30
0.0
 10
-77.02435022277942
 20
214.7195408871925
 30
0.0
 10
-76.97262288326507
 20
215.2182287001046
 30
0.0
 10
-76.90574056827778
 20
215.7341136683581
 30
0.0
 10
-76.82231418068399
 20
216.2666536246711
 30
0.0
 10
-76.6875213083184
 20
216.9957001951309
 30
0.0
 10
-76.35451692559637
 20
218.4512800533536
 30
0.0
 10
-75.69447021401673
 20
220.4233554392336
 30
0.0
 10
-74.65264537878532
 20
222.578121882404
 30
0.0
 10
-73.5480449866687
 20
224.3412723495288
 30
0.0
 10
-72.41022340017588
 20
225.8131034872026
 30
0.0
 10
-71.09660332601416
 20
227.2359534088176
 30
0.0
 10
-69.45864463028055
 20
228.6918133338667
 30
0.0
 10
-67.30139091319813
 20
230.178871668637
 30
0.0
 10
-65.05777369530296
 20
231.3047264164171
 30
0.0
 10
-63.10879091898595
 20
232.0001869831759
 30
0.0
 10
-61.84307660692939
 20
232.3378899841505
 30
0.0
 10
-60.91685987427821
 20
232.5371145788908
 30
0.0
 10
-60.13914330906317
 20
232.6734169527727
 30
0.0
 10
-59.31110422606749
 20
232.782207052683
 30
0.0
 10
-58.53126683222816
 20
232.8521845648563
 30
0.0
 10
-57.80139623540236
 20
232.8917638074918
 30
0.0
 10
-57.33160304449741
 20
232.8963921618224
 30
0.0
 10
-57.10540013806374
 20
232.8986206896552
 30
0.0
  0
LINE
  5
8B
330
1F
100
AcDbEntity
  8
0
  6
SLD-Сплошная
 62
     7
370
    25
100
AcDbLine
 10
-57.10540108
 20
232.8986206897
 30
0.0
 11
-56.9990365167
 21
232.8986206897
 31
0.0
  0
LINE
  5
8C
330
1F
100
AcDbEntity
  8
0
  6
SLD-Сплошная
 62
     7
370
    25
100
AcDbLine
 10
-56.9990365167
 20
-105.1013793103
 30
0.0
 11
-57.10540108
 21
-105.1013793103
 31
0.0
  0
SPLINE
  5
8D
330
1F
100
AcDbEntity
  8
0
  6
SLD-Сплошная
 62
     7
370
    25
100
AcDbSpline
210
0.0
220
0.0
230
1.0
 70
     8
 71
     3
 72
    32
 73
    28
 74
     0
 42
0.00000001
 43
0.00000001
 40
0.0
 40
0.0
 40
0.0
 40
0.0
 40
0.0135588794030297
 40
0.0277174791553564
 40
0.0424762570643773
 40
0.0578356167698576
 40
0.0737959158436835
 40
0.0903574724316831
 40
0.1075205707405207
 40
0.1252854656018702
 40
0.1611836878589975
 40
0.2501688701768589
 40
0.3232955083607684
 40
0.3894260789570503
 40
0.4485637298971212
 40
0.5007138835625495
 40
0.5741509916057252
 40
0.657338926320523
 40
0.7502880992388875
 40
0.8131108297769698
 40
0.854815208954112
 40
0.875389828185788
 40
0.9036379531280655
 40
0.9302218239659985
 40
0.9551425201003971
 40
0.9784013649552354
 40
1.0
 40
1.0
 40
1.0
 40
1.0
 10
-57.10540105072678
 20
-105.1013793103448
 30
0.0
 10
-57.24739879911735
 20
-105.1005032568121
 30
0.0
 10
-57.53767497269577
 20
-105.0987124011809
 30
0.0
 10
-57.98230019060124
 20
-105.0837465751648
 30
0.0
 10
-58.44528906754541
 20
-105.0583503675338
 30
0.0
 10
-58.92632127762823
 20
-105.0203284530797
 30
0.0
 10
-59.42500909053691
 20
-104.9686011135645
 30
0.0
 10
-59.94089405878022
 20
-104.9017187985773
 30
0.0
 10
-60.47343401507656
 20
-104.8182924109853
 30
0.0
 10
-61.20248058582514
 20
-104.6834995385658
 30
0.0
 10
-62.65806044403497
 20
-104.3504951558117
 30
0.0
 10
-64.63013582984554
 20
-103.6904484442044
 30
0.0
 10
-66.78490227268175
 20
-102.6486236091449
 30
0.0
 10
-68.54805273977287
 20
-101.5440232170715
 30
0.0
 10
-70.01988387749746
 20
-100.4062016305605
 30
0.0
 10
-71.44273379911078
 20
-99.09258155641056
 30
0.0
 10
-72.89859372415087
 20
-97.45462286070652
 30
0.0
 10
-74.38565205894636
 20
-95.2973691436412
 30
0.0
 10
-75.51150680689668
 20
-93.05375192544093
 30
0.0
 10
-76.20696737373378
 20
-91.10476914877727
 30
0.0
 10
-76.54467037465727
 20
-89.83905483671131
 30
0.0
 10
-76.74389496535774
 20
-88.9128381227409
 30
0.0
 10
-76.88019732998912
 20
-88.13512161682233
 30
0.0
 10
-76.98898741876647
 20
-87.30708265602996
 30
0.0
 10
-77.058964924907
 20
-86.5272454508881
 30
0.0
 10
-77.09854417120447
 20
-85.79737510915112
 30
0.0
 10
-77.10317254363505
 20
-85.32758210994709
 30
0.0
 10
-77.10540108003974
 20
-85.10137931034481
 30
0.0
  0
LINE
  5
8E
330
1F
100
AcDbEntity
  8
0
  6
SLD-Сплошная
 62
     7
370
    25
100
AcDbLine
 10
-77.10540108
 20
-85.1013793103
 30
0.0
 11
-77.10540108
 21
-84.995014747
 31
0.0
  0
LINE
  5
8F
330
1F
100
AcDbEntity
  8
0
  6
SLD-Сплошная
 62
     7
370
    25
100
AcDbLine
 10
130.7882343566
 20
232.8986206897
 30
0.0
 11
130.89459892
 21
232.8986206897
 31
0.0
  0
SPLINE
  5
90
330
1F
100
AcDbEntity
  8
0
  6
SLD-Сплошная
 62
     7
370
    25
100
AcDbSpline
210
0.0
220
0.0
230
1.0
 70
     8
 71
     3
 72
    32
 73
    28
 74
     0
 42
0.00000001
 43
0.00000001
 40
0.0
 40
0.0
 40
0.0
 40
0.0
 40
0.01355887940358
 40
0.0277174791562998
 40
0.0424762570655562
 40
0.0578356167711158
 40
0.0737959158448631
 40
0.0903574724326265
 40
0.1075205707410718
 40
0.1252854656018713
 40
0.1611836878536036
 40
0.2501688701768524
 40
0.323295508359953
 40
0.3894260789559639
 40
0.4485637298962993
 40
0.5007138835625291
 40
0.5741509916107785
 40
0.6573389263255731
 40
0.750288099238866
 40
0.8131108297421139
 40
0.8548152089192563
 40
0.8753898281858057
 40
0.9036379531282452
 40
0.9302218239662587
 40
0.9551425201006535
 40
0.9784013649554048
 40
1.0
 40
1.0
 40
1.0
 40
1.0
 10
130.8945988906472
 20
232.8986206896552
 30
0.0
 10
131.0365966390436
 20
232.8977446361224
 30
0.0
 10
131.3268728126319
 20
232.895953780491
 30
0.0
 10
131.7714980305498
 20
232.8809879544741
 30
0.0
 10
132.2344869075013
 20
232.8555917468418
 30
0.0
 10
132.7155191175866
 20
232.8175698323867
 30
0.0
 10
133.2142069304927
 20
232.7658424928707
 30
0.0
 10
133.7300918987285
 20
232.6989601778836
 30
0.0
 10
134.2626318550126
 20
232.6155337902929
 30
0.0
 10
134.9916784256959
 20
232.4807409178852
 30
0.0
 10
136.4472582839011
 20
232.1477365351383
 30
0.0
 10
138.4193336697076
 20
231.4876898235419
 30
0.0
 10
140.5741001125851
 20
230.4458649884642
 30
0.0
 10
142.3372505796707
 20
229.3412645963978
 30
0.0
 10
143.8090817174036
 20
228.2034430098837
 30
0.0
 10
145.231931639065
 20
226.8898229356909
 30
0.0
 10
146.6877915641401
 20
225.2518642399342
 30
0.0
 10
148.1748498989183
 20
223.0946105228571
 30
0.0
 10
149.3007046466713
 20
220.8509933050274
 30
0.0
 10
149.9961652134195
 20
218.9020105287809
 30
0.0
 10
150.3338682144127
 20
217.636296216733
 30
0.0
 10
150.5330928052156
 20
216.7100795024085
 30
0.0
 10
150.6693951699106
 20
215.9323629961282
 30
0.0
 10
150.7781852586878
 20
215.104324035333
 30
0.0
 10
150.8481627648281
 20
214.3244868301913
 30
0.0
 10
150.8877420111251
 20
213.594616488457
 30
0.0
 10
150.8923703835556
 20
213.1248234892556
 30
0.0
 10
150.8945989199603
 20
212.8986206896551
 30
0.0
  0
LINE
  5
91
330
1F
100
AcDbEntity
  8
0
  6
SLD-Сплошная
 62
     7
370
    25
100
AcDbLine
 10
150.89459892
 20
212.8986206897
 30
0.0
 11
150.89459892
 21
212.7922561263
 31
0.0
  0
LINE
  5
92
330
1F
100
AcDbEntity
  8
0
  6
SLD-Сплошная
 62
     7
370
    25
100
AcDbLine
 10
150.89459892
 20
-84.995014747
 30
0.0
 11
150.89459892
 21
-85.1013793103
 31
0.0
  0
SPLINE
  5
93
330
1F
100
AcDbEntity
  8
0
  6
SLD-Сплошная
 62
     7
370
    25
100
AcDbSpline
210
0.0
220
0.0
230
1.0
 70
     8
 71
     3
 72
    32
 73
    28
 74
     0
 42
0.00000001
 43
0.00000001
 40
0.0
 40
0.0
 40
0.0
 40
0.0
 40
0.0135588788038479
 40
0.027717477964955
 40
0.0424762552907036
 40
0.0578356144208489
 40
0.0737959129272602
 40
0.0903574689557524
 40
0.1075205667129768
 40
0.1252854610305914
 40
0.1611836821893729
 40
0.2501688619787141
 40
0.3232954980458839
 40
0.3894260667239763
 40
0.4485637159443056
 40
0.5007138680882826
 40
0.5741509740039026
 40
0.6573389063028235
 40
0.750288076516695
 40
0.813110805204859
 40
0.8548151831708602
 40
0.8753898018305322
 40
0.9036379277527684
 40
0.9302218017155036
 40
0.9551425031203898
 40
0.9784013553920055
 40
1.0
 40
1.0
 40
1.0
 40
1.0
 10
150.8945989199603
 20
-85.10137931034481
 30
0.0
 10
150.8937228662458
 20
-85.24337705658277
 30
0.0
 10
150.8919320102409
 20
-85.5336532261218
 30
0.0
 10
150.8769661839777
 20
-85.9782784383569
 30
0.0
 10
150.8515699762688
 20
-86.44126731042908
 30
0.0
 10
150.8135480618875
 20
-86.92229951644123
 30
0.0
 10
150.7618207225434
 20
-87.42098732608363
 30
0.0
 10
150.6949384077761
 20
-87.93687229186567
 30
0.0
 10
150.6115120203974
 20
-88.46941224650298
 30
0.0
 10
150.4767191482226
 20
-89.19845881583969
 30
0.0
 10
150.1437147655979
 20
-90.65403867377583
 30
0.0
 10
149.4836680540508
 20
-92.62611405969504
 30
0.0
 10
148.4418432186826
 20
-94.78088050313896
 30
0.0
 10
147.3372428265477
 20
-96.54403097027794
 30
0.0
 10
146.1994212400627
 20
-98.01586210793037
 30
0.0
 10
144.8858011659347
 20
-99.43871202950407
 30
0.0
 10
143.2478424702381
 20
-100.8945719545254
 30
0.0
 10
141.0905887531614
 20
-102.3816302893034
 30
0.0
 10
138.8469715352438
 20
-103.5074850370999
 30
0.0
 10
136.8979887589013
 20
-104.2029456038671
 30
0.0
 10
135.6322744468448
 20
-104.5406486048413
 30
0.0
 10
134.7060577142044
 20
-104.7398731995791
 30
0.0
 10
133.9283411490045
 20
-104.8761755734589
 30
0.0
 10
133.1003020660213
 20
-104.9849656733688
 30
0.0
 10
132.3204646721821
 20
-105.0549431855437
 30
0.0
 10
131.5905940753437
 20
-105.0945224281809
 30
0.0
 10
131.1208008844263
 20
-105.0991507825119
 30
0.0
 10
130.8945979779842
 20
-105.1013793103448
 30
0.0
  0
LINE
  5
94
330
1F
100
AcDbEntity
  8
0
  6
SLD-Сплошная
 62
     7
370
    25
100
AcDbLine
 10
130.89459892
 20
-105.1013793103
 30
0.0
 11
130.7882343566
 21
-105.1013793103
 31
0.0
  0
LINE
  5
95
330
1F
100
AcDbEntity
  8
0
  6
SLD-Сплошная
 62
     7
370
    25
100
AcDbLine
 10
-77.10540108
 20
212.7922561263
 30
0.0
 11
-77.10540108
 21
185.4678400713
 31
0.0
  0
LINE
  5
96
330
1F
100
AcDbEntity
  8
0
  6
SLD-Сплошная
 62
     7
370
    25
100
AcDbLine
 10
-77.10540108
 20
138.329401308
 30
0.0
 11
-77.10540108
 21
-10.5321599287
 31
0.0
  0
LINE
  5
97
330
1F
100
AcDbEntity
  8
0
  6
SLD-Сплошная
 62
     7
370
    25
100
AcDbLine
 10
-77.10540108
 20
-57.670598692
 30
0.0
 11
-77.10540108
 21
-84.995014747
 31
0.0
  0
ARC
  5
98
330
1F
100
AcDbEntity
  8
0
  6
SLD-Сплошная
 62
     7
370
    25
100
AcDbCircle
 10
84.8738729778
 20
63.8986206897
 30
0.0
 40
14.00000000000001
100
AcDbArc
 50
0.0
 51
180.0
  0
ARC
  5
99
330
1F
100
AcDbEntity
  8
0
  6
SLD-Сплошная
 62
     7
370
    25
100
AcDbCircle
 10
84.8738729778
 20
63.8986206897
 30
0.0
 40
14.00000000000001
100
AcDbArc
 50
180.0
 51
0.0
  0
ARC
  5
9A
330
1F
100
AcDbEntity
  8
0
  6
SLD-Сплошная
 62
     7
370
    25
100
AcDbCircle
 10
84.8738729778
 20
63.8986206897
 30
0.0
 40
10.00000000000001
100
AcDbArc
 50
180.0
 51
0.0
  0
ARC
  5
9B
330
1F
100
AcDbEntity
  8
0
  6
SLD-Сплошная
 62
     7
370
    25
100
AcDbCircle
 10
84.8738729778
 20
63.8986206897
 30
0.0
 40
10.00000000000001
100
AcDbArc
 50
0.0
 51
180.0
  0
LINE
  5
9C
330
1F
100
AcDbEntity
  8
0
  6
SLD-Сплошная
 62
     7
370
    25
100
AcDbLine
 10
150.89459892
 20
86.3986209388
 30
0.0
 11
172.3945989199
 21
80.6377133016
 31
0.0
  0
LINE
  5
9D
330
1F
100
AcDbEntity
  8
0
  6
SLD-Сплошная
 62
     7
370
    25
100
AcDbLine
 10
172.3945989199
 20
80.6377133016
 30
0.0
 11
172.3945989199
 21
47.1595280777
 31
0.0
  0
LINE
  5
9E
330
1F
100
AcDbEntity
  8
0
  6
SLD-Сплошная
 62
     7
370
    25
100
AcDbLine
 10
172.3945989199
 20
47.1595280777
 30
0.0
 11
150.89459892
 21
41.3986204405
 31
0.0
  0
LINE
  5
9F
330
1F
100
AcDbEntity
  8
0
  6
SLD-Сплошная
 62
     7
370
    25
100
AcDbLine
 10
-77.10540108
 20
155.8986206897
 30
0.0
 11
-77.10540108
 21
146.8986206897
 31
0.0
  0
LINE
  5
A0
330
1F
100
AcDbEntity
  8
0
  6
SLD-Сплошная
 62
     7
370
    25
100
AcDbLine
 10
-66.10540108
 20
155.8986206897
 30
0.0
 11
-77.10540108
 21
155.8986206897
 31
0.0
  0
LINE
  5
A1
330
1F
100
AcDbEntity
  8
0
  6
SLD-Сплошная
 62
     7
370
    25
100
AcDbLine
 10
-66.10540108
 20
167.8986206897
 30
0.0
 11
-66.10540108
 21
155.8986206897
 31
0.0
  0
LINE
  5
A2
330
1F
100
AcDbEntity
  8
0
  6
SLD-Сплошная
 62
     7
370
    25
100
AcDbLine
 10
-77.10540108
 20
167.8986206897
 30
0.0
 11
-66.10540108
 21
167.8986206897
 31
0.0
  0
LINE
  5
A3
330
1F
100
AcDbEntity
  8
0
  6
SLD-Сплошная
 62
     7
370
    25
100
AcDbLine
 10
-77.10540108
 20
176.8986206897
 30
0.0
 11
-77.10540108
 21
167.8986206897
 31
0.0
  0
LINE
  5
A4
330
1F
100
AcDbEntity
  8
0
  6
SLD-Сплошная
 62
     7
370
    25
100
AcDbLine
 10
-77.10540108
 20
-40.1013793103
 30
0.0
 11
-77.10540108
 21
-28.1013793103
 31
0.0
  0
LINE
  5
A5
330
1F
100
AcDbEntity
  8
0
  6
SLD-Сплошная
 62
     7
370
    25
100
AcDbLine
 10
-68.10540108
 20
-28.1013793103
 30
0.0
 11
-77.10540108
 21
-28.1013793103
 31
0.0
  0
LINE
  5
A6
330
1F
100
AcDbEntity
  8
0
  6
SLD-Сплошная
 62
     7
370
    25
100
AcDbLine
 10
-68.10540108
 20
-40.1013793103
 30
0.0
 11
-68.10540108
 21
-28.1013793103
 31
0.0
  0
LINE
  5
A7
330
1F
100
AcDbEntity
  8
0
  6
SLD-Сплошная
 62
     7
370
    25
100
AcDbLine
 10
-77.10540108
 20
-40.1013793103
 30
0.0
 11
-68.10540108
 21
-40.1013793103
 31
0.0
  0
LINE
  5
A8
330
1F
100
AcDbEntity
  8
0
  6
SLD-Сплошная
 62
     7
370
    25
100
AcDbLine
 10
-68.10540108
 20
167.8986206897
 30
0.0
 11
-77.10540108
 21
167.8986206897
 31
0.0
  0
LINE
  5
A9
330
1F
100
AcDbEntity
  8
0
  6
SLD-Сплошная
 62
     7
370
    25
100
AcDbLine
 10
-77.10540108
 20
155.8986206897
 30
0.0
 11
-77.10540108
 21
167.8986206897
 31
0.0
  0
LINE
  5
AA
330
1F
100
AcDbEntity
  8
0
  6
SLD-Сплошная
 62
     7
370
    25
100
AcDbLine
 10
-68.10540108
 20
155.8986206897
 30
0.0
 11
-77.10540108
 21
155.8986206897
 31
0.0
  0
LINE
  5
AB
330
1F
100
AcDbEntity
  8
0
  6
SLD-Сплошная
 62
     7
370
    25
100
AcDbLine
 10
-68.10540108
 20
155.8986206897
 30
0.0
 11
-68.10540108
 21
167.8986206897
 31
0.0
  0
LINE
  5
AC
330
1F
100
AcDbEntity
  8
0
  6
SLD-Сплошная
 62
     7
370
    25
100
AcDbLine
 10
394.616303571
 20
-87.6013793103
 30
0.0
 11
388.616303571
 21
-87.6013793103
 31
0.0
  0
LINE
  5
AD
330
1F
100
AcDbEntity
  8
0
  6
SLD-Сплошная
 62
     7
370
    25
100
AcDbLine
 10
388.616303571
 20
215.3986206897
 30
0.0
 11
394.616303571
 21
215.3986206897
 31
0.0
  0
LINE
  5
AE
330
1F
100
AcDbEntity
  8
0
  6
SLD-Сплошная
 62
     7
370
    25
100
AcDbLine
 10
383.616303571
 20
228.2160937914
 30
0.0
 11
258.616303571
 21
223.8509976049
 31
0.0
  0
LINE
  5
AF
330
1F
100
AcDbEntity
  8
0
  6
SLD-Сплошная
 62
     7
370
    25
100
AcDbLine
 10
258.616303571
 20
-96.0537562256
 30
0.0
 11
383.616303571
 21
-100.4188524121
 31
0.0
  0
LINE
  5
B0
330
1F
100
AcDbEntity
  8
0
  6
SLD-Сплошная
 62
     7
370
    25
100
AcDbLine
 10
258.616303571
 20
-39.1013793103
 30
0.0
 11
255.616303571
 21
-39.1013793103
 31
0.0
  0
LINE
  5
B1
330
1F
100
AcDbEntity
  8
0
  6
SLD-Сплошная
 62
     7
370
    25
100
AcDbLine
 10
255.616303571
 20
-53.1013793103
 30
0.0
 11
258.616303571
 21
-53.1013793103
 31
0.0
  0
LINE
  5
B2
330
1F
100
AcDbEntity
  8
0
  6
SLD-Сплошная
 62
     7
370
    25
100
AcDbLine
 10
258.616303571
 20
180.8986206897
 30
0.0
 11
255.616303571
 21
180.8986206897
 31
0.0
  0
LINE
  5
B3
330
1F
100
AcDbEntity
  8
0
  6
SLD-Сплошная
 62
     7
370
    25
100
AcDbLine
 10
255.616303571
 20
166.8986206897
 30
0.0
 11
258.616303571
 21
166.8986206897
 31
0.0
  0
LINE
  5
B4
330
1F
100
AcDbEntity
  8
0
  6
SLD-Сплошная
 62
     7
370
    25
100
AcDbLine
 10
258.616303571
 20
210.8986206897
 30
0.0
 11
255.616303571
 21
210.8986206897
 31
0.0
  0
LINE
  5
B5
330
1F
100
AcDbEntity
  8
0
  6
SLD-Сплошная
 62
     7
370
    25
100
AcDbLine
 10
255.616303571
 20
196.8986206897
 30
0.0
 11
258.616303571
 21
196.8986206897
 31
0.0
  0
LINE
  5
B6
330
1F
100
AcDbEntity
  8
0
  6
SLD-Сплошная
 62
     7
370
    25
100
AcDbLine
 10
258.616303571
 20
-69.1013793103
 30
0.0
 11
255.616303571
 21
-69.1013793103
 31
0.0
  0
LINE
  5
B7
330
1F
100
AcDbEntity
  8
0
  6
SLD-Сплошная
 62
     7
370
    25
100
AcDbLine
 10
255.616303571
 20
-83.1013793103
 30
0.0
 11
258.616303571
 21
-83.1013793103
 31
0.0
  0
LINE
  5
B8
330
1F
100
AcDbEntity
  8
0
  6
SLD-Сплошная
 62
     7
370
    25
100
AcDbLine
 10
403.616303571
 20
-40.1013793103
 30
0.0
 11
403.616303571
 21
-49.1013793103
 31
0.0
  0
LINE
  5
B9
330
1F
100
AcDbEntity
  8
0
  6
SLD-Сплошная
 62
     7
370
    25
100
AcDbLine
 10
412.616303571
 20
-40.1013793103
 30
0.0
 11
403.616303571
 21
-40.1013793103
 31
0.0
  0
LINE
  5
BA
330
1F
100
AcDbEntity
  8
0
  6
SLD-Сплошная
 62
     7
370
    25
100
AcDbLine
 10
412.616303571
 20
-40.1013793103
 30
0.0
 11
412.616303571
 21
-49.1013793103
 31
0.0
  0
LINE
  5
BB
330
1F
100
AcDbEntity
  8
0
  6
SLD-Сплошная
 62
     7
370
    25
100
AcDbLine
 10
412.616303571
 20
-49.1013793103
 30
0.0
 11
403.616303571
 21
-49.1013793103
 31
0.0
  0
LINE
  5
BC
330
1F
100
AcDbEntity
  8
0
  6
SLD-Сплошная
 62
     7
370
    25
100
AcDbLine
 10
403.616303571
 20
-19.1013793103
 30
0.0
 11
403.616303571
 21
-28.1013793103
 31
0.0
  0
LINE
  5
BD
330
1F
100
AcDbEntity
  8
0
  6
SLD-Сплошная
 62
     7
370
    25
100
AcDbLine
 10
403.616303571
 20
-19.1013793103
 30
0.0
 11
412.616303571
 21
-19.1013793103
 31
0.0
  0
LINE
  5
BE
330
1F
100
AcDbEntity
  8
0
  6
SLD-Сплошная
 62
     7
370
    25
100
AcDbLine
 10
412.616303571
 20
-19.1013793103
 30
0.0
 11
412.616303571
 21
-28.1013793103
 31
0.0
  0
LINE
  5
BF
330
1F
100
AcDbEntity
  8
0
  6
SLD-Сплошная
 62
     7
370
    25
100
AcDbLine
 10
412.616303571
 20
-28.1013793103
 30
0.0
 11
403.616303571
 21
-28.1013793103
 31
0.0
  0
SPLINE
  5
C0
330
1F
100
AcDbEntity
  8
0
  6
SLD-Сплошная
 62
     7
370
    25
100
AcDbSpline
210
0.0
220
0.0
230
1.0
 70
     8
 71
     3
 72
    32
 73
    28
 74
     0
 42
0.00000001
 43
0.00000001
 40
0.0
 40
0.0
 40
0.0
 40
0.0
 40
0.0135588794030297
 40
0.0277174791553564
 40
0.0424762570643773
 40
0.0578356167698576
 40
0.0737959158436835
 40
0.0903574724316831
 40
0.1075205707405207
 40
0.1252854656018702
 40
0.1611836878589975
 40
0.2501688701768589
 40
0.3232955083607684
 40
0.3894260789570503
 40
0.4485637298971212
 40
0.5007138835625495
 40
0.5741509916057252
 40
0.657338926320523
 40
0.7502880992388875
 40
0.8131108297769698
 40
0.854815208954112
 40
0.875389828185788
 40
0.9036379531280655
 40
0.9302218239659985
 40
0.9551425201003971
 40
0.9784013649552354
 40
1.0
 40
1.0
 40
1.0
 40
1.0
 10
401.6161641006209
 20
-105.1013793103448
 30
0.0
 10
401.6161178257639
 20
-105.1005032568121
 30
0.0
 10
401.616023229275
 20
-105.0987124011809
 30
0.0
 10
401.6193091381593
 20
-105.0837465751648
 30
0.0
 10
401.6250383125582
 20
-105.0583503675338
 30
0.0
 10
401.6334903931855
 20
-105.0203284530797
 30
0.0
 10
401.6445913021943
 20
-104.9686011135645
 30
0.0
 10
401.6583426330171
 20
-104.9017187985773
 30
0.0
 10
401.6748228223544
 20
-104.8182924109853
 30
0.0
 10
401.6999113829827
 20
-104.6834995385658
 30
0.0
 10
401.7622230950472
 20
-104.3504951558117
 30
0.0
 10
401.8472544967332
 20
-103.6904484442044
 30
0.0
 10
401.9396373600496
 20
-102.6486236091449
 30
0.0
 10
402.0014305448634
 20
-101.5440232170715
 30
0.0
 10
402.0395011851217
 20
-100.4062016305605
 30
0.0
 10
402.0549084896153
 20
-99.09258155641056
 30
0.0
 10
402.0309622756874
 20
-97.45462286070652
 30
0.0
 10
401.9650075876377
 20
-95.2973691436412
 30
0.0
 10
401.8694709603723
 20
-93.05375192544093
 30
0.0
 10
401.7813033291879
 20
-91.10476914877727
 30
0.0
 10
401.7275349994342
 20
-89.83905483671131
 30
0.0
 10
401.6891922742196
 20
-88.9128381227409
 30
0.0
 10
401.6639229178057
 20
-88.13512161682233
 30
0.0
 10
401.6412070070713
 20
-87.30708265602996
 30
0.0
 10
401.625721788547
 20
-86.5272454508881
 30
0.0
 10
401.616354609499
 20
-85.79737510915112
 30
0.0
 10
401.6159780844762
 20
-85.32758210994709
 30
0.0
 10
401.6157967897051
 20
-85.10137931034481
 30
0.0
  0
LINE
  5
C1
330
1F
100
AcDbEntity
  8
0
  6
SLD-Сплошная
 62
     7
370
    25
100
AcDbLine
 10
401.616178693
 20
-105.1013793103
 30
0.0
 11
388.616303571
 21
-105.1013793103
 31
0.0
  0
LINE
  5
C2
330
1F
100
AcDbEntity
  8
0
  6
SLD-Сплошная
 62
     7
370
    25
100
AcDbLine
 10
388.616303571
 20
-105.1013793103
 30
0.0
 11
388.616303571
 21
-88.1783023873
 31
0.0
  0
LINE
  5
C3
330
1F
100
AcDbEntity
  8
0
  6
SLD-Сплошная
 62
     7
370
    25
100
AcDbLine
 10
394.616303571
 20
-85.1013793103
 30
0.0
 11
394.616303571
 21
-88.1783023873
 31
0.0
  0
LINE
  5
C4
330
1F
100
AcDbEntity
  8
0
  6
SLD-Сплошная
 62
     7
370
    25
100
AcDbLine
 10
401.616178693
 20
232.8986206897
 30
0.0
 11
388.616303571
 21
232.8986206897
 31
0.0
  0
SPLINE
  5
C5
330
1F
100
AcDbEntity
  8
0
  6
SLD-Сплошная
 62
     7
370
    25
100
AcDbSpline
210
0.0
220
0.0
230
1.0
 70
     8
 71
     3
 72
    32
 73
    28
 74
     0
 42
0.00000001
 43
0.00000001
 40
0.0
 40
0.0
 40
0.0
 40
0.0
 40
0.0135588789958687
 40
0.0277174783232717
 40
0.0424762557895927
 40
0.057835615034584
 40
0.073795913630122
 40
0.0903574697220242
 40
0.1075205675169467
 40
0.1252854618465562
 40
0.1611836829983122
 40
0.250168862678225
 40
0.3232954986751154
 40
0.3894260672908262
 40
0.448563716456674
 40
0.5007138685540661
 40
0.5741509744034738
 40
0.6573389066247926
 40
0.7502880767496628
 40
0.8131108053789544
 40
0.8548151833060511
 40
0.8753898019467962
 40
0.9036379278434721
 40
0.9302218017818034
 40
0.9551425031634377
 40
0.9784013554129546
 40
1.0
 40
1.0
 40
1.0
 40
1.0
 10
401.6161641006208
 20
212.8986206603422
 30
0.0
 10
401.6161178257639
 20
213.040618408725
 30
0.0
 10
401.6160232292749
 20
213.33089458229
 30
0.0
 10
401.6193091381593
 20
213.7755198001787
 30
0.0
 10
401.6250383125583
 20
214.2385086771129
 30
0.0
 10
401.6334903931856
 20
214.7195408871925
 30
0.0
 10
401.6445913021944
 20
215.2182287001046
 30
0.0
 10
401.6583426330171
 20
215.7341136683581
 30
0.0
 10
401.6748228223548
 20
216.2666536246711
 30
0.0
 10
401.6999113829705
 20
216.9957001951309
 30
0.0
 10
401.7622230950432
 20
218.4512800533536
 30
0.0
 10
401.8472544967223
 20
220.4233554392336
 30
0.0
 10
401.9396373600503
 20
222.578121882404
 30
0.0
 10
402.0014305448647
 20
224.3412723495288
 30
0.0
 10
402.0395011851236
 20
225.8131034872026
 30
0.0
 10
402.0549084896148
 20
227.2359534088176
 30
0.0
 10
402.0309622756868
 20
228.6918133338667
 30
0.0
 10
401.9650075876345
 20
230.178871668637
 30
0.0
 10
401.8694709603956
 20
231.3047264164171
 30
0.0
 10
401.7813033291744
 20
232.0001869831759
 30
0.0
 10
401.7275349995084
 20
232.3378899841505
 30
0.0
 10
401.6891922733514
 20
232.5371145788908
 30
0.0
 10
401.6639229159977
 20
232.6734169527727
 30
0.0
 10
401.6412070051244
 20
232.782207052683
 30
0.0
 10
401.6257217867687
 20
232.8521845648563
 30
0.0
 10
401.6163546084759
 20
232.8917638074918
 30
0.0
 10
401.6159780841515
 20
232.8963921618224
 30
0.0
 10
401.615796789705
 20
232.8986206896552
 30
0.0
  0
LINE
  5
C6
330
1F
100
AcDbEntity
  8
0
  6
SLD-Сплошная
 62
     7
370
    25
100
AcDbLine
 10
394.616303571
 20
215.9755437666
 30
0.0
 11
394.616303571
 21
212.8986206897
 31
0.0
  0
LINE
  5
C7
330
1F
100
AcDbEntity
  8
0
  6
SLD-Сплошная
 62
     7
370
    25
100
AcDbLine
 10
388.616303571
 20
232.8986206897
 30
0.0
 11
388.616303571
 21
215.9755437666
 31
0.0
  0
ELLIPSE
  5
C8
330
1F
100
AcDbEntity
  8
0
  6
SLD-Сплошная
 62
     7
370
    25
100
AcDbEllipse
 10
359.4538663654
 20
-105.1013793103
 30
0.0
 11
-32.03025143617941
 21
-43.67761559479011
 31
0.0
210
0.0
220
0.0
230
1.0
 40
0.627730463
 41
2.431193978020103
 42
2.433627836077279
  0
LINE
  5
C9
330
1F
100
AcDbEntity
  8
0
  6
SLD-Сплошная
 62
     7
370
    25
100
AcDbLine
 10
394.616303571
 20
-85.1013793103
 30
0.0
 11
394.616303571
 21
-49.1013793103
 31
0.0
  0
LINE
  5
CA
330
1F
100
AcDbEntity
  8
0
  6
SLD-Сплошная
 62
     7
370
    25
100
AcDbLine
 10
412.616303571
 20
-49.1013793103
 30
0.0
 11
394.616303571
 21
-49.1013793103
 31
0.0
  0
LINE
  5
CB
330
1F
100
AcDbEntity
  8
0
  6
SLD-Сплошная
 62
     7
370
    25
100
AcDbLine
 10
412.616303571
 20
-57.670598692
 30
0.0
 11
412.616303571
 21
-49.1013793103
 31
0.0
  0
LINE
  5
CC
330
1F
100
AcDbEntity
  8
0
  6
SLD-Сплошная
 62
     7
370
    25
100
AcDbLine
 10
412.616303571
 20
-57.670598692
 30
0.0
 11
401.616303571
 21
-57.670598692
 31
0.0
  0
LINE
  5
CD
330
1F
100
AcDbEntity
  8
0
  6
SLD-Сплошная
 62
     7
370
    25
100
AcDbLine
 10
401.616303571
 20
-57.670598692
 30
0.0
 11
401.616303571
 21
-84.995014747
 31
0.0
  0
LINE
  5
CE
330
1F
100
AcDbEntity
  8
0
  6
SLD-Сплошная
 62
     7
370
    25
100
AcDbLine
 10
412.616303571
 20
176.8986206897
 30
0.0
 11
412.616303571
 21
185.4678400713
 31
0.0
  0
LINE
  5
CF
330
1F
100
AcDbEntity
  8
0
  6
SLD-Сплошная
 62
     7
370
    25
100
AcDbLine
 10
394.616303571
 20
176.8986206897
 30
0.0
 11
412.616303571
 21
176.8986206897
 31
0.0
  0
LINE
  5
D0
330
1F
100
AcDbEntity
  8
0
  6
SLD-Сплошная
 62
     7
370
    25
100
AcDbLine
 10
394.616303571
 20
176.8986206897
 30
0.0
 11
394.616303571
 21
212.8986206897
 31
0.0
  0
ELLIPSE
  5
D1
330
1F
100
AcDbEntity
  8
0
  6
SLD-Сплошная
 62
     7
370
    25
100
AcDbEllipse
 10
359.4538663654
 20
232.8986206897
 30
0.0
 11
-32.03025143617942
 21
43.67761559479008
 31
1.421085471520201E-14
210
1.551561959099560E-16
220
-2.115766307863039E-16
230
1.0
 40
0.627730463
 41
3.849557471102333
 42
3.851991329159499
  0
LINE
  5
D2
330
1F
100
AcDbEntity
  8
0
  6
SLD-Сплошная
 62
     7
370
    25
100
AcDbLine
 10
401.616303571
 20
212.7922561263
 30
0.0
 11
401.616303571
 21
185.4678400713
 31
0.0
  0
LINE
  5
D3
330
1F
100
AcDbEntity
  8
0
  6
SLD-Сплошная
 62
     7
370
    25
100
AcDbLine
 10
412.616303571
 20
185.4678400713
 30
0.0
 11
401.616303571
 21
185.4678400713
 31
0.0
  0
LINE
  5
D4
330
1F
100
AcDbEntity
  8
0
  6
SLD-Сплошная
 62
     7
370
    25
100
AcDbLine
 10
412.616303571
 20
-90.1013793103
 30
0.0
 11
401.616303571
 21
-105.1013793103
 31
0.0
  0
LINE
  5
D5
330
1F
100
AcDbEntity
  8
0
  6
SLD-Сплошная
 62
     7
370
    25
100
AcDbLine
 10
401.616303571
 20
-105.1013793103
 30
0.0
 11
401.616178693
 21
-105.1013793103
 31
0.0
  0
LINE
  5
D6
330
1F
100
AcDbEntity
  8
0
  6
SLD-Сплошная
 62
     7
370
    25
100
AcDbLine
 10
412.616303571
 20
-69.995014747
 30
0.0
 11
412.616303571
 21
-90.1013793103
 31
0.0
  0
LINE
  5
D7
330
1F
100
AcDbEntity
  8
0
  6
SLD-Сплошная
 62
     7
370
    25
100
AcDbLine
 10
401.616178693
 20
232.8986206897
 30
0.0
 11
401.616303571
 21
232.8986206897
 31
0.0
  0
LINE
  5
D8
330
1F
100
AcDbEntity
  8
0
  6
SLD-Сплошная
 62
     7
370
    25
100
AcDbLine
 10
401.616303571
 20
232.8986206897
 30
0.0
 11
412.616303571
 21
217.8986206897
 31
0.0
  0
LINE
  5
D9
330
1F
100
AcDbEntity
  8
0
  6
SLD-Сплошная
 62
     7
370
    25
100
AcDbLine
 10
412.616303571
 20
217.8986206897
 30
0.0
 11
412.616303571
 21
197.7922561263
 31
0.0
  0
LINE
  5
DA
330
1F
100
AcDbEntity
  8
0
  6
SLD-Сплошная
 62
     7
370
    25
100
AcDbLine
 10
412.616303571
 20
-19.1013793103
 30
0.0
 11
412.616303571
 21
-10.5321599287
 31
0.0
  0
LINE
  5
DB
330
1F
100
AcDbEntity
  8
0
  6
SLD-Сплошная
 62
     7
370
    25
100
AcDbLine
 10
394.616303571
 20
-19.1013793103
 30
0.0
 11
394.616303571
 21
146.8986206897
 31
0.0
  0
LINE
  5
DC
330
1F
100
AcDbEntity
  8
0
  6
SLD-Сплошная
 62
     7
370
    25
100
AcDbLine
 10
412.616303571
 20
146.8986206897
 30
0.0
 11
394.616303571
 21
146.8986206897
 31
0.0
  0
LINE
  5
DD
330
1F
100
AcDbEntity
  8
0
  6
SLD-Сплошная
 62
     7
370
    25
100
AcDbLine
 10
412.616303571
 20
138.329401308
 30
0.0
 11
412.616303571
 21
146.8986206897
 31
0.0
  0
LINE
  5
DE
330
1F
100
AcDbEntity
  8
0
  6
SLD-Сплошная
 62
     7
370
    25
100
AcDbLine
 10
412.616303571
 20
138.329401308
 30
0.0
 11
397.8960885234
 21
138.329401308
 31
0.0
  0
LINE
  5
DF
330
1F
100
AcDbEntity
  8
0
  6
SLD-Сплошная
 62
     7
370
    25
100
AcDbLine
 10
397.8960885234
 20
138.329401308
 30
0.0
 11
397.8960885234
 21
-10.5321599287
 31
0.0
  0
LINE
  5
E0
330
1F
100
AcDbEntity
  8
0
  6
SLD-Сплошная
 62
     7
370
    25
100
AcDbLine
 10
412.616303571
 20
-10.5321599287
 30
0.0
 11
397.8960885234
 21
-10.5321599287
 31
0.0
  0
LINE
  5
E1
330
1F
100
AcDbEntity
  8
0
  6
SLD-Сплошная
 62
     7
370
    25
100
AcDbLine
 10
394.616303571
 20
-19.1013793103
 30
0.0
 11
412.616303571
 21
-19.1013793103
 31
0.0
  0
LINE
  5
E2
330
1F
100
AcDbEntity
  8
0
  6
SLD-Сплошная
 62
     7
370
    25
100
AcDbLine
 10
412.616303571
 20
-10.5321599287
 30
0.0
 11
412.616303571
 21
138.329401308
 31
0.0
  0
LINE
  5
E3
330
1F
100
AcDbEntity
  8
0
  6
SLD-Сплошная
 62
     7
370
    25
100
AcDbLine
 10
412.616303571
 20
-69.995014747
 30
0.0
 11
412.616303571
 21
-57.670598692
 31
0.0
  0
LINE
  5
E4
330
1F
100
AcDbEntity
  8
0
  6
SLD-Сплошная
 62
     7
370
    25
100
AcDbLine
 10
412.616303571
 20
185.4678400713
 30
0.0
 11
412.616303571
 21
197.7922561263
 31
0.0
  0
LINE
  5
E5
330
1F
100
AcDbEntity
  8
0
  6
SLD-Сплошная
 62
     7
370
    25
100
AcDbLine
 10
403.616303571
 20
155.8986206897
 30
0.0
 11
403.616303571
 21
146.8986206897
 31
0.0
  0
LINE
  5
E6
330
1F
100
AcDbEntity
  8
0
  6
SLD-Сплошная
 62
     7
370
    25
100
AcDbLine
 10
403.616303571
 20
155.8986206897
 30
0.0
 11
412.616303571
 21
155.8986206897
 31
0.0
  0
LINE
  5
E7
330
1F
100
AcDbEntity
  8
0
  6
SLD-Сплошная
 62
     7
370
    25
100
AcDbLine
 10
412.616303571
 20
155.8986206897
 30
0.0
 11
412.616303571
 21
146.8986206897
 31
0.0
  0
LINE
  5
E8
330
1F
100
AcDbEntity
  8
0
  6
SLD-Сплошная
 62
     7
370
    25
100
AcDbLine
 10
403.616303571
 20
146.8986206897
 30
0.0
 11
412.616303571
 21
146.8986206897
 31
0.0
  0
LINE
  5
E9
330
1F
100
AcDbEntity
  8
0
  6
SLD-Сплошная
 62
     7
370
    25
100
AcDbLine
 10
412.616303571
 20
176.8986206897
 30
0.0
 11
412.616303571
 21
167.8986206897
 31
0.0
  0
LINE
  5
EA
330
1F
100
AcDbEntity
  8
0
  6
SLD-Сплошная
 62
     7
370
    25
100
AcDbLine
 10
412.616303571
 20
167.8986206897
 30
0.0
 11
403.616303571
 21
167.8986206897
 31
0.0
  0
LINE
  5
EB
330
1F
100
AcDbEntity
  8
0
  6
SLD-Сплошная
 62
     7
370
    25
100
AcDbLine
 10
403.616303571
 20
176.8986206897
 30
0.0
 11
403.616303571
 21
167.8986206897
 31
0.0
  0
LINE
  5
EC
330
1F
100
AcDbEntity
  8
0
  6
SLD-Сплошная
 62
     7
370
    25
100
AcDbLine
 10
403.616303571
 20
176.8986206897
 30
0.0
 11
412.616303571
 21
176.8986206897
 31
0.0
  0
LINE
  5
ED
330
1F
100
AcDbEntity
  8
0
  6
SLD-Сплошная
 62
     7
370
    25
100
AcDbLine
 10
383.616303571
 20
131.8986206897
 30
0.0
 11
371.616303571
 21
131.8986206897
 31
0.0
  0
LINE
  5
EE
330
1F
100
AcDbEntity
  8
0
  6
SLD-Сплошная
 62
     7
370
    25
100
AcDbLine
 10
371.616303571
 20
191.8986206897
 30
0.0
 11
371.616303571
 21
131.8986206897
 31
0.0
  0
LINE
  5
EF
330
1F
100
AcDbEntity
  8
0
  6
SLD-Сплошная
 62
     7
370
    25
100
AcDbLine
 10
383.616303571
 20
212.8986206897
 30
0.0
 11
383.616303571
 21
191.8986206897
 31
0.0
  0
LINE
  5
F0
330
1F
100
AcDbEntity
  8
0
  6
SLD-Сплошная
 62
     7
370
    25
100
AcDbLine
 10
388.616303571
 20
212.8986206897
 30
0.0
 11
388.616303571
 21
-85.1013793103
 31
0.0
  0
LINE
  5
F1
330
1F
100
AcDbEntity
  8
0
  6
SLD-Сплошная
 62
     7
370
    25
100
AcDbLine
 10
383.616303571
 20
-64.1013793103
 30
0.0
 11
383.616303571
 21
-85.1013793103
 31
0.0
  0
LINE
  5
F2
330
1F
100
AcDbEntity
  8
0
  6
SLD-Сплошная
 62
     7
370
    25
100
AcDbLine
 10
383.616303571
 20
-64.1013793103
 30
0.0
 11
371.616303571
 21
-64.1013793103
 31
0.0
  0
LINE
  5
F3
330
1F
100
AcDbEntity
  8
0
  6
SLD-Сплошная
 62
     7
370
    25
100
AcDbLine
 10
371.616303571
 20
-4.1013793103
 30
0.0
 11
371.616303571
 21
-64.1013793103
 31
0.0
  0
LINE
  5
F4
330
1F
100
AcDbEntity
  8
0
  6
SLD-Сплошная
 62
     7
370
    25
100
AcDbLine
 10
383.616303571
 20
131.8986206897
 30
0.0
 11
383.616303571
 21
-4.1013793103
 31
0.0
  0
LINE
  5
F5
330
1F
100
AcDbEntity
  8
0
  6
SLD-Сплошная
 62
     7
370
    25
100
AcDbLine
 10
383.616303571
 20
191.8986206897
 30
0.0
 11
371.616303571
 21
191.8986206897
 31
0.0
  0
LINE
  5
F6
330
1F
100
AcDbEntity
  8
0
  6
SLD-Сплошная
 62
     7
370
    25
100
AcDbLine
 10
383.616303571
 20
-4.1013793103
 30
0.0
 11
371.616303571
 21
-4.1013793103
 31
0.0
  0
LINE
  5
F7
330
1F
100
AcDbEntity
  8
0
  6
SLD-Сплошная
 62
     7
370
    25
100
AcDbLine
 10
388.616303571
 20
-85.1013793103
 30
0.0
 11
388.616303571
 21
-105.1013793103
 31
0.0
  0
LINE
  5
F8
330
1F
100
AcDbEntity
  8
0
  6
SLD-Сплошная
 62
     7
370
    25
100
AcDbLine
 10
388.616303571
 20
-105.1013793103
 30
0.0
 11
383.616303571
 21
-105.1013793103
 31
0.0
  0
LINE
  5
F9
330
1F
100
AcDbEntity
  8
0
  6
SLD-Сплошная
 62
     7
370
    25
100
AcDbLine
 10
383.616303571
 20
-85.1013793103
 30
0.0
 11
383.616303571
 21
-105.1013793103
 31
0.0
  0
LINE
  5
FA
330
1F
100
AcDbEntity
  8
0
  6
SLD-Сплошная
 62
     7
370
    25
100
AcDbLine
 10
388.616303571
 20
232.8986206897
 30
0.0
 11
388.616303571
 21
212.8986206897
 31
0.0
  0
LINE
  5
FB
330
1F
100
AcDbEntity
  8
0
  6
SLD-Сплошная
 62
     7
370
    25
100
AcDbLine
 10
388.616303571
 20
232.8986206897
 30
0.0
 11
383.616303571
 21
232.8986206897
 31
0.0
  0
LINE
  5
FC
330
1F
100
AcDbEntity
  8
0
  6
SLD-Сплошная
 62
     7
370
    25
100
AcDbLine
 10
383.616303571
 20
232.8986206897
 30
0.0
 11
383.616303571
 21
212.8986206897
 31
0.0
  0
SPLINE
  5
FD
330
1F
100
AcDbEntity
  8
0
  6
SLD-Сплошная
 62
     7
370
    25
100
AcDbSpline
210
0.0
220
0.0
230
1.0
 70
     8
 71
     3
 72
    15
 73
    11
 74
     0
 42
0.00000001
 43
0.00000001
 40
0.0
 40
0.0
 40
0.0
 40
0.0
 40
0.105202651400326
 40
0.2160616842518022
 40
0.3325771177261647
 40
0.4547489555882468
 40
0.582577188374581
 40
0.716061795221415
 40
0.855202745451614
 40
1.0
 40
1.0
 40
1.0
 40
1.0
 10
258.6163036969166
 20
206.8659492536123
 30
0.0
 10
262.9995263213301
 20
206.7716185428578
 30
0.0
 10
272.001642238329
 20
206.5778852864143
 30
0.0
 10
285.8585986164895
 20
206.2922784235978
 30
0.0
 10
300.4227608232737
 20
206.0012373218705
 30
0.0
 10
315.6941528589688
 20
205.7063174004742
 30
0.0
 10
331.6727672935605
 20
205.4076302395735
 30
0.0
 10
348.3586095948601
 20
205.1057729404881
 30
0.0
 10
365.7516660141755
 20
204.8002286931836
 30
0.0
 10
377.5828617003547
 20
204.6000140441922
 30
0.0
 10
383.6163035709876
 20
204.4979124917895
 30
0.0
  0
LINE
  5
FE
330
1F
100
AcDbEntity
  8
0
  6
SLD-Сплошная
 62
     7
370
    25
100
AcDbLine
 10
258.616303571
 20
223.8509976049
 30
0.0
 11
258.616303571
 21
206.8659518211
 31
0.0
  0
LINE
  5
FF
330
1F
100
AcDbEntity
  8
0
  6
SLD-Сплошная
 62
     7
370
    25
100
AcDbLine
 10
258.616303571
 20
-79.0687104418
 30
0.0
 11
258.616303571
 21
-96.0537562256
 31
0.0
  0
SPLINE
  5
100
330
1F
100
AcDbEntity
  8
0
  6
SLD-Сплошная
 62
     7
370
    25
100
AcDbSpline
210
0.0
220
0.0
230
1.0
 70
     8
 71
     3
 72
    14
 73
    10
 74
     0
 42
0.00000001
 43
0.00000001
 40
0.0
 40
0.0
 40
0.0
 40
0.0
 40
0.1649362239108511
 40
0.3225128213639497
 40
0.4727297353973137
 40
0.6155869238652573
 40
0.7510843623037828
 40
0.8792220472144442
 40
1.0
 40
1.0
 40
1.0
 40
1.0
 10
383.6163035709876
 20
-76.70067111247911
 30
0.0
 10
376.7437094394253
 20
-76.81709969779885
 30
0.0
 10
363.3051834994992
 20
-77.04476170344279
 30
0.0
 10
343.6076551525086
 20
-77.39304411030837
 30
0.0
 10
324.8303098811429
 20
-77.73654423968593
 30
0.0
 10
306.9731619158923
 20
-78.07568653208521
 30
0.0
 10
290.0362157089859
 20
-78.41006483132875
 30
0.0
 10
274.0194406994007
 20
-78.73765038921063
 30
0.0
 10
263.6484698933269
 20
-78.96053922779797
 30
0.0
 10
258.6163046426846
 20
-79.06868855048613
 30
0.0
  0
LINE
  5
101
330
1F
100
AcDbEntity
  8
0
  6
SLD-Сплошная
 62
     7
370
    25
100
AcDbLine
 10
258.616303571
 20
206.8659518211
 30
0.0
 11
258.616303571
 21
-79.0687104418
 31
0.0
  0
LINE
  5
102
330
1F
100
AcDbEntity
  8
0
  6
SLD-Сплошная
 62
     7
370
    25
100
AcDbLine
 10
255.616303571
 20
-30.6013793103
 30
0.0
 11
255.616303571
 21
-26.6013793103
 31
0.0
  0
LINE
  5
103
330
1F
100
AcDbEntity
  8
0
  6
SLD-Сплошная
 62
     7
370
    25
100
AcDbLine
 10
258.616303571
 20
-30.6013793103
 30
0.0
 11
255.616303571
 21
-30.6013793103
 31
0.0
  0
LINE
  5
104
330
1F
100
AcDbEntity
  8
0
  6
SLD-Сплошная
 62
     7
370
    25
100
AcDbLine
 10
258.616303571
 20
-26.6013793103
 30
0.0
 11
255.616303571
 21
-26.6013793103
 31
0.0
  0
LINE
  5
105
330
1F
100
AcDbEntity
  8
0
  6
SLD-Сплошная
 62
     7
370
    25
100
AcDbLine
 10
255.616303571
 20
-39.1013793103
 30
0.0
 11
255.616303571
 21
-53.1013793103
 31
0.0
  0
LINE
  5
106
330
1F
100
AcDbEntity
  8
0
  6
SLD-Сплошная
 62
     7
370
    25
100
AcDbLine
 10
255.616303571
 20
180.8986206897
 30
0.0
 11
255.616303571
 21
166.8986206897
 31
0.0
  0
LINE
  5
107
330
1F
100
AcDbEntity
  8
0
  6
SLD-Сплошная
 62
     7
370
    25
100
AcDbLine
 10
258.616303571
 20
-60.6013793103
 30
0.0
 11
255.616303571
 21
-60.6013793103
 31
0.0
  0
LINE
  5
108
330
1F
100
AcDbEntity
  8
0
  6
SLD-Сплошная
 62
     7
370
    25
100
AcDbLine
 10
255.616303571
 20
-60.6013793103
 30
0.0
 11
255.616303571
 21
-53.1013793103
 31
0.0
  0
LINE
  5
109
330
1F
100
AcDbEntity
  8
0
  6
SLD-Сплошная
 62
     7
370
    25
100
AcDbLine
 10
255.616303571
 20
-39.1013793103
 30
0.0
 11
255.616303571
 21
-30.6013793103
 31
0.0
  0
LINE
  5
10A
330
1F
100
AcDbEntity
  8
0
  6
SLD-Сплошная
 62
     7
370
    25
100
AcDbLine
 10
255.616303571
 20
154.3986206897
 30
0.0
 11
255.616303571
 21
166.8986206897
 31
0.0
  0
LINE
  5
10B
330
1F
100
AcDbEntity
  8
0
  6
SLD-Сплошная
 62
     7
370
    25
100
AcDbLine
 10
255.616303571
 20
180.8986206897
 30
0.0
 11
255.616303571
 21
188.3986206897
 31
0.0
  0
LINE
  5
10C
330
1F
100
AcDbEntity
  8
0
  6
SLD-Сплошная
 62
     7
370
    25
100
AcDbLine
 10
258.616303571
 20
188.3986206897
 30
0.0
 11
255.616303571
 21
188.3986206897
 31
0.0
  0
LINE
  5
10D
330
1F
100
AcDbEntity
  8
0
  6
SLD-Сплошная
 62
     7
370
    25
100
AcDbLine
 10
255.616303571
 20
154.3986206897
 30
0.0
 11
258.616303571
 21
154.3986206897
 31
0.0
  0
LINE
  5
10E
330
1F
100
AcDbEntity
  8
0
  6
SLD-Сплошная
 62
     7
370
    25
100
AcDbLine
 10
255.616303571
 20
210.8986206897
 30
0.0
 11
255.616303571
 21
196.8986206897
 31
0.0
  0
LINE
  5
10F
330
1F
100
AcDbEntity
  8
0
  6
SLD-Сплошная
 62
     7
370
    25
100
AcDbLine
 10
255.616303571
 20
-69.1013793103
 30
0.0
 11
255.616303571
 21
-83.1013793103
 31
0.0
  0
LINE
  5
110
330
1F
100
AcDbEntity
  8
0
  6
SLD-Сплошная
 62
     7
370
    25
100
AcDbLine
 10
258.616303571
 20
-86.1013793103
 30
0.0
 11
255.616303571
 21
-86.1013793103
 31
0.0
  0
LINE
  5
111
330
1F
100
AcDbEntity
  8
0
  6
SLD-Сплошная
 62
     7
370
    25
100
AcDbLine
 10
255.616303571
 20
-86.1013793103
 30
0.0
 11
255.616303571
 21
-83.1013793103
 31
0.0
  0
LINE
  5
112
330
1F
100
AcDbEntity
  8
0
  6
SLD-Сплошная
 62
     7
370
    25
100
AcDbLine
 10
255.616303571
 20
-69.1013793103
 30
0.0
 11
255.616303571
 21
-60.6013793103
 31
0.0
  0
LINE
  5
113
330
1F
100
AcDbEntity
  8
0
  6
SLD-Сплошная
 62
     7
370
    25
100
AcDbLine
 10
255.616303571
 20
213.8986206897
 30
0.0
 11
258.616303571
 21
213.8986206897
 31
0.0
  0
LINE
  5
114
330
1F
100
AcDbEntity
  8
0
  6
SLD-Сплошная
 62
     7
370
    25
100
AcDbLine
 10
255.616303571
 20
188.3986206897
 30
0.0
 11
255.616303571
 21
196.8986206897
 31
0.0
  0
LINE
  5
115
330
1F
100
AcDbEntity
  8
0
  6
SLD-Сплошная
 62
     7
370
    25
100
AcDbLine
 10
255.616303571
 20
210.8986206897
 30
0.0
 11
255.616303571
 21
213.8986206897
 31
0.0
  0
LINE
  5
116
330
1F
100
AcDbEntity
  8
0
  6
SLD-Сплошная
 62
     7
370
    25
100
AcDbLine
 10
412.616303571
 20
-40.1013793103
 30
0.0
 11
412.616303571
 21
-28.1013793103
 31
0.0
  0
LINE
  5
117
330
1F
100
AcDbEntity
  8
0
  6
SLD-Сплошная
 62
     7
370
    25
100
AcDbLine
 10
401.616303571
 20
-40.1013793103
 30
0.0
 11
412.616303571
 21
-40.1013793103
 31
0.0
  0
LINE
  5
118
330
1F
100
AcDbEntity
  8
0
  6
SLD-Сплошная
 62
     7
370
    25
100
AcDbLine
 10
401.616303571
 20
-49.1013793103
 30
0.0
 11
401.616303571
 21
-40.1013793103
 31
0.0
  0
LINE
  5
119
330
1F
100
AcDbEntity
  8
0
  6
SLD-Сплошная
 62
     7
370
    25
100
AcDbLine
 10
388.616303571
 20
-49.1013793103
 30
0.0
 11
401.616303571
 21
-49.1013793103
 31
0.0
  0
LINE
  5
11A
330
1F
100
AcDbEntity
  8
0
  6
SLD-Сплошная
 62
     7
370
    25
100
AcDbLine
 10
388.616303571
 20
-19.1013793103
 30
0.0
 11
388.616303571
 21
-49.1013793103
 31
0.0
  0
LINE
  5
11B
330
1F
100
AcDbEntity
  8
0
  6
SLD-Сплошная
 62
     7
370
    25
100
AcDbLine
 10
401.616303571
 20
-19.1013793103
 30
0.0
 11
388.616303571
 21
-19.1013793103
 31
0.0
  0
LINE
  5
11C
330
1F
100
AcDbEntity
  8
0
  6
SLD-Сплошная
 62
     7
370
    25
100
AcDbLine
 10
401.616303571
 20
-28.1013793103
 30
0.0
 11
401.616303571
 21
-19.1013793103
 31
0.0
  0
LINE
  5
11D
330
1F
100
AcDbEntity
  8
0
  6
SLD-Сплошная
 62
     7
370
    25
100
AcDbLine
 10
412.616303571
 20
-28.1013793103
 30
0.0
 11
401.616303571
 21
-28.1013793103
 31
0.0
  0
LINE
  5
11E
330
1F
100
AcDbEntity
  8
0
  6
SLD-Сплошная
 62
     7
370
    25
100
AcDbLine
 10
412.616303571
 20
155.8986206897
 30
0.0
 11
412.616303571
 21
167.8986206897
 31
0.0
  0
LINE
  5
11F
330
1F
100
AcDbEntity
  8
0
  6
SLD-Сплошная
 62
     7
370
    25
100
AcDbLine
 10
401.616303571
 20
155.8986206897
 30
0.0
 11
412.616303571
 21
155.8986206897
 31
0.0
  0
LINE
  5
120
330
1F
100
AcDbEntity
  8
0
  6
SLD-Сплошная
 62
     7
370
    25
100
AcDbLine
 10
401.616303571
 20
146.8986206897
 30
0.0
 11
401.616303571
 21
155.8986206897
 31
0.0
  0
LINE
  5
121
330
1F
100
AcDbEntity
  8
0
  6
SLD-Сплошная
 62
     7
370
    25
100
AcDbLine
 10
401.616303571
 20
167.8986206897
 30
0.0
 11
401.616303571
 21
176.8986206897
 31
0.0
  0
LINE
  5
122
330
1F
100
AcDbEntity
  8
0
  6
SLD-Сплошная
 62
     7
370
    25
100
AcDbLine
 10
412.616303571
 20
167.8986206897
 30
0.0
 11
401.616303571
 21
167.8986206897
 31
0.0
  0
LINE
  5
123
330
1F
100
AcDbEntity
  8
0
  6
SLD-Сплошная
 62
     7
370
    25
100
AcDbLine
 10
388.616303571
 20
146.8986206897
 30
0.0
 11
401.616303571
 21
146.8986206897
 31
0.0
  0
LINE
  5
124
330
1F
100
AcDbEntity
  8
0
  6
SLD-Сплошная
 62
     7
370
    25
100
AcDbLine
 10
388.616303571
 20
176.8986206897
 30
0.0
 11
388.616303571
 21
146.8986206897
 31
0.0
  0
LINE
  5
125
330
1F
100
AcDbEntity
  8
0
  6
SLD-Сплошная
 62
     7
370
    25
100
AcDbLine
 10
401.616303571
 20
176.8986206897
 30
0.0
 11
388.616303571
 21
176.8986206897
 31
0.0
  0
LINE
  5
126
330
1F
100
AcDbEntity
  8
0
  6
SLD-Сплошная
 62
     7
370
    25
100
AcDbLine
 10
551.5147143166
 20
-30.6013793103
 30
0.0
 11
577.0147143166
 21
-30.6013793103
 31
0.0
  0
LINE
  5
127
330
1F
100
AcDbEntity
  8
0
  6
SLD-Сплошная
 62
     7
370
    25
100
AcDbLine
 10
551.5147143166
 20
-26.6013793103
 30
0.0
 11
551.5147143166
 21
-30.6013793103
 31
0.0
  0
LINE
  5
128
330
1F
100
AcDbEntity
  8
0
  6
SLD-Сплошная
 62
     7
370
    25
100
AcDbLine
 10
581.0147143166
 20
-26.6013793103
 30
0.0
 11
551.5147143166
 21
-26.6013793103
 31
0.0
  0
LINE
  5
129
330
1F
100
AcDbEntity
  8
0
  6
SLD-Сплошная
 62
     7
370
    25
100
AcDbLine
 10
581.0147143166
 20
-56.6013793103
 30
0.0
 11
581.0147143166
 21
-26.6013793103
 31
0.0
  0
LINE
  5
12A
330
1F
100
AcDbEntity
  8
0
  6
SLD-Сплошная
 62
     7
370
    25
100
AcDbLine
 10
611.0147143166
 20
-56.6013793103
 30
0.0
 11
581.0147143166
 21
-56.6013793103
 31
0.0
  0
LINE
  5
12B
330
1F
100
AcDbEntity
  8
0
  6
SLD-Сплошная
 62
     7
370
    25
100
AcDbLine
 10
611.0147143166
 20
-86.1013793103
 30
0.0
 11
611.0147143166
 21
-56.6013793103
 31
0.0
  0
LINE
  5
12C
330
1F
100
AcDbEntity
  8
0
  6
SLD-Сплошная
 62
     7
370
    25
100
AcDbLine
 10
607.0147143166
 20
-86.1013793103
 30
0.0
 11
611.0147143166
 21
-86.1013793103
 31
0.0
  0
LINE
  5
12D
330
1F
100
AcDbEntity
  8
0
  6
SLD-Сплошная
 62
     7
370
    25
100
AcDbLine
 10
607.0147143166
 20
-60.6013793103
 30
0.0
 11
607.0147143166
 21
-86.1013793103
 31
0.0
  0
LINE
  5
12E
330
1F
100
AcDbEntity
  8
0
  6
SLD-Сплошная
 62
     7
370
    25
100
AcDbLine
 10
577.0147143166
 20
-60.6013793103
 30
0.0
 11
607.0147143166
 21
-60.6013793103
 31
0.0
  0
LINE
  5
12F
330
1F
100
AcDbEntity
  8
0
  6
SLD-Сплошная
 62
     7
370
    25
100
AcDbLine
 10
577.0147143166
 20
-30.6013793103
 30
0.0
 11
577.0147143166
 21
-60.6013793103
 31
0.0
  0
LINE
  5
130
330
1F
100
AcDbEntity
  8
0
  6
SLD-Сплошная
 62
     7
370
    25
100
AcDbLine
 10
581.0147143166
 20
184.3986206897
 30
0.0
 11
611.0147143166
 21
184.3986206897
 31
0.0
  0
LINE
  5
131
330
1F
100
AcDbEntity
  8
0
  6
SLD-Сплошная
 62
     7
370
    25
100
AcDbLine
 10
581.0147143166
 20
154.3986206897
 30
0.0
 11
581.0147143166
 21
184.3986206897
 31
0.0
  0
LINE
  5
132
330
1F
100
AcDbEntity
  8
0
  6
SLD-Сплошная
 62
     7
370
    25
100
AcDbLine
 10
551.5147143166
 20
154.3986206897
 30
0.0
 11
581.0147143166
 21
154.3986206897
 31
0.0
  0
LINE
  5
133
330
1F
100
AcDbEntity
  8
0
  6
SLD-Сплошная
 62
     7
370
    25
100
AcDbLine
 10
551.5147143166
 20
158.3986206897
 30
0.0
 11
551.5147143166
 21
154.3986206897
 31
0.0
  0
LINE
  5
134
330
1F
100
AcDbEntity
  8
0
  6
SLD-Сплошная
 62
     7
370
    25
100
AcDbLine
 10
577.0147143166
 20
188.3986206897
 30
0.0
 11
577.0147143166
 21
158.3986206897
 31
0.0
  0
LINE
  5
135
330
1F
100
AcDbEntity
  8
0
  6
SLD-Сплошная
 62
     7
370
    25
100
AcDbLine
 10
607.0147143166
 20
188.3986206897
 30
0.0
 11
577.0147143166
 21
188.3986206897
 31
0.0
  0
LINE
  5
136
330
1F
100
AcDbEntity
  8
0
  6
SLD-Сплошная
 62
     7
370
    25
100
AcDbLine
 10
607.0147143166
 20
213.8986206897
 30
0.0
 11
607.0147143166
 21
188.3986206897
 31
0.0
  0
LINE
  5
137
330
1F
100
AcDbEntity
  8
0
  6
SLD-Сплошная
 62
     7
370
    25
100
AcDbLine
 10
611.0147143166
 20
213.8986206897
 30
0.0
 11
607.0147143166
 21
213.8986206897
 31
0.0
  0
LINE
  5
138
330
1F
100
AcDbEntity
  8
0
  6
SLD-Сплошная
 62
     7
370
    25
100
AcDbLine
 10
611.0147143166
 20
184.3986206897
 30
0.0
 11
611.0147143166
 21
213.8986206897
 31
0.0
  0
LINE
  5
139
330
1F
100
AcDbEntity
  8
0
  6
SLD-Сплошная
 62
     7
370
    25
100
AcDbLine
 10
577.0147143166
 20
158.3986206897
 30
0.0
 11
551.5147143166
 21
158.3986206897
 31
0.0
  0
CIRCLE
  5
13A
330
1F
100
AcDbEntity
  8
0
  6
SLD-Сплошная
 62
     7
370
    25
100
AcDbCircle
 10
565.5147143166
 20
-46.1013793103
 30
0.0
 40
7.0
  0
CIRCLE
  5
13B
330
1F
100
AcDbEntity
  8
0
  6
SLD-Сплошная
 62
     7
370
    25
100
AcDbCircle
 10
565.5147143166
 20
173.8986206897
 30
0.0
 40
7.0
  0
CIRCLE
  5
13C
330
1F
100
AcDbEntity
  8
0
  6
SLD-Сплошная
 62
     7
370
    25
100
AcDbCircle
 10
594.5147143166
 20
-76.1013793103
 30
0.0
 40
7.0
  0
CIRCLE
  5
13D
330
1F
100
AcDbEntity
  8
0
  6
SLD-Сплошная
 62
     7
370
    25
100
AcDbCircle
 10
594.5147143166
 20
203.8986206897
 30
0.0
 40
7.0
  0
LINE
  5
13E
330
1F
100
AcDbEntity
  8
0
  6
SLD-Сплошная
 62
     7
370
    25
100
AcDbLine
 10
682.0147143166
 20
154.3986206897
 30
0.0
 11
601.0147143166
 21
154.3986206897
 31
0.0
  0
LINE
  5
13F
330
1F
100
AcDbEntity
  8
0
  6
SLD-Сплошная
 62
     7
370
    25
100
AcDbLine
 10
682.0147143166
 20
158.3986206897
 30
0.0
 11
682.0147143166
 21
154.3986206897
 31
0.0
  0
LINE
  5
140
330
1F
100
AcDbEntity
  8
0
  6
SLD-Сплошная
 62
     7
370
    25
100
AcDbLine
 10
601.0147143166
 20
154.3986206897
 30
0.0
 11
601.0147143166
 21
158.3986206897
 31
0.0
  0
LINE
  5
141
330
1F
100
AcDbEntity
  8
0
  6
SLD-Сплошная
 62
     7
370
    25
100
AcDbLine
 10
601.0147143166
 20
158.3986206897
 30
0.0
 11
682.0147143166
 21
158.3986206897
 31
0.0
  0
LINE
  5
142
330
1F
100
AcDbEntity
  8
0
  6
SLD-Сплошная
 62
     7
370
    25
100
AcDbLine
 10
682.0147143166
 20
-30.6013793103
 30
0.0
 11
682.0147143166
 21
-26.6013793103
 31
0.0
  0
LINE
  5
143
330
1F
100
AcDbEntity
  8
0
  6
SLD-Сплошная
 62
     7
370
    25
100
AcDbLine
 10
601.0147143166
 20
-30.6013793103
 30
0.0
 11
682.0147143166
 21
-30.6013793103
 31
0.0
  0
LINE
  5
144
330
1F
100
AcDbEntity
  8
0
  6
SLD-Сплошная
 62
     7
370
    25
100
AcDbLine
 10
682.0147143166
 20
-26.6013793103
 30
0.0
 11
601.0147143166
 21
-26.6013793103
 31
0.0
  0
LINE
  5
145
330
1F
100
AcDbEntity
  8
0
  6
SLD-Сплошная
 62
     7
370
    25
100
AcDbLine
 10
601.0147143166
 20
-26.6013793103
 30
0.0
 11
601.0147143166
 21
-30.6013793103
 31
0.0
  0
LINE
  5
146
330
1F
100
AcDbEntity
  8
0
  6
SLD-Сплошная
 62
     7
370
    25
100
AcDbLine
 10
672.0147143166
 20
-56.6013793103
 30
0.0
 11
672.0147143166
 21
-86.1013793103
 31
0.0
  0
LINE
  5
147
330
1F
100
AcDbEntity
  8
0
  6
SLD-Сплошная
 62
     7
370
    25
100
AcDbLine
 10
702.0147143166
 20
-56.6013793103
 30
0.0
 11
672.0147143166
 21
-56.6013793103
 31
0.0
  0
LINE
  5
148
330
1F
100
AcDbEntity
  8
0
  6
SLD-Сплошная
 62
     7
370
    25
100
AcDbLine
 10
702.0147143166
 20
-26.6013793103
 30
0.0
 11
702.0147143166
 21
-56.6013793103
 31
0.0
  0
LINE
  5
149
330
1F
100
AcDbEntity
  8
0
  6
SLD-Сплошная
 62
     7
370
    25
100
AcDbLine
 10
731.5147143166
 20
-26.6013793103
 30
0.0
 11
702.0147143166
 21
-26.6013793103
 31
0.0
  0
LINE
  5
14A
330
1F
100
AcDbEntity
  8
0
  6
SLD-Сплошная
 62
     7
370
    25
100
AcDbLine
 10
731.5147143166
 20
-30.6013793103
 30
0.0
 11
731.5147143166
 21
-26.6013793103
 31
0.0
  0
LINE
  5
14B
330
1F
100
AcDbEntity
  8
0
  6
SLD-Сплошная
 62
     7
370
    25
100
AcDbLine
 10
706.0147143166
 20
-30.6013793103
 30
0.0
 11
731.5147143166
 21
-30.6013793103
 31
0.0
  0
LINE
  5
14C
330
1F
100
AcDbEntity
  8
0
  6
SLD-Сплошная
 62
     7
370
    25
100
AcDbLine
 10
706.0147143166
 20
-60.6013793103
 30
0.0
 11
706.0147143166
 21
-30.6013793103
 31
0.0
  0
LINE
  5
14D
330
1F
100
AcDbEntity
  8
0
  6
SLD-Сплошная
 62
     7
370
    25
100
AcDbLine
 10
676.0147143166
 20
-60.6013793103
 30
0.0
 11
706.0147143166
 21
-60.6013793103
 31
0.0
  0
LINE
  5
14E
330
1F
100
AcDbEntity
  8
0
  6
SLD-Сплошная
 62
     7
370
    25
100
AcDbLine
 10
676.0147143166
 20
-86.1013793103
 30
0.0
 11
676.0147143166
 21
-60.6013793103
 31
0.0
  0
LINE
  5
14F
330
1F
100
AcDbEntity
  8
0
  6
SLD-Сплошная
 62
     7
370
    25
100
AcDbLine
 10
672.0147143166
 20
-86.1013793103
 30
0.0
 11
676.0147143166
 21
-86.1013793103
 31
0.0
  0
LINE
  5
150
330
1F
100
AcDbEntity
  8
0
  6
SLD-Сплошная
 62
     7
370
    25
100
AcDbLine
 10
702.0147143166
 20
184.3986206897
 30
0.0
 11
702.0147143166
 21
154.3986206897
 31
0.0
  0
LINE
  5
151
330
1F
100
AcDbEntity
  8
0
  6
SLD-Сплошная
 62
     7
370
    25
100
AcDbLine
 10
676.0147143166
 20
188.3986206897
 30
0.0
 11
676.0147143166
 21
213.8986206897
 31
0.0
  0
LINE
  5
152
330
1F
100
AcDbEntity
  8
0
  6
SLD-Сплошная
 62
     7
370
    25
100
AcDbLine
 10
706.0147143166
 20
188.3986206897
 30
0.0
 11
676.0147143166
 21
188.3986206897
 31
0.0
  0
LINE
  5
153
330
1F
100
AcDbEntity
  8
0
  6
SLD-Сплошная
 62
     7
370
    25
100
AcDbLine
 10
706.0147143166
 20
154.3986206897
 30
0.0
 11
706.0147143166
 21
188.3986206897
 31
0.0
  0
LINE
  5
154
330
1F
100
AcDbEntity
  8
0
  6
SLD-Сплошная
 62
     7
370
    25
100
AcDbLine
 10
702.0147143166
 20
154.3986206897
 30
0.0
 11
706.0147143166
 21
154.3986206897
 31
0.0
  0
LINE
  5
155
330
1F
100
AcDbEntity
  8
0
  6
SLD-Сплошная
 62
     7
370
    25
100
AcDbLine
 10
672.0147143166
 20
184.3986206897
 30
0.0
 11
702.0147143166
 21
184.3986206897
 31
0.0
  0
LINE
  5
156
330
1F
100
AcDbEntity
  8
0
  6
SLD-Сплошная
 62
     7
370
    25
100
AcDbLine
 10
672.0147143166
 20
213.8986206897
 30
0.0
 11
672.0147143166
 21
184.3986206897
 31
0.0
  0
LINE
  5
157
330
1F
100
AcDbEntity
  8
0
  6
SLD-Сплошная
 62
     7
370
    25
100
AcDbLine
 10
676.0147143166
 20
213.8986206897
 30
0.0
 11
672.0147143166
 21
213.8986206897
 31
0.0
  0
CIRCLE
  5
158
330
1F
100
AcDbEntity
  8
0
  6
SLD-Сплошная
 62
     7
370
    25
100
AcDbCircle
 10
688.5147143166
 20
203.8986206897
 30
0.0
 40
7.0
  0
CIRCLE
  5
159
330
1F
100
AcDbEntity
  8
0
  6
SLD-Сплошная
 62
     7
370
    25
100
AcDbCircle
 10
688.5147143166
 20
-76.1013793103
 30
0.0
 40
7.0
  0
CIRCLE
  5
15A
330
1F
100
AcDbEntity
  8
0
  6
SLD-Сплошная
 62
     7
370
    25
100
AcDbCircle
 10
717.5147143166
 20
173.8986206897
 30
0.0
 40
7.000000000000114
  0
CIRCLE
  5
15B
330
1F
100
AcDbEntity
  8
0
  6
SLD-Сплошная
 62
     7
370
    25
100
AcDbCircle
 10
717.5147143166
 20
-46.1013793103
 30
0.0
 40
7.000000000000114
  0
LINE
  5
15C
330
1F
100
AcDbEntity
  8
0
  6
SLD-Сплошная
 62
     7
370
    25
100
AcDbLine
 10
547.5623374013
 20
-79.0687104418
 30
0.0
 11
547.5623374013
 21
206.8659518211
 31
0.0
  0
ARC
  5
15D
330
1F
100
AcDbEntity
  8
0
  6
SLD-Сплошная
 62
     7
370
    25
100
AcDbCircle
 10
551.5147143166
 20
214.8986206897
 30
0.0
 40
8.952376915247667
100
AcDbArc
 50
26.1989308585
 51
243.8010691415
  0
LINE
  5
15E
330
1F
100
AcDbEntity
  8
0
  6
SLD-Сплошная
 62
     7
370
    25
100
AcDbLine
 10
559.5473831852
 20
218.8509976049
 30
0.0
 11
723.482045448
 21
218.8509976049
 31
0.0
  0
ARC
  5
15F
330
1F
100
AcDbEntity
  8
0
  6
SLD-Сплошная
 62
     7
370
    25
100
AcDbCircle
 10
731.5147143166
 20
214.8986206897
 30
0.0
 40
8.95237691524766
100
AcDbArc
 50
296.1989308585
 51
153.8010691415
  0
LINE
  5
160
330
1F
100
AcDbEntity
  8
0
  6
SLD-Сплошная
 62
     7
370
    25
100
AcDbLine
 10
735.4670912318
 20
206.8659518211
 30
0.0
 11
735.4670912318
 21
-79.0687104418
 31
0.0
  0
ARC
  5
161
330
1F
100
AcDbEntity
  8
0
  6
SLD-Сплошная
 62
     7
370
    25
100
AcDbCircle
 10
731.5147143166
 20
-87.1013793103
 30
0.0
 40
8.952376915247697
100
AcDbArc
 50
206.1989308585
 51
63.8010691415
  0
LINE
  5
162
330
1F
100
AcDbEntity
  8
0
  6
SLD-Сплошная
 62
     7
370
    25
100
AcDbLine
 10
723.482045448
 20
-91.0537562256
 30
0.0
 11
559.5473831852
 21
-91.0537562256
 31
0.0
  0
ARC
  5
163
330
1F
100
AcDbEntity
  8
0
  6
SLD-Сплошная
 62
     7
370
    25
100
AcDbCircle
 10
551.5147143166
 20
-87.1013793103
 30
0.0
 40
8.952376915247521
100
AcDbArc
 50
116.1989308585
 51
333.8010691415
  0
CIRCLE
  5
164
330
1F
100
AcDbEntity
  8
0
  6
SLD-Сплошная
 62
     7
370
    25
100
AcDbCircle
 10
721.5147143166
 20
203.8986206897
 30
0.0
 40
6.0
  0
CIRCLE
  5
165
330
1F
100
AcDbEntity
  8
0
  6
SLD-Сплошная
 62
     7
370
    25
100
AcDbCircle
 10
721.5147143166
 20
-70.1013793103
 30
0.0
 40
6.0
  0
CIRCLE
  5
166
330
1F
100
AcDbEntity
  8
0
  6
SLD-Сплошная
 62
     7
370
    25
100
AcDbCircle
 10
561.5147143166
 20
-70.1013793103
 30
0.0
 40
6.0
  0
CIRCLE
  5
167
330
1F
100
AcDbEntity
  8
0
  6
SLD-Сплошная
 62
     7
370
    25
100
AcDbCircle
 10
561.5147143166
 20
203.8986206897
 30
0.0
 40
6.0
  0
ARC
  5
168
330
1F
100
AcDbEntity
  8
0
  6
SLD-Сплошная
 62
     7
370
    25
100
AcDbCircle
 10
551.5147143166
 20
-87.1013793103
 30
0.0
 40
13.31747310171595
100
AcDbArc
 50
128.6494156853
 51
321.3505843147
  0
SPLINE
  5
169
330
1F
100
AcDbEntity
  8
0
  6
SLD-Сплошная
 62
     7
370
    25
100
AcDbSpline
210
0.0
220
0.0
230
1.0
 70
     8
 71
     3
 72
    15
 73
    11
 74
     0
 42
0.00000001
 43
0.00000001
 40
0.0
 40
0.0
 40
0.0
 40
0.0
 40
0.105202651400283
 40
0.216061684251729
 40
0.3325771177260728
 40
0.4547489555881482
 40
0.5825771883744891
 40
0.7160617952213417
 40
0.8552027454515714
 40
1.0
 40
1.0
 40
1.0
 40
1.0
 10
547.5623426093558
 20
-79.06870787430151
 30
0.0
 10
547.4093460441629
 20
-78.97437716354708
 30
0.0
 10
547.095126819454
 20
-78.78064390710374
 30
0.0
 10
546.6117186852607
 20
-78.49503704428732
 30
0.0
 10
546.1034617508923
 20
-78.20399594256008
 30
0.0
 10
545.5702755596021
 20
-77.9090760211639
 30
0.0
 10
545.0121135219272
 20
-77.6103888602632
 30
0.0
 10
544.4290580039493
 20
-77.30853156117776
 30
0.0
 10
543.8212245253144
 20
-77.00298731387315
 30
0.0
 10
543.4079797210175
 20
-76.8027726648817
 30
0.0
 10
543.1972412148511
 20
-76.70067111247906
 30
0.0
  0
SPLINE
  5
16A
330
1F
100
AcDbEntity
  8
0
  6
SLD-Сплошная
 62
     7
370
    25
100
AcDbSpline
210
0.0
220
0.0
230
1.0
 70
     8
 71
     3
 72
    14
 73
    10
 74
     0
 42
0.00000001
 43
0.00000001
 40
0.0
 40
0.0
 40
0.0
 40
0.0
 40
0.1649362239108062
 40
0.3225128213638742
 40
0.4727297353972236
 40
0.6155869238651672
 40
0.7510843623037079
 40
0.8792220472143994
 40
1.0
 40
1.0
 40
1.0
 40
1.0
 10
561.915422514433
 20
-95.41885241206074
 30
0.0
 10
561.7989939291133
 20
-95.17879343566202
 30
0.0
 10
561.5713319234694
 20
-94.70938716494511
 30
0.0
 10
561.2230495166036
 20
-94.02095760613491
 30
0.0
 10
560.8795493872261
 20
-93.36483105681707
 30
0.0
 10
560.540407094827
 20
-92.74116096599907
 30
0.0
 10
560.2060287955834
 20
-92.14998895113288
 30
0.0
 10
559.8784432377013
 20
-91.59124716578201
 30
0.0
 10
559.655554399114
 20
-91.22932324536274
 30
0.0
 10
559.5474050764258
 20
-91.05371181903007
 30
0.0
  0
LINE
  5
16B
330
1F
100
AcDbEntity
  8
0
  6
SLD-Сплошная
 62
     7
370
    25
100
AcDbLine
 10
721.1140061187
 20
-95.4188524121
 30
0.0
 11
561.9154225144
 21
-95.4188524121
 31
0.0
  0
SPLINE
  5
16C
330
1F
100
AcDbEntity
  8
0
  6
SLD-Сплошная
 62
     7
370
    25
100
AcDbSpline
210
0.0
220
0.0
230
1.0
 70
     8
 71
     3
 72
    15
 73
    11
 74
     0
 42
0.00000001
 43
0.00000001
 40
0.0
 40
0.0
 40
0.0
 40
0.0
 40
0.1052026514002514
 40
0.2160616842516748
 40
0.3325771177260052
 40
0.4547489555880762
 40
0.5825771883744214
 40
0.716061795221287
 40
0.8552027454515397
 40
1.0
 40
1.0
 40
1.0
 40
1.0
 10
723.482042880524
 20
-91.05375101755628
 30
0.0
 10
723.3877121697697
 20
-91.20674758274919
 30
0.0
 10
723.1939789133262
 20
-91.520966807458
 30
0.0
 10
722.9083720505098
 20
-92.00437494165112
 30
0.0
 10
722.6173309487825
 20
-92.51263187601924
 30
0.0
 10
722.3224110273864
 20
-93.04581806730947
 30
0.0
 10
722.0237238664855
 20
-93.60398010498447
 30
0.0
 10
721.7218665674001
 20
-94.18703562296213
 30
0.0
 10
721.4163223200956
 20
-94.79486910159731
 30
0.0
 10
721.216107671104
 20
-95.20811390589431
 30
0.0
 10
721.1140061187014
 20
-95.41885241206063
 30
0.0
  0
ARC
  5
16D
330
1F
100
AcDbEntity
  8
0
  6
SLD-Сплошная
 62
     7
370
    25
100
AcDbCircle
 10
731.5147143166
 20
-87.1013793103
 30
0.0
 40
13.31747310171612
100
AcDbArc
 50
218.6494156853
 51
51.3505843147
  0
SPLINE
  5
16E
330
1F
100
AcDbEntity
  8
0
  6
SLD-Сплошная
 62
     7
370
    25
100
AcDbSpline
210
0.0
220
0.0
230
1.0
 70
     8
 71
     3
 72
    14
 73
    10
 74
     0
 42
0.00000001
 43
0.00000001
 40
0.0
 40
0.0
 40
0.0
 40
0.0
 40
0.1649362239108511
 40
0.3225128213639497
 40
0.4727297353973137
 40
0.6155869238652573
 40
0.7510843623037828
 40
0.8792220472144442
 40
1.0
 40
1.0
 40
1.0
 40
1.0
 10
739.8321874182832
 20
-76.70067111247911
 30
0.0
 10
739.5921284418844
 20
-76.81709969779885
 30
0.0
 10
739.1227221711674
 20
-77.04476170344279
 30
0.0
 10
738.434292612357
 20
-77.39304411030837
 30
0.0
 10
737.7781660630392
 20
-77.73654423968593
 30
0.0
 10
737.1544959722213
 20
-78.07568653208521
 30
0.0
 10
736.5633239573549
 20
-78.41006483132875
 30
0.0
 10
736.004582172004
 20
-78.73765038921063
 30
0.0
 10
735.642658251585
 20
-78.96053922779797
 30
0.0
 10
735.4670468252523
 20
-79.06868855048613
 30
0.0
  0
LINE
  5
16F
330
1F
100
AcDbEntity
  8
0
  6
SLD-Сплошная
 62
     7
370
    25
100
AcDbLine
 10
739.8321874183
 20
191.8986206897
 30
0.0
 11
739.8321874183
 21
204.4979124918
 31
0.0
  0
LINE
  5
170
330
1F
100
AcDbEntity
  8
0
  6
SLD-Сплошная
 62
     7
370
    25
100
AcDbLine
 10
739.4131381844
 20
131.8986206897
 30
0.0
 11
739.4131381844
 21
191.8986206897
 31
0.0
  0
LINE
  5
171
330
1F
100
AcDbEntity
  8
0
  6
SLD-Сплошная
 62
     7
370
    25
100
AcDbLine
 10
739.8321874183
 20
131.8986206897
 30
0.0
 11
739.8321874183
 21
-4.1013793103
 31
0.0
  0
LINE
  5
172
330
1F
100
AcDbEntity
  8
0
  6
SLD-Сплошная
 62
     7
370
    25
100
AcDbLine
 10
739.4131381844
 20
-64.1013793103
 30
0.0
 11
739.4131381844
 21
-4.1013793103
 31
0.0
  0
LINE
  5
173
330
1F
100
AcDbEntity
  8
0
  6
SLD-Сплошная
 62
     7
370
    25
100
AcDbLine
 10
739.8321874183
 20
-64.1013793103
 30
0.0
 11
739.8321874183
 21
-76.7006711125
 31
0.0
  0
SPLINE
  5
174
330
1F
100
AcDbEntity
  8
0
  6
SLD-Сплошная
 62
     7
370
    25
100
AcDbSpline
210
0.0
220
0.0
230
1.0
 70
     8
 71
     3
 72
    15
 73
    11
 74
     0
 42
0.00000001
 43
0.00000001
 40
0.0
 40
0.0
 40
0.0
 40
0.0
 40
0.105202651400326
 40
0.2160616842518022
 40
0.3325771177261647
 40
0.4547489555882468
 40
0.582577188374581
 40
0.716061795221415
 40
0.855202745451614
 40
1.0
 40
1.0
 40
1.0
 40
1.0
 10
735.4670860237788
 20
206.8659492536123
 30
0.0
 10
735.6200825889719
 20
206.7716185428578
 30
0.0
 10
735.9343018136808
 20
206.5778852864143
 30
0.0
 10
736.4177099478741
 20
206.2922784235978
 30
0.0
 10
736.9259668822424
 20
206.0012373218705
 30
0.0
 10
737.4591530735325
 20
205.7063174004742
 30
0.0
 10
738.0173151112075
 20
205.4076302395735
 30
0.0
 10
738.600370629185
 20
205.1057729404881
 30
0.0
 10
739.20820410782
 20
204.8002286931836
 30
0.0
 10
739.6214489121168
 20
204.6000140441922
 30
0.0
 10
739.832187418283
 20
204.4979124917895
 30
0.0
  0
LINE
  5
175
330
1F
100
AcDbEntity
  8
0
  6
SLD-Сплошная
 62
     7
370
    25
100
AcDbLine
 10
561.9154225144
 20
223.2160937914
 30
0.0
 11
721.1140061187
 21
223.2160937914
 31
0.0
  0
SPLINE
  5
176
330
1F
100
AcDbEntity
  8
0
  6
SLD-Сплошная
 62
     7
370
    25
100
AcDbSpline
210
0.0
220
0.0
230
1.0
 70
     8
 71
     3
 72
    14
 73
    10
 74
     0
 42
0.00000001
 43
0.00000001
 40
0.0
 40
0.0
 40
0.0
 40
0.0
 40
0.1649362239108382
 40
0.3225128213639284
 40
0.4727297353972885
 40
0.6155869238652315
 40
0.7510843623037616
 40
0.8792220472144314
 40
1.0
 40
1.0
 40
1.0
 40
1.0
 10
721.1140061187011
 20
223.216093791371
 30
0.0
 10
721.2304347040208
 20
222.9760348149722
 30
0.0
 10
721.4580967096648
 20
222.5066285442554
 30
0.0
 10
721.8063791165306
 20
221.8181989854451
 30
0.0
 10
722.1498792459082
 20
221.1620724361272
 30
0.0
 10
722.4890215383074
 20
220.5384023453094
 30
0.0
 10
722.8233998375509
 20
219.9472303304431
 30
0.0
 10
723.1509853954328
 20
219.3884885450921
 30
0.0
 10
723.3738742340203
 20
219.026564624673
 30
0.0
 10
723.4820235567083
 20
218.8509531983403
 30
0.0
  0
SPLINE
  5
177
330
1F
100
AcDbEntity
  8
0
  6
SLD-Сплошная
 62
     7
370
    25
100
AcDbSpline
210
0.0
220
0.0
230
1.0
 70
     8
 71
     3
 72
    15
 73
    11
 74
     0
 42
0.00000001
 43
0.00000001
 40
0.0
 40
0.0
 40
0.0
 40
0.0
 40
0.1052026514003416
 40
0.2160616842518293
 40
0.3325771177261984
 40
0.4547489555882823
 40
0.5825771883746147
 40
0.7160617952214416
 40
0.8552027454516303
 40
1.0
 40
1.0
 40
1.0
 40
1.0
 10
559.5473857526104
 20
218.8509923968668
 30
0.0
 10
559.6417164633648
 20
219.0039889620598
 30
0.0
 10
559.8354497198084
 20
219.3182081867688
 30
0.0
 10
560.1210565826248
 20
219.8016163209622
 30
0.0
 10
560.412097684352
 20
220.3098732553306
 30
0.0
 10
560.7070176057483
 20
220.8430594466208
 30
0.0
 10
561.005704766649
 20
221.4012214842957
 30
0.0
 10
561.3075620657344
 20
221.9842770022734
 30
0.0
 10
561.6131063130389
 20
222.5921104809083
 30
0.0
 10
561.8133209620302
 20
223.005355285205
 30
0.0
 10
561.915422514433
 20
223.2160937913711
 30
0.0
  0
ARC
  5
178
330
1F
100
AcDbEntity
  8
0
  6
SLD-Сплошная
 62
     7
370
    25
100
AcDbCircle
 10
551.5147143166
 20
214.8986206897
 30
0.0
 40
13.31747310171602
100
AcDbArc
 50
38.6494156853
 51
231.3505843147
  0
SPLINE
  5
179
330
1F
100
AcDbEntity
  8
0
  6
SLD-Сплошная
 62
     7
370
    25
100
AcDbSpline
210
0.0
220
0.0
230
1.0
 70
     8
 71
     3
 72
    14
 73
    10
 74
     0
 42
0.00000001
 43
0.00000001
 40
0.0
 40
0.0
 40
0.0
 40
0.0
 40
0.1649362239107884
 40
0.3225128213638453
 40
0.4727297353971885
 40
0.615586923865132
 40
0.7510843623036785
 40
0.8792220472143816
 40
1.0
 40
1.0
 40
1.0
 40
1.0
 10
543.1972412148514
 20
204.4979124917893
 30
0.0
 10
543.4373001912501
 20
204.614341077109
 30
0.0
 10
543.9067064619668
 20
204.8420030827528
 30
0.0
 10
544.595136020777
 20
205.1902854896185
 30
0.0
 10
545.2512625700947
 20
205.5337856189961
 30
0.0
 10
545.8749326609126
 20
205.8729279113952
 30
0.0
 10
546.466104675779
 20
206.2073062106389
 30
0.0
 10
547.0248464611299
 20
206.5348917685209
 30
0.0
 10
547.3867703815491
 20
206.7577806071083
 30
0.0
 10
547.5623818078818
 20
206.8659299297965
 30
0.0
  0
LINE
  5
17A
330
1F
100
AcDbEntity
  8
0
  6
SLD-Сплошная
 62
     7
370
    25
100
AcDbLine
 10
543.1972412149
 20
23.8497127547
 30
0.0
 11
543.1972412149
 21
-76.7006711125
 31
0.0
  0
LINE
  5
17B
330
1F
100
AcDbEntity
  8
0
  6
SLD-Сплошная
 62
     7
370
    25
100
AcDbLine
 10
543.6181339993
 20
104.0603065064
 30
0.0
 11
543.6181339993
 21
23.736934873
 31
0.0
  0
LINE
  5
17C
330
1F
100
AcDbEntity
  8
0
  6
SLD-Сплошная
 62
     7
370
    25
100
AcDbLine
 10
543.1972412149
 20
103.9475286246
 30
0.0
 11
543.1972412149
 21
204.4979124918
 31
0.0
  0
ARC
  5
17D
330
1F
100
AcDbEntity
  8
0
  6
SLD-Сплошная
 62
     7
370
    25
100
AcDbCircle
 10
731.5147143166
 20
214.8986206897
 30
0.0
 40
13.31747310171602
100
AcDbArc
 50
308.6494156853
 51
141.3505843147
  0
LINE
  5
17E
330
1F
100
AcDbEntity
  8
0
  6
SLD-Сплошная
 62
     7
370
    25
100
AcDbLine
 10
536.5147143166
 20
25.6402904405
 30
0.0
 11
536.5147143166
 21
102.1569509389
 31
0.0
  0
LINE
  5
17F
330
1F
100
AcDbEntity
  8
0
  6
SLD-Сплошная
 62
     7
370
    25
100
AcDbLine
 10
536.5147143166
 20
102.1569509389
 30
0.0
 11
543.6181339993
 21
104.0603065064
 31
0.0
  0
LINE
  5
180
330
1F
100
AcDbEntity
  8
0
  6
SLD-Сплошная
 62
     7
370
    25
100
AcDbLine
 10
536.5147143166
 20
25.6402904405
 30
0.0
 11
543.6181339993
 21
23.736934873
 31
0.0
  0
LINE
  5
181
330
1F
100
AcDbEntity
  8
0
  6
SLD-Сплошная
 62
     7
370
    25
100
AcDbLine
 10
755.5147143166
 20
-4.1013793103
 30
0.0
 11
755.5147143166
 21
-64.1013793103
 31
0.0
  0
LINE
  5
182
330
1F
100
AcDbEntity
  8
0
  6
SLD-Сплошная
 62
     7
370
    25
100
AcDbLine
 10
739.4131381844
 20
-4.1013793103
 30
0.0
 11
755.5147143166
 21
-4.1013793103
 31
0.0
  0
LINE
  5
183
330
1F
100
AcDbEntity
  8
0
  6
SLD-Сплошная
 62
     7
370
    25
100
AcDbLine
 10
755.5147143166
 20
-64.1013793103
 30
0.0
 11
739.4131381844
 21
-64.1013793103
 31
0.0
  0
LINE
  5
184
330
1F
100
AcDbEntity
  8
0
  6
SLD-Сплошная
 62
     7
370
    25
100
AcDbLine
 10
755.5147143166
 20
191.8986206897
 30
0.0
 11
755.5147143166
 21
131.8986206897
 31
0.0
  0
LINE
  5
185
330
1F
100
AcDbEntity
  8
0
  6
SLD-Сплошная
 62
     7
370
    25
100
AcDbLine
 10
739.4131381844
 20
191.8986206897
 30
0.0
 11
755.5147143166
 21
191.8986206897
 31
0.0
  0
LINE
  5
186
330
1F
100
AcDbEntity
  8
0
  6
SLD-Сплошная
 62
     7
370
    25
100
AcDbLine
 10
755.5147143166
 20
131.8986206897
 30
0.0
 11
739.4131381844
 21
131.8986206897
 31
0.0
  0
LINE
  5
187
330
1F
100
AcDbEntity
  8
0
  6
SLD-Сплошная
 62
     7
370
    25
100
AcDbLine
 10
506.0147143166
 20
80.6377133016
 30
0.0
 11
506.0147143166
 21
47.1595280777
 31
0.0
  0
LINE
  5
188
330
1F
100
AcDbEntity
  8
0
  6
SLD-Сплошная
 62
     7
370
    25
100
AcDbLine
 10
536.5147143166
 20
88.8101636707
 30
0.0
 11
506.0147143166
 21
80.6377133016
 31
0.0
  0
LINE
  5
189
330
1F
100
AcDbEntity
  8
0
  6
SLD-Сплошная
 62
     7
370
    25
100
AcDbLine
 10
536.5147143166
 20
38.9870777086
 30
0.0
 11
506.0147143166
 21
47.1595280777
 31
0.0
  0
ARC
  5
18A
330
1F
100
AcDbEntity
  8
0
  6
SLD-Сплошная
 62
     7
370
    25
100
AcDbCircle
 10
735.5147143166
 20
-85.1013793103
 30
0.0
 40
20.00000000000001
100
AcDbArc
 50
270.0
 51
0.0
  0
LINE
  5
18B
330
1F
100
AcDbEntity
  8
0
  6
SLD-Сплошная
 62
     7
370
    25
100
AcDbLine
 10
735.5147143166
 20
-105.1013793103
 30
0.0
 11
547.5147143166
 21
-105.1013793103
 31
0.0
  0
ARC
  5
18C
330
1F
100
AcDbEntity
  8
0
  6
SLD-Сплошная
 62
     7
370
    25
100
AcDbCircle
 10
547.5147143166
 20
-85.1013793103
 30
0.0
 40
20.00000000000001
100
AcDbArc
 50
180.0
 51
270.0
  0
LINE
  5
18D
330
1F
100
AcDbEntity
  8
0
  6
SLD-Сплошная
 62
     7
370
    25
100
AcDbLine
 10
527.5147143166
 20
-85.1013793103
 30
0.0
 11
527.5147143166
 21
41.3986204405
 31
0.0
  0
LINE
  5
18E
330
1F
100
AcDbEntity
  8
0
  6
SLD-Сплошная
 62
     7
370
    25
100
AcDbLine
 10
755.5147143166
 20
-64.1013793103
 30
0.0
 11
755.5147143166
 21
-85.1013793103
 31
0.0
  0
LINE
  5
18F
330
1F
100
AcDbEntity
  8
0
  6
SLD-Сплошная
 62
     7
370
    25
100
AcDbLine
 10
527.5147143166
 20
86.3986209388
 30
0.0
 11
527.5147143166
 21
212.8986206897
 31
0.0
  0
ARC
  5
190
330
1F
100
AcDbEntity
  8
0
  6
SLD-Сплошная
 62
     7
370
    25
100
AcDbCircle
 10
547.5147143166
 20
212.8986206897
 30
0.0
 40
20.0
100
AcDbArc
 50
90.0
 51
180.0
  0
LINE
  5
191
330
1F
100
AcDbEntity
  8
0
  6
SLD-Сплошная
 62
     7
370
    25
100
AcDbLine
 10
547.5147143166
 20
232.8986206897
 30
0.0
 11
735.5147143166
 21
232.8986206897
 31
0.0
  0
ARC
  5
192
330
1F
100
AcDbEntity
  8
0
  6
SLD-Сплошная
 62
     7
370
    25
100
AcDbCircle
 10
735.5147143166
 20
212.8986206897
 30
0.0
 40
20.0
100
AcDbArc
 50
0.0
 51
90.0
  0
LINE
  5
193
330
1F
100
AcDbEntity
  8
0
  6
SLD-Сплошная
 62
     7
370
    25
100
AcDbLine
 10
755.5147143166
 20
212.8986206897
 30
0.0
 11
755.5147143166
 21
191.8986206897
 31
0.0
  0
LINE
  5
194
330
1F
100
AcDbEntity
  8
0
  6
SLD-Сплошная
 62
     7
370
    25
100
AcDbLine
 10
755.5147143166
 20
131.8986206897
 30
0.0
 11
755.5147143166
 21
-4.1013793103
 31
0.0
  0
LINE
  5
195
330
1F
100
AcDbEntity
  8
0
  6
SLD-Сплошная
 62
     7
370
    25
100
AcDbLine
 10
-76.873249948
 20
466.6106281722
 30
0.0
 11
-76.873249948
 21
460.6106281722
 31
0.0
  0
LINE
  5
196
330
1F
100
AcDbEntity
  8
0
  6
SLD-Сплошная
 62
     7
370
    25
100
AcDbLine
 10
-66.4228741818
 20
455.6106281722
 30
0.0
 11
-62.0577779953
 21
330.6106281722
 31
0.0
  0
LINE
  5
197
330
1F
100
AcDbEntity
  8
0
  6
SLD-Сплошная
 62
     7
370
    25
100
AcDbLine
 10
135.8469758352
 20
330.6106281722
 30
0.0
 11
140.2120720217
 21
455.6106281722
 31
0.0
  0
LINE
  5
198
330
1F
100
AcDbEntity
  8
0
  6
SLD-Сплошная
 62
     7
370
    25
100
AcDbLine
 10
-17.10540108
 20
330.6106281722
 30
0.0
 11
-17.10540108
 21
327.6106281722
 31
0.0
  0
LINE
  5
199
330
1F
100
AcDbEntity
  8
0
  6
SLD-Сплошная
 62
     7
370
    25
100
AcDbLine
 10
-3.10540108
 20
327.6106281722
 30
0.0
 11
-3.10540108
 21
330.6106281722
 31
0.0
  0
LINE
  5
19A
330
1F
100
AcDbEntity
  8
0
  6
SLD-Сплошная
 62
     7
370
    25
100
AcDbLine
 10
76.89459892
 20
330.6106281722
 30
0.0
 11
76.89459892
 21
327.6106281722
 31
0.0
  0
LINE
  5
19B
330
1F
100
AcDbEntity
  8
0
  6
SLD-Сплошная
 62
     7
370
    25
100
AcDbLine
 10
90.89459892
 20
327.6106281722
 30
0.0
 11
90.89459892
 21
330.6106281722
 31
0.0
  0
LINE
  5
19C
330
1F
100
AcDbEntity
  8
0
  6
SLD-Сплошная
 62
     7
370
    25
100
AcDbLine
 10
105.89459892
 20
330.6106281722
 30
0.0
 11
105.89459892
 21
327.6106281722
 31
0.0
  0
LINE
  5
19D
330
1F
100
AcDbEntity
  8
0
  6
SLD-Сплошная
 62
     7
370
    25
100
AcDbLine
 10
119.89459892
 20
327.6106281722
 30
0.0
 11
119.89459892
 21
330.6106281722
 31
0.0
  0
LINE
  5
19E
330
1F
100
AcDbEntity
  8
0
  6
SLD-Сплошная
 62
     7
370
    25
100
AcDbLine
 10
-46.10540108
 20
330.6106281722
 30
0.0
 11
-46.10540108
 21
327.6106281722
 31
0.0
  0
LINE
  5
19F
330
1F
100
AcDbEntity
  8
0
  6
SLD-Сплошная
 62
     7
370
    25
100
AcDbLine
 10
-32.10540108
 20
327.6106281722
 30
0.0
 11
-32.10540108
 21
330.6106281722
 31
0.0
  0
SPLINE
  5
1A0
330
1F
100
AcDbEntity
  8
0
  6
SLD-Сплошная
 62
     7
370
    25
100
AcDbSpline
210
0.0
220
0.0
230
1.0
 70
     8
 71
     3
 72
    32
 73
    28
 74
     0
 42
0.00000001
 43
0.00000001
 40
0.0
 40
0.0
 40
0.0
 40
0.0
 40
0.0135588794030297
 40
0.0277174791553564
 40
0.0424762570643773
 40
0.0578356167698576
 40
0.0737959158436835
 40
0.0903574724316831
 40
0.1075205707405207
 40
0.1252854656018702
 40
0.1611836878589975
 40
0.2501688701768589
 40
0.3232955083607684
 40
0.3894260789570503
 40
0.4485637298971212
 40
0.5007138835625495
 40
0.5741509916057252
 40
0.657338926320523
 40
0.7502880992388875
 40
0.8131108297769698
 40
0.854815208954112
 40
0.875389828185788
 40
0.9036379531280655
 40
0.9302218239659985
 40
0.9551425201003971
 40
0.9784013649552354
 40
1.0
 40
1.0
 40
1.0
 40
1.0
 10
-57.1054010507268
 20
473.6104887018642
 30
0.0
 10
-57.24739879911736
 20
473.6104424270071
 30
0.0
 10
-57.53767497269578
 20
473.6103478305182
 30
0.0
 10
-57.98230019060126
 20
473.6136337394026
 30
0.0
 10
-58.44528906754542
 20
473.6193629138014
 30
0.0
 10
-58.92632127762824
 20
473.6278149944287
 30
0.0
 10
-59.42500909053692
 20
473.6389159034375
 30
0.0
 10
-59.94089405878024
 20
473.6526672342603
 30
0.0
 10
-60.47343401507657
 20
473.6691474235977
 30
0.0
 10
-61.20248058582516
 20
473.6942359842259
 30
0.0
 10
-62.65806044403498
 20
473.7565476962905
 30
0.0
 10
-64.63013582984556
 20
473.8415790979764
 30
0.0
 10
-66.78490227268176
 20
473.9339619612928
 30
0.0
 10
-68.54805273977288
 20
473.9957551461066
 30
0.0
 10
-70.01988387749748
 20
474.033825786365
 30
0.0
 10
-71.4427337991108
 20
474.0492330908585
 30
0.0
 10
-72.89859372415089
 20
474.0252868769306
 30
0.0
 10
-74.38565205894638
 20
473.9593321888809
 30
0.0
 10
-75.51150680689669
 20
473.8637955616155
 30
0.0
 10
-76.20696737373379
 20
473.7756279304311
 30
0.0
 10
-76.54467037465729
 20
473.7218596006774
 30
0.0
 10
-76.74389496535775
 20
473.6835168754628
 30
0.0
 10
-76.88019732998913
 20
473.6582475190489
 30
0.0
 10
-76.98898741876648
 20
473.6355316083145
 30
0.0
 10
-77.05896492490702
 20
473.6200463897902
 30
0.0
 10
-77.09854417120448
 20
473.6106792107423
 30
0.0
 10
-77.10317254363507
 20
473.6103026857195
 30
0.0
 10
-77.10540108003975
 20
473.6101213909483
 30
0.0
  0
LINE
  5
1A1
330
1F
100
AcDbEntity
  8
0
  6
SLD-Сплошная
 62
     7
370
    25
100
AcDbLine
 10
-57.10540108
 20
460.6106281722
 30
0.0
 11
-76.8672973549
 21
460.6106281722
 31
0.0
  0
LINE
  5
1A2
330
1F
100
AcDbEntity
  8
0
  6
SLD-Сплошная
 62
     7
370
    25
100
AcDbLine
 10
-77.10540108
 20
466.6106281722
 30
0.0
 11
-76.8672973549
 21
466.6106281722
 31
0.0
  0
LINE
  5
1A3
330
1F
100
AcDbEntity
  8
0
  6
SLD-Сплошная
 62
     7
370
    25
100
AcDbLine
 10
-77.10540108
 20
466.6106281722
 30
0.0
 11
-77.10540108
 21
473.6105032942
 31
0.0
  0
ELLIPSE
  5
1A4
330
1F
100
AcDbEntity
  8
0
  6
SLD-Сплошная
 62
     7
370
    25
100
AcDbEllipse
 10
150.89459892
 20
431.4481909667
 30
0.0
 11
-43.67761559479
 21
32.03025143617936
 31
0.0
210
0.0
220
0.0
230
1.0
 40
0.627730463
 41
5.572786631609914
 42
5.57522048966709
  0
LINE
  5
1A5
330
1F
100
AcDbEntity
  8
0
  6
SLD-Сплошная
 62
     7
370
    25
100
AcDbLine
 10
130.89459892
 20
460.6106281722
 30
0.0
 11
-57.10540108
 21
460.6106281722
 31
0.0
  0
ELLIPSE
  5
1A6
330
1F
100
AcDbEntity
  8
0
  6
SLD-Сплошная
 62
     7
370
    25
100
AcDbEllipse
 10
-77.10540108
 20
431.4481909667
 30
0.0
 11
-43.67761559478989
 21
-32.0302514361793
 31
0.0
210
0.0
220
0.0
230
1.0
 40
0.627730463
 41
3.84955747110233
 42
3.851991329159497
  0
LINE
  5
1A7
330
1F
100
AcDbEntity
  8
0
  6
SLD-Сплошная
 62
     7
370
    25
100
AcDbLine
 10
-56.9990365167
 20
473.6106281722
 30
0.0
 11
130.7882343566
 21
473.6106281722
 31
0.0
  0
LINE
  5
1A8
330
1F
100
AcDbEntity
  8
0
  6
SLD-Сплошная
 62
     7
370
    25
100
AcDbLine
 10
130.89459892
 20
460.6106281722
 30
0.0
 11
150.89459892
 21
460.6106281722
 31
0.0
  0
SPLINE
  5
1A9
330
1F
100
AcDbEntity
  8
0
  6
SLD-Сплошная
 62
     7
370
    25
100
AcDbSpline
210
0.0
220
0.0
230
1.0
 70
     8
 71
     3
 72
    32
 73
    28
 74
     0
 42
0.00000001
 43
0.00000001
 40
0.0
 40
0.0
 40
0.0
 40
0.0
 40
0.0135588788038479
 40
0.027717477964955
 40
0.0424762552907036
 40
0.0578356144208489
 40
0.0737959129272602
 40
0.0903574689557524
 40
0.1075205667129768
 40
0.1252854610305914
 40
0.1611836821893729
 40
0.2501688619787141
 40
0.3232954980458839
 40
0.3894260667239763
 40
0.4485637159443056
 40
0.5007138680882826
 40
0.5741509740039026
 40
0.6573389063028235
 40
0.750288076516695
 40
0.813110805204859
 40
0.8548151831708602
 40
0.8753898018305322
 40
0.9036379277527684
 40
0.9302218017155036
 40
0.9551425031203898
 40
0.9784013553920055
 40
1.0
 40
1.0
 40
1.0
 40
1.0
 10
150.8945989199602
 20
473.6104887018641
 30
0.0
 10
150.8937228662458
 20
473.6104424270123
 30
0.0
 10
150.8919320102409
 20
473.6103478305341
 30
0.0
 10
150.8769661839776
 20
473.6136337394316
 30
0.0
 10
150.8515699762688
 20
473.6193629138382
 30
0.0
 10
150.8135480618875
 20
473.6278149944694
 30
0.0
 10
150.7618207225434
 20
473.6389159034779
 30
0.0
 10
150.6949384077761
 20
473.6526672342961
 30
0.0
 10
150.6115120203974
 20
473.669147423626
 30
0.0
 10
150.4767191482226
 20
473.694235984222
 30
0.0
 10
150.1437147655979
 20
473.7565476962789
 30
0.0
 10
149.4836680540508
 20
473.8415790979564
 30
0.0
 10
148.4418432186826
 20
473.9339619612904
 30
0.0
 10
147.3372428265477
 20
473.9957551461044
 30
0.0
 10
146.1994212400627
 20
474.0338257863639
 30
0.0
 10
144.8858011659347
 20
474.0492330908585
 30
0.0
 10
143.2478424702381
 20
474.0252868769325
 30
0.0
 10
141.0905887531613
 20
473.9593321888796
 30
0.0
 10
138.8469715352437
 20
473.8637955616396
 30
0.0
 10
136.8979887589013
 20
473.7756279304177
 30
0.0
 10
135.6322744468448
 20
473.7218596007519
 30
0.0
 10
134.7060577142044
 20
473.6835168745949
 30
0.0
 10
133.9283411490045
 20
473.6582475172406
 30
0.0
 10
133.1003020660213
 20
473.6355316063674
 30
0.0
 10
132.3204646721821
 20
473.6200463880117
 30
0.0
 10
131.5905940753437
 20
473.610679209719
 30
0.0
 10
131.1208008844263
 20
473.6103026853947
 30
0.0
 10
130.8945979779842
 20
473.6101213909482
 30
0.0
  0
LINE
  5
1AA
330
1F
100
AcDbEntity
  8
0
  6
SLD-Сплошная
 62
     7
370
    25
100
AcDbLine
 10
150.89459892
 20
473.6105032942
 30
0.0
 11
150.89459892
 21
460.6106281722
 31
0.0
  0
LINE
  5
1AB
330
1F
100
AcDbEntity
  8
0
  6
SLD-Сплошная
 62
     7
370
    25
100
AcDbLine
 10
-77.10540108
 20
473.6105032942
 30
0.0
 11
-77.10540108
 21
473.6106281722
 31
0.0
  0
LINE
  5
1AC
330
1F
100
AcDbEntity
  8
0
  6
SLD-Сплошная
 62
     7
370
    25
100
AcDbLine
 10
-77.10540108
 20
473.6106281722
 30
0.0
 11
-62.10540108
 21
484.6106281722
 31
0.0
  0
LINE
  5
1AD
330
1F
100
AcDbEntity
  8
0
  6
SLD-Сплошная
 62
     7
370
    25
100
AcDbLine
 10
-62.10540108
 20
484.6106281722
 30
0.0
 11
-41.9990365167
 21
484.6106281722
 31
0.0
  0
LINE
  5
1AE
330
1F
100
AcDbEntity
  8
0
  6
SLD-Сплошная
 62
     7
370
    25
100
AcDbLine
 10
135.89459892
 20
484.6106281722
 30
0.0
 11
150.89459892
 21
473.6106281722
 31
0.0
  0
LINE
  5
1AF
330
1F
100
AcDbEntity
  8
0
  6
SLD-Сплошная
 62
     7
370
    25
100
AcDbLine
 10
150.89459892
 20
473.6106281722
 30
0.0
 11
150.89459892
 21
473.6105032942
 31
0.0
  0
LINE
  5
1B0
330
1F
100
AcDbEntity
  8
0
  6
SLD-Сплошная
 62
     7
370
    25
100
AcDbLine
 10
115.7882343566
 20
484.6106281722
 30
0.0
 11
135.89459892
 21
484.6106281722
 31
0.0
  0
LINE
  5
1B1
330
1F
100
AcDbEntity
  8
0
  6
SLD-Сплошная
 62
     7
370
    25
100
AcDbLine
 10
115.7882343566
 20
484.6106281722
 30
0.0
 11
-41.9990365167
 21
484.6106281722
 31
0.0
  0
LINE
  5
1B2
330
1F
100
AcDbEntity
  8
0
  6
SLD-Сплошная
 62
     7
370
    25
100
AcDbLine
 10
-77.10540108
 20
484.6106281722
 30
0.0
 11
-77.10540108
 21
473.6106281722
 31
0.0
  0
LINE
  5
1B3
330
1F
100
AcDbEntity
  8
0
  6
SLD-Сплошная
 62
     7
370
    25
100
AcDbLine
 10
-62.10540108
 20
484.6106281722
 30
0.0
 11
-77.10540108
 21
484.6106281722
 31
0.0
  0
LINE
  5
1B4
330
1F
100
AcDbEntity
  8
0
  6
SLD-Сплошная
 62
     7
370
    25
100
AcDbLine
 10
172.3945989199
 20
460.6106281722
 30
0.0
 11
172.3945989199
 21
472.1106281722
 31
0.0
  0
LINE
  5
1B5
330
1F
100
AcDbEntity
  8
0
  6
SLD-Сплошная
 62
     7
370
    25
100
AcDbLine
 10
172.3945989199
 20
472.1106281722
 30
0.0
 11
150.89459892
 21
472.1106281722
 31
0.0
  0
LINE
  5
1B6
330
1F
100
AcDbEntity
  8
0
  6
SLD-Сплошная
 62
     7
370
    25
100
AcDbLine
 10
172.3945989199
 20
460.6106281722
 30
0.0
 11
150.89459892
 21
460.6106281722
 31
0.0
  0
LINE
  5
1B7
330
1F
100
AcDbEntity
  8
0
  6
SLD-Сплошная
 62
     7
370
    25
100
AcDbLine
 10
-77.10540108
 20
460.6106281722
 30
0.0
 11
-57.10540108
 21
460.6106281722
 31
0.0
  0
LINE
  5
1B8
330
1F
100
AcDbEntity
  8
0
  6
SLD-Сплошная
 62
     7
370
    25
100
AcDbLine
 10
-77.10540108
 20
455.6106281722
 30
0.0
 11
-57.10540108
 21
455.6106281722
 31
0.0
  0
LINE
  5
1B9
330
1F
100
AcDbEntity
  8
0
  6
SLD-Сплошная
 62
     7
370
    25
100
AcDbLine
 10
-77.10540108
 20
460.6106281722
 30
0.0
 11
-77.10540108
 21
455.6106281722
 31
0.0
  0
LINE
  5
1BA
330
1F
100
AcDbEntity
  8
0
  6
SLD-Сплошная
 62
     7
370
    25
100
AcDbLine
 10
-57.10540108
 20
455.6106281722
 30
0.0
 11
130.89459892
 21
455.6106281722
 31
0.0
  0
LINE
  5
1BB
330
1F
100
AcDbEntity
  8
0
  6
SLD-Сплошная
 62
     7
370
    25
100
AcDbLine
 10
150.89459892
 20
460.6106281722
 30
0.0
 11
150.89459892
 21
455.6106281722
 31
0.0
  0
LINE
  5
1BC
330
1F
100
AcDbEntity
  8
0
  6
SLD-Сплошная
 62
     7
370
    25
100
AcDbLine
 10
130.89459892
 20
455.6106281722
 30
0.0
 11
150.89459892
 21
455.6106281722
 31
0.0
  0
SPLINE
  5
1BD
330
1F
100
AcDbEntity
  8
0
  6
SLD-Сплошная
 62
     7
370
    25
100
AcDbSpline
210
0.0
220
0.0
230
1.0
 70
     8
 71
     3
 72
    15
 73
    11
 74
     0
 42
0.00000001
 43
0.00000001
 40
0.0
 40
0.0
 40
0.0
 40
0.0
 40
0.1052026514002514
 40
0.2160616842516748
 40
0.3325771177260052
 40
0.4547489555880762
 40
0.5825771883744214
 40
0.716061795221287
 40
0.8552027454515397
 40
1.0
 40
1.0
 40
1.0
 40
1.0
 10
-45.07272964399655
 20
330.6106282981598
 30
0.0
 10
-44.97839893324215
 20
334.9938509225701
 30
0.0
 10
-44.78466567679877
 20
343.9959668395638
 30
0.0
 10
-44.4990588139824
 20
357.8529232177176
 30
0.0
 10
-44.20801771225518
 20
372.4170854244979
 30
0.0
 10
-43.91309779085895
 20
387.6884774601916
 30
0.0
 10
-43.61441062995816
 20
403.6670918947846
 30
0.0
 10
-43.31255333087274
 20
420.3529341960882
 30
0.0
 10
-43.00700908356812
 20
437.7459906154103
 30
0.0
 10
-42.80679443457663
 20
449.5771863015948
 30
0.0
 10
-42.70469288217391
 20
455.6106281722308
 30
0.0
  0
LINE
  5
1BE
330
1F
100
AcDbEntity
  8
0
  6
SLD-Сплошная
 62
     7
370
    25
100
AcDbLine
 10
-62.0577779953
 20
330.6106281722
 30
0.0
 11
-45.0727322114
 21
330.6106281722
 31
0.0
  0
LINE
  5
1BF
330
1F
100
AcDbEntity
  8
0
  6
SLD-Сплошная
 62
     7
370
    25
100
AcDbLine
 10
118.8619300514
 20
330.6106281722
 30
0.0
 11
135.8469758352
 21
330.6106281722
 31
0.0
  0
SPLINE
  5
1C0
330
1F
100
AcDbEntity
  8
0
  6
SLD-Сплошная
 62
     7
370
    25
100
AcDbSpline
210
0.0
220
0.0
230
1.0
 70
     8
 71
     3
 72
    14
 73
    10
 74
     0
 42
0.00000001
 43
0.00000001
 40
0.0
 40
0.0
 40
0.0
 40
0.0
 40
0.1649362239108062
 40
0.3225128213638742
 40
0.4727297353972236
 40
0.6155869238651672
 40
0.7510843623037079
 40
0.8792220472143994
 40
1.0
 40
1.0
 40
1.0
 40
1.0
 10
116.4938907220945
 20
455.6106281722308
 30
0.0
 10
116.6103193074141
 20
448.7380340406705
 30
0.0
 10
116.837981313058
 20
435.2995081007473
 30
0.0
 10
117.1862637199237
 20
415.6019797537606
 30
0.0
 10
117.5297638493012
 20
396.8246344823967
 30
0.0
 10
117.8689061417004
 20
378.9674865171462
 30
0.0
 10
118.2032844409441
 20
362.0305403102378
 30
0.0
 10
118.5308699988261
 20
346.0137653006488
 30
0.0
 10
118.7537588374134
 20
335.6427944945719
 30
0.0
 10
118.8619081601016
 20
330.6106292439278
 30
0.0
  0
LINE
  5
1C1
330
1F
100
AcDbEntity
  8
0
  6
SLD-Сплошная
 62
     7
370
    25
100
AcDbLine
 10
-45.0727322114
 20
330.6106281722
 30
0.0
 11
118.8619300514
 21
330.6106281722
 31
0.0
  0
LINE
  5
1C2
330
1F
100
AcDbEntity
  8
0
  6
SLD-Сплошная
 62
     7
370
    25
100
AcDbLine
 10
6.39459892
 20
330.6106281722
 30
0.0
 11
6.39459892
 21
327.6106281722
 31
0.0
  0
LINE
  5
1C3
330
1F
100
AcDbEntity
  8
0
  6
SLD-Сплошная
 62
     7
370
    25
100
AcDbLine
 10
6.39459892
 20
327.6106281722
 30
0.0
 11
2.39459892
 21
327.6106281722
 31
0.0
  0
LINE
  5
1C4
330
1F
100
AcDbEntity
  8
0
  6
SLD-Сплошная
 62
     7
370
    25
100
AcDbLine
 10
2.39459892
 20
330.6106281722
 30
0.0
 11
2.39459892
 21
327.6106281722
 31
0.0
  0
LINE
  5
1C5
330
1F
100
AcDbEntity
  8
0
  6
SLD-Сплошная
 62
     7
370
    25
100
AcDbLine
 10
71.39459892
 20
327.6106281722
 30
0.0
 11
71.39459892
 21
330.6106281722
 31
0.0
  0
LINE
  5
1C6
330
1F
100
AcDbEntity
  8
0
  6
SLD-Сплошная
 62
     7
370
    25
100
AcDbLine
 10
71.39459892
 20
327.6106281722
 30
0.0
 11
67.39459892
 21
327.6106281722
 31
0.0
  0
LINE
  5
1C7
330
1F
100
AcDbEntity
  8
0
  6
SLD-Сплошная
 62
     7
370
    25
100
AcDbLine
 10
67.39459892
 20
330.6106281722
 30
0.0
 11
67.39459892
 21
327.6106281722
 31
0.0
  0
LINE
  5
1C8
330
1F
100
AcDbEntity
  8
0
  6
SLD-Сплошная
 62
     7
370
    25
100
AcDbLine
 10
-17.10540108
 20
327.6106281722
 30
0.0
 11
-3.10540108
 21
327.6106281722
 31
0.0
  0
LINE
  5
1C9
330
1F
100
AcDbEntity
  8
0
  6
SLD-Сплошная
 62
     7
370
    25
100
AcDbLine
 10
76.89459892
 20
327.6106281722
 30
0.0
 11
90.89459892
 21
327.6106281722
 31
0.0
  0
LINE
  5
1CA
330
1F
100
AcDbEntity
  8
0
  6
SLD-Сплошная
 62
     7
370
    25
100
AcDbLine
 10
-77.10540108
 20
443.6106281722
 30
0.0
 11
-66.0038249479
 21
443.6106281722
 31
0.0
  0
LINE
  5
1CB
330
1F
100
AcDbEntity
  8
0
  6
SLD-Сплошная
 62
     7
370
    25
100
AcDbLine
 10
-77.10540108
 20
455.6106281722
 30
0.0
 11
-77.10540108
 21
443.6106281722
 31
0.0
  0
LINE
  5
1CC
330
1F
100
AcDbEntity
  8
0
  6
SLD-Сплошная
 62
     7
370
    25
100
AcDbLine
 10
101.39459892
 20
330.6106281722
 30
0.0
 11
101.39459892
 21
327.6106281722
 31
0.0
  0
LINE
  5
1CD
330
1F
100
AcDbEntity
  8
0
  6
SLD-Сплошная
 62
     7
370
    25
100
AcDbLine
 10
101.39459892
 20
327.6106281722
 30
0.0
 11
90.89459892
 21
327.6106281722
 31
0.0
  0
LINE
  5
1CE
330
1F
100
AcDbEntity
  8
0
  6
SLD-Сплошная
 62
     7
370
    25
100
AcDbLine
 10
76.89459892
 20
327.6106281722
 30
0.0
 11
71.39459892
 21
327.6106281722
 31
0.0
  0
LINE
  5
1CF
330
1F
100
AcDbEntity
  8
0
  6
SLD-Сплошная
 62
     7
370
    25
100
AcDbLine
 10
-27.60540108
 20
330.6106281722
 30
0.0
 11
-27.60540108
 21
327.6106281722
 31
0.0
  0
LINE
  5
1D0
330
1F
100
AcDbEntity
  8
0
  6
SLD-Сплошная
 62
     7
370
    25
100
AcDbLine
 10
2.39459892
 20
327.6106281722
 30
0.0
 11
-3.10540108
 21
327.6106281722
 31
0.0
  0
LINE
  5
1D1
330
1F
100
AcDbEntity
  8
0
  6
SLD-Сплошная
 62
     7
370
    25
100
AcDbLine
 10
-17.10540108
 20
327.6106281722
 30
0.0
 11
-27.60540108
 21
327.6106281722
 31
0.0
  0
LINE
  5
1D2
330
1F
100
AcDbEntity
  8
0
  6
SLD-Сплошная
 62
     7
370
    25
100
AcDbLine
 10
105.89459892
 20
327.6106281722
 30
0.0
 11
119.89459892
 21
327.6106281722
 31
0.0
  0
LINE
  5
1D3
330
1F
100
AcDbEntity
  8
0
  6
SLD-Сплошная
 62
     7
370
    25
100
AcDbLine
 10
-46.10540108
 20
327.6106281722
 30
0.0
 11
-32.10540108
 21
327.6106281722
 31
0.0
  0
LINE
  5
1D4
330
1F
100
AcDbEntity
  8
0
  6
SLD-Сплошная
 62
     7
370
    25
100
AcDbLine
 10
67.39459892
 20
327.6106281722
 30
0.0
 11
6.39459892
 21
327.6106281722
 31
0.0
  0
LINE
  5
1D5
330
1F
100
AcDbEntity
  8
0
  6
SLD-Сплошная
 62
     7
370
    25
100
AcDbLine
 10
126.89459892
 20
330.6106281722
 30
0.0
 11
126.89459892
 21
327.6106281722
 31
0.0
  0
LINE
  5
1D6
330
1F
100
AcDbEntity
  8
0
  6
SLD-Сплошная
 62
     7
370
    25
100
AcDbLine
 10
126.89459892
 20
327.6106281722
 30
0.0
 11
119.89459892
 21
327.6106281722
 31
0.0
  0
LINE
  5
1D7
330
1F
100
AcDbEntity
  8
0
  6
SLD-Сплошная
 62
     7
370
    25
100
AcDbLine
 10
105.89459892
 20
327.6106281722
 30
0.0
 11
101.39459892
 21
327.6106281722
 31
0.0
  0
LINE
  5
1D8
330
1F
100
AcDbEntity
  8
0
  6
SLD-Сплошная
 62
     7
370
    25
100
AcDbLine
 10
-53.10540108
 20
330.6106281722
 30
0.0
 11
-53.10540108
 21
327.6106281722
 31
0.0
  0
LINE
  5
1D9
330
1F
100
AcDbEntity
  8
0
  6
SLD-Сплошная
 62
     7
370
    25
100
AcDbLine
 10
-27.60540108
 20
327.6106281722
 30
0.0
 11
-32.10540108
 21
327.6106281722
 31
0.0
  0
LINE
  5
1DA
330
1F
100
AcDbEntity
  8
0
  6
SLD-Сплошная
 62
     7
370
    25
100
AcDbLine
 10
-46.10540108
 20
327.6106281722
 30
0.0
 11
-53.10540108
 21
327.6106281722
 31
0.0
  0
LINE
  5
1DB
330
1F
100
AcDbEntity
  8
0
  6
SLD-Сплошная
 62
     7
370
    25
100
AcDbLine
 10
141.89459892
 20
455.6106281722
 30
0.0
 11
141.89459892
 21
444.1793044851
 31
0.0
  0
LINE
  5
1DC
330
1F
100
AcDbEntity
  8
0
  6
SLD-Сплошная
 62
     7
370
    25
100
AcDbLine
 10
141.89459892
 20
444.1793044851
 30
0.0
 11
139.8065019078
 21
443.9966196682
 31
0.0
  0
LINE
  5
1DD
330
1F
100
AcDbEntity
  8
0
  6
SLD-Сплошная
 62
     7
370
    25
100
AcDbLine
 10
172.3945989199
 20
452.060310751
 30
0.0
 11
172.3945989199
 21
460.6106281722
 31
0.0
  0
LINE
  5
1DE
330
1F
100
AcDbEntity
  8
0
  6
SLD-Сплошная
 62
     7
370
    25
100
AcDbLine
 10
141.89459892
 20
449.3919065134
 30
0.0
 11
172.3945989199
 21
452.060310751
 31
0.0
  0
LINE
  5
1DF
330
1F
100
AcDbEntity
  8
0
  6
SLD-Сплошная
 62
     7
370
    25
100
AcDbLine
 10
-77.10540108
 20
460.6106281722
 30
0.0
 11
-77.10540108
 21
466.6106281722
 31
0.0
  0
ENDSEC
  0
SECTION
  2
OBJECTS
  0
DICTIONARY
  5
C
330
0
100
AcDbDictionary
281
     1
  3
ACAD_DETAILVIEWSTYLE
350
1E7
  3
ACAD_GROUP
350
D
  3
ACAD_LAYOUT
350
1A
  3
ACAD_MATERIAL
350
43
  3
ACAD_MLEADERSTYLE
350
5B
  3
ACAD_MLINESTYLE
350
17
  3
ACAD_PLOTSETTINGS
350
19
  3
ACAD_PLOTSTYLENAME
350
E
  3
ACAD_SCALELIST
350
47
  3
ACAD_SECTIONVIEWSTYLE
350
1E8
  3
ACAD_TABLESTYLE
350
59
  3
ACAD_VISUALSTYLE
350
2A
  3
ACDB_RECOMPOSE_DATA
350
1E4
  3
AcDbVariableDictionary
350
1E0
  0
SUN
  5
5D
330
29
100
AcDbSun
 90
        1
290
     0
 63
     7
421
 16777215
 40
1.0
291
     1
 91
  2455826
 92
 54000000
292
     0
 70
     2
 71
   256
280
     1
  0
DICTIONARY
  5
1E7
102
{ACAD_REACTORS
330
C
102
}
330
C
100
AcDbDictionary
281
     1
  0
DICTIONARY
  5
D
102
{ACAD_REACTORS
330
C
102
}
330
C
100
AcDbDictionary
281
     1
  0
DICTIONARY
  5
1A
102
{ACAD_REACTORS
330
C
102
}
330
C
100
AcDbDictionary
281
     1
  3
Layout1
350
1E
  3
Layout2
350
26
  3
Model
350
22
  0
DICTIONARY
  5
43
102
{ACAD_REACTORS
330
C
102
}
330
C
100
AcDbDictionary
281
     1
  3
ByBlock
350
45
  3
ByLayer
350
44
  3
Global
350
46
  0
DICTIONARY
  5
5B
102
{ACAD_REACTORS
330
C
102
}
330
C
100
AcDbDictionary
281
     1
  3
Standard
350
5C
  0
DICTIONARY
  5
17
102
{ACAD_REACTORS
330
C
102
}
330
C
100
AcDbDictionary
281
     1
  3
Standard
350
18
  0
DICTIONARY
  5
19
102
{ACAD_REACTORS
330
C
102
}
330
C
100
AcDbDictionary
281
     1
  0
ACDBDICTIONARYWDFLT
  5
E
102
{ACAD_REACTORS
330
C
102
}
330
C
100
AcDbDictionary
281
     1
  3
Normal
350
F
100
AcDbDictionaryWithDefault
340
F
  0
DICTIONARY
  5
47
102
{ACAD_REACTORS
330
C
102
}
330
C
100
AcDbDictionary
281
     1
  3
A0
350
48
  3
A1
350
49
  3
A2
350
4A
  3
A3
350
4B
  3
A4
350
4C
  3
A5
350
4D
  3
A6
350
4E
  3
A7
350
4F
  3
A8
350
50
  3
A9
350
51
  3
B0
350
52
  3
B1
350
53
  3
B2
350
54
  3
B3
350
55
  3
B4
350
56
  3
B5
350
57
  3
B6
350
58
  0
DICTIONARY
  5
1E8
102
{ACAD_REACTORS
330
C
102
}
330
C
100
AcDbDictionary
281
     1
  0
DICTIONARY
  5
59
102
{ACAD_REACTORS
330
C
102
}
330
C
100
AcDbDictionary
281
     1
  3
Standard
350
5A
  0
DICTIONARY
  5
2A
102
{ACAD_REACTORS
330
C
102
}
330
C
100
AcDbDictionary
281
     1
  3
2dWireframe
350
2F
  3
Basic
350
32
  3
Brighten
350
36
  3
ColorChange
350
3A
  3
Conceptual
350
34
  3
Dim
350
35
  3
EdgeColorOff
350
3D
  3
Facepattern
350
39
  3
Flat
350
2B
  3
FlatWithEdges
350
2C
  3
Gouraud
350
2D
  3
GouraudWithEdges
350
2E
  3
Hidden
350
31
  3
JitterOff
350
3B
  3
Linepattern
350
38
  3
OverhangOff
350
3C
  3
Realistic
350
33
  3
Shaded
350
42
  3
Shaded with edges
350
41
  3
Shades of Gray
350
3E
  3
Sketchy
350
3F
  3
Thicken
350
37
  3
Wireframe
350
30
  3
X-Ray
350
40
  0
XRECORD
  5
1E4
102
{ACAD_REACTORS
330
C
102
}
330
C
100
AcDbXrecord
280
     1
 90
        1
330
5A
  0
DICTIONARY
  5
1E0
102
{ACAD_REACTORS
330
C
102
}
330
C
100
AcDbDictionary
281
     1
  3
CANNOSCALE
350
1E1
  3
CENTEREXE
350
1E9
  3
CENTERLTYPEFILE
350
1EA
  3
CMLEADERSTYLE
350
1E6
  3
CTABLESTYLE
350
1E5
  0
LAYOUT
  5
1E
102
{ACAD_REACTORS
330
1A
102
}
330
1A
100
AcDbPlotSettings
  1

  2
none_device
  4

  6

 40
0.0
 41
0.0
 42
0.0
 43
0.0
 44
0.0
 45
0.0
 46
0.0
 47
0.0
 48
0.0
 49
0.0
140
0.0
141
0.0
142
1.0
143
1.0
 70
   688
 72
     1
 73
     0
 74
     5
  7

 75
    16
 76
     0
 77
     2
 78
   300
147
1.0
148
0.0
149
0.0
100
AcDbLayout
  1
Layout1
 70
     1
 71
     1
 10
0.0
 20
0.0
 11
420.0
 21
297.0
 12
0.0
 22
0.0
 32
0.0
 14
1.0000000000E+20
 24
1.0000000000E+20
 34
1.0000000000E+20
 15
-1.0000000000E+20
 25
-1.0000000000E+20
 35
-1.0000000000E+20
146
0.0
 13
0.0
 23
0.0
 33
0.0
 16
1.0
 26
0.0
 36
0.0
 17
0.0
 27
1.0
 37
0.0
 76
     0
330
1B
  0
LAYOUT
  5
26
102
{ACAD_REACTORS
330
1A
102
}
330
1A
100
AcDbPlotSettings
  1

  2
none_device
  4

  6

 40
0.0
 41
0.0
 42
0.0
 43
0.0
 44
0.0
 45
0.0
 46
0.0
 47
0.0
 48
0.0
 49
0.0
140
0.0
141
0.0
142
1.0
143
1.0
 70
   688
 72
     1
 73
     0
 74
     5
  7

 75
    16
 76
     0
 77
     2
 78
   300
147
1.0
148
0.0
149
0.0
100
AcDbLayout
  1
Layout2
 70
     1
 71
     2
 10
0.0
 20
0.0
 11
0.0
 21
0.0
 12
0.0
 22
0.0
 32
0.0
 14
0.0
 24
0.0
 34
0.0
 15
0.0
 25
0.0
 35
0.0
146
0.0
 13
0.0
 23
0.0
 33
0.0
 16
1.0
 26
0.0
 36
0.0
 17
0.0
 27
1.0
 37
0.0
 76
     0
330
23
  0
LAYOUT
  5
22
102
{ACAD_REACTORS
330
1A
102
}
330
1A
100
AcDbPlotSettings
  1

  2
none_device
  4
Letter_(8.50_x_11.00_Inches)
  6

 40
6.35
 41
6.35
 42
6.35000508
 43
6.35000508
 44
215.9
 45
279.4
 46
0.0
 47
0.0
 48
0.0
 49
0.0
140
0.0
141
0.0
142
1.0
143
1.0
 70
  1712
 72
     1
 73
     0
 74
     0
  7

 75
     0
 76
     0
 77
     2
 78
   300
147
1.0
148
0.0
149
0.0
100
AcDbLayout
  1
Model
 70
     1
 71
     0
 10
0.0
 20
0.0
 11
90.0
 21
110.0
 12
0.0
 22
0.0
 32
0.0
 14
0.0
 24
0.0
 34
0.0
 15
90.0
 25
110.0
 35
0.0
146
0.0
 13
0.0
 23
0.0
 33
0.0
 16
1.0
 26
0.0
 36
0.0
 17
0.0
 27
1.0
 37
0.0
 76
     0
330
1F
331
29
  0
MATERIAL
  5
45
102
{ACAD_REACTORS
330
43
102
}
330
43
100
AcDbMaterial
  1
ByBlock
 72
     1
 94
      127
  0
MATERIAL
  5
44
102
{ACAD_REACTORS
330
43
102
}
330
43
100
AcDbMaterial
  1
ByLayer
 72
     1
 94
      127
  0
MATERIAL
  5
46
102
{ACAD_REACTORS
330
43
102
}
330
43
100
AcDbMaterial
  1
Global
 72
     1
 94
      127
  0
MLEADERSTYLE
  5
5C
102
{ACAD_REACTORS
330
5B
102
}
330
5B
100
AcDbMLeaderStyle
179
     2
170
     2
171
     1
172
     0
 90
        2
 40
0.0
 41
0.0
173
     1
 91
-1056964608
340
14
 92
       -2
290
     1
 42
2.0
291
     1
 43
8.0
  3
Standard
341
0
 44
4.0
300

342
11
174
     1
178
     6
175
     1
176
     0
 93
-1056964608
 45
4.0
292
     0
297
     0
 46
4.0
343
0
 94
-1056964608
 47
1.0
 49
1.0
140
1.0
293
     1
141
0.0
294
     1
177
     0
142
1.0
295
     0
296
     0
143
3.75
271
     0
272
     9
273
     9
298
     0
  0
MLINESTYLE
  5
18
102
{ACAD_REACTORS
330
17
102
}
330
17
100
AcDbMlineStyle
  2
Standard
 70
     0
  3

 62
   256
 51
90.0
 52
90.0
 71
     2
 49
0.5
 62
   256
  6
BYLAYER
 49
-0.5
 62
   256
  6
BYLAYER
  0
ACDBPLACEHOLDER
  5
F
102
{ACAD_REACTORS
330
E
102
}
330
E
  0
SCALE
  5
48
102
{ACAD_REACTORS
330
47
102
}
330
47
100
AcDbScale
 70
     0
300
1:1
140
1.0
141
1.0
290
     1
  0
SCALE
  5
49
102
{ACAD_REACTORS
330
47
102
}
330
47
100
AcDbScale
 70
     0
300
1:2
140
1.0
141
2.0
290
     0
  0
SCALE
  5
4A
102
{ACAD_REACTORS
330
47
102
}
330
47
100
AcDbScale
 70
     0
300
1:4
140
1.0
141
4.0
290
     0
  0
SCALE
  5
4B
102
{ACAD_REACTORS
330
47
102
}
330
47
100
AcDbScale
 70
     0
300
1:5
140
1.0
141
5.0
290
     0
  0
SCALE
  5
4C
102
{ACAD_REACTORS
330
47
102
}
330
47
100
AcDbScale
 70
     0
300
1:8
140
1.0
141
8.0
290
     0
  0
SCALE
  5
4D
102
{ACAD_REACTORS
330
47
102
}
330
47
100
AcDbScale
 70
     0
300
1:10
140
1.0
141
10.0
290
     0
  0
SCALE
  5
4E
102
{ACAD_REACTORS
330
47
102
}
330
47
100
AcDbScale
 70
     0
300
1:16
140
1.0
141
16.0
290
     0
  0
SCALE
  5
4F
102
{ACAD_REACTORS
330
47
102
}
330
47
100
AcDbScale
 70
     0
300
1:20
140
1.0
141
20.0
290
     0
  0
SCALE
  5
50
102
{ACAD_REACTORS
330
47
102
}
330
47
100
AcDbScale
 70
     0
300
1:30
140
1.0
141
30.0
290
     0
  0
SCALE
  5
51
102
{ACAD_REACTORS
330
47
102
}
330
47
100
AcDbScale
 70
     0
300
1:40
140
1.0
141
40.0
290
     0
  0
SCALE
  5
52
102
{ACAD_REACTORS
330
47
102
}
330
47
100
AcDbScale
 70
     0
300
1:50
140
1.0
141
50.0
290
     0
  0
SCALE
  5
53
102
{ACAD_REACTORS
330
47
102
}
330
47
100
AcDbScale
 70
     0
300
1:100
140
1.0
141
100.0
290
     0
  0
SCALE
  5
54
102
{ACAD_REACTORS
330
47
102
}
330
47
100
AcDbScale
 70
     0
300
2:1
140
2.0
141
1.0
290
     0
  0
SCALE
  5
55
102
{ACAD_REACTORS
330
47
102
}
330
47
100
AcDbScale
 70
     0
300
4:1
140
4.0
141
1.0
290
     0
  0
SCALE
  5
56
102
{ACAD_REACTORS
330
47
102
}
330
47
100
AcDbScale
 70
     0
300
8:1
140
8.0
141
1.0
290
     0
  0
SCALE
  5
57
102
{ACAD_REACTORS
330
47
102
}
330
47
100
AcDbScale
 70
     0
300
10:1
140
10.0
141
1.0
290
     0
  0
SCALE
  5
58
102
{ACAD_REACTORS
330
47
102
}
330
47
100
AcDbScale
 70
     0
300
100:1
140
100.0
141
1.0
290
     0
  0
TABLESTYLE
  5
5A
102
{ACAD_REACTORS
330
59
102
}
102
{ACAD_XDICTIONARY
360
1E2
102
}
330
59
100
AcDbTableStyle
  3
Standard
 70
     0
 71
     0
 40
0.06
 41
0.06
280
     0
281
     0
  7
STANDARD
140
4.5
170
     2
 62
     0
 63
   257
283
     0
 90
        4
 91
        0
  1

274
    -2
284
     1
 64
     0
275
    -2
285
     1
 65
     0
276
    -2
286
     1
 66
     0
277
    -2
287
     1
 67
     0
278
    -2
288
     1
 68
     0
279
    -2
289
     1
 69
     0
  7
STANDARD
140
6.0
170
     5
 62
     0
 63
   257
283
     0
 90
        4
 91
        0
  1

274
    -2
284
     1
 64
     0
275
    -2
285
     1
 65
     0
276
    -2
286
     1
 66
     0
277
    -2
287
     1
 67
     0
278
    -2
288
     1
 68
     0
279
    -2
289
     1
 69
     0
  7
STANDARD
140
4.5
170
     5
 62
     0
 63
   257
283
     0
 90
        4
 91
        0
  1

274
    -2
284
     1
 64
     0
275
    -2
285
     1
 65
     0
276
    -2
286
     1
 66
     0
277
    -2
287
     1
 67
     0
278
    -2
288
     1
 68
     0
279
    -2
289
     1
 69
     0
  0
VISUALSTYLE
  5
2F
102
{ACAD_REACTORS
330
2A
102
}
330
2A
100
AcDbVisualStyle
  2
2dWireframe
 70
     4
177
     3
291
     0
 70
    58
 90
        0
176
     1
 90
        2
176
     1
 90
        0
176
     1
 90
        0
176
     1
 40
0.6
176
     1
 40
30.0
176
     1
 62
     7
420
 16777215
176
     1
 90
        1
176
     1
 90
        4
176
     1
 62
     7
176
     1
 62
   257
176
     1
 90
        1
176
     1
 90
        1
176
     1
 40
1.0
176
     1
 90
        0
176
     1
 62
   257
176
     1
 40
1.0
176
     1
 90
        1
176
     1
 90
        6
176
     1
 90
        2
176
     1
 62
     7
176
     1
 90
        5
176
     1
 90
        0
176
     1
 90
        0
176
     1
290
     0
176
     1
 90
        1
176
     1
 40
0.0
176
     1
 90
        0
176
     1
290
     1
176
     1
290
     1
176
     1
290
     0
176
     1
290
     0
176
     1
290
     0
176
     1
290
     0
176
     1
290
     0
176
     1
290
     0
176
     1
290
     0
176
     1
 90
       50
176
     1
 40
0.0
176
     1
 40
1.0
176
     1
 90
        0
176
     1
 62
    18
420
        0
176
     1
 90
       50
176
     1
 90
        3
176
     1
 62
     5
420
      255
176
     1
290
     0
176
     1
 90
       50
176
     1
 90
       50
176
     1
 90
       50
176
     1
290
     0
176
     1
 90
       50
176
     1
 62
   256
176
     0
 40
1.0
176
     0
 90
        2
176
     1
  1
strokes_ogs.tif
176
     1
290
     0
176
     1
 40
1.0
176
     1
 40
1.0
176
     1
  0
VISUALSTYLE
  5
32
102
{ACAD_REACTORS
330
2A
102
}
330
2A
100
AcDbVisualStyle
  2
Basic
 70
     7
177
     3
291
     1
 70
    58
 90
        1
176
     1
 90
        0
176
     1
 90
        1
176
     1
 90
        0
176
     1
 40
0.6
176
     1
 40
30.0
176
     1
 62
     7
420
 16777215
176
     1
 90
        0
176
     1
 90
        4
176
     1
 62
     7
176
     1
 62
   257
176
     1
 90
        1
176
     1
 90
        1
176
     1
 40
1.0
176
     1
 90
        8
176
     1
 62
     7
176
     1
 40
1.0
176
     1
 90
        1
176
     1
 90
        6
176
     1
 90
        2
176
     1
 62
     7
176
     1
 90
        5
176
     1
 90
        0
176
     1
 90
        0
176
     1
290
     0
176
     1
 90
        1
176
     1
 40
0.0
176
     1
 90
        0
176
     1
290
     0
176
     1
290
     1
176
     1
290
     1
176
     1
290
     0
176
     1
290
     0
176
     1
290
     0
176
     1
290
     0
176
     1
290
     0
176
     1
290
     0
176
     1
 90
       50
176
     1
 40
0.0
176
     1
 40
1.0
176
     1
 90
        0
176
     1
 62
    18
420
        0
176
     1
 90
       50
176
     1
 90
        3
176
     1
 62
     5
420
      255
176
     1
290
     0
176
     1
 90
       50
176
     1
 90
       50
176
     1
 90
       50
176
     1
290
     0
176
     1
 90
       50
176
     1
 62
   256
176
     0
 40
1.0
176
     0
 90
        2
176
     1
  1
strokes_ogs.tif
176
     1
290
     0
176
     1
 40
1.0
176
     1
 40
1.0
176
     1
  0
VISUALSTYLE
  5
36
102
{ACAD_REACTORS
330
2A
102
}
330
2A
100
AcDbVisualStyle
  2
Brighten
 70
    12
177
     3
291
     1
 70
    58
 90
        2
176
     1
 90
        2
176
     1
 90
        0
176
     1
 90
        0
176
     1
 40
0.6
176
     1
 40
30.0
176
     1
 62
     7
420
 16777215
176
     1
 90
        1
176
     1
 90
        4
176
     1
 62
     7
176
     1
 62
   257
176
     1
 90
        1
176
     1
 90
        1
176
     1
 40
1.0
176
     1
 90
        8
176
     1
 62
     7
176
     1
 40
1.0
176
     1
 90
        1
176
     1
 90
        6
176
     1
 90
        2
176
     1
 62
     7
176
     1
 90
        5
176
     1
 90
        0
176
     1
 90
        0
176
     1
290
     0
176
     1
 90
        1
176
     1
 40
50.0
176
     1
 90
        0
176
     1
290
     0
176
     1
290
     1
176
     1
290
     1
176
     1
290
     0
176
     1
290
     0
176
     1
290
     0
176
     1
290
     0
176
     1
290
     0
176
     1
290
     0
176
     1
 90
       50
176
     1
 40
0.0
176
     1
 40
1.0
176
     1
 90
        0
176
     1
 62
    18
420
        0
176
     1
 90
       50
176
     1
 90
        3
176
     1
 62
     5
420
      255
176
     1
290
     0
176
     1
 90
       50
176
     1
 90
       50
176
     1
 90
       50
176
     1
290
     0
176
     1
 90
       50
176
     1
 62
   256
176
     0
 40
1.0
176
     0
 90
        2
176
     1
  1
strokes_ogs.tif
176
     1
290
     0
176
     1
 40
1.0
176
     1
 40
1.0
176
     1
  0
VISUALSTYLE
  5
3A
102
{ACAD_REACTORS
330
2A
102
}
330
2A
100
AcDbVisualStyle
  2
ColorChange
 70
    16
177
     3
291
     1
 70
    58
 90
        2
176
     1
 90
        2
176
     1
 90
        3
176
     1
 90
        0
176
     1
 40
0.6
176
     1
 40
30.0
176
     1
 62
     8
420
  8421504
176
     1
 90
        1
176
     1
 90
        4
176
     1
 62
     7
176
     1
 62
   257
176
     1
 90
        1
176
     1
 90
        1
176
     1
 40
1.0
176
     1
 90
        8
176
     1
 62
     8
420
  8421504
176
     1
 40
1.0
176
     1
 90
        1
176
     1
 90
        6
176
     1
 90
        2
176
     1
 62
     7
176
     1
 90
        5
176
     1
 90
        0
176
     1
 90
        0
176
     1
290
     0
176
     1
 90
        1
176
     1
 40
0.0
176
     1
 90
        0
176
     1
290
     0
176
     1
290
     1
176
     1
290
     1
176
     1
290
     0
176
     1
290
     0
176
     1
290
     0
176
     1
290
     0
176
     1
290
     0
176
     1
290
     0
176
     1
 90
       50
176
     1
 40
0.0
176
     1
 40
1.0
176
     1
 90
        0
176
     1
 62
    18
420
        0
176
     1
 90
       50
176
     1
 90
        3
176
     1
 62
     5
420
      255
176
     1
290
     0
176
     1
 90
       50
176
     1
 90
       50
176
     1
 90
       50
176
     1
290
     0
176
     1
 90
       50
176
     1
 62
   256
176
     0
 40
1.0
176
     0
 90
        2
176
     1
  1
strokes_ogs.tif
176
     1
290
     0
176
     1
 40
1.0
176
     1
 40
1.0
176
     1
  0
VISUALSTYLE
  5
34
102
{ACAD_REACTORS
330
2A
102
}
330
2A
100
AcDbVisualStyle
  2
Conceptual
 70
     9
177
     3
291
     0
 70
    58
 90
        3
176
     1
 90
        2
176
     1
 90
        0
176
     1
 90
        0
176
     1
 40
0.6
176
     1
 40
30.0
176
     1
 62
     7
420
 16777215
176
     1
 90
        2
176
     1
 90
        2
176
     1
 62
     7
176
     1
 62
   257
176
     1
 90
        1
176
     1
 90
        1
176
     1
 40
179.0
176
     1
 90
        8
176
     1
 62
     7
176
     1
 40
1.0
176
     1
 90
        1
176
     1
 90
        6
176
     1
 90
        2
176
     1
 62
     7
176
     1
 90
        3
176
     1
 90
        0
176
     1
 90
        0
176
     1
290
     0
176
     1
 90
        1
176
     1
 40
0.0
176
     1
 90
        0
176
     1
290
     0
176
     1
290
     1
176
     1
290
     1
176
     1
290
     0
176
     1
290
     0
176
     1
290
     0
176
     1
290
     0
176
     1
290
     0
176
     1
290
     0
176
     1
 90
       50
176
     1
 40
0.0
176
     1
 40
1.0
176
     1
 90
        0
176
     1
 62
    18
420
        0
176
     1
 90
       50
176
     1
 90
        3
176
     1
 62
     5
420
      255
176
     1
290
     0
176
     1
 90
       50
176
     1
 90
       50
176
     1
 90
       50
176
     1
290
     0
176
     1
 90
       50
176
     1
 62
   256
176
     0
 40
1.0
176
     0
 90
        2
176
     1
  1
strokes_ogs.tif
176
     1
290
     0
176
     1
 40
1.0
176
     1
 40
1.0
176
     1
  0
VISUALSTYLE
  5
35
102
{ACAD_REACTORS
330
2A
102
}
330
2A
100
AcDbVisualStyle
  2
Dim
 70
    11
177
     3
291
     1
 70
    58
 90
        2
176
     1
 90
        2
176
     1
 90
        0
176
     1
 90
        0
176
     1
 40
0.6
176
     1
 40
30.0
176
     1
 62
     7
420
 16777215
176
     1
 90
        1
176
     1
 90
        4
176
     1
 62
     7
176
     1
 62
   257
176
     1
 90
        1
176
     1
 90
        1
176
     1
 40
1.0
176
     1
 90
        8
176
     1
 62
     7
176
     1
 40
1.0
176
     1
 90
        1
176
     1
 90
        6
176
     1
 90
        2
176
     1
 62
     7
176
     1
 90
        5
176
     1
 90
        0
176
     1
 90
        0
176
     1
290
     0
176
     1
 90
        1
176
     1
 40
-50.0
176
     1
 90
        0
176
     1
290
     0
176
     1
290
     1
176
     1
290
     1
176
     1
290
     0
176
     1
290
     0
176
     1
290
     0
176
     1
290
     0
176
     1
290
     0
176
     1
290
     0
176
     1
 90
       50
176
     1
 40
0.0
176
     1
 40
1.0
176
     1
 90
        0
176
     1
 62
    18
420
        0
176
     1
 90
       50
176
     1
 90
        3
176
     1
 62
     5
420
      255
176
     1
290
     0
176
     1
 90
       50
176
     1
 90
       50
176
     1
 90
       50
176
     1
290
     0
176
     1
 90
       50
176
     1
 62
   256
176
     0
 40
1.0
176
     0
 90
        2
176
     1
  1
strokes_ogs.tif
176
     1
290
     0
176
     1
 40
1.0
176
     1
 40
1.0
176
     1
  0
VISUALSTYLE
  5
3D
102
{ACAD_REACTORS
330
2A
102
}
330
2A
100
AcDbVisualStyle
  2
EdgeColorOff
 70
    22
177
     3
291
     1
 70
    58
 90
        2
176
     0
 90
        2
176
     0
 90
        0
176
     0
 90
        0
176
     0
 40
0.6
176
     0
 40
30.0
176
     0
 62
     7
420
 16777215
176
     0
 90
        1
176
     0
 90
        4
176
     0
 62
     7
176
     0
 62
   257
176
     0
 90
        1
176
     0
 90
        1
176
     0
 40
1.0
176
     0
 90
        8
176
     2
 62
     7
176
     0
 40
1.0
176
     0
 90
        1
176
     0
 90
        6
176
     0
 90
        2
176
     0
 62
     7
176
     0
 90
        5
176
     0
 90
        0
176
     0
 90
        0
176
     0
290
     0
176
     0
 90
        1
176
     0
 40
0.0
176
     0
 90
        0
176
     0
290
     0
176
     0
290
     1
176
     0
290
     1
176
     0
290
     0
176
     0
290
     0
176
     0
290
     0
176
     0
290
     0
176
     0
290
     0
176
     0
290
     0
176
     0
 90
       50
176
     0
 40
0.0
176
     0
 40
1.0
176
     0
 90
        0
176
     0
 62
    18
420
        0
176
     0
 90
       50
176
     0
 90
        3
176
     0
 62
     5
420
      255
176
     0
290
     0
176
     0
 90
       50
176
     0
 90
       50
176
     0
 90
       50
176
     0
290
     0
176
     0
 90
       50
176
     0
 62
   256
176
     0
 40
1.0
176
     0
 90
        2
176
     0
  1
strokes_ogs.tif
176
     0
290
     0
176
     0
 40
1.0
176
     0
 40
1.0
176
     0
  0
VISUALSTYLE
  5
39
102
{ACAD_REACTORS
330
2A
102
}
330
2A
100
AcDbVisualStyle
  2
Facepattern
 70
    15
177
     3
291
     1
 70
    58
 90
        2
176
     1
 90
        2
176
     1
 90
        0
176
     1
 90
        0
176
     1
 40
0.6
176
     1
 40
30.0
176
     1
 62
     7
420
 16777215
176
     1
 90
        1
176
     1
 90
        4
176
     1
 62
     7
176
     1
 62
   257
176
     1
 90
        1
176
     1
 90
        1
176
     1
 40
1.0
176
     1
 90
        8
176
     1
 62
     7
176
     1
 40
1.0
176
     1
 90
        1
176
     1
 90
        6
176
     1
 90
        2
176
     1
 62
     7
176
     1
 90
        5
176
     1
 90
        0
176
     1
 90
        0
176
     1
290
     0
176
     1
 90
        1
176
     1
 40
0.0
176
     1
 90
        0
176
     1
290
     0
176
     1
290
     1
176
     1
290
     1
176
     1
290
     0
176
     1
290
     0
176
     1
290
     0
176
     1
290
     0
176
     1
290
     0
176
     1
290
     0
176
     1
 90
       50
176
     1
 40
0.0
176
     1
 40
1.0
176
     1
 90
        0
176
     1
 62
    18
420
        0
176
     1
 90
       50
176
     1
 90
        3
176
     1
 62
     5
420
      255
176
     1
290
     0
176
     1
 90
       50
176
     1
 90
       50
176
     1
 90
       50
176
     1
290
     0
176
     1
 90
       50
176
     1
 62
   256
176
     0
 40
1.0
176
     0
 90
        2
176
     1
  1
strokes_ogs.tif
176
     1
290
     0
176
     1
 40
1.0
176
     1
 40
1.0
176
     1
  0
VISUALSTYLE
  5
2B
102
{ACAD_REACTORS
330
2A
102
}
330
2A
100
AcDbVisualStyle
  2
Flat
 70
     0
177
     3
291
     1
 70
    58
 90
        2
176
     1
 90
        1
176
     1
 90
        1
176
     1
 90
        2
176
     1
 40
0.6
176
     1
 40
30.0
176
     1
 62
     7
420
 16777215
176
     1
 90
        0
176
     1
 90
        0
176
     1
 62
     7
176
     1
 62
   257
176
     1
 90
        1
176
     1
 90
        1
176
     1
 40
1.0
176
     1
 90
        8
176
     1
 62
     7
176
     1
 40
1.0
176
     1
 90
        1
176
     1
 90
        6
176
     1
 90
        2
176
     1
 62
     7
176
     1
 90
        5
176
     1
 90
        0
176
     1
 90
        0
176
     1
290
     0
176
     1
 90
       13
176
     1
 40
0.0
176
     1
 90
        0
176
     1
290
     0
176
     1
290
     1
176
     1
290
     1
176
     1
290
     0
176
     1
290
     0
176
     1
290
     0
176
     1
290
     0
176
     1
290
     0
176
     1
290
     0
176
     1
 90
       50
176
     1
 40
0.0
176
     1
 40
1.0
176
     1
 90
        0
176
     1
 62
    18
420
        0
176
     1
 90
       50
176
     1
 90
        3
176
     1
 62
     5
420
      255
176
     1
290
     0
176
     1
 90
       50
176
     1
 90
       50
176
     1
 90
       50
176
     1
290
     0
176
     1
 90
       50
176
     1
 62
   256
176
     0
 40
1.0
176
     0
 90
        2
176
     1
  1
strokes_ogs.tif
176
     1
290
     0
176
     1
 40
1.0
176
     1
 40
1.0
176
     1
  0
VISUALSTYLE
  5
2C
102
{ACAD_REACTORS
330
2A
102
}
330
2A
100
AcDbVisualStyle
  2
FlatWithEdges
 70
     1
177
     3
291
     1
 70
    58
 90
        2
176
     1
 90
        1
176
     1
 90
        1
176
     1
 90
        2
176
     1
 40
0.6
176
     1
 40
30.0
176
     1
 62
     7
420
 16777215
176
     1
 90
        1
176
     1
 90
        0
176
     1
 62
     7
176
     1
 62
   257
176
     1
 90
        1
176
     1
 90
        1
176
     1
 40
1.0
176
     1
 90
        0
176
     1
 62
   257
176
     1
 40
1.0
176
     1
 90
        1
176
     1
 90
        6
176
     1
 90
        2
176
     1
 62
     7
176
     1
 90
        5
176
     1
 90
        0
176
     1
 90
        0
176
     1
290
     0
176
     1
 90
       13
176
     1
 40
0.0
176
     1
 90
        0
176
     1
290
     0
176
     1
290
     1
176
     1
290
     1
176
     1
290
     0
176
     1
290
     0
176
     1
290
     0
176
     1
290
     0
176
     1
290
     0
176
     1
290
     0
176
     1
 90
       50
176
     1
 40
0.0
176
     1
 40
1.0
176
     1
 90
        0
176
     1
 62
    18
420
        0
176
     1
 90
       50
176
     1
 90
        3
176
     1
 62
     5
420
      255
176
     1
290
     0
176
     1
 90
       50
176
     1
 90
       50
176
     1
 90
       50
176
     1
290
     0
176
     1
 90
       50
176
     1
 62
   256
176
     0
 40
1.0
176
     0
 90
        2
176
     1
  1
strokes_ogs.tif
176
     1
290
     0
176
     1
 40
1.0
176
     1
 40
1.0
176
     1
  0
VISUALSTYLE
  5
2D
102
{ACAD_REACTORS
330
2A
102
}
330
2A
100
AcDbVisualStyle
  2
Gouraud
 70
     2
177
     3
291
     1
 70
    58
 90
        2
176
     1
 90
        2
176
     1
 90
        1
176
     1
 90
        2
176
     1
 40
0.6
176
     1
 40
30.0
176
     1
 62
     7
420
 16777215
176
     1
 90
        0
176
     1
 90
        0
176
     1
 62
     7
176
     1
 62
   257
176
     1
 90
        1
176
     1
 90
        1
176
     1
 40
1.0
176
     1
 90
        0
176
     1
 62
     7
176
     1
 40
1.0
176
     1
 90
        1
176
     1
 90
        6
176
     1
 90
        2
176
     1
 62
     7
176
     1
 90
        5
176
     1
 90
        0
176
     1
 90
        0
176
     1
290
     0
176
     1
 90
       13
176
     1
 40
0.0
176
     1
 90
        0
176
     1
290
     0
176
     1
290
     1
176
     1
290
     1
176
     1
290
     0
176
     1
290
     0
176
     1
290
     0
176
     1
290
     0
176
     1
290
     0
176
     1
290
     0
176
     1
 90
       50
176
     1
 40
0.0
176
     1
 40
1.0
176
     1
 90
        0
176
     1
 62
    18
420
        0
176
     1
 90
       50
176
     1
 90
        3
176
     1
 62
     5
420
      255
176
     1
290
     0
176
     1
 90
       50
176
     1
 90
       50
176
     1
 90
       50
176
     1
290
     0
176
     1
 90
       50
176
     1
 62
   256
176
     0
 40
1.0
176
     0
 90
        2
176
     1
  1
strokes_ogs.tif
176
     1
290
     0
176
     1
 40
1.0
176
     1
 40
1.0
176
     1
  0
VISUALSTYLE
  5
2E
102
{ACAD_REACTORS
330
2A
102
}
330
2A
100
AcDbVisualStyle
  2
GouraudWithEdges
 70
     3
177
     3
291
     1
 70
    58
 90
        2
176
     1
 90
        2
176
     1
 90
        1
176
     1
 90
        2
176
     1
 40
0.6
176
     1
 40
30.0
176
     1
 62
     7
420
 16777215
176
     1
 90
        1
176
     1
 90
        0
176
     1
 62
     7
176
     1
 62
   257
176
     1
 90
        1
176
     1
 90
        1
176
     1
 40
1.0
176
     1
 90
        0
176
     1
 62
   257
176
     1
 40
1.0
176
     1
 90
        1
176
     1
 90
        6
176
     1
 90
        2
176
     1
 62
     7
176
     1
 90
        5
176
     1
 90
        0
176
     1
 90
        0
176
     1
290
     0
176
     1
 90
       13
176
     1
 40
0.0
176
     1
 90
        0
176
     1
290
     0
176
     1
290
     1
176
     1
290
     1
176
     1
290
     0
176
     1
290
     0
176
     1
290
     0
176
     1
290
     0
176
     1
290
     0
176
     1
290
     0
176
     1
 90
       50
176
     1
 40
0.0
176
     1
 40
1.0
176
     1
 90
        0
176
     1
 62
    18
420
        0
176
     1
 90
       50
176
     1
 90
        3
176
     1
 62
     5
420
      255
176
     1
290
     0
176
     1
 90
       50
176
     1
 90
       50
176
     1
 90
       50
176
     1
290
     0
176
     1
 90
       50
176
     1
 62
   256
176
     0
 40
1.0
176
     0
 90
        2
176
     1
  1
strokes_ogs.tif
176
     1
290
     0
176
     1
 40
1.0
176
     1
 40
1.0
176
     1
  0
VISUALSTYLE
  5
31
102
{ACAD_REACTORS
330
2A
102
}
330
2A
100
AcDbVisualStyle
  2
Hidden
 70
     6
177
     3
291
     0
 70
    58
 90
        1
176
     1
 90
        2
176
     1
 90
        2
176
     1
 90
        0
176
     1
 40
0.6
176
     1
 40
30.0
176
     1
 62
     7
420
 16777215
176
     1
 90
        2
176
     1
 90
        2
176
     1
 62
     7
176
     1
 62
   257
176
     1
 90
        2
176
     1
 90
        1
176
     1
 40
40.0
176
     1
 90
        0
176
     1
 62
   257
176
     1
 40
1.0
176
     1
 90
        1
176
     1
 90
        6
176
     1
 90
        2
176
     1
 62
     7
176
     1
 90
        3
176
     1
 90
        0
176
     1
 90
        0
176
     1
290
     0
176
     1
 90
        1
176
     1
 40
0.0
176
     1
 90
        0
176
     1
290
     0
176
     1
290
     1
176
     1
290
     1
176
     1
290
     0
176
     1
290
     0
176
     1
290
     0
176
     1
290
     0
176
     1
290
     0
176
     1
290
     0
176
     1
 90
       50
176
     1
 40
0.0
176
     1
 40
1.0
176
     1
 90
        0
176
     1
 62
    18
420
        0
176
     1
 90
       50
176
     1
 90
        3
176
     1
 62
     5
420
      255
176
     1
290
     0
176
     1
 90
       50
176
     1
 90
       50
176
     1
 90
       50
176
     1
290
     0
176
     1
 90
       50
176
     1
 62
   256
176
     0
 40
1.0
176
     0
 90
        2
176
     1
  1
strokes_ogs.tif
176
     1
290
     0
176
     1
 40
1.0
176
     1
 40
1.0
176
     1
  0
VISUALSTYLE
  5
3B
102
{ACAD_REACTORS
330
2A
102
}
330
2A
100
AcDbVisualStyle
  2
JitterOff
 70
    20
177
     3
291
     1
 70
    58
 90
        2
176
     0
 90
        2
176
     0
 90
        0
176
     0
 90
        0
176
     0
 40
0.6
176
     0
 40
30.0
176
     0
 62
     7
420
 16777215
176
     0
 90
        1
176
     0
 90
        4
176
     0
 62
     7
176
     0
 62
   257
176
     0
 90
        1
176
     0
 90
        1
176
     0
 40
1.0
176
     0
 90
       10
176
     2
 62
     7
176
     0
 40
1.0
176
     0
 90
        1
176
     0
 90
        6
176
     0
 90
        2
176
     0
 62
     7
176
     0
 90
        5
176
     0
 90
        0
176
     0
 90
        0
176
     0
290
     0
176
     0
 90
        1
176
     0
 40
0.0
176
     0
 90
        0
176
     0
290
     0
176
     0
290
     1
176
     0
290
     1
176
     0
290
     0
176
     0
290
     0
176
     0
290
     0
176
     0
290
     0
176
     0
290
     0
176
     0
290
     0
176
     0
 90
       50
176
     0
 40
0.0
176
     0
 40
1.0
176
     0
 90
        0
176
     0
 62
    18
420
        0
176
     0
 90
       50
176
     0
 90
        3
176
     0
 62
     5
420
      255
176
     0
290
     0
176
     0
 90
       50
176
     0
 90
       50
176
     0
 90
       50
176
     0
290
     0
176
     0
 90
       50
176
     0
 62
   256
176
     0
 40
1.0
176
     0
 90
        2
176
     0
  1
strokes_ogs.tif
176
     0
290
     0
176
     0
 40
1.0
176
     0
 40
1.0
176
     0
  0
VISUALSTYLE
  5
38
102
{ACAD_REACTORS
330
2A
102
}
330
2A
100
AcDbVisualStyle
  2
Linepattern
 70
    14
177
     3
291
     1
 70
    58
 90
        2
176
     1
 90
        2
176
     1
 90
        0
176
     1
 90
        0
176
     1
 40
0.6
176
     1
 40
30.0
176
     1
 62
     7
420
 16777215
176
     1
 90
        1
176
     1
 90
        4
176
     1
 62
     7
176
     1
 62
   257
176
     1
 90
        7
176
     1
 90
        7
176
     1
 40
1.0
176
     1
 90
        8
176
     1
 62
     7
176
     1
 40
1.0
176
     1
 90
        1
176
     1
 90
        6
176
     1
 90
        2
176
     1
 62
     7
176
     1
 90
        5
176
     1
 90
        0
176
     1
 90
        0
176
     1
290
     0
176
     1
 90
        1
176
     1
 40
0.0
176
     1
 90
        0
176
     1
290
     0
176
     1
290
     1
176
     1
290
     1
176
     1
290
     0
176
     1
290
     0
176
     1
290
     0
176
     1
290
     0
176
     1
290
     0
176
     1
290
     0
176
     1
 90
       50
176
     1
 40
0.0
176
     1
 40
1.0
176
     1
 90
        0
176
     1
 62
    18
420
        0
176
     1
 90
       50
176
     1
 90
        3
176
     1
 62
     5
420
      255
176
     1
290
     0
176
     1
 90
       50
176
     1
 90
       50
176
     1
 90
       50
176
     1
290
     0
176
     1
 90
       50
176
     1
 62
   256
176
     0
 40
1.0
176
     0
 90
        2
176
     1
  1
strokes_ogs.tif
176
     1
290
     0
176
     1
 40
1.0
176
     1
 40
1.0
176
     1
  0
VISUALSTYLE
  5
3C
102
{ACAD_REACTORS
330
2A
102
}
330
2A
100
AcDbVisualStyle
  2
OverhangOff
 70
    21
177
     3
291
     1
 70
    58
 90
        2
176
     0
 90
        2
176
     0
 90
        0
176
     0
 90
        0
176
     0
 40
0.6
176
     0
 40
30.0
176
     0
 62
     7
420
 16777215
176
     0
 90
        1
176
     0
 90
        4
176
     0
 62
     7
176
     0
 62
   257
176
     0
 90
        1
176
     0
 90
        1
176
     0
 40
1.0
176
     0
 90
        9
176
     2
 62
     7
176
     0
 40
1.0
176
     0
 90
        1
176
     0
 90
        6
176
     0
 90
        2
176
     0
 62
     7
176
     0
 90
        5
176
     0
 90
        0
176
     0
 90
        0
176
     0
290
     0
176
     0
 90
        1
176
     0
 40
0.0
176
     0
 90
        0
176
     0
290
     0
176
     0
290
     1
176
     0
290
     1
176
     0
290
     0
176
     0
290
     0
176
     0
290
     0
176
     0
290
     0
176
     0
290
     0
176
     0
290
     0
176
     0
 90
       50
176
     0
 40
0.0
176
     0
 40
1.0
176
     0
 90
        0
176
     0
 62
    18
420
        0
176
     0
 90
       50
176
     0
 90
        3
176
     0
 62
     5
420
      255
176
     0
290
     0
176
     0
 90
       50
176
     0
 90
       50
176
     0
 90
       50
176
     0
290
     0
176
     0
 90
       50
176
     0
 62
   256
176
     0
 40
1.0
176
     0
 90
        2
176
     0
  1
strokes_ogs.tif
176
     0
290
     0
176
     0
 40
1.0
176
     0
 40
1.0
176
     0
  0
VISUALSTYLE
  5
33
102
{ACAD_REACTORS
330
2A
102
}
330
2A
100
AcDbVisualStyle
  2
Realistic
 70
     8
177
     3
291
     0
 70
    58
 90
        2
176
     1
 90
        3
176
     1
 90
        0
176
     1
 90
        2
176
     1
 40
0.6
176
     1
 40
30.0
176
     1
 62
     7
420
 16777215
176
     1
 90
        0
176
     1
 90
        0
176
     1
 62
     7
176
     1
 62
   257
176
     1
 90
        1
176
     1
 90
        1
176
     1
 40
1.0
176
     1
 90
        8
176
     1
 62
   257
176
     1
 40
1.0
176
     1
 90
        1
176
     1
 90
        6
176
     1
 90
        2
176
     1
 62
     7
176
     1
 90
        3
176
     1
 90
        0
176
     1
 90
        0
176
     1
290
     0
176
     1
 90
       13
176
     1
 40
0.0
176
     1
 90
        0
176
     1
290
     0
176
     1
290
     1
176
     1
290
     1
176
     1
290
     0
176
     1
290
     0
176
     1
290
     0
176
     1
290
     0
176
     1
290
     0
176
     1
290
     0
176
     1
 90
       50
176
     1
 40
0.0
176
     1
 40
1.0
176
     1
 90
        0
176
     1
 62
    18
420
        0
176
     1
 90
       50
176
     1
 90
        3
176
     1
 62
     5
420
      255
176
     1
290
     0
176
     1
 90
       50
176
     1
 90
       50
176
     1
 90
       50
176
     1
290
     0
176
     1
 90
       50
176
     1
 62
   256
176
     0
 40
1.0
176
     0
 90
        2
176
     1
  1
strokes_ogs.tif
176
     1
290
     0
176
     1
 40
1.0
176
     1
 40
1.0
176
     1
  0
VISUALSTYLE
  5
42
102
{ACAD_REACTORS
330
2A
102
}
330
2A
100
AcDbVisualStyle
  2
Shaded
 70
    27
177
     3
291
     0
 70
    58
 90
        2
176
     1
 90
        2
176
     1
 90
        1
176
     1
 90
        2
176
     1
 40
0.6
176
     1
 40
30.0
176
     1
 62
     7
420
 16777215
176
     1
 90
        0
176
     1
 90
        4
176
     1
 62
     7
176
     1
 62
   257
176
     1
 90
        1
176
     1
 90
        1
176
     1
 40
1.0
176
     1
 90
        8
176
     1
 62
   257
176
     1
 40
1.0
176
     1
 90
        1
176
     1
 90
        6
176
     1
 90
        2
176
     1
 62
     8
420
  7895160
176
     1
 90
        3
176
     1
 90
        0
176
     1
 90
        0
176
     1
290
     0
176
     1
 90
        5
176
     1
 40
0.0
176
     1
 90
        0
176
     1
290
     0
176
     1
290
     1
176
     1
290
     1
176
     1
290
     0
176
     1
290
     0
176
     1
290
     0
176
     1
290
     0
176
     1
290
     0
176
     1
290
     0
176
     1
 90
       50
176
     1
 40
0.0
176
     1
 40
1.0
176
     1
 90
        0
176
     1
 62
    18
420
        0
176
     1
 90
       50
176
     1
 90
        3
176
     1
 62
     5
420
      255
176
     1
290
     0
176
     1
 90
       50
176
     1
 90
       50
176
     1
 90
       50
176
     1
290
     0
176
     1
 90
       50
176
     1
 62
   256
176
     0
 40
1.0
176
     0
 90
        2
176
     1
  1
strokes_ogs.tif
176
     1
290
     0
176
     1
 40
1.0
176
     1
 40
1.0
176
     1
  0
VISUALSTYLE
  5
41
102
{ACAD_REACTORS
330
2A
102
}
330
2A
100
AcDbVisualStyle
  2
Shaded with edges
 70
    26
177
     3
291
     0
 70
    58
 90
        2
176
     1
 90
        2
176
     1
 90
        1
176
     1
 90
        2
176
     1
 40
0.6
176
     1
 40
30.0
176
     1
 62
     7
420
 16777215
176
     1
 90
        1
176
     1
 90
       10
176
     1
 62
     7
176
     1
 62
   257
176
     1
 90
        2
176
     1
 90
        1
176
     1
 40
1.0
176
     1
 90
        8
176
     1
 62
   257
176
     1
 40
1.0
176
     1
 90
        1
176
     1
 90
        6
176
     1
 90
        2
176
     1
 62
     7
176
     1
 90
        3
176
     1
 90
        0
176
     1
 90
        0
176
     1
290
     0
176
     1
 90
        5
176
     1
 40
0.0
176
     1
 90
        0
176
     1
290
     0
176
     1
290
     1
176
     1
290
     1
176
     1
290
     0
176
     1
290
     0
176
     1
290
     0
176
     1
290
     0
176
     1
290
     0
176
     1
290
     0
176
     1
 90
       50
176
     1
 40
0.0
176
     1
 40
1.0
176
     1
 90
        0
176
     1
 62
    18
420
        0
176
     1
 90
       50
176
     1
 90
        3
176
     1
 62
     5
420
      255
176
     1
290
     0
176
     1
 90
       50
176
     1
 90
       50
176
     1
 90
       50
176
     1
290
     0
176
     1
 90
       50
176
     1
 62
   256
176
     0
 40
1.0
176
     0
 90
        2
176
     1
  1
strokes_ogs.tif
176
     1
290
     0
176
     1
 40
1.0
176
     1
 40
1.0
176
     1
  0
VISUALSTYLE
  5
3E
102
{ACAD_REACTORS
330
2A
102
}
330
2A
100
AcDbVisualStyle
  2
Shades of Gray
 70
    23
177
     3
291
     0
 70
    58
 90
        2
176
     1
 90
        2
176
     1
 90
        3
176
     1
 90
        0
176
     1
 40
0.6
176
     1
 40
30.0
176
     1
 62
     7
420
 16777215
176
     1
 90
        2
176
     1
 90
        2
176
     1
 62
     7
176
     1
 62
     7
176
     1
 90
        1
176
     1
 90
        1
176
     1
 40
40.0
176
     1
 90
        8
176
     1
 62
     7
176
     1
 40
1.0
176
     1
 90
        1
176
     1
 90
        6
176
     1
 90
        2
176
     1
 62
     7
176
     1
 90
        3
176
     1
 90
        0
176
     1
 90
        0
176
     1
290
     0
176
     1
 90
        1
176
     1
 40
0.0
176
     1
 90
        0
176
     1
290
     0
176
     1
290
     1
176
     1
290
     1
176
     1
290
     0
176
     1
290
     0
176
     1
290
     0
176
     1
290
     0
176
     1
290
     0
176
     1
290
     0
176
     1
 90
       50
176
     1
 40
0.0
176
     1
 40
1.0
176
     1
 90
        0
176
     1
 62
    18
420
        0
176
     1
 90
       50
176
     1
 90
        3
176
     1
 62
     5
420
      255
176
     1
290
     0
176
     1
 90
       50
176
     1
 90
       50
176
     1
 90
       50
176
     1
290
     0
176
     1
 90
       50
176
     1
 62
   256
176
     0
 40
1.0
176
     0
 90
        2
176
     1
  1
strokes_ogs.tif
176
     1
290
     0
176
     1
 40
1.0
176
     1
 40
1.0
176
     1
  0
VISUALSTYLE
  5
3F
102
{ACAD_REACTORS
330
2A
102
}
330
2A
100
AcDbVisualStyle
  2
Sketchy
 70
    24
177
     3
291
     0
 70
    58
 90
        1
176
     1
 90
        2
176
     1
 90
        2
176
     1
 90
        0
176
     1
 40
0.6
176
     1
 40
30.0
176
     1
 62
     7
420
 16777215
176
     1
 90
        2
176
     1
 90
        2
176
     1
 62
     7
176
     1
 62
     7
176
     1
 90
        1
176
     1
 90
        1
176
     1
 40
40.0
176
     1
 90
       11
176
     1
 62
     7
176
     1
 40
1.0
176
     1
 90
        1
176
     1
 90
        6
176
     1
 90
        2
176
     1
 62
     7
176
     1
 90
        6
176
     1
 90
        0
176
     1
 90
        0
176
     1
290
     0
176
     1
 90
        1
176
     1
 40
0.0
176
     1
 90
        0
176
     1
290
     0
176
     1
290
     1
176
     1
290
     1
176
     1
290
     0
176
     1
290
     0
176
     1
290
     0
176
     1
290
     0
176
     1
290
     0
176
     1
290
     0
176
     1
 90
       50
176
     1
 40
0.0
176
     1
 40
1.0
176
     1
 90
        0
176
     1
 62
    18
420
        0
176
     1
 90
       50
176
     1
 90
        3
176
     1
 62
     5
420
      255
176
     1
290
     0
176
     1
 90
       50
176
     1
 90
       50
176
     1
 90
       50
176
     1
290
     0
176
     1
 90
       50
176
     1
 62
   256
176
     0
 40
1.0
176
     0
 90
        2
176
     1
  1
strokes_ogs.tif
176
     1
290
     0
176
     1
 40
1.0
176
     1
 40
1.0
176
     1
  0
VISUALSTYLE
  5
37
102
{ACAD_REACTORS
330
2A
102
}
330
2A
100
AcDbVisualStyle
  2
Thicken
 70
    13
177
     3
291
     1
 70
    58
 90
        2
176
     1
 90
        2
176
     1
 90
        0
176
     1
 90
        0
176
     1
 40
0.6
176
     1
 40
30.0
176
     1
 62
     7
420
 16777215
176
     1
 90
        1
176
     1
 90
        4
176
     1
 62
     7
176
     1
 62
   257
176
     1
 90
        1
176
     1
 90
        1
176
     1
 40
1.0
176
     1
 90
       12
176
     1
 62
     7
176
     1
 40
1.0
176
     1
 90
        1
176
     1
 90
        6
176
     1
 90
        2
176
     1
 62
     7
176
     1
 90
        5
176
     1
 90
        0
176
     1
 90
        0
176
     1
290
     0
176
     1
 90
        1
176
     1
 40
0.0
176
     1
 90
        0
176
     1
290
     0
176
     1
290
     1
176
     1
290
     1
176
     1
290
     0
176
     1
290
     0
176
     1
290
     0
176
     1
290
     0
176
     1
290
     0
176
     1
290
     0
176
     1
 90
       50
176
     1
 40
0.0
176
     1
 40
1.0
176
     1
 90
        0
176
     1
 62
    18
420
        0
176
     1
 90
       50
176
     1
 90
        3
176
     1
 62
     5
420
      255
176
     1
290
     0
176
     1
 90
       50
176
     1
 90
       50
176
     1
 90
       50
176
     1
290
     0
176
     1
 90
       50
176
     1
 62
   256
176
     0
 40
1.0
176
     0
 90
        2
176
     1
  1
strokes_ogs.tif
176
     1
290
     0
176
     1
 40
1.0
176
     1
 40
1.0
176
     1
  0
VISUALSTYLE
  5
30
102
{ACAD_REACTORS
330
2A
102
}
330
2A
100
AcDbVisualStyle
  2
Wireframe
 70
     5
177
     3
291
     0
 70
    58
 90
        0
176
     1
 90
        2
176
     1
 90
        0
176
     1
 90
        0
176
     1
 40
0.6
176
     1
 40
30.0
176
     1
 62
     7
420
 16777215
176
     1
 90
        1
176
     1
 90
        4
176
     1
 62
     7
176
     1
 62
   257
176
     1
 90
        1
176
     1
 90
        1
176
     1
 40
1.0
176
     1
 90
        0
176
     1
 62
   257
176
     1
 40
1.0
176
     1
 90
        1
176
     1
 90
        6
176
     1
 90
        2
176
     1
 62
     7
176
     1
 90
        3
176
     1
 90
        0
176
     1
 90
        0
176
     1
290
     0
176
     1
 90
        1
176
     1
 40
0.0
176
     1
 90
        0
176
     1
290
     0
176
     1
290
     1
176
     1
290
     1
176
     1
290
     0
176
     1
290
     0
176
     1
290
     0
176
     1
290
     0
176
     1
290
     0
176
     1
290
     0
176
     1
 90
       50
176
     1
 40
0.0
176
     1
 40
1.0
176
     1
 90
        0
176
     1
 62
    18
420
        0
176
     1
 90
       50
176
     1
 90
        3
176
     1
 62
     5
420
      255
176
     1
290
     0
176
     1
 90
       50
176
     1
 90
       50
176
     1
 90
       50
176
     1
290
     0
176
     1
 90
       50
176
     1
 62
   256
176
     0
 40
1.0
176
     0
 90
        2
176
     1
  1
strokes_ogs.tif
176
     1
290
     0
176
     1
 40
1.0
176
     1
 40
1.0
176
     1
  0
VISUALSTYLE
  5
40
102
{ACAD_REACTORS
330
2A
102
}
330
2A
100
AcDbVisualStyle
  2
X-Ray
 70
    25
177
     3
291
     0
 70
    58
 90
        2
176
     1
 90
        2
176
     1
 90
        1
176
     1
 90
        1
176
     1
 40
0.5
176
     1
 40
30.0
176
     1
 62
     7
420
 16777215
176
     1
 90
        1
176
     1
 90
        0
176
     1
 62
     7
176
     1
 62
   257
176
     1
 90
        1
176
     1
 90
        1
176
     1
 40
1.0
176
     1
 90
        8
176
     1
 62
     7
176
     1
 40
1.0
176
     1
 90
        1
176
     1
 90
        6
176
     1
 90
        2
176
     1
 62
     7
176
     1
 90
        3
176
     1
 90
        0
176
     1
 90
        0
176
     1
290
     0
176
     1
 90
       13
176
     1
 40
0.0
176
     1
 90
        0
176
     1
290
     0
176
     1
290
     1
176
     1
290
     1
176
     1
290
     0
176
     1
290
     0
176
     1
290
     0
176
     1
290
     0
176
     1
290
     0
176
     1
290
     0
176
     1
 90
       50
176
     1
 40
0.0
176
     1
 40
1.0
176
     1
 90
        0
176
     1
 62
    18
420
        0
176
     1
 90
       50
176
     1
 90
        3
176
     1
 62
     5
420
      255
176
     1
290
     0
176
     1
 90
       50
176
     1
 90
       50
176
     1
 90
       50
176
     1
290
     0
176
     1
 90
       50
176
     1
 62
   256
176
     0
 40
1.0
176
     0
 90
        2
176
     1
  1
strokes_ogs.tif
176
     1
290
     0
176
     1
 40
1.0
176
     1
 40
1.0
176
     1
  0
DICTIONARYVAR
  5
1E1
102
{ACAD_REACTORS
330
1E0
102
}
330
1E0
100
DictionaryVariables
280
     0
  1
1:1
  0
DICTIONARYVAR
  5
1E9
102
{ACAD_REACTORS
330
1E0
102
}
330
1E0
100
DictionaryVariables
280
     0
  1
3.500000
  0
DICTIONARYVAR
  5
1EA
102
{ACAD_REACTORS
330
1E0
102
}
330
1E0
100
DictionaryVariables
280
     0
  1
acadiso.lin
  0
DICTIONARYVAR
  5
1E6
102
{ACAD_REACTORS
330
1E0
102
}
330
1E0
100
DictionaryVariables
280
     0
  1
Standard
  0
DICTIONARYVAR
  5
1E5
102
{ACAD_REACTORS
330
1E0
102
}
330
1E0
100
DictionaryVariables
280
     0
  1
Standard
  0
DICTIONARY
  5
1E2
330
5A
100
AcDbDictionary
280
     1
281
     1
  3
ACAD_ROUNDTRIP_2008_TABLESTYLE_CELLSTYLEMAP
360
1E3
  0
CELLSTYLEMAP
  5
1E3
102
{ACAD_REACTORS
330
1E2
102
}
330
1E2
100
AcDbCellStyleMap
 90
        3
300
CELLSTYLE
  1
TABLEFORMAT_BEGIN
 90
        5
170
     1
 91
        0
 92
    32768
 62
   257
 93
        1
300
CONTENTFORMAT
  1
CONTENTFORMAT_BEGIN
 90
        0
 91
        0
 92
        4
 93
        0
300

 40
0.0
140
1.0
 94
        5
 62
     0
340
11
144
6.0
309
CONTENTFORMAT_END
171
     1
301
MARGIN
  1
CELLMARGIN_BEGIN
 40
1.5
 40
1.5
 40
1.5
 40
1.5
 40
1.5
 40
1.5
309
CELLMARGIN_END
 94
        6
 95
        1
302
GRIDFORMAT
  1
GRIDFORMAT_BEGIN
 90
        0
 91
        1
 62
     0
 92
       -2
340
14
 93
        0
 40
0.045
309
GRIDFORMAT_END
 95
        2
302
GRIDFORMAT
  1
GRIDFORMAT_BEGIN
 90
        0
 91
        1
 62
     0
 92
       -2
340
14
 93
        0
 40
0.045
309
GRIDFORMAT_END
 95
        4
302
GRIDFORMAT
  1
GRIDFORMAT_BEGIN
 90
        0
 91
        1
 62
     0
 92
       -2
340
14
 93
        0
 40
0.045
309
GRIDFORMAT_END
 95
        8
302
GRIDFORMAT
  1
GRIDFORMAT_BEGIN
 90
        0
 91
        1
 62
     0
 92
       -2
340
14
 93
        0
 40
0.045
309
GRIDFORMAT_END
 95
       16
302
GRIDFORMAT
  1
GRIDFORMAT_BEGIN
 90
        0
 91
        1
 62
     0
 92
       -2
340
14
 93
        0
 40
0.045
309
GRIDFORMAT_END
 95
       32
302
GRIDFORMAT
  1
GRIDFORMAT_BEGIN
 90
        0
 91
        1
 62
     0
 92
       -2
340
14
 93
        0
 40
0.045
309
GRIDFORMAT_END
309
TABLEFORMAT_END
  1
CELLSTYLE_BEGIN
 90
        1
 91
        1
300
_TITLE
309
CELLSTYLE_END
300
CELLSTYLE
  1
TABLEFORMAT_BEGIN
 90
        5
170
     1
 91
        0
 92
        0
 62
   257
 93
        1
300
CONTENTFORMAT
  1
CONTENTFORMAT_BEGIN
 90
        0
 91
        0
 92
        4
 93
        0
300

 40
0.0
140
1.0
 94
        5
 62
     0
340
11
144
4.5
309
CONTENTFORMAT_END
171
     1
301
MARGIN
  1
CELLMARGIN_BEGIN
 40
1.5
 40
1.5
 40
1.5
 40
1.5
 40
1.5
 40
1.5
309
CELLMARGIN_END
 94
        6
 95
        1
302
GRIDFORMAT
  1
GRIDFORMAT_BEGIN
 90
        0
 91
        1
 62
     0
 92
       -2
340
14
 93
        0
 40
0.045
309
GRIDFORMAT_END
 95
        2
302
GRIDFORMAT
  1
GRIDFORMAT_BEGIN
 90
        0
 91
        1
 62
     0
 92
       -2
340
14
 93
        0
 40
0.045
309
GRIDFORMAT_END
 95
        4
302
GRIDFORMAT
  1
GRIDFORMAT_BEGIN
 90
        0
 91
        1
 62
     0
 92
       -2
340
14
 93
        0
 40
0.045
309
GRIDFORMAT_END
 95
        8
302
GRIDFORMAT
  1
GRIDFORMAT_BEGIN
 90
        0
 91
        1
 62
     0
 92
       -2
340
14
 93
        0
 40
0.045
309
GRIDFORMAT_END
 95
       16
302
GRIDFORMAT
  1
GRIDFORMAT_BEGIN
 90
        0
 91
        1
 62
     0
 92
       -2
340
14
 93
        0
 40
0.045
309
GRIDFORMAT_END
 95
       32
302
GRIDFORMAT
  1
GRIDFORMAT_BEGIN
 90
        0
 91
        1
 62
     0
 92
       -2
340
14
 93
        0
 40
0.045
309
GRIDFORMAT_END
309
TABLEFORMAT_END
  1
CELLSTYLE_BEGIN
 90
        2
 91
        1
300
_HEADER
309
CELLSTYLE_END
300
CELLSTYLE
  1
TABLEFORMAT_BEGIN
 90
        5
170
     1
 91
        0
 92
        0
 62
   257
 93
        1
300
CONTENTFORMAT
  1
CONTENTFORMAT_BEGIN
 90
        0
 91
        0
 92
        4
 93
        0
300

 40
0.0
140
1.0
 94
        2
 62
     0
340
11
144
4.5
309
CONTENTFORMAT_END
171
     1
301
MARGIN
  1
CELLMARGIN_BEGIN
 40
1.5
 40
1.5
 40
1.5
 40
1.5
 40
1.5
 40
1.5
309
CELLMARGIN_END
 94
        6
 95
        1
302
GRIDFORMAT
  1
GRIDFORMAT_BEGIN
 90
        0
 91
        1
 62
     0
 92
       -2
340
14
 93
        0
 40
0.045
309
GRIDFORMAT_END
 95
        2
302
GRIDFORMAT
  1
GRIDFORMAT_BEGIN
 90
        0
 91
        1
 62
     0
 92
       -2
340
14
 93
        0
 40
0.045
309
GRIDFORMAT_END
 95
        4
302
GRIDFORMAT
  1
GRIDFORMAT_BEGIN
 90
        0
 91
        1
 62
     0
 92
       -2
340
14
 93
        0
 40
0.045
309
GRIDFORMAT_END
 95
        8
302
GRIDFORMAT
  1
GRIDFORMAT_BEGIN
 90
        0
 91
        1
 62
     0
 92
       -2
340
14
 93
        0
 40
0.045
309
GRIDFORMAT_END
 95
       16
302
GRIDFORMAT
  1
GRIDFORMAT_BEGIN
 90
        0
 91
        1
 62
     0
 92
       -2
340
14
 93
        0
 40
0.045
309
GRIDFORMAT_END
 95
       32
302
GRIDFORMAT
  1
GRIDFORMAT_BEGIN
 90
        0
 91
        1
 62
     0
 92
       -2
340
14
 93
        0
 40
0.045
309
GRIDFORMAT_END
309
TABLEFORMAT_END
  1
CELLSTYLE_BEGIN
 90
        3
 91
        2
300
_DATA
309
CELLSTYLE_END
  0
ENDSEC
  0
EOF
