  0
SECTION
  2
HEADER
  9
$ACADVER
  1
AC1015
  9
$ACADMAINTVER
 70
     6
  9
$DWGCODEPAGE
  3
ANSI_1251
  9
$INSBASE
 10
0.0
 20
0.0
 30
0.0
  9
$EXTMIN
 10
0.0
 20
0.0
 30
0.0
  9
$EXTMAX
 10
420.0
 20
297.0
 30
0.0
  9
$LIMMIN
 10
0.0
 20
0.0
  9
$LIMMAX
 10
420.0
 20
297.0
  9
$ORTHOMODE
 70
     0
  9
$REGENMODE
 70
     1
  9
$FILLMODE
 70
     1
  9
$QTEXTMODE
 70
     0
  9
$MIRRTEXT
 70
     1
  9
$LTSCALE
 40
1.0
  9
$ATTMODE
 70
     1
  9
$TEXTSIZE
 40
5.0
  9
$TRACEWID
 40
1.0
  9
$TEXTSTYLE
  7
Standard
  9
$CLAYER
  8
0
  9
$CELTYPE
  6
ByLayer
  9
$CECOLOR
 62
   256
  9
$CELTSCALE
 40
1.0
  9
$DISPSILH
 70
     0
  9
$DIMSCALE
 40
1.0
  9
$DIMASZ
 40
5.0
  9
$DIMEXO
 40
0.0
  9
$DIMDLI
 40
3.75
  9
$DIMRND
 40
0.0
  9
$DIMDLE
 40
0.0
  9
$DIMEXE
 40
1.0
  9
$DIMTP
 40
0.0
  9
$DIMTM
 40
0.0
  9
$DIMTXT
 40
3.5
  9
$DIMCEN
 40
2.5
  9
$DIMTSZ
 40
0.0
  9
$DIMTOL
 70
     0
  9
$DIMLIM
 70
     0
  9
$DIMTIH
 70
     1
  9
$DIMTOH
 70
     1
  9
$DIMSE1
 70
     0
  9
$DIMSE2
 70
     0
  9
$DIMTAD
 70
     1
  9
$DIMZIN
 70
     0
  9
$DIMBLK
  1

  9
$DIMASO
 70
     1
  9
$DIMSHO
 70
     1
  9
$DIMPOST
  1

  9
$DIMAPOST
  1

  9
$DIMALT
 70
     0
  9
$DIMALTD
 70
     3
  9
$DIMALTF
 40
0.0393700787
  9
$DIMLFAC
 40
1.0
  9
$DIMTOFL
 70
     1
  9
$DIMTVP
 40
0.0
  9
$DIMTIX
 70
     0
  9
$DIMSOXD
 70
     0
  9
$DIMSAH
 70
     0
  9
$DIMBLK1
  1

  9
$DIMBLK2
  1

  9
$DIMSTYLE
  2
ISO-25
  9
$DIMCLRD
 70
     0
  9
$DIMCLRE
 70
     0
  9
$DIMCLRT
 70
     0
  9
$DIMTFAC
 40
1.0
  9
$DIMGAP
 40
1.5
  9
$DIMJUST
 70
     0
  9
$DIMSD1
 70
     0
  9
$DIMSD2
 70
     0
  9
$DIMTOLJ
 70
     0
  9
$DIMTZIN
 70
     0
  9
$DIMALTZ
 70
     0
  9
$DIMALTTZ
 70
     0
  9
$DIMUPT
 70
     0
  9
$DIMDEC
 70
     1
  9
$DIMTDEC
 70
     1
  9
$DIMALTU
 70
     2
  9
$DIMALTTD
 70
     3
  9
$DIMTXSTY
  7
Standard
  9
$DIMAUNIT
 70
     0
  9
$DIMADEC
 70
     2
  9
$DIMALTRND
 40
0.0
  9
$DIMAZIN
 70
     0
  9
$DIMDSEP
 70
    44
  9
$DIMATFIT
 70
     3
  9
$DIMFRAC
 70
     0
  9
$DIMLDRBLK
  1

  9
$DIMLUNIT
 70
     2
  9
$DIMLWD
 70
    -2
  9
$DIMLWE
 70
    -2
  9
$DIMTMOVE
 70
     0
  9
$LUNITS
 70
     2
  9
$LUPREC
 70
     1
  9
$SKETCHINC
 40
1.0
  9
$FILLETRAD
 40
0.0
  9
$AUNITS
 70
     0
  9
$AUPREC
 70
     2
  9
$MENU
  1
.
  9
$ELEVATION
 40
0.0
  9
$PELEVATION
 40
0.0
  9
$THICKNESS
 40
0.0
  9
$LIMCHECK
 70
     0
  9
$CHAMFERA
 40
0.0
  9
$CHAMFERB
 40
0.0
  9
$CHAMFERC
 40
0.0
  9
$CHAMFERD
 40
0.0
  9
$SKPOLY
 70
     0
  9
$TDCREATE
 40
2460698.696043507
  9
$TDUCREATE
 40
2460698.571043507
  9
$TDUPDATE
 40
2460698.696044201
  9
$TDUUPDATE
 40
2460698.571044201
  9
$TDINDWG
 40
0.0000000116
  9
$TDUSRTIMER
 40
0.0000000116
  9
$USRTIMER
 70
     1
  9
$ANGBASE
 50
0.0
  9
$ANGDIR
 70
     0
  9
$PDMODE
 70
     0
  9
$PDSIZE
 40
-1.0
  9
$PLINEWID
 40
0.0
  9
$SPLFRAME
 70
     0
  9
$SPLINETYPE
 70
     6
  9
$SPLINESEGS
 70
     8
  9
$HANDSEED
  5
6EE
  9
$SURFTAB1
 70
     6
  9
$SURFTAB2
 70
     6
  9
$SURFTYPE
 70
     6
  9
$SURFU
 70
     6
  9
$SURFV
 70
     6
  9
$UCSBASE
  2

  9
$UCSNAME
  2

  9
$UCSORG
 10
0.0
 20
0.0
 30
0.0
  9
$UCSXDIR
 10
1.0
 20
0.0
 30
0.0
  9
$UCSYDIR
 10
0.0
 20
1.0
 30
0.0
  9
$UCSORTHOREF
  2

  9
$UCSORTHOVIEW
 70
     0
  9
$UCSORGTOP
 10
0.0
 20
0.0
 30
0.0
  9
$UCSORGBOTTOM
 10
0.0
 20
0.0
 30
0.0
  9
$UCSORGLEFT
 10
0.0
 20
0.0
 30
0.0
  9
$UCSORGRIGHT
 10
0.0
 20
0.0
 30
0.0
  9
$UCSORGFRONT
 10
0.0
 20
0.0
 30
0.0
  9
$UCSORGBACK
 10
0.0
 20
0.0
 30
0.0
  9
$PUCSBASE
  2

  9
$PUCSNAME
  2

  9
$PUCSORG
 10
0.0
 20
0.0
 30
0.0
  9
$PUCSXDIR
 10
1.0
 20
0.0
 30
0.0
  9
$PUCSYDIR
 10
0.0
 20
1.0
 30
0.0
  9
$PUCSORTHOREF
  2

  9
$PUCSORTHOVIEW
 70
     0
  9
$PUCSORGTOP
 10
0.0
 20
0.0
 30
0.0
  9
$PUCSORGBOTTOM
 10
0.0
 20
0.0
 30
0.0
  9
$PUCSORGLEFT
 10
0.0
 20
0.0
 30
0.0
  9
$PUCSORGRIGHT
 10
0.0
 20
0.0
 30
0.0
  9
$PUCSORGFRONT
 10
0.0
 20
0.0
 30
0.0
  9
$PUCSORGBACK
 10
0.0
 20
0.0
 30
0.0
  9
$USERI1
 70
     0
  9
$USERI2
 70
     0
  9
$USERI3
 70
     0
  9
$USERI4
 70
     0
  9
$USERI5
 70
     0
  9
$USERR1
 40
0.0
  9
$USERR2
 40
0.0
  9
$USERR3
 40
0.0
  9
$USERR4
 40
0.0
  9
$USERR5
 40
0.0
  9
$WORLDVIEW
 70
     1
  9
$SHADEDGE
 70
     3
  9
$SHADEDIF
 70
    70
  9
$TILEMODE
 70
     1
  9
$MAXACTVP
 70
    64
  9
$PINSBASE
 10
0.0
 20
0.0
 30
0.0
  9
$PLIMCHECK
 70
     0
  9
$PEXTMIN
 10
1.0000000000E+20
 20
1.0000000000E+20
 30
1.0000000000E+20
  9
$PEXTMAX
 10
-1.0000000000E+20
 20
-1.0000000000E+20
 30
-1.0000000000E+20
  9
$PLIMMIN
 10
0.0
 20
0.0
  9
$PLIMMAX
 10
420.0
 20
297.0
  9
$UNITMODE
 70
     0
  9
$VISRETAIN
 70
     1
  9
$PLINEGEN
 70
     0
  9
$PSLTSCALE
 70
     1
  9
$TREEDEPTH
 70
  3020
  9
$CMLSTYLE
  2
Standard
  9
$CMLJUST
 70
     0
  9
$CMLSCALE
 40
20.0
  9
$PROXYGRAPHICS
 70
     1
  9
$MEASUREMENT
 70
     1
  9
$CELWEIGHT
370
    -1
  9
$ENDCAPS
280
     0
  9
$JOINSTYLE
280
     0
  9
$LWDISPLAY
290
     1
  9
$INSUNITS
 70
     4
  9
$HYPERLINKBASE
  1

  9
$STYLESHEET
  1

  9
$XEDIT
290
     1
  9
$CEPSNTYPE
380
     0
  9
$PSTYLEMODE
290
     1
  9
$FINGERPRINTGUID
  2
{52e96760-7ee5-4af7-b892-6a477f6e8b50}
  9
$VERSIONGUID
  2
{FAEB1C32-E019-11D5-929B-00C0DF256EC4}
  9
$EXTNAMES
290
     1
  9
$PSVPSCALE
 40
0.0
  9
$OLESTARTUP
290
     0
  0
ENDSEC
  0
SECTION
  2
CLASSES
  0
CLASS
  1
ACDBDICTIONARYWDFLT
  2
AcDbDictionaryWithDefault
  3
ObjectDBX Classes
 90
        0
280
     0
281
     0
  0
CLASS
  1
VISUALSTYLE
  2
AcDbVisualStyle
  3
ObjectDBX Classes
 90
     4095
280
     0
281
     0
  0
CLASS
  1
MATERIAL
  2
AcDbMaterial
  3
ObjectDBX Classes
 90
     1153
280
     0
281
     0
  0
CLASS
  1
SCALE
  2
AcDbScale
  3
ObjectDBX Classes
 90
     1153
280
     0
281
     0
  0
CLASS
  1
TABLESTYLE
  2
AcDbTableStyle
  3
ObjectDBX Classes
 90
     4095
280
     0
281
     0
  0
CLASS
  1
MLEADERSTYLE
  2
AcDbMLeaderStyle
  3
ACDB_MLEADERSTYLE_CLASS
 90
     4095
280
     0
281
     0
  0
CLASS
  1
SUN
  2
AcDbSun
  3
SCENEOE
 90
     1153
280
     0
281
     0
  0
CLASS
  1
ACDBPLACEHOLDER
  2
AcDbPlaceHolder
  3
ObjectDBX Classes
 90
        0
280
     0
281
     0
  0
CLASS
  1
LAYOUT
  2
AcDbLayout
  3
ObjectDBX Classes
 90
        0
280
     0
281
     0
  0
ENDSEC
  0
SECTION
  2
TABLES
  0
TABLE
  2
VPORT
  5
8
330
0
100
AcDbSymbolTable
 70
     1
  0
VPORT
  5
29
330
8
100
AcDbSymbolTableRecord
100
AcDbViewportTableRecord
  2
*Active
 70
     0
 10
0.0
 20
0.0
 11
1.0
 21
1.0
 12
210.0
 22
148.5
 13
0.0
 23
0.0
 14
10.0
 24
10.0
 15
10.0
 25
10.0
 16
0.0
 26
0.0
 36
1.0
 17
0.0
 27
0.0
 37
0.0
 40
297.0
 41
1.4141414141
 42
50.0
 43
0.0
 44
0.0
 50
0.0
 51
0.0
 71
     0
 72
  2000
 73
     1
 74
     3
 75
     0
 76
     0
 77
     0
 78
     0
281
     0
 65
     1
110
0.0
120
0.0
130
0.0
111
1.0
121
0.0
131
0.0
112
0.0
122
1.0
132
0.0
 79
     0
146
0.0
  0
ENDTAB
  0
TABLE
  2
LTYPE
  5
5
330
0
100
AcDbSymbolTable
 70
     6
  0
LTYPE
  5
14
330
5
100
AcDbSymbolTableRecord
100
AcDbLinetypeTableRecord
  2
ByBlock
 70
     0
  3

 72
    65
 73
     0
 40
0.0
  0
LTYPE
  5
15
330
5
100
AcDbSymbolTableRecord
100
AcDbLinetypeTableRecord
  2
ByLayer
 70
     0
  3

 72
    65
 73
     0
 40
0.0
  0
LTYPE
  5
16
330
5
100
AcDbSymbolTableRecord
100
AcDbLinetypeTableRecord
  2
Continuous
 70
     0
  3
Solid line
 72
    65
 73
     0
 40
0.0
  0
LTYPE
  5
5E
330
5
100
AcDbSymbolTableRecord
100
AcDbLinetypeTableRecord
  2
HIDDEN
 70
     0
  3
Hidden __ __ __ __ __ __ __ __ __ __ __ __ __ __
 72
    65
 73
     2
 40
1.905
 49
1.27
 74
     0
 49
-0.635
 74
     0
  0
LTYPE
  5
5F
330
5
100
AcDbSymbolTableRecord
100
AcDbLinetypeTableRecord
  2
PHANTOM
 70
     0
  3
Phantom ______  __  __  ______  __  __  ______
 72
    65
 73
     6
 40
12.7
 49
6.35
 74
     0
 49
-1.27
 74
     0
 49
1.27
 74
     0
 49
-1.27
 74
     0
 49
1.27
 74
     0
 49
-1.27
 74
     0
  0
LTYPE
  5
60
330
5
100
AcDbSymbolTableRecord
100
AcDbLinetypeTableRecord
  2
CENTER
 70
     0
  3
Center ____ _ ____ _ ____ _ ____ _ ____ _ ____
 72
    65
 73
     4
 40
10.16
 49
6.35
 74
     0
 49
-1.27
 74
     0
 49
1.27
 74
     0
 49
-1.27
 74
     0
  0
LTYPE
  5
61
330
5
100
AcDbSymbolTableRecord
100
AcDbLinetypeTableRecord
  2
CENTERX2
 70
     0
  3
Center (2x) ________  __  ________  __  _____
 72
    65
 73
     4
 40
20.32
 49
12.7
 74
     0
 49
-2.54
 74
     0
 49
2.54
 74
     0
 49
-2.54
 74
     0
  0
LTYPE
  5
62
330
5
100
AcDbSymbolTableRecord
100
AcDbLinetypeTableRecord
  2
DOT2
 70
     0
  3
Dot (.5x) ........................................
 72
    65
 73
     2
 40
0.635
 49
0.0
 74
     0
 49
-0.635
 74
     0
  0
ENDTAB
  0
TABLE
  2
LAYER
  5
2
330
0
100
AcDbSymbolTable
 70
     3
  0
LAYER
  5
10
330
2
100
AcDbSymbolTableRecord
100
AcDbLayerTableRecord
  2
0
 70
     0
 62
     7
  6
Continuous
370
    -3
390
F
  0
LAYER
  5
63
330
2
100
AcDbSymbolTableRecord
100
AcDbLayerTableRecord
  2
ВОДЯНОЙ_ЗНАК
 70
     0
 62
    11
  6
Continuous
370
    -3
390
F
  0
LAYER
  5
64
330
2
100
AcDbSymbolTableRecord
100
AcDbLayerTableRecord
  2
ОСНОВНОЙ
 70
     0
 62
     7
  6
Continuous
370
    -3
390
F
  0
ENDTAB
  0
TABLE
  2
STYLE
  5
3
330
0
100
AcDbSymbolTable
 70
     1
  0
STYLE
  5
11
330
3
100
AcDbSymbolTableRecord
100
AcDbTextStyleTableRecord
  2
Standard
 70
     0
 40
0.0
 41
1.0
 50
0.0
 71
     0
 42
5.0
  3
txt
  4

  0
ENDTAB
  0
TABLE
  2
VIEW
  5
6
330
0
100
AcDbSymbolTable
 70
     0
  0
ENDTAB
  0
TABLE
  2
UCS
  5
7
330
0
100
AcDbSymbolTable
 70
     0
  0
ENDTAB
  0
TABLE
  2
APPID
  5
9
330
0
100
AcDbSymbolTable
 70
     1
  0
APPID
  5
12
330
9
100
AcDbSymbolTableRecord
100
AcDbRegAppTableRecord
  2
ACAD
 70
     0
  0
ENDTAB
  0
TABLE
  2
DIMSTYLE
  5
A
330
0
100
AcDbSymbolTable
 70
     1
100
AcDbDimStyleTable
  0
DIMSTYLE
105
27
330
A
100
AcDbSymbolTableRecord
100
AcDbDimStyleTableRecord
  2
ISO-25
 70
     0
 41
2.5
 42
0.625
 43
3.75
 44
1.25
 73
     0
 74
     0
 77
     1
 78
     8
140
2.5
141
2.5
143
0.0393700787
147
0.625
171
     3
172
     1
178
     0
271
     2
272
     2
274
     3
278
    44
283
     0
284
     8
340
11
  0
ENDTAB
  0
TABLE
  2
BLOCK_RECORD
  5
1
330
0
100
AcDbSymbolTable
 70
     1
  0
BLOCK_RECORD
  5
1F
330
1
100
AcDbSymbolTableRecord
100
AcDbBlockTableRecord
  2
*Model_Space
340
22
  0
BLOCK_RECORD
  5
1B
330
1
100
AcDbSymbolTableRecord
100
AcDbBlockTableRecord
  2
*Paper_Space
340
1E
  0
BLOCK_RECORD
  5
23
330
1
100
AcDbSymbolTableRecord
100
AcDbBlockTableRecord
  2
*Paper_Space0
340
26
  0
ENDTAB
  0
ENDSEC
  0
SECTION
  2
BLOCKS
  0
BLOCK
  5
20
330
1F
100
AcDbEntity
  8
0
100
AcDbBlockBegin
  2
*Model_Space
 70
     0
 10
0.0
 20
0.0
 30
0.0
  3
*Model_Space
  1

  0
ENDBLK
  5
21
330
1F
100
AcDbEntity
  8
0
100
AcDbBlockEnd
  0
BLOCK
  5
1C
330
1B
100
AcDbEntity
 67
     1
  8
0
100
AcDbBlockBegin
  2
*Paper_Space
 70
     0
 10
0.0
 20
0.0
 30
0.0
  3
*Paper_Space
  1

  0
ENDBLK
  5
1D
330
1B
100
AcDbEntity
 67
     1
  8
0
100
AcDbBlockEnd
  0
BLOCK
  5
24
330
23
100
AcDbEntity
  8
0
100
AcDbBlockBegin
  2
*Paper_Space0
 70
     0
 10
0.0
 20
0.0
 30
0.0
  3
*Paper_Space0
  1

  0
ENDBLK
  5
25
330
23
100
AcDbEntity
  8
0
100
AcDbBlockEnd
  0
ENDSEC
  0
SECTION
  2
ENTITIES
  0
ARC
  5
65
330
1F
100
AcDbEntity
  8
0
  6
Continuous
 62
     7
100
AcDbCircle
 10
1151.6921856071
 20
-286.5157528899
 30
0.0
 40
1.499999999999943
100
AcDbArc
 50
27.5120026239
 51
90.0
  0
LINE
  5
66
330
1F
100
AcDbEntity
  8
0
  6
Continuous
 62
     7
100
AcDbLine
 10
1151.6921856071
 20
-285.0157528899
 30
0.0
 11
1148.8521929981
 21
-285.0157528899
 31
0.0
  0
LINE
  5
67
330
1F
100
AcDbEntity
  8
0
  6
Continuous
 62
     7
100
AcDbLine
 10
1153.6825641243
 20
-287.0900654523
 30
0.0
 11
1153.0225567334
 21
-285.8228512616
 31
0.0
  0
ARC
  5
68
330
1F
100
AcDbEntity
  8
0
  6
Continuous
 62
     7
100
AcDbCircle
 10
1152.3521929981
 20
-287.7829670806
 30
0.0
 40
1.5
100
AcDbArc
 50
0.0
 51
27.5120026239
  0
ARC
  5
69
330
1F
100
AcDbEntity
  8
0
  6
Continuous
 62
     7
100
AcDbCircle
 10
1151.6921856071
 20
-295.3157528899
 30
0.0
 40
1.500000000000057
100
AcDbArc
 50
270.0
 51
332.4879973761
  0
LINE
  5
6A
330
1F
100
AcDbEntity
  8
0
  6
Continuous
 62
     7
100
AcDbLine
 10
1150.8102195959
 20
-296.8157528899
 30
0.0
 11
1151.6921856071
 21
-296.8157528899
 31
0.0
  0
LINE
  5
6B
330
1F
100
AcDbEntity
  8
0
  6
Continuous
 62
     7
100
AcDbLine
 10
1153.0225567334
 20
-296.0086545182
 30
0.0
 11
1153.6825641243
 21
-294.7414403275
 31
0.0
  0
ARC
  5
6C
330
1F
100
AcDbEntity
  8
0
  6
Continuous
 62
     7
100
AcDbCircle
 10
1152.3521929981
 20
-294.0485386992
 30
0.0
 40
1.5
100
AcDbArc
 50
332.4879973761
 51
0.0
  0
LINE
  5
6D
330
1F
100
AcDbEntity
  8
0
  6
Continuous
 62
     7
100
AcDbLine
 10
1127.7521929981
 20
-304.4157528899
 30
0.0
 11
1127.7521929981
 21
-303.6657528899
 31
0.0
  0
LINE
  5
6E
330
1F
100
AcDbEntity
  8
0
  6
Continuous
 62
     7
100
AcDbLine
 10
1124.8521929981
 20
-313.1157528899
 30
0.0
 11
1124.8521929981
 21
-310.8657528899
 31
0.0
  0
LINE
  5
6F
330
1F
100
AcDbEntity
  8
0
  6
Continuous
 62
     7
100
AcDbLine
 10
1124.3521929981
 20
-313.6157528899
 30
0.0
 11
1124.8521929981
 21
-313.1157528899
 31
0.0
  0
LINE
  5
70
330
1F
100
AcDbEntity
  8
0
  6
Continuous
 62
     7
100
AcDbLine
 10
1115.9521929981
 20
-303.6657528899
 30
0.0
 11
1115.9521929981
 21
-304.4157528899
 31
0.0
  0
LINE
  5
71
330
1F
100
AcDbEntity
  8
0
  6
Continuous
 62
     7
100
AcDbLine
 10
1118.8521929981
 20
-313.1157528899
 30
0.0
 11
1119.3521929981
 21
-313.6157528899
 31
0.0
  0
LINE
  5
72
330
1F
100
AcDbEntity
  8
0
  6
Continuous
 62
     7
100
AcDbLine
 10
1118.8521929981
 20
-310.8657528899
 30
0.0
 11
1118.8521929981
 21
-313.1157528899
 31
0.0
  0
ARC
  5
73
330
1F
100
AcDbEntity
  8
0
  6
Continuous
 62
     7
100
AcDbCircle
 10
1149.6921856071
 20
-287.0157528899
 30
0.0
 40
1.500000000000107
100
AcDbArc
 50
27.5120026238
 51
90.0
  0
LINE
  5
74
330
1F
100
AcDbEntity
  8
0
  6
Continuous
 62
     7
100
AcDbLine
 10
1149.6921856071
 20
-285.5157528899
 30
0.0
 11
1146.8521929981
 21
-285.5157528899
 31
0.0
  0
LINE
  5
75
330
1F
100
AcDbEntity
  8
0
  6
Continuous
 62
     7
100
AcDbLine
 10
1146.8521929981
 20
-297.3157528899
 30
0.0
 11
1149.6921856071
 21
-297.3157528899
 31
0.0
  0
ARC
  5
76
330
1F
100
AcDbEntity
  8
0
  6
Continuous
 62
     7
100
AcDbCircle
 10
1149.6921856071
 20
-295.8157528899
 30
0.0
 40
1.500000000000107
100
AcDbArc
 50
270.0
 51
332.4879973762
  0
LINE
  5
77
330
1F
100
AcDbEntity
  8
0
  6
Continuous
 62
     7
100
AcDbLine
 10
1151.6825641243
 20
-287.5900654523
 30
0.0
 11
1151.0225567334
 21
-286.3228512617
 31
0.0
  0
LINE
  5
78
330
1F
100
AcDbEntity
  8
0
  6
Continuous
 62
     7
100
AcDbLine
 10
1151.0225567334
 20
-296.5086545182
 30
0.0
 11
1151.6825641243
 21
-295.2414403275
 31
0.0
  0
ARC
  5
79
330
1F
100
AcDbEntity
  8
0
  6
Continuous
 62
     7
100
AcDbCircle
 10
1150.3521929981
 20
-288.2829670806
 30
0.0
 40
1.500000000000107
100
AcDbArc
 50
0.0
 51
27.5120026238
  0
ARC
  5
7A
330
1F
100
AcDbEntity
  8
0
  6
Continuous
 62
     7
100
AcDbCircle
 10
1150.3521929981
 20
-294.5485386993
 30
0.0
 40
1.500000000000107
100
AcDbArc
 50
332.4879973762
 51
0.0
  0
LINE
  5
7B
330
1F
100
AcDbEntity
  8
0
  6
Continuous
 62
     7
100
AcDbLine
 10
1145.3521929981
 20
-288.4157528899
 30
0.0
 11
1144.8521929981
 21
-288.4157528899
 31
0.0
  0
LINE
  5
7C
330
1F
100
AcDbEntity
  8
0
  6
Continuous
 62
     7
100
AcDbLine
 10
1144.8521929981
 20
-294.4157528899
 30
0.0
 11
1145.3521929981
 21
-294.4157528899
 31
0.0
  0
LINE
  5
7D
330
1F
100
AcDbEntity
  8
0
  6
Continuous
 62
     7
100
AcDbLine
 10
1153.6825641243
 20
-293.5937996802
 30
0.0
 11
1153.0225567334
 21
-294.4808713376
 31
0.0
  0
LINE
  5
7E
330
1F
100
AcDbEntity
  8
0
  6
Continuous
 62
     7
100
AcDbLine
 10
1153.8521929981
 20
-287.7829670806
 30
0.0
 11
1153.8521929981
 21
-293.108756662
 31
0.0
  0
ARC
  5
7F
330
1F
100
AcDbEntity
  8
0
  6
Continuous
 62
     7
100
AcDbCircle
 10
1153.0409661203
 20
-293.0972377672
 30
0.0
 40
0.8113086540881115
100
AcDbArc
 50
322.2620803344
 51
359.1864918184
  0
LINE
  5
80
330
1F
100
AcDbEntity
  8
0
  6
Continuous
 62
     7
100
AcDbLine
 10
1153.8521929981
 20
-293.108756662
 30
0.0
 11
1153.8521929981
 21
-294.0485386992
 31
0.0
  0
LINE
  5
81
330
1F
100
AcDbEntity
  8
0
  6
Continuous
 62
     7
100
AcDbLine
 10
1146.8521929981
 20
-276.9157528899
 30
0.0
 11
1146.8521929981
 21
500.5842471101
 31
0.0
  0
LINE
  5
82
330
1F
100
AcDbEntity
  8
0
  6
Continuous
 62
     7
100
AcDbLine
 10
1146.8521929981
 20
500.5842471101
 30
0.0
 11
1186.3521929981
 21
500.5842471101
 31
0.0
  0
LINE
  5
83
330
1F
100
AcDbEntity
  8
0
  6
Continuous
 62
     7
100
AcDbLine
 10
1186.3521929981
 20
-278.9157528899
 30
0.0
 11
1146.8521929981
 21
-278.9157528899
 31
0.0
  0
LINE
  5
84
330
1F
100
AcDbEntity
  8
0
  6
Continuous
 62
     7
100
AcDbLine
 10
1186.3521929981
 20
-278.9157528899
 30
0.0
 11
1186.3521929981
 21
500.5842471101
 31
0.0
  0
LINE
  5
85
330
1F
100
AcDbEntity
  8
0
  6
Continuous
 62
     7
100
AcDbLine
 10
1148.8521929981
 20
-279.9157528899
 30
0.0
 11
1148.8521929981
 21
-278.9157528899
 31
0.0
  0
LINE
  5
86
330
1F
100
AcDbEntity
  8
0
  6
Continuous
 62
     7
100
AcDbLine
 10
1148.8521929981
 20
-279.9157528899
 30
0.0
 11
1146.8521929981
 21
-279.9157528899
 31
0.0
  0
LINE
  5
87
330
1F
100
AcDbEntity
  8
0
  6
Continuous
 62
     7
100
AcDbLine
 10
1148.8521929981
 20
-285.5157528899
 30
0.0
 11
1148.8521929981
 21
-279.9157528899
 31
0.0
  0
LINE
  5
88
330
1F
100
AcDbEntity
  8
0
  6
Continuous
 62
     7
100
AcDbLine
 10
1148.8521929981
 20
-297.9157528899
 30
0.0
 11
1146.8521929981
 21
-297.9157528899
 31
0.0
  0
LINE
  5
89
330
1F
100
AcDbEntity
  8
0
  6
Continuous
 62
     7
100
AcDbLine
 10
1148.8521929981
 20
-297.3157528899
 30
0.0
 11
1148.8521929981
 21
-297.9157528899
 31
0.0
  0
LINE
  5
8A
330
1F
100
AcDbEntity
  8
0
  6
Continuous
 62
     7
100
AcDbLine
 10
1171.8521929981
 20
519.5842471101
 30
0.0
 11
1158.8521929981
 21
519.5842471101
 31
0.0
  0
ARC
  5
8B
330
1F
100
AcDbEntity
  8
0
  6
Continuous
 62
     7
100
AcDbCircle
 10
1171.8521929981
 20
512.5842471101
 30
0.0
 40
7.000000000000227
100
AcDbArc
 50
0.0
 51
90.0
  0
LINE
  5
8C
330
1F
100
AcDbEntity
  8
0
  6
Continuous
 62
     7
100
AcDbLine
 10
1178.8521929981
 20
500.5842471101
 30
0.0
 11
1178.8521929981
 21
512.5842471101
 31
0.0
  0
LINE
  5
8D
330
1F
100
AcDbEntity
  8
0
  6
Continuous
 62
     7
100
AcDbLine
 10
1166.8521929981
 20
500.5842471101
 30
0.0
 11
1166.8521929981
 21
505.5842471101
 31
0.0
  0
LINE
  5
8E
330
1F
100
AcDbEntity
  8
0
  6
Continuous
 62
     7
100
AcDbLine
 10
1166.8521929981
 20
505.5842471101
 30
0.0
 11
1158.8521929981
 21
505.5842471101
 31
0.0
  0
LINE
  5
8F
330
1F
100
AcDbEntity
  8
0
  6
Continuous
 62
     7
100
AcDbLine
 10
1146.8521929981
 20
519.5842471101
 30
0.0
 11
1158.8521929981
 21
519.5842471101
 31
0.0
  0
ARC
  5
90
330
1F
100
AcDbEntity
  8
0
  6
Continuous
 62
     7
100
AcDbCircle
 10
1158.8521929981
 20
512.5842471101
 30
0.0
 40
7.0
100
AcDbArc
 50
270.0
 51
90.0
  0
ARC
  5
91
330
1F
100
AcDbEntity
  8
0
  6
Continuous
 62
     7
100
AcDbCircle
 10
1158.8521929981
 20
512.5842471101
 30
0.0
 40
3.0
100
AcDbArc
 50
270.0
 51
90.0
  0
LINE
  5
92
330
1F
100
AcDbEntity
  8
0
  6
Continuous
 62
     7
100
AcDbLine
 10
1146.8521929981
 20
505.5842471101
 30
0.0
 11
1158.8521929981
 21
505.5842471101
 31
0.0
  0
ARC
  5
93
330
1F
100
AcDbEntity
  8
0
  6
Continuous
 62
     7
100
AcDbCircle
 10
1158.8521929981
 20
512.5842471101
 30
0.0
 40
3.0
100
AcDbArc
 50
90.0
 51
270.0
  0
LINE
  5
94
330
1F
100
AcDbEntity
  8
0
  6
Continuous
 62
     7
100
AcDbLine
 10
1127.7521929981
 20
599.3342471101
 30
0.0
 11
1127.7521929981
 21
600.0842471101
 31
0.0
  0
LINE
  5
95
330
1F
100
AcDbEntity
  8
0
  6
Continuous
 62
     7
100
AcDbLine
 10
1115.9521929981
 20
599.3342471101
 30
0.0
 11
1115.9521929981
 21
600.0842471101
 31
0.0
  0
LINE
  5
96
330
1F
100
AcDbEntity
  8
0
  6
Continuous
 62
     7
100
AcDbLine
 10
1124.3521929981
 20
609.2842471101
 30
0.0
 11
1124.8521929981
 21
608.7842471101
 31
0.0
  0
LINE
  5
97
330
1F
100
AcDbEntity
  8
0
  6
Continuous
 62
     7
100
AcDbLine
 10
1118.8521929981
 20
608.7842471101
 30
0.0
 11
1124.8521929981
 21
608.7842471101
 31
0.0
  0
LINE
  5
98
330
1F
100
AcDbEntity
  8
0
  6
Continuous
 62
     7
100
AcDbLine
 10
1119.3521929981
 20
609.2842471101
 30
0.0
 11
1118.8521929981
 21
608.7842471101
 31
0.0
  0
LINE
  5
99
330
1F
100
AcDbEntity
  8
0
  6
Continuous
 62
     7
100
AcDbLine
 10
1119.3521929981
 20
609.2842471101
 30
0.0
 11
1124.3521929981
 21
609.2842471101
 31
0.0
  0
LINE
  5
9A
330
1F
100
AcDbEntity
  8
0
  6
Continuous
 62
     7
100
AcDbLine
 10
1118.8521929981
 20
608.7842471101
 30
0.0
 11
1118.8521929981
 21
606.5342471101
 31
0.0
  0
LINE
  5
9B
330
1F
100
AcDbEntity
  8
0
  6
Continuous
 62
     7
100
AcDbLine
 10
1124.8521929981
 20
608.7842471101
 30
0.0
 11
1124.8521929981
 21
606.5342471101
 31
0.0
  0
LINE
  5
9C
330
1F
100
AcDbEntity
  8
0
  6
Continuous
 62
     7
100
AcDbLine
 10
1124.8521929981
 20
-313.1157528899
 30
0.0
 11
1118.9438799297
 21
-313.1157528899
 31
0.0
  0
LINE
  5
9D
330
1F
100
AcDbEntity
  8
0
  6
Continuous
 62
     7
100
AcDbLine
 10
1124.3521929981
 20
-313.6157528899
 30
0.0
 11
1119.4285987745
 21
-313.6157528899
 31
0.0
  0
LINE
  5
9E
330
1F
100
AcDbEntity
  8
0
  6
Continuous
 62
     7
100
AcDbLine
 10
1119.4285987745
 20
-313.6157528899
 30
0.0
 11
1118.9438799297
 21
-313.1157528899
 31
0.0
  0
LINE
  5
9F
330
1F
100
AcDbEntity
  8
0
  6
Continuous
 62
     7
100
AcDbLine
 10
1118.9438799297
 20
-313.1157528899
 30
0.0
 11
1118.8521929981
 21
-313.1157528899
 31
0.0
  0
LINE
  5
A0
330
1F
100
AcDbEntity
  8
0
  6
Continuous
 62
     7
100
AcDbLine
 10
1119.4285987745
 20
-313.6157528899
 30
0.0
 11
1119.3521929981
 21
-313.6157528899
 31
0.0
  0
LINE
  5
A1
330
1F
100
AcDbEntity
  8
0
  6
Continuous
 62
     7
100
AcDbLine
 10
1113.3521929981
 20
596.8342471101
 30
0.0
 11
1113.3521929981
 21
599.3342471101
 31
0.0
  0
LINE
  5
A2
330
1F
100
AcDbEntity
  8
0
  6
Continuous
 62
     7
100
AcDbLine
 10
1113.3521929981
 20
599.3342471101
 30
0.0
 11
1130.3521929981
 21
599.3342471101
 31
0.0
  0
LINE
  5
A3
330
1F
100
AcDbEntity
  8
0
  6
Continuous
 62
     7
100
AcDbLine
 10
1130.3521929981
 20
596.8342471101
 30
0.0
 11
1130.3521929981
 21
599.3342471101
 31
0.0
  0
LINE
  5
A4
330
1F
100
AcDbEntity
  8
0
  6
Continuous
 62
     7
100
AcDbLine
 10
1130.3521929981
 20
596.8342471101
 30
0.0
 11
1131.3521929981
 21
596.8342471101
 31
0.0
  0
LINE
  5
A5
330
1F
100
AcDbEntity
  8
0
  6
Continuous
 62
     7
100
AcDbLine
 10
1131.3521929981
 20
596.8342471101
 30
0.0
 11
1131.3521929981
 21
597.8342471101
 31
0.0
  0
LINE
  5
A6
330
1F
100
AcDbEntity
  8
0
  6
Continuous
 62
     7
100
AcDbLine
 10
1142.3521929981
 20
597.8342471101
 30
0.0
 11
1131.3521929981
 21
597.8342471101
 31
0.0
  0
LINE
  5
A7
330
1F
100
AcDbEntity
  8
0
  6
Continuous
 62
     7
100
AcDbLine
 10
1142.3521929981
 20
597.8342471101
 30
0.0
 11
1144.8521929981
 21
597.8342471101
 31
0.0
  0
LINE
  5
A8
330
1F
100
AcDbEntity
  8
0
  6
Continuous
 62
     7
100
AcDbLine
 10
1144.8521929981
 20
-302.1657528899
 30
0.0
 11
1144.8521929981
 21
597.8342471101
 31
0.0
  0
LINE
  5
A9
330
1F
100
AcDbEntity
  8
0
  6
Continuous
 62
     7
100
AcDbLine
 10
1131.3521929981
 20
-302.1657528899
 30
0.0
 11
1142.3521929981
 21
-302.1657528899
 31
0.0
  0
LINE
  5
AA
330
1F
100
AcDbEntity
  8
0
  6
Continuous
 62
     7
100
AcDbLine
 10
1130.3521929981
 20
-301.1657528899
 30
0.0
 11
1130.3521929981
 21
-303.6657528899
 31
0.0
  0
LINE
  5
AB
330
1F
100
AcDbEntity
  8
0
  6
Continuous
 62
     7
100
AcDbLine
 10
1130.3521929981
 20
-303.6657528899
 30
0.0
 11
1113.3521929981
 21
-303.6657528899
 31
0.0
  0
LINE
  5
AC
330
1F
100
AcDbEntity
  8
0
  6
Continuous
 62
     7
100
AcDbLine
 10
1113.3521929981
 20
-301.1657528899
 30
0.0
 11
1113.3521929981
 21
-303.6657528899
 31
0.0
  0
LINE
  5
AD
330
1F
100
AcDbEntity
  8
0
  6
Continuous
 62
     7
100
AcDbLine
 10
1113.3521929981
 20
596.8342471101
 30
0.0
 11
1113.3521929981
 21
-301.1657528899
 31
0.0
  0
LINE
  5
AE
330
1F
100
AcDbEntity
  8
0
  6
Continuous
 62
     7
100
AcDbLine
 10
1131.3521929981
 20
-301.1657528899
 30
0.0
 11
1130.3521929981
 21
-301.1657528899
 31
0.0
  0
LINE
  5
AF
330
1F
100
AcDbEntity
  8
0
  6
Continuous
 62
     7
100
AcDbLine
 10
1131.3521929981
 20
-302.1657528899
 30
0.0
 11
1131.3521929981
 21
-301.1657528899
 31
0.0
  0
LINE
  5
B0
330
1F
100
AcDbEntity
  8
0
  6
Continuous
 62
     7
100
AcDbLine
 10
1142.3521929981
 20
-302.1657528899
 30
0.0
 11
1144.8521929981
 21
-302.1657528899
 31
0.0
  0
LINE
  5
B1
330
1F
100
AcDbEntity
  8
0
  6
Continuous
 62
     7
100
AcDbLine
 10
1142.8521929981
 20
602.0842471101
 30
0.0
 11
1146.8521929981
 21
602.0842471101
 31
0.0
  0
LINE
  5
B2
330
1F
100
AcDbEntity
  8
0
  6
Continuous
 62
     7
100
AcDbLine
 10
1146.8521929981
 20
598.0842471101
 30
0.0
 11
1146.8521929981
 21
602.0842471101
 31
0.0
  0
LINE
  5
B3
330
1F
100
AcDbEntity
  8
0
  6
Continuous
 62
     7
100
AcDbLine
 10
1144.8521929981
 20
598.0842471101
 30
0.0
 11
1146.8521929981
 21
598.0842471101
 31
0.0
  0
LINE
  5
B4
330
1F
100
AcDbEntity
  8
0
  6
Continuous
 62
     7
100
AcDbLine
 10
1144.8521929981
 20
598.0842471101
 30
0.0
 11
1144.8521929981
 21
600.0842471101
 31
0.0
  0
LINE
  5
B5
330
1F
100
AcDbEntity
  8
0
  6
Continuous
 62
     7
100
AcDbLine
 10
1142.8521929981
 20
600.0842471101
 30
0.0
 11
1142.8521929981
 21
602.0842471101
 31
0.0
  0
LINE
  5
B6
330
1F
100
AcDbEntity
  8
0
  6
Continuous
 62
     7
100
AcDbLine
 10
1142.8521929981
 20
600.0842471101
 30
0.0
 11
1144.8521929981
 21
600.0842471101
 31
0.0
  0
LINE
  5
B7
330
1F
100
AcDbEntity
  8
0
  6
Continuous
 62
     7
100
AcDbLine
 10
1113.3521929981
 20
602.0842471101
 30
0.0
 11
1113.3521929981
 21
600.0842471101
 31
0.0
  0
LINE
  5
B8
330
1F
100
AcDbEntity
  8
0
  6
Continuous
 62
     7
100
AcDbLine
 10
1113.3521929981
 20
602.0842471101
 30
0.0
 11
1142.8521929981
 21
602.0842471101
 31
0.0
  0
LINE
  5
B9
330
1F
100
AcDbEntity
  8
0
  6
Continuous
 62
     7
100
AcDbLine
 10
1113.3521929981
 20
600.0842471101
 30
0.0
 11
1142.8521929981
 21
600.0842471101
 31
0.0
  0
LINE
  5
BA
330
1F
100
AcDbEntity
  8
0
  6
Continuous
 62
     7
100
AcDbLine
 10
1144.8521929981
 20
505.0842471101
 30
0.0
 11
1146.8521929981
 21
505.0842471101
 31
0.0
  0
LINE
  5
BB
330
1F
100
AcDbEntity
  8
0
  6
Continuous
 62
     7
100
AcDbLine
 10
1146.8521929981
 20
502.0842471101
 30
0.0
 11
1144.8521929981
 21
502.0842471101
 31
0.0
  0
LINE
  5
BC
330
1F
100
AcDbEntity
  8
0
  6
Continuous
 62
     7
100
AcDbLine
 10
1146.8521929981
 20
505.0842471101
 30
0.0
 11
1146.8521929981
 21
502.0842471101
 31
0.0
  0
LINE
  5
BD
330
1F
100
AcDbEntity
  8
0
  6
Continuous
 62
     7
100
AcDbLine
 10
1144.8521929981
 20
598.0842471101
 30
0.0
 11
1144.8521929981
 21
597.8342471101
 31
0.0
  0
LINE
  5
BE
330
1F
100
AcDbEntity
  8
0
  6
Continuous
 62
     7
100
AcDbLine
 10
1146.8521929981
 20
598.0842471101
 30
0.0
 11
1146.8521929981
 21
505.0842471101
 31
0.0
  0
LINE
  5
BF
330
1F
100
AcDbEntity
  8
0
  6
Continuous
 62
     7
100
AcDbLine
 10
1151.0225567334
 20
-291.4157528899
 30
0.0
 11
1149.6921856071
 21
-291.4157528899
 31
0.0
  0
LINE
  5
C0
330
1F
100
AcDbEntity
  8
0
  6
Continuous
 62
     7
100
AcDbLine
 10
1149.6921856071
 20
-291.4157528899
 30
0.0
 11
1146.8521929981
 21
-291.4157528899
 31
0.0
  0
LINE
  5
C1
330
1F
100
AcDbEntity
  8
0
  6
Continuous
 62
     7
100
AcDbLine
 10
1151.6825641243
 20
-291.4157528899
 30
0.0
 11
1151.0225567334
 21
-291.4157528899
 31
0.0
  0
LINE
  5
C2
330
1F
100
AcDbEntity
  8
0
  6
Continuous
 62
     7
100
AcDbLine
 10
1151.8521929981
 20
-291.4157528899
 30
0.0
 11
1151.6825641243
 21
-291.4157528899
 31
0.0
  0
LINE
  5
C3
330
1F
100
AcDbEntity
  8
0
  6
Continuous
 62
     7
100
AcDbLine
 10
1151.8521929981
 20
-291.4157528899
 30
0.0
 11
1151.8521929981
 21
-288.2829670806
 31
0.0
  0
LINE
  5
C4
330
1F
100
AcDbEntity
  8
0
  6
Continuous
 62
     7
100
AcDbLine
 10
1151.8521929981
 20
-294.5485386993
 30
0.0
 11
1151.8521929981
 21
-291.4157528899
 31
0.0
  0
LINE
  5
C5
330
1F
100
AcDbEntity
  8
0
  6
Continuous
 62
     7
100
AcDbLine
 10
1124.8521929981
 20
-310.8657528899
 30
0.0
 11
1118.8521929981
 21
-310.8657528899
 31
0.0
  0
LINE
  5
C6
330
1F
100
AcDbEntity
  8
0
  6
Continuous
 62
     7
100
AcDbLine
 10
1124.3521929981
 20
-311.3657528899
 30
0.0
 11
1124.8521929981
 21
-310.8657528899
 31
0.0
  0
LINE
  5
C7
330
1F
100
AcDbEntity
  8
0
  6
Continuous
 62
     7
100
AcDbLine
 10
1124.3521929981
 20
-311.3657528899
 30
0.0
 11
1119.3521929981
 21
-311.3657528899
 31
0.0
  0
LINE
  5
C8
330
1F
100
AcDbEntity
  8
0
  6
Continuous
 62
     7
100
AcDbLine
 10
1119.3521929981
 20
-311.3657528899
 30
0.0
 11
1118.8521929981
 21
-310.8657528899
 31
0.0
  0
LINE
  5
C9
330
1F
100
AcDbEntity
  8
0
  6
Continuous
 62
     7
100
AcDbLine
 10
1118.8521929981
 20
-310.8657528899
 30
0.0
 11
1118.8521929981
 21
-305.9157528899
 31
0.0
  0
LINE
  5
CA
330
1F
100
AcDbEntity
  8
0
  6
Continuous
 62
     7
100
AcDbLine
 10
1118.8521929981
 20
-304.4157528899
 30
0.0
 11
1118.8521929981
 21
-303.6657528899
 31
0.0
  0
LINE
  5
CB
330
1F
100
AcDbEntity
  8
0
  6
Continuous
 62
     7
100
AcDbLine
 10
1124.8521929981
 20
-310.8657528899
 30
0.0
 11
1124.8521929981
 21
-305.9157528899
 31
0.0
  0
LINE
  5
CC
330
1F
100
AcDbEntity
  8
0
  6
Continuous
 62
     7
100
AcDbLine
 10
1124.8521929981
 20
-304.4157528899
 30
0.0
 11
1124.8521929981
 21
-303.6657528899
 31
0.0
  0
LINE
  5
CD
330
1F
100
AcDbEntity
  8
0
  6
Continuous
 62
     7
100
AcDbLine
 10
1149.6921856071
 20
506.1842471101
 30
0.0
 11
1146.8521929981
 21
506.1842471101
 31
0.0
  0
LINE
  5
CE
330
1F
100
AcDbEntity
  8
0
  6
Continuous
 62
     7
100
AcDbLine
 10
1149.6921856071
 20
517.9842471101
 30
0.0
 11
1146.8521929981
 21
517.9842471101
 31
0.0
  0
LINE
  5
CF
330
1F
100
AcDbEntity
  8
0
  6
Continuous
 62
     7
100
AcDbLine
 10
1149.6921856071
 20
506.1842471101
 30
0.0
 11
1149.6921856071
 21
517.9842471101
 31
0.0
  0
ARC
  5
D0
330
1F
100
AcDbEntity
  8
0
  6
Continuous
 62
     7
100
AcDbCircle
 10
1149.6921856071
 20
507.6842471101
 30
0.0
 40
1.499999999999943
100
AcDbArc
 50
270.0
 51
332.4879973761
  0
ARC
  5
D1
330
1F
100
AcDbEntity
  8
0
  6
Continuous
 62
     7
100
AcDbCircle
 10
1149.6921856071
 20
516.4842471101
 30
0.0
 40
1.5
100
AcDbArc
 50
27.5120026239
 51
90.0
  0
LINE
  5
D2
330
1F
100
AcDbEntity
  8
0
  6
Continuous
 62
     7
100
AcDbLine
 10
1151.0225567334
 20
506.9913454818
 30
0.0
 11
1151.0225567334
 21
517.1771487383
 31
0.0
  0
LINE
  5
D3
330
1F
100
AcDbEntity
  8
0
  6
Continuous
 62
     7
100
AcDbLine
 10
1151.6825641243
 20
508.2585596725
 30
0.0
 11
1151.0225567334
 21
506.9913454818
 31
0.0
  0
LINE
  5
D4
330
1F
100
AcDbEntity
  8
0
  6
Continuous
 62
     7
100
AcDbLine
 10
1151.6825641243
 20
515.9099345477
 30
0.0
 11
1151.0225567334
 21
517.1771487383
 31
0.0
  0
LINE
  5
D5
330
1F
100
AcDbEntity
  8
0
  6
Continuous
 62
     7
100
AcDbLine
 10
1151.6825641243
 20
508.2585596725
 30
0.0
 11
1151.6825641243
 21
515.9099345477
 31
0.0
  0
ARC
  5
D6
330
1F
100
AcDbEntity
  8
0
  6
Continuous
 62
     7
100
AcDbCircle
 10
1150.3521929981
 20
508.9514613007
 30
0.0
 40
1.500000000000227
100
AcDbArc
 50
332.4879973761
 51
0.0
  0
ARC
  5
D7
330
1F
100
AcDbEntity
  8
0
  6
Continuous
 62
     7
100
AcDbCircle
 10
1150.3521929981
 20
515.2170329194
 30
0.0
 40
1.500000000000227
100
AcDbArc
 50
0.0
 51
27.5120026239
  0
LINE
  5
D8
330
1F
100
AcDbEntity
  8
0
  6
Continuous
 62
     7
100
AcDbLine
 10
1151.8521929981
 20
508.9514613007
 30
0.0
 11
1151.8521929981
 21
515.2170329194
 31
0.0
  0
LINE
  5
D9
330
1F
100
AcDbEntity
  8
0
  6
Continuous
 62
     7
100
AcDbLine
 10
1149.6921856071
 20
-297.3157528899
 30
0.0
 11
1148.8521929981
 21
-297.3157528899
 31
0.0
  0
LINE
  5
DA
330
1F
100
AcDbEntity
  8
0
  6
Continuous
 62
     7
100
AcDbLine
 10
1118.8521929981
 20
606.5342471101
 30
0.0
 11
1118.8521929981
 21
602.0842471101
 31
0.0
  0
LINE
  5
DB
330
1F
100
AcDbEntity
  8
0
  6
Continuous
 62
     7
100
AcDbLine
 10
1118.8521929981
 20
600.0842471101
 30
0.0
 11
1118.8521929981
 21
599.3342471101
 31
0.0
  0
LINE
  5
DC
330
1F
100
AcDbEntity
  8
0
  6
Continuous
 62
     7
100
AcDbLine
 10
1118.8521929981
 20
606.5342471101
 30
0.0
 11
1124.8521929981
 21
606.5342471101
 31
0.0
  0
LINE
  5
DD
330
1F
100
AcDbEntity
  8
0
  6
Continuous
 62
     7
100
AcDbLine
 10
1124.8521929981
 20
606.5342471101
 30
0.0
 11
1124.8521929981
 21
602.0842471101
 31
0.0
  0
LINE
  5
DE
330
1F
100
AcDbEntity
  8
0
  6
Continuous
 62
     7
100
AcDbLine
 10
1124.8521929981
 20
600.0842471101
 30
0.0
 11
1124.8521929981
 21
599.3342471101
 31
0.0
  0
LINE
  5
DF
330
1F
100
AcDbEntity
  8
0
  6
Continuous
 62
     7
100
AcDbLine
 10
1124.3521929981
 20
607.0342471101
 30
0.0
 11
1124.8521929981
 21
606.5342471101
 31
0.0
  0
LINE
  5
E0
330
1F
100
AcDbEntity
  8
0
  6
Continuous
 62
     7
100
AcDbLine
 10
1119.3521929981
 20
607.0342471101
 30
0.0
 11
1118.8521929981
 21
606.5342471101
 31
0.0
  0
LINE
  5
E1
330
1F
100
AcDbEntity
  8
0
  6
Continuous
 62
     7
100
AcDbLine
 10
1119.3521929981
 20
607.0342471101
 30
0.0
 11
1124.3521929981
 21
607.0342471101
 31
0.0
  0
ARC
  5
E2
330
1F
100
AcDbEntity
  8
0
  6
Continuous
 62
     7
100
AcDbCircle
 10
1149.6921856071
 20
582.6842471101
 30
0.0
 40
1.500000000000114
100
AcDbArc
 50
270.0
 51
332.4879973762
  0
LINE
  5
E3
330
1F
100
AcDbEntity
  8
0
  6
Continuous
 62
     7
100
AcDbLine
 10
1149.6921856071
 20
581.1842471101
 30
0.0
 11
1149.6921856071
 21
592.9842471101
 31
0.0
  0
ARC
  5
E4
330
1F
100
AcDbEntity
  8
0
  6
Continuous
 62
     7
100
AcDbCircle
 10
1149.6921856071
 20
591.4842471101
 30
0.0
 40
1.5
100
AcDbArc
 50
27.5120026238
 51
90.0
  0
LINE
  5
E5
330
1F
100
AcDbEntity
  8
0
  6
Continuous
 62
     7
100
AcDbLine
 10
1151.0225567334
 20
581.9913454818
 30
0.0
 11
1151.0225567334
 21
592.1771487383
 31
0.0
  0
LINE
  5
E6
330
1F
100
AcDbEntity
  8
0
  6
Continuous
 62
     7
100
AcDbLine
 10
1149.6921856071
 20
581.1842471101
 30
0.0
 11
1146.8521929981
 21
581.1842471101
 31
0.0
  0
LINE
  5
E7
330
1F
100
AcDbEntity
  8
0
  6
Continuous
 62
     7
100
AcDbLine
 10
1149.6921856071
 20
592.9842471101
 30
0.0
 11
1146.8521929981
 21
592.9842471101
 31
0.0
  0
LINE
  5
E8
330
1F
100
AcDbEntity
  8
0
  6
Continuous
 62
     7
100
AcDbLine
 10
1151.6825641243
 20
583.2585596725
 30
0.0
 11
1151.0225567334
 21
581.9913454818
 31
0.0
  0
LINE
  5
E9
330
1F
100
AcDbEntity
  8
0
  6
Continuous
 62
     7
100
AcDbLine
 10
1151.6825641243
 20
590.9099345477
 30
0.0
 11
1151.0225567334
 21
592.1771487383
 31
0.0
  0
LINE
  5
EA
330
1F
100
AcDbEntity
  8
0
  6
Continuous
 62
     7
100
AcDbLine
 10
1151.6825641243
 20
583.2585596725
 30
0.0
 11
1151.6825641243
 21
590.9099345477
 31
0.0
  0
ARC
  5
EB
330
1F
100
AcDbEntity
  8
0
  6
Continuous
 62
     7
100
AcDbCircle
 10
1150.3521929981
 20
583.9514613007
 30
0.0
 40
1.500000000000227
100
AcDbArc
 50
332.4879973762
 51
0.0
  0
ARC
  5
EC
330
1F
100
AcDbEntity
  8
0
  6
Continuous
 62
     7
100
AcDbCircle
 10
1150.3521929981
 20
590.2170329194
 30
0.0
 40
1.500000000000227
100
AcDbArc
 50
0.0
 51
27.5120026238
  0
LINE
  5
ED
330
1F
100
AcDbEntity
  8
0
  6
Continuous
 62
     7
100
AcDbLine
 10
1151.8521929981
 20
583.9514613007
 30
0.0
 11
1151.8521929981
 21
590.2170329194
 31
0.0
  0
LINE
  5
EE
330
1F
100
AcDbEntity
  8
0
  6
Continuous
 62
     7
100
AcDbLine
 10
1145.3521929981
 20
-276.9157528899
 30
0.0
 11
1146.8521929981
 21
-276.9157528899
 31
0.0
  0
LINE
  5
EF
330
1F
100
AcDbEntity
  8
0
  6
Continuous
 62
     7
100
AcDbLine
 10
1146.8521929981
 20
-276.9157528899
 30
0.0
 11
1146.8521929981
 21
-279.9157528899
 31
0.0
  0
LINE
  5
F0
330
1F
100
AcDbEntity
  8
0
  6
Continuous
 62
     7
100
AcDbLine
 10
1146.8521929981
 20
-279.9157528899
 30
0.0
 11
1145.3521929981
 21
-279.9157528899
 31
0.0
  0
LINE
  5
F1
330
1F
100
AcDbEntity
  8
0
  6
Continuous
 62
     7
100
AcDbLine
 10
1145.3521929981
 20
-279.9157528899
 30
0.0
 11
1145.3521929981
 21
-276.9157528899
 31
0.0
  0
LINE
  5
F2
330
1F
100
AcDbEntity
  8
0
  6
Continuous
 62
     7
100
AcDbLine
 10
1145.3521929981
 20
-303.4157528899
 30
0.0
 11
1146.8521929981
 21
-303.4157528899
 31
0.0
  0
LINE
  5
F3
330
1F
100
AcDbEntity
  8
0
  6
Continuous
 62
     7
100
AcDbLine
 10
1146.8521929981
 20
-279.9157528899
 30
0.0
 11
1146.8521929981
 21
-303.4157528899
 31
0.0
  0
LINE
  5
F4
330
1F
100
AcDbEntity
  8
0
  6
Continuous
 62
     7
100
AcDbLine
 10
1145.3521929981
 20
-279.9157528899
 30
0.0
 11
1145.3521929981
 21
-303.4157528899
 31
0.0
  0
LINE
  5
F5
330
1F
100
AcDbEntity
  8
0
  6
Continuous
 62
     7
100
AcDbLine
 10
1144.3521929981
 20
-304.4157528899
 30
0.0
 11
1144.3521929981
 21
-305.9157528899
 31
0.0
  0
LINE
  5
F6
330
1F
100
AcDbEntity
  8
0
  6
Continuous
 62
     7
100
AcDbLine
 10
1144.3521929981
 20
-304.4157528899
 30
0.0
 11
1145.3521929981
 21
-304.4157528899
 31
0.0
  0
LINE
  5
F7
330
1F
100
AcDbEntity
  8
0
  6
Continuous
 62
     7
100
AcDbLine
 10
1146.8521929981
 20
-303.4157528899
 30
0.0
 11
1146.8521929981
 21
-305.9157528899
 31
0.0
  0
LINE
  5
F8
330
1F
100
AcDbEntity
  8
0
  6
Continuous
 62
     7
100
AcDbLine
 10
1145.3521929981
 20
-303.4157528899
 30
0.0
 11
1145.3521929981
 21
-304.4157528899
 31
0.0
  0
LINE
  5
F9
330
1F
100
AcDbEntity
  8
0
  6
Continuous
 62
     7
100
AcDbLine
 10
1144.3521929981
 20
-305.9157528899
 30
0.0
 11
1146.8521929981
 21
-305.9157528899
 31
0.0
  0
LINE
  5
FA
330
1F
100
AcDbEntity
  8
0
  6
Continuous
 62
     7
100
AcDbLine
 10
1116.3521929981
 20
-304.4157528899
 30
0.0
 11
1116.3521929981
 21
-305.9157528899
 31
0.0
  0
LINE
  5
FB
330
1F
100
AcDbEntity
  8
0
  6
Continuous
 62
     7
100
AcDbLine
 10
1144.3521929981
 20
-304.4157528899
 30
0.0
 11
1116.3521929981
 21
-304.4157528899
 31
0.0
  0
LINE
  5
FC
330
1F
100
AcDbEntity
  8
0
  6
Continuous
 62
     7
100
AcDbLine
 10
1144.3521929981
 20
-305.9157528899
 30
0.0
 11
1116.3521929981
 21
-305.9157528899
 31
0.0
  0
LINE
  5
FD
330
1F
100
AcDbEntity
  8
0
  6
Continuous
 62
     7
100
AcDbLine
 10
1113.3521929981
 20
-305.9157528899
 30
0.0
 11
1113.3521929981
 21
-304.4157528899
 31
0.0
  0
LINE
  5
FE
330
1F
100
AcDbEntity
  8
0
  6
Continuous
 62
     7
100
AcDbLine
 10
1113.3521929981
 20
-304.4157528899
 30
0.0
 11
1116.3521929981
 21
-304.4157528899
 31
0.0
  0
LINE
  5
FF
330
1F
100
AcDbEntity
  8
0
  6
Continuous
 62
     7
100
AcDbLine
 10
1116.3521929981
 20
-305.9157528899
 30
0.0
 11
1113.3521929981
 21
-305.9157528899
 31
0.0
  0
LINE
  5
100
330
1F
100
AcDbEntity
  8
0
  6
Continuous
 62
     7
100
AcDbLine
 10
1145.3521929981
 20
-298.5024787671
 30
0.0
 11
1144.8521929981
 21
-298.5024787671
 31
0.0
  0
LINE
  5
101
330
1F
100
AcDbEntity
  8
0
  6
Continuous
 62
     7
100
AcDbLine
 10
1144.8521929981
 20
-276.9657528899
 30
0.0
 11
1145.3521929981
 21
-276.9657528899
 31
0.0
  0
LINE
  5
102
330
1F
100
AcDbEntity
  8
0
  6
Continuous
 62
     7
100
AcDbLine
 10
1153.0225567334
 20
-285.8228512616
 30
0.0
 11
1153.0225567334
 21
-294.4808713376
 31
0.0
  0
ARC
  5
103
330
1F
100
AcDbEntity
  8
0
  6
Continuous
 62
     7
100
AcDbCircle
 10
1151.7829070786
 20
-293.3996929753
 30
0.0
 40
1.64489450045823
100
AcDbArc
 50
269.4745265165
 51
318.9062197638
  0
LINE
  5
104
330
1F
100
AcDbEntity
  8
0
  6
Continuous
 62
     7
100
AcDbLine
 10
1151.6921856071
 20
-285.0157528899
 30
0.0
 11
1151.6921856071
 21
-287.6088604067
 31
0.0
  0
LINE
  5
105
330
1F
100
AcDbEntity
  8
0
  6
Continuous
 62
     7
100
AcDbLine
 10
1153.6825641243
 20
-287.0900654523
 30
0.0
 11
1153.6825641243
 21
-293.5937996802
 31
0.0
  0
LINE
  5
106
330
1F
100
AcDbEntity
  8
0
  6
Continuous
 62
     7
100
AcDbLine
 10
1153.0225567334
 20
-294.4808713376
 30
0.0
 11
1153.0225567334
 21
-296.0086545182
 31
0.0
  0
LINE
  5
107
330
1F
100
AcDbEntity
  8
0
  6
Continuous
 62
     7
100
AcDbLine
 10
1151.6921856071
 20
-295.2226453731
 30
0.0
 11
1151.6921856071
 21
-296.8157528899
 31
0.0
  0
LINE
  5
108
330
1F
100
AcDbEntity
  8
0
  6
Continuous
 62
     7
100
AcDbLine
 10
1153.6825641243
 20
-293.5937996802
 30
0.0
 11
1153.6825641243
 21
-294.7414403275
 31
0.0
  0
LINE
  5
109
330
1F
100
AcDbEntity
  8
0
  6
Continuous
 62
     7
100
AcDbLine
 10
1116.1325106303
 20
-303.6657528899
 30
0.0
 11
1116.1325106303
 21
-304.4157528899
 31
0.0
  0
LINE
  5
10A
330
1F
100
AcDbEntity
  8
0
  6
Continuous
 62
     7
100
AcDbLine
 10
1118.9438799297
 20
-313.1157528899
 30
0.0
 11
1118.9438799297
 21
-310.9574398216
 31
0.0
  0
LINE
  5
10B
330
1F
100
AcDbEntity
  8
0
  6
Continuous
 62
     7
100
AcDbLine
 10
1149.6921856071
 20
-291.4157528899
 30
0.0
 11
1149.6921856071
 21
-285.5157528899
 31
0.0
  0
LINE
  5
10C
330
1F
100
AcDbEntity
  8
0
  6
Continuous
 62
     7
100
AcDbLine
 10
1151.0225567334
 20
-291.4157528899
 30
0.0
 11
1151.0225567334
 21
-286.3228512617
 31
0.0
  0
LINE
  5
10D
330
1F
100
AcDbEntity
  8
0
  6
Continuous
 62
     7
100
AcDbLine
 10
1149.6921856071
 20
-297.3157528899
 30
0.0
 11
1149.6921856071
 21
-291.4157528899
 31
0.0
  0
LINE
  5
10E
330
1F
100
AcDbEntity
  8
0
  6
Continuous
 62
     7
100
AcDbLine
 10
1151.0225567334
 20
-296.5086545182
 30
0.0
 11
1151.0225567334
 21
-291.4157528899
 31
0.0
  0
LINE
  5
10F
330
1F
100
AcDbEntity
  8
0
  6
Continuous
 62
     7
100
AcDbLine
 10
1151.6825641243
 20
-291.4157528899
 30
0.0
 11
1151.6825641243
 21
-287.5900654523
 31
0.0
  0
LINE
  5
110
330
1F
100
AcDbEntity
  8
0
  6
Continuous
 62
     7
100
AcDbLine
 10
1151.6825641243
 20
-295.2414403275
 30
0.0
 11
1151.6825641243
 21
-291.4157528899
 31
0.0
  0
LINE
  5
111
330
1F
100
AcDbEntity
  8
0
  6
Continuous
 62
     7
100
AcDbLine
 10
1144.8521929981
 20
-291.4157528899
 30
0.0
 11
1145.3521929981
 21
-291.4157528899
 31
0.0
  0
ARC
  5
112
330
1F
100
AcDbEntity
  8
0
  6
Continuous
 62
     7
100
AcDbCircle
 10
1367.1719910838
 20
597.244254501
 30
0.0
 40
1.500000000000011
100
AcDbArc
 50
180.0
 51
242.4879973761
  0
LINE
  5
113
330
1F
100
AcDbEntity
  8
0
  6
Continuous
 62
     7
100
AcDbLine
 10
1365.6719910838
 20
600.0842471101
 30
0.0
 11
1365.6719910838
 21
597.244254501
 31
0.0
  0
ARC
  5
114
330
1F
100
AcDbEntity
  8
0
  6
Continuous
 62
     7
100
AcDbCircle
 10
1375.9719910838
 20
597.244254501
 30
0.0
 40
1.500000000000116
100
AcDbArc
 50
297.5120026239
 51
0.0
  0
LINE
  5
115
330
1F
100
AcDbEntity
  8
0
  6
Continuous
 62
     7
100
AcDbLine
 10
1377.4719910838
 20
597.244254501
 30
0.0
 11
1377.4719910838
 21
600.0842471101
 31
0.0
  0
LINE
  5
116
330
1F
100
AcDbEntity
  8
0
  6
Continuous
 62
     7
100
AcDbLine
 10
1366.4790894556
 20
595.9138833748
 30
0.0
 11
1367.7463036462
 21
595.2538759838
 31
0.0
  0
LINE
  5
117
330
1F
100
AcDbEntity
  8
0
  6
Continuous
 62
     7
100
AcDbLine
 10
1375.3976785214
 20
595.2538759838
 30
0.0
 11
1376.6648927121
 21
595.9138833748
 31
0.0
  0
ARC
  5
118
330
1F
100
AcDbEntity
  8
0
  6
Continuous
 62
     7
100
AcDbCircle
 10
1368.4392052745
 20
596.5842471101
 30
0.0
 40
1.500000000000114
100
AcDbArc
 50
242.4879973761
 51
270.0
  0
ARC
  5
119
330
1F
100
AcDbEntity
  8
0
  6
Continuous
 62
     7
100
AcDbCircle
 10
1374.7047768932
 20
596.5842471101
 30
0.0
 40
1.500000000000114
100
AcDbArc
 50
270.0
 51
297.5120026239
  0
LINE
  5
11A
330
1F
100
AcDbEntity
  8
0
  6
Continuous
 62
     7
100
AcDbLine
 10
1368.5719910838
 20
608.7842471101
 30
0.0
 11
1368.5719910838
 21
602.0842471101
 31
0.0
  0
LINE
  5
11B
330
1F
100
AcDbEntity
  8
0
  6
Continuous
 62
     7
100
AcDbLine
 10
1369.0719910838
 20
609.2842471101
 30
0.0
 11
1368.5719910838
 21
608.7842471101
 31
0.0
  0
LINE
  5
11C
330
1F
100
AcDbEntity
  8
0
  6
Continuous
 62
     7
100
AcDbLine
 10
1374.5719910838
 20
608.7842471101
 30
0.0
 11
1374.0719910838
 21
609.2842471101
 31
0.0
  0
LINE
  5
11D
330
1F
100
AcDbEntity
  8
0
  6
Continuous
 62
     7
100
AcDbLine
 10
1374.5719910838
 20
602.0842471101
 30
0.0
 11
1374.5719910838
 21
608.7842471101
 31
0.0
  0
ARC
  5
11E
330
1F
100
AcDbEntity
  8
0
  6
Continuous
 62
     7
100
AcDbCircle
 10
1517.1719910838
 20
597.244254501
 30
0.0
 40
1.500000000000011
100
AcDbArc
 50
180.0
 51
242.4879973761
  0
LINE
  5
11F
330
1F
100
AcDbEntity
  8
0
  6
Continuous
 62
     7
100
AcDbLine
 10
1515.6719910838
 20
600.0842471101
 30
0.0
 11
1515.6719910838
 21
597.244254501
 31
0.0
  0
ARC
  5
120
330
1F
100
AcDbEntity
  8
0
  6
Continuous
 62
     7
100
AcDbCircle
 10
1525.9719910838
 20
597.244254501
 30
0.0
 40
1.499999999999906
100
AcDbArc
 50
297.5120026239
 51
0.0
  0
LINE
  5
121
330
1F
100
AcDbEntity
  8
0
  6
Continuous
 62
     7
100
AcDbLine
 10
1527.4719910838
 20
597.244254501
 30
0.0
 11
1527.4719910838
 21
600.0842471101
 31
0.0
  0
LINE
  5
122
330
1F
100
AcDbEntity
  8
0
  6
Continuous
 62
     7
100
AcDbLine
 10
1516.4790894556
 20
595.9138833748
 30
0.0
 11
1517.7463036462
 21
595.2538759838
 31
0.0
  0
LINE
  5
123
330
1F
100
AcDbEntity
  8
0
  6
Continuous
 62
     7
100
AcDbLine
 10
1525.3976785214
 20
595.2538759838
 30
0.0
 11
1526.6648927121
 21
595.9138833748
 31
0.0
  0
ARC
  5
124
330
1F
100
AcDbEntity
  8
0
  6
Continuous
 62
     7
100
AcDbCircle
 10
1518.4392052745
 20
596.5842471101
 30
0.0
 40
1.5
100
AcDbArc
 50
242.4879973761
 51
270.0
  0
ARC
  5
125
330
1F
100
AcDbEntity
  8
0
  6
Continuous
 62
     7
100
AcDbCircle
 10
1524.7047768932
 20
596.5842471101
 30
0.0
 40
1.5
100
AcDbArc
 50
270.0
 51
297.5120026239
  0
LINE
  5
126
330
1F
100
AcDbEntity
  8
0
  6
Continuous
 62
     7
100
AcDbLine
 10
1519.0719910838
 20
609.2842471101
 30
0.0
 11
1518.5719910838
 21
608.7842471101
 31
0.0
  0
LINE
  5
127
330
1F
100
AcDbEntity
  8
0
  6
Continuous
 62
     7
100
AcDbLine
 10
1518.5719910838
 20
608.7842471101
 30
0.0
 11
1518.5719910838
 21
602.0842471101
 31
0.0
  0
LINE
  5
128
330
1F
100
AcDbEntity
  8
0
  6
Continuous
 62
     7
100
AcDbLine
 10
1524.5719910838
 20
608.7842471101
 30
0.0
 11
1524.0719910838
 21
609.2842471101
 31
0.0
  0
LINE
  5
129
330
1F
100
AcDbEntity
  8
0
  6
Continuous
 62
     7
100
AcDbLine
 10
1524.5719910838
 20
602.0842471101
 30
0.0
 11
1524.5719910838
 21
608.7842471101
 31
0.0
  0
LINE
  5
12A
330
1F
100
AcDbEntity
  8
0
  6
Continuous
 62
     7
100
AcDbLine
 10
1377.4719910838
 20
-304.4157528899
 30
0.0
 11
1377.4719910838
 21
-301.5757602809
 31
0.0
  0
ARC
  5
12B
330
1F
100
AcDbEntity
  8
0
  6
Continuous
 62
     7
100
AcDbCircle
 10
1375.9719910838
 20
-301.5757602809
 30
0.0
 40
1.5
100
AcDbArc
 50
0.0
 51
62.4879973761
  0
ARC
  5
12C
330
1F
100
AcDbEntity
  8
0
  6
Continuous
 62
     7
100
AcDbCircle
 10
1367.1719910838
 20
-301.5757602809
 30
0.0
 40
1.5
100
AcDbArc
 50
117.5120026239
 51
180.0
  0
LINE
  5
12D
330
1F
100
AcDbEntity
  8
0
  6
Continuous
 62
     7
100
AcDbLine
 10
1365.6719910838
 20
-301.5757602809
 30
0.0
 11
1365.6719910838
 21
-304.4157528899
 31
0.0
  0
LINE
  5
12E
330
1F
100
AcDbEntity
  8
0
  6
Continuous
 62
     7
100
AcDbLine
 10
1376.6648927121
 20
-300.2453891546
 30
0.0
 11
1375.3976785214
 21
-299.5853817637
 31
0.0
  0
LINE
  5
12F
330
1F
100
AcDbEntity
  8
0
  6
Continuous
 62
     7
100
AcDbLine
 10
1367.7463036462
 20
-299.5853817637
 30
0.0
 11
1366.4790894556
 21
-300.2453891546
 31
0.0
  0
ARC
  5
130
330
1F
100
AcDbEntity
  8
0
  6
Continuous
 62
     7
100
AcDbCircle
 10
1374.7047768932
 20
-300.9157528899
 30
0.0
 40
1.500000000000057
100
AcDbArc
 50
62.4879973761
 51
90.0
  0
ARC
  5
131
330
1F
100
AcDbEntity
  8
0
  6
Continuous
 62
     7
100
AcDbCircle
 10
1368.4392052745
 20
-300.9157528899
 30
0.0
 40
1.500000000000057
100
AcDbArc
 50
90.0
 51
117.5120026239
  0
LINE
  5
132
330
1F
100
AcDbEntity
  8
0
  6
Continuous
 62
     7
100
AcDbLine
 10
1374.5719910838
 20
-313.1157528899
 30
0.0
 11
1374.5719910838
 21
-305.9157528899
 31
0.0
  0
LINE
  5
133
330
1F
100
AcDbEntity
  8
0
  6
Continuous
 62
     7
100
AcDbLine
 10
1374.0719910838
 20
-313.6157528899
 30
0.0
 11
1374.5719910838
 21
-313.1157528899
 31
0.0
  0
LINE
  5
134
330
1F
100
AcDbEntity
  8
0
  6
Continuous
 62
     7
100
AcDbLine
 10
1368.5719910838
 20
-313.1157528899
 30
0.0
 11
1369.0719910838
 21
-313.6157528899
 31
0.0
  0
LINE
  5
135
330
1F
100
AcDbEntity
  8
0
  6
Continuous
 62
     7
100
AcDbLine
 10
1368.5719910838
 20
-305.9157528899
 30
0.0
 11
1368.5719910838
 21
-313.1157528899
 31
0.0
  0
LINE
  5
136
330
1F
100
AcDbEntity
  8
0
  6
Continuous
 62
     7
100
AcDbLine
 10
1515.6719910838
 20
-301.5757602809
 30
0.0
 11
1515.6719910838
 21
-304.4157528899
 31
0.0
  0
ARC
  5
137
330
1F
100
AcDbEntity
  8
0
  6
Continuous
 62
     7
100
AcDbCircle
 10
1517.1719910838
 20
-301.5757602809
 30
0.0
 40
1.500000000000227
100
AcDbArc
 50
117.5120026239
 51
180.0
  0
ARC
  5
138
330
1F
100
AcDbEntity
  8
0
  6
Continuous
 62
     7
100
AcDbCircle
 10
1525.9719910838
 20
-301.5757602809
 30
0.0
 40
1.500000000000227
100
AcDbArc
 50
0.0
 51
62.4879973761
  0
LINE
  5
139
330
1F
100
AcDbEntity
  8
0
  6
Continuous
 62
     7
100
AcDbLine
 10
1527.4719910838
 20
-304.4157528899
 30
0.0
 11
1527.4719910838
 21
-301.5757602809
 31
0.0
  0
LINE
  5
13A
330
1F
100
AcDbEntity
  8
0
  6
Continuous
 62
     7
100
AcDbLine
 10
1517.7463036462
 20
-299.5853817637
 30
0.0
 11
1516.4790894556
 21
-300.2453891546
 31
0.0
  0
LINE
  5
13B
330
1F
100
AcDbEntity
  8
0
  6
Continuous
 62
     7
100
AcDbLine
 10
1526.6648927121
 20
-300.2453891546
 30
0.0
 11
1525.3976785214
 21
-299.5853817637
 31
0.0
  0
ARC
  5
13C
330
1F
100
AcDbEntity
  8
0
  6
Continuous
 62
     7
100
AcDbCircle
 10
1518.4392052745
 20
-300.9157528899
 30
0.0
 40
1.50000000000007
100
AcDbArc
 50
90.0
 51
117.5120026239
  0
ARC
  5
13D
330
1F
100
AcDbEntity
  8
0
  6
Continuous
 62
     7
100
AcDbCircle
 10
1524.7047768932
 20
-300.9157528899
 30
0.0
 40
1.50000000000007
100
AcDbArc
 50
62.4879973761
 51
90.0
  0
LINE
  5
13E
330
1F
100
AcDbEntity
  8
0
  6
Continuous
 62
     7
100
AcDbLine
 10
1518.5719910838
 20
-313.1157528899
 30
0.0
 11
1519.0719910838
 21
-313.6157528899
 31
0.0
  0
LINE
  5
13F
330
1F
100
AcDbEntity
  8
0
  6
Continuous
 62
     7
100
AcDbLine
 10
1518.5719910838
 20
-305.9157528899
 30
0.0
 11
1518.5719910838
 21
-313.1157528899
 31
0.0
  0
LINE
  5
140
330
1F
100
AcDbEntity
  8
0
  6
Continuous
 62
     7
100
AcDbLine
 10
1524.5719910838
 20
-313.1157528899
 30
0.0
 11
1524.5719910838
 21
-305.9157528899
 31
0.0
  0
LINE
  5
141
330
1F
100
AcDbEntity
  8
0
  6
Continuous
 62
     7
100
AcDbLine
 10
1524.0719910838
 20
-313.6157528899
 30
0.0
 11
1524.5719910838
 21
-313.1157528899
 31
0.0
  0
ARC
  5
142
330
1F
100
AcDbEntity
  8
0
  6
Continuous
 62
     7
100
AcDbCircle
 10
1267.1719910838
 20
-299.3257602809
 30
0.0
 40
1.500000000000007
100
AcDbArc
 50
117.5120026238
 51
180.0
  0
LINE
  5
143
330
1F
100
AcDbEntity
  8
0
  6
Continuous
 62
     7
100
AcDbLine
 10
1265.6719910838
 20
-299.3257602809
 30
0.0
 11
1265.6719910838
 21
-302.1657528899
 31
0.0
  0
LINE
  5
144
330
1F
100
AcDbEntity
  8
0
  6
Continuous
 62
     7
100
AcDbLine
 10
1277.4719910838
 20
-302.1657528899
 30
0.0
 11
1277.4719910838
 21
-299.3257602809
 31
0.0
  0
ARC
  5
145
330
1F
100
AcDbEntity
  8
0
  6
Continuous
 62
     7
100
AcDbCircle
 10
1275.9719910838
 20
-299.3257602809
 30
0.0
 40
1.500000000000112
100
AcDbArc
 50
0.0
 51
62.4879973761
  0
LINE
  5
146
330
1F
100
AcDbEntity
  8
0
  6
Continuous
 62
     7
100
AcDbLine
 10
1267.7463036462
 20
-297.3353817637
 30
0.0
 11
1266.4790894556
 21
-297.9953891546
 31
0.0
  0
LINE
  5
147
330
1F
100
AcDbEntity
  8
0
  6
Continuous
 62
     7
100
AcDbLine
 10
1276.6648927121
 20
-297.9953891546
 30
0.0
 11
1275.3976785214
 21
-297.3353817637
 31
0.0
  0
ARC
  5
148
330
1F
100
AcDbEntity
  8
0
  6
Continuous
 62
     7
100
AcDbCircle
 10
1268.4392052745
 20
-298.6657528899
 30
0.0
 40
1.500000000000036
100
AcDbArc
 50
90.0
 51
117.5120026239
  0
ARC
  5
149
330
1F
100
AcDbEntity
  8
0
  6
Continuous
 62
     7
100
AcDbCircle
 10
1274.7047768932
 20
-298.6657528899
 30
0.0
 40
1.500000000000036
100
AcDbArc
 50
62.4879973761
 51
90.0
  0
LINE
  5
14A
330
1F
100
AcDbEntity
  8
0
  6
Continuous
 62
     7
100
AcDbLine
 10
1268.5719910838
 20
-303.6657528899
 30
0.0
 11
1268.5719910838
 21
-304.4157528899
 31
0.0
  0
LINE
  5
14B
330
1F
100
AcDbEntity
  8
0
  6
Continuous
 62
     7
100
AcDbLine
 10
1268.5719910838
 20
-305.9157528899
 30
0.0
 11
1268.5719910838
 21
-310.8657528899
 31
0.0
  0
LINE
  5
14C
330
1F
100
AcDbEntity
  8
0
  6
Continuous
 62
     7
100
AcDbLine
 10
1268.5719910838
 20
-310.8657528899
 30
0.0
 11
1269.0719910838
 21
-311.3657528899
 31
0.0
  0
LINE
  5
14D
330
1F
100
AcDbEntity
  8
0
  6
Continuous
 62
     7
100
AcDbLine
 10
1274.5719910838
 20
-310.8657528899
 30
0.0
 11
1274.5719910838
 21
-305.9157528899
 31
0.0
  0
LINE
  5
14E
330
1F
100
AcDbEntity
  8
0
  6
Continuous
 62
     7
100
AcDbLine
 10
1274.5719910838
 20
-304.4157528899
 30
0.0
 11
1274.5719910838
 21
-303.6657528899
 31
0.0
  0
LINE
  5
14F
330
1F
100
AcDbEntity
  8
0
  6
Continuous
 62
     7
100
AcDbLine
 10
1274.0719910838
 20
-311.3657528899
 30
0.0
 11
1274.5719910838
 21
-310.8657528899
 31
0.0
  0
LINE
  5
150
330
1F
100
AcDbEntity
  8
0
  6
Continuous
 62
     7
100
AcDbLine
 10
1615.6719910838
 20
-299.3257602809
 30
0.0
 11
1615.6719910838
 21
-302.1657528899
 31
0.0
  0
ARC
  5
151
330
1F
100
AcDbEntity
  8
0
  6
Continuous
 62
     7
100
AcDbCircle
 10
1617.1719910838
 20
-299.3257602809
 30
0.0
 40
1.5
100
AcDbArc
 50
117.5120026238
 51
180.0
  0
ARC
  5
152
330
1F
100
AcDbEntity
  8
0
  6
Continuous
 62
     7
100
AcDbCircle
 10
1625.9719910838
 20
-299.3257602809
 30
0.0
 40
1.499999999999952
100
AcDbArc
 50
0.0
 51
62.4879973762
  0
LINE
  5
153
330
1F
100
AcDbEntity
  8
0
  6
Continuous
 62
     7
100
AcDbLine
 10
1627.4719910838
 20
-302.1657528899
 30
0.0
 11
1627.4719910838
 21
-299.3257602809
 31
0.0
  0
LINE
  5
154
330
1F
100
AcDbEntity
  8
0
  6
Continuous
 62
     7
100
AcDbLine
 10
1617.7463036462
 20
-297.3353817637
 30
0.0
 11
1616.4790894556
 21
-297.9953891546
 31
0.0
  0
LINE
  5
155
330
1F
100
AcDbEntity
  8
0
  6
Continuous
 62
     7
100
AcDbLine
 10
1626.6648927121
 20
-297.9953891546
 30
0.0
 11
1625.3976785214
 21
-297.3353817637
 31
0.0
  0
ARC
  5
156
330
1F
100
AcDbEntity
  8
0
  6
Continuous
 62
     7
100
AcDbCircle
 10
1618.4392052745
 20
-298.6657528899
 30
0.0
 40
1.499999999999952
100
AcDbArc
 50
90.0
 51
117.5120026238
  0
ARC
  5
157
330
1F
100
AcDbEntity
  8
0
  6
Continuous
 62
     7
100
AcDbCircle
 10
1624.7047768932
 20
-298.6657528899
 30
0.0
 40
1.499999999999952
100
AcDbArc
 50
62.4879973762
 51
90.0
  0
LINE
  5
158
330
1F
100
AcDbEntity
  8
0
  6
Continuous
 62
     7
100
AcDbLine
 10
1618.5719910838
 20
-310.8657528899
 30
0.0
 11
1619.0719910838
 21
-311.3657528899
 31
0.0
  0
LINE
  5
159
330
1F
100
AcDbEntity
  8
0
  6
Continuous
 62
     7
100
AcDbLine
 10
1618.5719910838
 20
-303.6657528899
 30
0.0
 11
1618.5719910838
 21
-304.4157528899
 31
0.0
  0
LINE
  5
15A
330
1F
100
AcDbEntity
  8
0
  6
Continuous
 62
     7
100
AcDbLine
 10
1618.5719910838
 20
-305.9157528899
 30
0.0
 11
1618.5719910838
 21
-310.8657528899
 31
0.0
  0
LINE
  5
15B
330
1F
100
AcDbEntity
  8
0
  6
Continuous
 62
     7
100
AcDbLine
 10
1624.0719910838
 20
-311.3657528899
 30
0.0
 11
1624.5719910838
 21
-310.8657528899
 31
0.0
  0
LINE
  5
15C
330
1F
100
AcDbEntity
  8
0
  6
Continuous
 62
     7
100
AcDbLine
 10
1624.5719910838
 20
-310.8657528899
 30
0.0
 11
1624.5719910838
 21
-305.9157528899
 31
0.0
  0
LINE
  5
15D
330
1F
100
AcDbEntity
  8
0
  6
Continuous
 62
     7
100
AcDbLine
 10
1624.5719910838
 20
-304.4157528899
 30
0.0
 11
1624.5719910838
 21
-303.6657528899
 31
0.0
  0
LINE
  5
15E
330
1F
100
AcDbEntity
  8
0
  6
Continuous
 62
     7
100
AcDbLine
 10
1615.6719910838
 20
597.8342471101
 30
0.0
 11
1615.6719910838
 21
594.994254501
 31
0.0
  0
ARC
  5
15F
330
1F
100
AcDbEntity
  8
0
  6
Continuous
 62
     7
100
AcDbCircle
 10
1617.1719910838
 20
594.994254501
 30
0.0
 40
1.5
100
AcDbArc
 50
180.0
 51
242.4879973761
  0
ARC
  5
160
330
1F
100
AcDbEntity
  8
0
  6
Continuous
 62
     7
100
AcDbCircle
 10
1625.9719910838
 20
594.994254501
 30
0.0
 40
1.499999999999805
100
AcDbArc
 50
297.5120026239
 51
0.0
  0
LINE
  5
161
330
1F
100
AcDbEntity
  8
0
  6
Continuous
 62
     7
100
AcDbLine
 10
1627.4719910838
 20
594.994254501
 30
0.0
 11
1627.4719910838
 21
597.8342471101
 31
0.0
  0
LINE
  5
162
330
1F
100
AcDbEntity
  8
0
  6
Continuous
 62
     7
100
AcDbLine
 10
1616.4790894556
 20
593.6638833748
 30
0.0
 11
1617.7463036462
 21
593.0038759838
 31
0.0
  0
LINE
  5
163
330
1F
100
AcDbEntity
  8
0
  6
Continuous
 62
     7
100
AcDbLine
 10
1625.3976785214
 20
593.0038759838
 30
0.0
 11
1626.6648927121
 21
593.6638833748
 31
0.0
  0
ARC
  5
164
330
1F
100
AcDbEntity
  8
0
  6
Continuous
 62
     7
100
AcDbCircle
 10
1618.4392052745
 20
594.3342471101
 30
0.0
 40
1.499999999999902
100
AcDbArc
 50
242.4879973762
 51
270.0
  0
ARC
  5
165
330
1F
100
AcDbEntity
  8
0
  6
Continuous
 62
     7
100
AcDbCircle
 10
1624.7047768932
 20
594.3342471101
 30
0.0
 40
1.499999999999902
100
AcDbArc
 50
270.0
 51
297.5120026238
  0
LINE
  5
166
330
1F
100
AcDbEntity
  8
0
  6
Continuous
 62
     7
100
AcDbLine
 10
1619.0719910838
 20
607.0342471101
 30
0.0
 11
1618.5719910838
 21
606.5342471101
 31
0.0
  0
LINE
  5
167
330
1F
100
AcDbEntity
  8
0
  6
Continuous
 62
     7
100
AcDbLine
 10
1618.5719910838
 20
606.5342471101
 30
0.0
 11
1618.5719910838
 21
602.0842471101
 31
0.0
  0
LINE
  5
168
330
1F
100
AcDbEntity
  8
0
  6
Continuous
 62
     7
100
AcDbLine
 10
1618.5719910838
 20
600.0842471101
 30
0.0
 11
1618.5719910838
 21
599.3342471101
 31
0.0
  0
LINE
  5
169
330
1F
100
AcDbEntity
  8
0
  6
Continuous
 62
     7
100
AcDbLine
 10
1624.5719910838
 20
606.5342471101
 30
0.0
 11
1624.0719910838
 21
607.0342471101
 31
0.0
  0
LINE
  5
16A
330
1F
100
AcDbEntity
  8
0
  6
Continuous
 62
     7
100
AcDbLine
 10
1624.5719910838
 20
599.3342471101
 30
0.0
 11
1624.5719910838
 21
600.0842471101
 31
0.0
  0
LINE
  5
16B
330
1F
100
AcDbEntity
  8
0
  6
Continuous
 62
     7
100
AcDbLine
 10
1624.5719910838
 20
602.0842471101
 30
0.0
 11
1624.5719910838
 21
606.5342471101
 31
0.0
  0
ARC
  5
16C
330
1F
100
AcDbEntity
  8
0
  6
Continuous
 62
     7
100
AcDbCircle
 10
1267.1719910838
 20
594.994254501
 30
0.0
 40
1.5
100
AcDbArc
 50
180.0
 51
242.4879973762
  0
LINE
  5
16D
330
1F
100
AcDbEntity
  8
0
  6
Continuous
 62
     7
100
AcDbLine
 10
1265.6719910838
 20
597.8342471101
 30
0.0
 11
1265.6719910838
 21
594.994254501
 31
0.0
  0
ARC
  5
16E
330
1F
100
AcDbEntity
  8
0
  6
Continuous
 62
     7
100
AcDbCircle
 10
1275.9719910838
 20
594.994254501
 30
0.0
 40
1.500000000000227
100
AcDbArc
 50
297.5120026239
 51
0.0
  0
LINE
  5
16F
330
1F
100
AcDbEntity
  8
0
  6
Continuous
 62
     7
100
AcDbLine
 10
1277.4719910838
 20
594.994254501
 30
0.0
 11
1277.4719910838
 21
597.8342471101
 31
0.0
  0
LINE
  5
170
330
1F
100
AcDbEntity
  8
0
  6
Continuous
 62
     7
100
AcDbLine
 10
1266.4790894556
 20
593.6638833748
 30
0.0
 11
1267.7463036462
 21
593.0038759838
 31
0.0
  0
LINE
  5
171
330
1F
100
AcDbEntity
  8
0
  6
Continuous
 62
     7
100
AcDbLine
 10
1275.3976785214
 20
593.0038759838
 30
0.0
 11
1276.6648927121
 21
593.6638833748
 31
0.0
  0
ARC
  5
172
330
1F
100
AcDbEntity
  8
0
  6
Continuous
 62
     7
100
AcDbCircle
 10
1268.4392052745
 20
594.3342471101
 30
0.0
 40
1.500000000000007
100
AcDbArc
 50
242.4879973762
 51
270.0
  0
ARC
  5
173
330
1F
100
AcDbEntity
  8
0
  6
Continuous
 62
     7
100
AcDbCircle
 10
1274.7047768932
 20
594.3342471101
 30
0.0
 40
1.500000000000007
100
AcDbArc
 50
270.0
 51
297.5120026239
  0
LINE
  5
174
330
1F
100
AcDbEntity
  8
0
  6
Continuous
 62
     7
100
AcDbLine
 10
1268.5719910838
 20
606.5342471101
 30
0.0
 11
1268.5719910838
 21
602.0842471101
 31
0.0
  0
LINE
  5
175
330
1F
100
AcDbEntity
  8
0
  6
Continuous
 62
     7
100
AcDbLine
 10
1268.5719910838
 20
600.0842471101
 30
0.0
 11
1268.5719910838
 21
599.3342471101
 31
0.0
  0
LINE
  5
176
330
1F
100
AcDbEntity
  8
0
  6
Continuous
 62
     7
100
AcDbLine
 10
1269.0719910838
 20
607.0342471101
 30
0.0
 11
1268.5719910838
 21
606.5342471101
 31
0.0
  0
LINE
  5
177
330
1F
100
AcDbEntity
  8
0
  6
Continuous
 62
     7
100
AcDbLine
 10
1274.5719910838
 20
606.5342471101
 30
0.0
 11
1274.0719910838
 21
607.0342471101
 31
0.0
  0
LINE
  5
178
330
1F
100
AcDbEntity
  8
0
  6
Continuous
 62
     7
100
AcDbLine
 10
1274.5719910838
 20
599.3342471101
 30
0.0
 11
1274.5719910838
 21
600.0842471101
 31
0.0
  0
LINE
  5
179
330
1F
100
AcDbEntity
  8
0
  6
Continuous
 62
     7
100
AcDbLine
 10
1274.5719910838
 20
602.0842471101
 30
0.0
 11
1274.5719910838
 21
606.5342471101
 31
0.0
  0
LINE
  5
17A
330
1F
100
AcDbEntity
  8
0
  6
Continuous
 62
     7
100
AcDbLine
 10
1609.0719910838
 20
-276.9657528899
 30
0.0
 11
1609.0719910838
 21
500.5842471101
 31
0.0
  0
LINE
  5
17B
330
1F
100
AcDbEntity
  8
0
  6
Continuous
 62
     7
100
AcDbLine
 10
1572.5719910838
 20
-276.9657528899
 30
0.0
 11
1572.5719910838
 21
-276.9157528899
 31
0.0
  0
LINE
  5
17C
330
1F
100
AcDbEntity
  8
0
  6
Continuous
 62
     7
100
AcDbLine
 10
1572.5719910838
 20
-276.9157528899
 30
0.0
 11
1607.0719910838
 21
-276.9157528899
 31
0.0
  0
LINE
  5
17D
330
1F
100
AcDbEntity
  8
0
  6
Continuous
 62
     7
100
AcDbLine
 10
1607.0719910838
 20
-276.9157528899
 30
0.0
 11
1607.0719910838
 21
498.5842471101
 31
0.0
  0
LINE
  5
17E
330
1F
100
AcDbEntity
  8
0
  6
Continuous
 62
     7
100
AcDbLine
 10
1286.0719910838
 20
498.5842471101
 30
0.0
 11
1607.0719910838
 21
498.5842471101
 31
0.0
  0
LINE
  5
17F
330
1F
100
AcDbEntity
  8
0
  6
Continuous
 62
     7
100
AcDbLine
 10
1286.0719910838
 20
-276.9157528899
 30
0.0
 11
1286.0719910838
 21
498.5842471101
 31
0.0
  0
LINE
  5
180
330
1F
100
AcDbEntity
  8
0
  6
Continuous
 62
     7
100
AcDbLine
 10
1286.0719910838
 20
-276.9157528899
 30
0.0
 11
1320.5719910838
 21
-276.9157528899
 31
0.0
  0
LINE
  5
181
330
1F
100
AcDbEntity
  8
0
  6
Continuous
 62
     7
100
AcDbLine
 10
1320.5719910838
 20
-276.9657528899
 30
0.0
 11
1320.5719910838
 21
-276.9157528899
 31
0.0
  0
LINE
  5
182
330
1F
100
AcDbEntity
  8
0
  6
Continuous
 62
     7
100
AcDbLine
 10
1284.0719910838
 20
-276.9657528899
 30
0.0
 11
1284.0719910838
 21
500.5842471101
 31
0.0
  0
LINE
  5
183
330
1F
100
AcDbEntity
  8
0
  6
Continuous
 62
     7
100
AcDbLine
 10
1284.0719910838
 20
500.5842471101
 30
0.0
 11
1609.0719910838
 21
500.5842471101
 31
0.0
  0
LINE
  5
184
330
1F
100
AcDbEntity
  8
0
  6
Continuous
 62
     7
100
AcDbLine
 10
1371.5719910838
 20
-276.9657528899
 30
0.0
 11
1371.5719910838
 21
-276.9157528899
 31
0.0
  0
LINE
  5
185
330
1F
100
AcDbEntity
  8
0
  6
Continuous
 62
     7
100
AcDbLine
 10
1321.5719910838
 20
-276.9657528899
 30
0.0
 11
1321.5719910838
 21
-276.9157528899
 31
0.0
  0
LINE
  5
186
330
1F
100
AcDbEntity
  8
0
  6
Continuous
 62
     7
100
AcDbLine
 10
1371.5719910838
 20
-276.9157528899
 30
0.0
 11
1321.5719910838
 21
-276.9157528899
 31
0.0
  0
LINE
  5
187
330
1F
100
AcDbEntity
  8
0
  6
Continuous
 62
     7
100
AcDbLine
 10
1520.5719910838
 20
-276.9657528899
 30
0.0
 11
1520.5719910838
 21
-276.9157528899
 31
0.0
  0
LINE
  5
188
330
1F
100
AcDbEntity
  8
0
  6
Continuous
 62
     7
100
AcDbLine
 10
1372.5719910838
 20
-276.9657528899
 30
0.0
 11
1372.5719910838
 21
-276.9157528899
 31
0.0
  0
LINE
  5
189
330
1F
100
AcDbEntity
  8
0
  6
Continuous
 62
     7
100
AcDbLine
 10
1372.5719910838
 20
-276.9157528899
 30
0.0
 11
1520.5719910838
 21
-276.9157528899
 31
0.0
  0
LINE
  5
18A
330
1F
100
AcDbEntity
  8
0
  6
Continuous
 62
     7
100
AcDbLine
 10
1571.5719910838
 20
-276.9657528899
 30
0.0
 11
1571.5719910838
 21
-276.9157528899
 31
0.0
  0
LINE
  5
18B
330
1F
100
AcDbEntity
  8
0
  6
Continuous
 62
     7
100
AcDbLine
 10
1521.5719910838
 20
-276.9657528899
 30
0.0
 11
1521.5719910838
 21
-276.9157528899
 31
0.0
  0
LINE
  5
18C
330
1F
100
AcDbEntity
  8
0
  6
Continuous
 62
     7
100
AcDbLine
 10
1571.5719910838
 20
-276.9157528899
 30
0.0
 11
1521.5719910838
 21
-276.9157528899
 31
0.0
  0
LINE
  5
18D
330
1F
100
AcDbEntity
  8
0
  6
Continuous
 62
     7
100
AcDbLine
 10
1320.5719910838
 20
-276.9157528899
 30
0.0
 11
1321.5719910838
 21
-276.9157528899
 31
0.0
  0
LINE
  5
18E
330
1F
100
AcDbEntity
  8
0
  6
Continuous
 62
     7
100
AcDbLine
 10
1371.5719910838
 20
-276.9157528899
 30
0.0
 11
1372.5719910838
 21
-276.9157528899
 31
0.0
  0
LINE
  5
18F
330
1F
100
AcDbEntity
  8
0
  6
Continuous
 62
     7
100
AcDbLine
 10
1520.5719910838
 20
-276.9157528899
 30
0.0
 11
1521.5719910838
 21
-276.9157528899
 31
0.0
  0
LINE
  5
190
330
1F
100
AcDbEntity
  8
0
  6
Continuous
 62
     7
100
AcDbLine
 10
1571.5719910838
 20
-276.9157528899
 30
0.0
 11
1572.5719910838
 21
-276.9157528899
 31
0.0
  0
LINE
  5
191
330
1F
100
AcDbEntity
  8
0
  6
Continuous
 62
     7
100
AcDbLine
 10
1340.6719910845
 20
495.744254501
 30
0.0
 11
1340.6719910845
 21
498.5842471101
 31
0.0
  0
LINE
  5
192
330
1F
100
AcDbEntity
  8
0
  6
Continuous
 62
     7
100
AcDbLine
 10
1352.4719910831
 20
495.744254501
 30
0.0
 11
1352.4719910831
 21
498.5842471101
 31
0.0
  0
LINE
  5
193
330
1F
100
AcDbEntity
  8
0
  6
Continuous
 62
     7
100
AcDbLine
 10
1340.6719910845
 20
495.744254501
 30
0.0
 11
1352.4719910831
 21
495.744254501
 31
0.0
  0
ARC
  5
194
330
1F
100
AcDbEntity
  8
0
  6
Continuous
 62
     7
100
AcDbCircle
 10
1342.1719910843
 20
495.744254501
 30
0.0
 40
1.499999999963296
100
AcDbArc
 50
180.0
 51
242.4879973788
  0
ARC
  5
195
330
1F
100
AcDbEntity
  8
0
  6
Continuous
 62
     7
100
AcDbCircle
 10
1350.9719910833
 20
495.744254501
 30
0.0
 40
1.49999999996309
100
AcDbArc
 50
297.5120026211
 51
0.0
  0
LINE
  5
196
330
1F
100
AcDbEntity
  8
0
  6
Continuous
 62
     7
100
AcDbLine
 10
1341.4790894561
 20
494.4138833748
 30
0.0
 11
1351.6648927115
 21
494.4138833748
 31
0.0
  0
LINE
  5
197
330
1F
100
AcDbEntity
  8
0
  6
Continuous
 62
     7
100
AcDbLine
 10
1342.7463036467
 20
493.7538759838
 30
0.0
 11
1341.4790894561
 21
494.4138833748
 31
0.0
  0
LINE
  5
198
330
1F
100
AcDbEntity
  8
0
  6
Continuous
 62
     7
100
AcDbLine
 10
1350.397678521
 20
493.7538759838
 30
0.0
 11
1351.6648927115
 21
494.4138833748
 31
0.0
  0
LINE
  5
199
330
1F
100
AcDbEntity
  8
0
  6
Continuous
 62
     7
100
AcDbLine
 10
1342.7463036467
 20
493.7538759838
 30
0.0
 11
1350.397678521
 21
493.7538759838
 31
0.0
  0
ARC
  5
19A
330
1F
100
AcDbEntity
  8
0
  6
Continuous
 62
     7
100
AcDbCircle
 10
1343.4392052748
 20
495.0842471101
 30
0.0
 40
1.499999999999943
100
AcDbArc
 50
242.4879973788
 51
270.0
  0
ARC
  5
19B
330
1F
100
AcDbEntity
  8
0
  6
Continuous
 62
     7
100
AcDbCircle
 10
1349.7047768928
 20
495.0842471101
 30
0.0
 40
1.499999999999943
100
AcDbArc
 50
270.0
 51
297.5120026211
  0
LINE
  5
19C
330
1F
100
AcDbEntity
  8
0
  6
Continuous
 62
     7
100
AcDbLine
 10
1343.4392052748
 20
493.5842471101
 30
0.0
 11
1349.7047768928
 21
493.5842471101
 31
0.0
  0
ARC
  5
19D
330
1F
100
AcDbEntity
  8
0
  6
Continuous
 62
     7
100
AcDbCircle
 10
1542.1719910843
 20
495.744254501
 30
0.0
 40
1.499999999963296
100
AcDbArc
 50
180.0
 51
242.4879973788
  0
LINE
  5
19E
330
1F
100
AcDbEntity
  8
0
  6
Continuous
 62
     7
100
AcDbLine
 10
1540.6719910845
 20
495.744254501
 30
0.0
 11
1552.4719910831
 21
495.744254501
 31
0.0
  0
ARC
  5
19F
330
1F
100
AcDbEntity
  8
0
  6
Continuous
 62
     7
100
AcDbCircle
 10
1550.9719910833
 20
495.744254501
 30
0.0
 40
1.499999999962985
100
AcDbArc
 50
297.5120026211
 51
0.0
  0
LINE
  5
1A0
330
1F
100
AcDbEntity
  8
0
  6
Continuous
 62
     7
100
AcDbLine
 10
1541.4790894561
 20
494.4138833748
 30
0.0
 11
1551.6648927115
 21
494.4138833748
 31
0.0
  0
LINE
  5
1A1
330
1F
100
AcDbEntity
  8
0
  6
Continuous
 62
     7
100
AcDbLine
 10
1540.6719910845
 20
495.744254501
 30
0.0
 11
1540.6719910845
 21
498.5842471101
 31
0.0
  0
LINE
  5
1A2
330
1F
100
AcDbEntity
  8
0
  6
Continuous
 62
     7
100
AcDbLine
 10
1552.4719910831
 20
495.744254501
 30
0.0
 11
1552.4719910831
 21
498.5842471101
 31
0.0
  0
LINE
  5
1A3
330
1F
100
AcDbEntity
  8
0
  6
Continuous
 62
     7
100
AcDbLine
 10
1542.7463036467
 20
493.7538759838
 30
0.0
 11
1541.4790894561
 21
494.4138833748
 31
0.0
  0
LINE
  5
1A4
330
1F
100
AcDbEntity
  8
0
  6
Continuous
 62
     7
100
AcDbLine
 10
1550.397678521
 20
493.7538759838
 30
0.0
 11
1551.6648927115
 21
494.4138833748
 31
0.0
  0
LINE
  5
1A5
330
1F
100
AcDbEntity
  8
0
  6
Continuous
 62
     7
100
AcDbLine
 10
1542.7463036467
 20
493.7538759838
 30
0.0
 11
1550.397678521
 21
493.7538759838
 31
0.0
  0
ARC
  5
1A6
330
1F
100
AcDbEntity
  8
0
  6
Continuous
 62
     7
100
AcDbCircle
 10
1543.4392052748
 20
495.0842471101
 30
0.0
 40
1.499999999999943
100
AcDbArc
 50
242.4879973789
 51
270.0
  0
ARC
  5
1A7
330
1F
100
AcDbEntity
  8
0
  6
Continuous
 62
     7
100
AcDbCircle
 10
1549.7047768928
 20
495.0842471101
 30
0.0
 40
1.499999999999943
100
AcDbArc
 50
270.0
 51
297.5120026212
  0
LINE
  5
1A8
330
1F
100
AcDbEntity
  8
0
  6
Continuous
 62
     7
100
AcDbLine
 10
1543.4392052748
 20
493.5842471101
 30
0.0
 11
1549.7047768928
 21
493.5842471101
 31
0.0
  0
ARC
  5
1A9
330
1F
100
AcDbEntity
  8
0
  6
Continuous
 62
     7
100
AcDbCircle
 10
1530.5719910838
 20
512.5842471101
 30
0.0
 40
3.132785809343716
100
AcDbArc
 50
270.0
 51
90.0
  0
ARC
  5
1AA
330
1F
100
AcDbEntity
  8
0
  6
Continuous
 62
     7
100
AcDbCircle
 10
1530.5719910838
 20
512.5842471101
 30
0.0
 40
3.132785809343716
100
AcDbArc
 50
90.0
 51
270.0
  0
ARC
  5
1AB
330
1F
100
AcDbEntity
  8
0
  6
Continuous
 62
     7
100
AcDbCircle
 10
1530.5719910838
 20
506.1800455541
 30
0.0
 40
4.15420155595627
100
AcDbArc
 50
90.0
 51
105.9632794617
  0
ARC
  5
1AC
330
1F
100
AcDbEntity
  8
0
  6
Continuous
 62
     7
100
AcDbCircle
 10
1531.7969910838
 20
510.4624848708
 30
0.0
 40
0.3000000000004971
100
AcDbArc
 50
254.0367205383
 51
345.9632794618
  0
ARC
  5
1AD
330
1F
100
AcDbEntity
  8
0
  6
Continuous
 62
     7
100
AcDbCircle
 10
1536.1181923222
 20
515.7863478881
 30
0.0
 40
4.154201555956293
100
AcDbArc
 50
194.0367205383
 51
225.9632794617
  0
ARC
  5
1AE
330
1F
100
AcDbEntity
  8
0
  6
Continuous
 62
     7
100
AcDbCircle
 10
1530.5719910838
 20
518.988448666
 30
0.0
 40
4.15420155595634
100
AcDbArc
 50
254.0367205382
 51
285.9632794618
  0
ARC
  5
1AF
330
1F
100
AcDbEntity
  8
0
  6
Continuous
 62
     7
100
AcDbCircle
 10
1533.0219910838
 20
512.5842471101
 30
0.0
 40
0.3000000000005949
100
AcDbArc
 50
314.0367205383
 51
45.9632794618
  0
ARC
  5
1B0
330
1F
100
AcDbEntity
  8
0
  6
Continuous
 62
     7
100
AcDbCircle
 10
1531.7969910838
 20
514.7060093493
 30
0.0
 40
0.3000000000007043
100
AcDbArc
 50
14.0367205382
 51
90.0
  0
ARC
  5
1B1
330
1F
100
AcDbEntity
  8
0
  6
Continuous
 62
     7
100
AcDbCircle
 10
1536.1181923222
 20
509.3821463321
 30
0.0
 40
4.154201555956432
100
AcDbArc
 50
134.0367205383
 51
165.9632794617
  0
ARC
  5
1B2
330
1F
100
AcDbEntity
  8
0
  6
Continuous
 62
     7
100
AcDbCircle
 10
1529.3469910838
 20
514.7060093493
 30
0.0
 40
0.3000000000006366
100
AcDbArc
 50
90.0
 51
165.9632794617
  0
ARC
  5
1B3
330
1F
100
AcDbEntity
  8
0
  6
Continuous
 62
     7
100
AcDbCircle
 10
1530.5719910838
 20
506.1800455541
 30
0.0
 40
4.15420155595627
100
AcDbArc
 50
74.0367205383
 51
90.0
  0
ARC
  5
1B4
330
1F
100
AcDbEntity
  8
0
  6
Continuous
 62
     7
100
AcDbCircle
 10
1529.3469910838
 20
514.7060093493
 30
0.0
 40
0.3000000000006366
100
AcDbArc
 50
74.0367205383
 51
90.0
  0
ARC
  5
1B5
330
1F
100
AcDbEntity
  8
0
  6
Continuous
 62
     7
100
AcDbCircle
 10
1525.0257898454
 20
515.7863478881
 30
0.0
 40
4.154201555956238
100
AcDbArc
 50
314.0367205383
 51
345.9632794618
  0
ARC
  5
1B6
330
1F
100
AcDbEntity
  8
0
  6
Continuous
 62
     7
100
AcDbCircle
 10
1531.7969910838
 20
514.7060093493
 30
0.0
 40
0.3000000000006366
100
AcDbArc
 50
90.0
 51
105.9632794617
  0
ARC
  5
1B7
330
1F
100
AcDbEntity
  8
0
  6
Continuous
 62
     7
100
AcDbCircle
 10
1528.1219910838
 20
512.5842471101
 30
0.0
 40
0.2999999999997884
100
AcDbArc
 50
134.0367205383
 51
225.9632794617
  0
ARC
  5
1B8
330
1F
100
AcDbEntity
  8
0
  6
Continuous
 62
     7
100
AcDbCircle
 10
1525.0257898454
 20
509.3821463321
 30
0.0
 40
4.154201555956348
100
AcDbArc
 50
14.0367205382
 51
45.9632794617
  0
ARC
  5
1B9
330
1F
100
AcDbEntity
  8
0
  6
Continuous
 62
     7
100
AcDbCircle
 10
1529.3469910838
 20
510.4624848708
 30
0.0
 40
0.3000000000004699
100
AcDbArc
 50
194.0367205382
 51
285.9632794617
  0
LINE
  5
1BA
330
1F
100
AcDbEntity
  8
0
  6
Continuous
 62
     7
100
AcDbLine
 10
1530.5719910838
 20
509.4514613007
 30
0.0
 11
1530.5719910838
 21
508.7585596725
 31
0.0
  0
ARC
  5
1BB
330
1F
100
AcDbEntity
  8
0
  6
Continuous
 62
     7
100
AcDbCircle
 10
1530.5719910838
 20
512.5842471101
 30
0.0
 40
3.825687437599129
100
AcDbArc
 50
90.0
 51
270.0
  0
LINE
  5
1BC
330
1F
100
AcDbEntity
  8
0
  6
Continuous
 62
     7
100
AcDbLine
 10
1530.5719910838
 20
515.7170329194
 30
0.0
 11
1530.5719910838
 21
516.4099345477
 31
0.0
  0
ARC
  5
1BD
330
1F
100
AcDbEntity
  8
0
  6
Continuous
 62
     7
100
AcDbCircle
 10
1530.5719910838
 20
512.5842471101
 30
0.0
 40
3.825687437599129
100
AcDbArc
 50
270.0
 51
90.0
  0
LINE
  5
1BE
330
1F
100
AcDbEntity
  8
0
  6
Continuous
 62
     7
100
AcDbLine
 10
1530.5719910838
 20
508.7585596725
 30
0.0
 11
1530.5719910838
 21
507.4913454818
 31
0.0
  0
ARC
  5
1BF
330
1F
100
AcDbEntity
  8
0
  6
Continuous
 62
     7
100
AcDbCircle
 10
1530.5719910838
 20
512.5842471101
 30
0.0
 40
5.092901628255447
100
AcDbArc
 50
90.0
 51
270.0
  0
LINE
  5
1C0
330
1F
100
AcDbEntity
  8
0
  6
Continuous
 62
     7
100
AcDbLine
 10
1530.5719910838
 20
516.4099345477
 30
0.0
 11
1530.5719910838
 21
517.6771487383
 31
0.0
  0
ARC
  5
1C1
330
1F
100
AcDbEntity
  8
0
  6
Continuous
 62
     7
100
AcDbCircle
 10
1530.5719910838
 20
512.5842471101
 30
0.0
 40
5.092901628255447
100
AcDbArc
 50
270.0
 51
90.0
  0
LINE
  5
1C2
330
1F
100
AcDbEntity
  8
0
  6
Continuous
 62
     7
100
AcDbLine
 10
1530.5719910838
 20
507.4913454818
 30
0.0
 11
1530.5719910838
 21
506.6842471101
 31
0.0
  0
ARC
  5
1C3
330
1F
100
AcDbEntity
  8
0
  6
Continuous
 62
     7
100
AcDbCircle
 10
1530.5719910838
 20
512.5842471101
 30
0.0
 40
5.900000000000091
100
AcDbArc
 50
90.0
 51
270.0
  0
LINE
  5
1C4
330
1F
100
AcDbEntity
  8
0
  6
Continuous
 62
     7
100
AcDbLine
 10
1530.5719910838
 20
517.6771487383
 30
0.0
 11
1530.5719910838
 21
518.4842471101
 31
0.0
  0
ARC
  5
1C5
330
1F
100
AcDbEntity
  8
0
  6
Continuous
 62
     7
100
AcDbCircle
 10
1530.5719910838
 20
512.5842471101
 30
0.0
 40
5.900000000000091
100
AcDbArc
 50
270.0
 51
90.0
  0
LINE
  5
1C6
330
1F
100
AcDbEntity
  8
0
  6
Continuous
 62
     7
100
AcDbLine
 10
1562.5719910838
 20
509.4514613007
 30
0.0
 11
1562.5719910838
 21
508.7585596725
 31
0.0
  0
ARC
  5
1C7
330
1F
100
AcDbEntity
  8
0
  6
Continuous
 62
     7
100
AcDbCircle
 10
1562.5719910838
 20
512.5842471101
 30
0.0
 40
3.825687437599129
100
AcDbArc
 50
90.0
 51
270.0
  0
LINE
  5
1C8
330
1F
100
AcDbEntity
  8
0
  6
Continuous
 62
     7
100
AcDbLine
 10
1562.5719910838
 20
515.7170329194
 30
0.0
 11
1562.5719910838
 21
516.4099345477
 31
0.0
  0
ARC
  5
1C9
330
1F
100
AcDbEntity
  8
0
  6
Continuous
 62
     7
100
AcDbCircle
 10
1562.5719910838
 20
512.5842471101
 30
0.0
 40
3.132785809343716
100
AcDbArc
 50
90.0
 51
270.0
  0
ARC
  5
1CA
330
1F
100
AcDbEntity
  8
0
  6
Continuous
 62
     7
100
AcDbCircle
 10
1562.5719910838
 20
512.5842471101
 30
0.0
 40
3.825687437599129
100
AcDbArc
 50
270.0
 51
90.0
  0
ARC
  5
1CB
330
1F
100
AcDbEntity
  8
0
  6
Continuous
 62
     7
100
AcDbCircle
 10
1562.5719910838
 20
512.5842471101
 30
0.0
 40
3.132785809343716
100
AcDbArc
 50
270.0
 51
90.0
  0
ARC
  5
1CC
330
1F
100
AcDbEntity
  8
0
  6
Continuous
 62
     7
100
AcDbCircle
 10
1563.7969910838
 20
514.7060093493
 30
0.0
 40
0.3000000000007043
100
AcDbArc
 50
14.0367205382
 51
90.0
  0
ARC
  5
1CD
330
1F
100
AcDbEntity
  8
0
  6
Continuous
 62
     7
100
AcDbCircle
 10
1562.5719910838
 20
506.1800455541
 30
0.0
 40
4.154201555956333
100
AcDbArc
 50
90.0
 51
105.9632794617
  0
ARC
  5
1CE
330
1F
100
AcDbEntity
  8
0
  6
Continuous
 62
     7
100
AcDbCircle
 10
1562.5719910838
 20
518.988448666
 30
0.0
 40
4.15420155595634
100
AcDbArc
 50
254.0367205382
 51
285.9632794618
  0
ARC
  5
1CF
330
1F
100
AcDbEntity
  8
0
  6
Continuous
 62
     7
100
AcDbCircle
 10
1563.7969910838
 20
510.4624848708
 30
0.0
 40
0.3000000000004971
100
AcDbArc
 50
254.0367205383
 51
345.9632794618
  0
ARC
  5
1D0
330
1F
100
AcDbEntity
  8
0
  6
Continuous
 62
     7
100
AcDbCircle
 10
1568.1181923222
 20
515.7863478881
 30
0.0
 40
4.154201555956293
100
AcDbArc
 50
194.0367205383
 51
225.9632794617
  0
ARC
  5
1D1
330
1F
100
AcDbEntity
  8
0
  6
Continuous
 62
     7
100
AcDbCircle
 10
1562.5719910838
 20
506.1800455541
 30
0.0
 40
4.154201555956263
100
AcDbArc
 50
74.0367205383
 51
90.0
  0
ARC
  5
1D2
330
1F
100
AcDbEntity
  8
0
  6
Continuous
 62
     7
100
AcDbCircle
 10
1568.1181923222
 20
509.3821463321
 30
0.0
 40
4.154201555956432
100
AcDbArc
 50
134.0367205383
 51
165.9632794617
  0
ARC
  5
1D3
330
1F
100
AcDbEntity
  8
0
  6
Continuous
 62
     7
100
AcDbCircle
 10
1561.3469910838
 20
514.7060093493
 30
0.0
 40
0.3000000000006366
100
AcDbArc
 50
90.0
 51
165.9632794617
  0
ARC
  5
1D4
330
1F
100
AcDbEntity
  8
0
  6
Continuous
 62
     7
100
AcDbCircle
 10
1557.0257898454
 20
515.7863478881
 30
0.0
 40
4.154201555956238
100
AcDbArc
 50
314.0367205383
 51
345.9632794618
  0
ARC
  5
1D5
330
1F
100
AcDbEntity
  8
0
  6
Continuous
 62
     7
100
AcDbCircle
 10
1561.3469910838
 20
514.7060093493
 30
0.0
 40
0.3000000000006366
100
AcDbArc
 50
74.0367205383
 51
90.0
  0
ARC
  5
1D6
330
1F
100
AcDbEntity
  8
0
  6
Continuous
 62
     7
100
AcDbCircle
 10
1561.3469910838
 20
510.4624848708
 30
0.0
 40
0.3000000000004699
100
AcDbArc
 50
194.0367205382
 51
285.9632794617
  0
ARC
  5
1D7
330
1F
100
AcDbEntity
  8
0
  6
Continuous
 62
     7
100
AcDbCircle
 10
1560.1219910838
 20
512.5842471101
 30
0.0
 40
0.2999999999997884
100
AcDbArc
 50
134.0367205383
 51
225.9632794617
  0
ARC
  5
1D8
330
1F
100
AcDbEntity
  8
0
  6
Continuous
 62
     7
100
AcDbCircle
 10
1563.7969910838
 20
514.7060093493
 30
0.0
 40
0.3000000000006366
100
AcDbArc
 50
90.0
 51
105.9632794617
  0
ARC
  5
1D9
330
1F
100
AcDbEntity
  8
0
  6
Continuous
 62
     7
100
AcDbCircle
 10
1565.0219910838
 20
512.5842471101
 30
0.0
 40
0.3000000000005949
100
AcDbArc
 50
314.0367205383
 51
45.9632794618
  0
ARC
  5
1DA
330
1F
100
AcDbEntity
  8
0
  6
Continuous
 62
     7
100
AcDbCircle
 10
1557.0257898454
 20
509.3821463321
 30
0.0
 40
4.154201555956422
100
AcDbArc
 50
14.0367205382
 51
45.9632794617
  0
LINE
  5
1DB
330
1F
100
AcDbEntity
  8
0
  6
Continuous
 62
     7
100
AcDbLine
 10
1562.5719910838
 20
508.7585596725
 30
0.0
 11
1562.5719910838
 21
507.4913454818
 31
0.0
  0
ARC
  5
1DC
330
1F
100
AcDbEntity
  8
0
  6
Continuous
 62
     7
100
AcDbCircle
 10
1562.5719910838
 20
512.5842471101
 30
0.0
 40
5.092901628255447
100
AcDbArc
 50
90.0
 51
270.0
  0
LINE
  5
1DD
330
1F
100
AcDbEntity
  8
0
  6
Continuous
 62
     7
100
AcDbLine
 10
1562.5719910838
 20
516.4099345477
 30
0.0
 11
1562.5719910838
 21
517.6771487383
 31
0.0
  0
ARC
  5
1DE
330
1F
100
AcDbEntity
  8
0
  6
Continuous
 62
     7
100
AcDbCircle
 10
1562.5719910838
 20
512.5842471101
 30
0.0
 40
5.092901628255447
100
AcDbArc
 50
270.0
 51
90.0
  0
LINE
  5
1DF
330
1F
100
AcDbEntity
  8
0
  6
Continuous
 62
     7
100
AcDbLine
 10
1562.5719910838
 20
507.4913454818
 30
0.0
 11
1562.5719910838
 21
506.6842471101
 31
0.0
  0
ARC
  5
1E0
330
1F
100
AcDbEntity
  8
0
  6
Continuous
 62
     7
100
AcDbCircle
 10
1562.5719910838
 20
512.5842471101
 30
0.0
 40
5.900000000000091
100
AcDbArc
 50
90.0
 51
270.0
  0
LINE
  5
1E1
330
1F
100
AcDbEntity
  8
0
  6
Continuous
 62
     7
100
AcDbLine
 10
1562.5719910838
 20
517.6771487383
 30
0.0
 11
1562.5719910838
 21
518.4842471101
 31
0.0
  0
ARC
  5
1E2
330
1F
100
AcDbEntity
  8
0
  6
Continuous
 62
     7
100
AcDbCircle
 10
1562.5719910838
 20
512.5842471101
 30
0.0
 40
5.900000000000091
100
AcDbArc
 50
270.0
 51
90.0
  0
LINE
  5
1E3
330
1F
100
AcDbEntity
  8
0
  6
Continuous
 62
     7
100
AcDbLine
 10
1330.5719910838
 20
509.4514613007
 30
0.0
 11
1330.5719910838
 21
508.7585596725
 31
0.0
  0
ARC
  5
1E4
330
1F
100
AcDbEntity
  8
0
  6
Continuous
 62
     7
100
AcDbCircle
 10
1330.5719910838
 20
512.5842471101
 30
0.0
 40
3.825687437599186
100
AcDbArc
 50
90.0
 51
270.0
  0
LINE
  5
1E5
330
1F
100
AcDbEntity
  8
0
  6
Continuous
 62
     7
100
AcDbLine
 10
1330.5719910838
 20
515.7170329194
 30
0.0
 11
1330.5719910838
 21
516.4099345477
 31
0.0
  0
ARC
  5
1E6
330
1F
100
AcDbEntity
  8
0
  6
Continuous
 62
     7
100
AcDbCircle
 10
1330.5719910838
 20
512.5842471101
 30
0.0
 40
3.132785809343716
100
AcDbArc
 50
90.0
 51
270.0
  0
ARC
  5
1E7
330
1F
100
AcDbEntity
  8
0
  6
Continuous
 62
     7
100
AcDbCircle
 10
1330.5719910838
 20
512.5842471101
 30
0.0
 40
3.132785809343716
100
AcDbArc
 50
270.0
 51
90.0
  0
ARC
  5
1E8
330
1F
100
AcDbEntity
  8
0
  6
Continuous
 62
     7
100
AcDbCircle
 10
1330.5719910838
 20
506.1800455541
 30
0.0
 40
4.15420155595627
100
AcDbArc
 50
90.0
 51
105.9632794617
  0
ARC
  5
1E9
330
1F
100
AcDbEntity
  8
0
  6
Continuous
 62
     7
100
AcDbCircle
 10
1330.5719910838
 20
506.1800455541
 30
0.0
 40
4.154201555956263
100
AcDbArc
 50
74.0367205383
 51
90.0
  0
ARC
  5
1EA
330
1F
100
AcDbEntity
  8
0
  6
Continuous
 62
     7
100
AcDbCircle
 10
1331.7969910838
 20
510.4624848708
 30
0.0
 40
0.3000000000004971
100
AcDbArc
 50
254.0367205383
 51
345.9632794618
  0
ARC
  5
1EB
330
1F
100
AcDbEntity
  8
0
  6
Continuous
 62
     7
100
AcDbCircle
 10
1336.1181923222
 20
509.3821463321
 30
0.0
 40
4.154201555956432
100
AcDbArc
 50
134.0367205383
 51
165.9632794617
  0
ARC
  5
1EC
330
1F
100
AcDbEntity
  8
0
  6
Continuous
 62
     7
100
AcDbCircle
 10
1333.0219910838
 20
512.5842471101
 30
0.0
 40
0.3000000000005131
100
AcDbArc
 50
314.0367205383
 51
45.9632794617
  0
ARC
  5
1ED
330
1F
100
AcDbEntity
  8
0
  6
Continuous
 62
     7
100
AcDbCircle
 10
1336.1181923222
 20
515.7863478881
 30
0.0
 40
4.154201555956101
100
AcDbArc
 50
194.0367205383
 51
225.9632794617
  0
ARC
  5
1EE
330
1F
100
AcDbEntity
  8
0
  6
Continuous
 62
     7
100
AcDbCircle
 10
1331.7969910838
 20
514.7060093493
 30
0.0
 40
0.3000000000006366
100
AcDbArc
 50
14.0367205382
 51
90.0
  0
ARC
  5
1EF
330
1F
100
AcDbEntity
  8
0
  6
Continuous
 62
     7
100
AcDbCircle
 10
1331.7969910838
 20
514.7060093493
 30
0.0
 40
0.3000000000006366
100
AcDbArc
 50
90.0
 51
105.9632794618
  0
ARC
  5
1F0
330
1F
100
AcDbEntity
  8
0
  6
Continuous
 62
     7
100
AcDbCircle
 10
1330.5719910838
 20
518.988448666
 30
0.0
 40
4.154201555956231
100
AcDbArc
 50
254.0367205382
 51
285.9632794618
  0
ARC
  5
1F1
330
1F
100
AcDbEntity
  8
0
  6
Continuous
 62
     7
100
AcDbCircle
 10
1329.3469910838
 20
514.7060093493
 30
0.0
 40
0.3000000000006366
100
AcDbArc
 50
74.0367205383
 51
90.0
  0
ARC
  5
1F2
330
1F
100
AcDbEntity
  8
0
  6
Continuous
 62
     7
100
AcDbCircle
 10
1329.3469910838
 20
514.7060093493
 30
0.0
 40
0.3000000000006366
100
AcDbArc
 50
90.0
 51
165.9632794618
  0
ARC
  5
1F3
330
1F
100
AcDbEntity
  8
0
  6
Continuous
 62
     7
100
AcDbCircle
 10
1328.1219910838
 20
512.5842471101
 30
0.0
 40
0.2999999999998701
100
AcDbArc
 50
134.0367205383
 51
225.9632794617
  0
ARC
  5
1F4
330
1F
100
AcDbEntity
  8
0
  6
Continuous
 62
     7
100
AcDbCircle
 10
1325.0257898454
 20
509.3821463321
 30
0.0
 40
4.154201555956569
100
AcDbArc
 50
14.0367205382
 51
45.9632794617
  0
ARC
  5
1F5
330
1F
100
AcDbEntity
  8
0
  6
Continuous
 62
     7
100
AcDbCircle
 10
1329.3469910838
 20
510.4624848708
 30
0.0
 40
0.3000000000004699
100
AcDbArc
 50
194.0367205382
 51
285.9632794617
  0
ARC
  5
1F6
330
1F
100
AcDbEntity
  8
0
  6
Continuous
 62
     7
100
AcDbCircle
 10
1325.0257898454
 20
515.7863478881
 30
0.0
 40
4.154201555956679
100
AcDbArc
 50
314.0367205383
 51
345.9632794618
  0
ARC
  5
1F7
330
1F
100
AcDbEntity
  8
0
  6
Continuous
 62
     7
100
AcDbCircle
 10
1330.5719910838
 20
512.5842471101
 30
0.0
 40
3.825687437599186
100
AcDbArc
 50
270.0
 51
90.0
  0
LINE
  5
1F8
330
1F
100
AcDbEntity
  8
0
  6
Continuous
 62
     7
100
AcDbLine
 10
1330.5719910838
 20
508.7585596725
 30
0.0
 11
1330.5719910838
 21
507.4913454818
 31
0.0
  0
ARC
  5
1F9
330
1F
100
AcDbEntity
  8
0
  6
Continuous
 62
     7
100
AcDbCircle
 10
1330.5719910838
 20
512.5842471101
 30
0.0
 40
5.092901628255504
100
AcDbArc
 50
90.0
 51
270.0
  0
LINE
  5
1FA
330
1F
100
AcDbEntity
  8
0
  6
Continuous
 62
     7
100
AcDbLine
 10
1330.5719910838
 20
516.4099345477
 30
0.0
 11
1330.5719910838
 21
517.6771487383
 31
0.0
  0
ARC
  5
1FB
330
1F
100
AcDbEntity
  8
0
  6
Continuous
 62
     7
100
AcDbCircle
 10
1330.5719910838
 20
512.5842471101
 30
0.0
 40
5.092901628255504
100
AcDbArc
 50
270.0
 51
90.0
  0
LINE
  5
1FC
330
1F
100
AcDbEntity
  8
0
  6
Continuous
 62
     7
100
AcDbLine
 10
1330.5719910838
 20
507.4913454818
 30
0.0
 11
1330.5719910838
 21
506.6842471101
 31
0.0
  0
ARC
  5
1FD
330
1F
100
AcDbEntity
  8
0
  6
Continuous
 62
     7
100
AcDbCircle
 10
1330.5719910838
 20
512.5842471101
 30
0.0
 40
5.900000000000034
100
AcDbArc
 50
90.0
 51
270.0
  0
LINE
  5
1FE
330
1F
100
AcDbEntity
  8
0
  6
Continuous
 62
     7
100
AcDbLine
 10
1330.5719910838
 20
517.6771487383
 30
0.0
 11
1330.5719910838
 21
518.4842471101
 31
0.0
  0
ARC
  5
1FF
330
1F
100
AcDbEntity
  8
0
  6
Continuous
 62
     7
100
AcDbCircle
 10
1330.5719910838
 20
512.5842471101
 30
0.0
 40
5.900000000000034
100
AcDbArc
 50
270.0
 51
90.0
  0
LINE
  5
200
330
1F
100
AcDbEntity
  8
0
  6
Continuous
 62
     7
100
AcDbLine
 10
1362.5719910838
 20
509.4514613007
 30
0.0
 11
1362.5719910838
 21
508.7585596725
 31
0.0
  0
ARC
  5
201
330
1F
100
AcDbEntity
  8
0
  6
Continuous
 62
     7
100
AcDbCircle
 10
1362.5719910838
 20
512.5842471101
 30
0.0
 40
3.825687437599186
100
AcDbArc
 50
90.0
 51
270.0
  0
LINE
  5
202
330
1F
100
AcDbEntity
  8
0
  6
Continuous
 62
     7
100
AcDbLine
 10
1362.5719910838
 20
515.7170329194
 30
0.0
 11
1362.5719910838
 21
516.4099345477
 31
0.0
  0
ARC
  5
203
330
1F
100
AcDbEntity
  8
0
  6
Continuous
 62
     7
100
AcDbCircle
 10
1362.5719910838
 20
512.5842471101
 30
0.0
 40
3.132785809343716
100
AcDbArc
 50
90.0
 51
270.0
  0
ARC
  5
204
330
1F
100
AcDbEntity
  8
0
  6
Continuous
 62
     7
100
AcDbCircle
 10
1362.5719910838
 20
512.5842471101
 30
0.0
 40
3.132785809343716
100
AcDbArc
 50
270.0
 51
90.0
  0
ARC
  5
205
330
1F
100
AcDbEntity
  8
0
  6
Continuous
 62
     7
100
AcDbCircle
 10
1362.5719910838
 20
506.1800455541
 30
0.0
 40
4.154201555956333
100
AcDbArc
 50
90.0
 51
105.9632794617
  0
ARC
  5
206
330
1F
100
AcDbEntity
  8
0
  6
Continuous
 62
     7
100
AcDbCircle
 10
1363.7969910838
 20
510.4624848708
 30
0.0
 40
0.3000000000006905
100
AcDbArc
 50
254.0367205383
 51
345.9632794618
  0
ARC
  5
207
330
1F
100
AcDbEntity
  8
0
  6
Continuous
 62
     7
100
AcDbCircle
 10
1368.1181923222
 20
509.3821463321
 30
0.0
 40
4.15420155595621
100
AcDbArc
 50
134.0367205383
 51
165.9632794617
  0
ARC
  5
208
330
1F
100
AcDbEntity
  8
0
  6
Continuous
 62
     7
100
AcDbCircle
 10
1365.0219910838
 20
512.5842471101
 30
0.0
 40
0.3000000000005131
100
AcDbArc
 50
314.0367205383
 51
45.9632794617
  0
ARC
  5
209
330
1F
100
AcDbEntity
  8
0
  6
Continuous
 62
     7
100
AcDbCircle
 10
1363.7969910838
 20
514.7060093493
 30
0.0
 40
0.3000000000006767
100
AcDbArc
 50
14.0367205382
 51
90.0
  0
ARC
  5
20A
330
1F
100
AcDbEntity
  8
0
  6
Continuous
 62
     7
100
AcDbCircle
 10
1361.3469910838
 20
514.7060093493
 30
0.0
 40
0.3000000000006366
100
AcDbArc
 50
74.0367205383
 51
90.0
  0
ARC
  5
20B
330
1F
100
AcDbEntity
  8
0
  6
Continuous
 62
     7
100
AcDbCircle
 10
1361.3469910838
 20
514.7060093493
 30
0.0
 40
0.3000000000006366
100
AcDbArc
 50
90.0
 51
165.9632794618
  0
ARC
  5
20C
330
1F
100
AcDbEntity
  8
0
  6
Continuous
 62
     7
100
AcDbCircle
 10
1357.0257898454
 20
515.7863478881
 30
0.0
 40
4.154201555956238
100
AcDbArc
 50
314.0367205383
 51
345.9632794618
  0
ARC
  5
20D
330
1F
100
AcDbEntity
  8
0
  6
Continuous
 62
     7
100
AcDbCircle
 10
1360.1219910838
 20
512.5842471101
 30
0.0
 40
0.2999999999998701
100
AcDbArc
 50
134.0367205383
 51
225.9632794617
  0
ARC
  5
20E
330
1F
100
AcDbEntity
  8
0
  6
Continuous
 62
     7
100
AcDbCircle
 10
1357.0257898454
 20
509.3821463321
 30
0.0
 40
4.15420155595638
100
AcDbArc
 50
14.0367205382
 51
45.9632794617
  0
ARC
  5
20F
330
1F
100
AcDbEntity
  8
0
  6
Continuous
 62
     7
100
AcDbCircle
 10
1361.3469910838
 20
510.4624848708
 30
0.0
 40
0.3000000000004699
100
AcDbArc
 50
194.0367205382
 51
285.9632794617
  0
ARC
  5
210
330
1F
100
AcDbEntity
  8
0
  6
Continuous
 62
     7
100
AcDbCircle
 10
1363.7969910838
 20
514.7060093493
 30
0.0
 40
0.3000000000006366
100
AcDbArc
 50
90.0
 51
105.9632794618
  0
ARC
  5
211
330
1F
100
AcDbEntity
  8
0
  6
Continuous
 62
     7
100
AcDbCircle
 10
1368.1181923222
 20
515.7863478881
 30
0.0
 40
4.154201555956101
100
AcDbArc
 50
194.0367205383
 51
225.9632794617
  0
ARC
  5
212
330
1F
100
AcDbEntity
  8
0
  6
Continuous
 62
     7
100
AcDbCircle
 10
1362.5719910838
 20
506.1800455541
 30
0.0
 40
4.154201555956263
100
AcDbArc
 50
74.0367205383
 51
90.0
  0
ARC
  5
213
330
1F
100
AcDbEntity
  8
0
  6
Continuous
 62
     7
100
AcDbCircle
 10
1362.5719910838
 20
518.988448666
 30
0.0
 40
4.154201555956122
100
AcDbArc
 50
254.0367205383
 51
285.9632794618
  0
ARC
  5
214
330
1F
100
AcDbEntity
  8
0
  6
Continuous
 62
     7
100
AcDbCircle
 10
1362.5719910838
 20
512.5842471101
 30
0.0
 40
3.825687437599186
100
AcDbArc
 50
270.0
 51
90.0
  0
LINE
  5
215
330
1F
100
AcDbEntity
  8
0
  6
Continuous
 62
     7
100
AcDbLine
 10
1362.5719910838
 20
508.7585596725
 30
0.0
 11
1362.5719910838
 21
507.4913454818
 31
0.0
  0
ARC
  5
216
330
1F
100
AcDbEntity
  8
0
  6
Continuous
 62
     7
100
AcDbCircle
 10
1362.5719910838
 20
512.5842471101
 30
0.0
 40
5.092901628255504
100
AcDbArc
 50
90.0
 51
270.0
  0
LINE
  5
217
330
1F
100
AcDbEntity
  8
0
  6
Continuous
 62
     7
100
AcDbLine
 10
1362.5719910838
 20
516.4099345477
 30
0.0
 11
1362.5719910838
 21
517.6771487383
 31
0.0
  0
ARC
  5
218
330
1F
100
AcDbEntity
  8
0
  6
Continuous
 62
     7
100
AcDbCircle
 10
1362.5719910838
 20
512.5842471101
 30
0.0
 40
5.092901628255504
100
AcDbArc
 50
270.0
 51
90.0
  0
LINE
  5
219
330
1F
100
AcDbEntity
  8
0
  6
Continuous
 62
     7
100
AcDbLine
 10
1362.5719910838
 20
507.4913454818
 30
0.0
 11
1362.5719910838
 21
506.6842471101
 31
0.0
  0
ARC
  5
21A
330
1F
100
AcDbEntity
  8
0
  6
Continuous
 62
     7
100
AcDbCircle
 10
1362.5719910838
 20
512.5842471101
 30
0.0
 40
5.900000000000034
100
AcDbArc
 50
90.0
 51
270.0
  0
LINE
  5
21B
330
1F
100
AcDbEntity
  8
0
  6
Continuous
 62
     7
100
AcDbLine
 10
1362.5719910838
 20
517.6771487383
 30
0.0
 11
1362.5719910838
 21
518.4842471101
 31
0.0
  0
ARC
  5
21C
330
1F
100
AcDbEntity
  8
0
  6
Continuous
 62
     7
100
AcDbCircle
 10
1362.5719910838
 20
512.5842471101
 30
0.0
 40
5.900000000000034
100
AcDbArc
 50
270.0
 51
90.0
  0
LINE
  5
21D
330
1F
100
AcDbEntity
  8
0
  6
Continuous
 62
     7
100
AcDbLine
 10
1555.3219910838
 20
500.5842471101
 30
0.0
 11
1555.3219910838
 21
502.0842471101
 31
0.0
  0
LINE
  5
21E
330
1F
100
AcDbEntity
  8
0
  6
Continuous
 62
     7
100
AcDbLine
 10
1537.8219910838
 20
500.5842471101
 30
0.0
 11
1537.8219910838
 21
502.0842471101
 31
0.0
  0
LINE
  5
21F
330
1F
100
AcDbEntity
  8
0
  6
Continuous
 62
     7
100
AcDbLine
 10
1355.3219910838
 20
500.5842471101
 30
0.0
 11
1355.3219910838
 21
502.0842471101
 31
0.0
  0
LINE
  5
220
330
1F
100
AcDbEntity
  8
0
  6
Continuous
 62
     7
100
AcDbLine
 10
1337.8219910838
 20
500.5842471101
 30
0.0
 11
1337.8219910838
 21
502.0842471101
 31
0.0
  0
ARC
  5
221
330
1F
100
AcDbEntity
  8
0
  6
Continuous
 62
     7
100
AcDbCircle
 10
1365.9873840171
 20
597.089727936
 30
0.0
 40
6.372653589872107
100
AcDbArc
 50
349.3671942127
 51
1.3894663734
  0
LINE
  5
222
330
1F
100
AcDbEntity
  8
0
  6
Continuous
 62
     7
100
AcDbLine
 10
1372.3581638216
 20
597.244254501
 30
0.0
 11
1372.3581638216
 21
600.0842471101
 31
0.0
  0
LINE
  5
223
330
1F
100
AcDbEntity
  8
0
  6
Continuous
 62
     7
100
AcDbLine
 10
1372.081762468
 20
595.2538759838
 30
0.0
 11
1372.250618273
 21
595.9138833748
 31
0.0
  0
LWPOLYLINE
  5
224
330
1F
100
AcDbEntity
  8
0
  6
Continuous
 62
     7
100
AcDbPolyline
 90
        9
 70
   128
 43
0.0
 10
1371.9894335917
 20
595.0842471101
 10
1372.0014232281
 20
595.0869482684
 10
1372.0133696833
 20
595.0950420152
 10
1372.0252299317
 20
595.1084992003
 10
1372.0369612579
 20
595.1272713571
 10
1372.0485214111
 20
595.1512908769
 10
1372.0598687569
 20
595.1804712524
 10
1372.0709624273
 20
595.214707389
 10
1372.081762468
 20
595.2538759838
  0
LINE
  5
225
330
1F
100
AcDbEntity
  8
0
  6
Continuous
 62
     7
100
AcDbLine
 10
1368.4392052745
 20
595.0842471101
 30
0.0
 11
1371.9894335917
 21
595.0842471101
 31
0.0
  0
LINE
  5
226
330
1F
100
AcDbEntity
  8
0
  6
Continuous
 62
     7
100
AcDbLine
 10
1371.9894335917
 20
595.0842471101
 30
0.0
 11
1374.7047768932
 21
595.0842471101
 31
0.0
  0
LINE
  5
227
330
1F
100
AcDbEntity
  8
0
  6
Continuous
 62
     7
100
AcDbLine
 10
1368.5719910838
 20
608.7842471101
 30
0.0
 11
1371.9717399335
 21
608.7842471101
 31
0.0
  0
LINE
  5
228
330
1F
100
AcDbEntity
  8
0
  6
Continuous
 62
     7
100
AcDbLine
 10
1369.0719910838
 20
609.2842471101
 30
0.0
 11
1371.9051151252
 21
609.2842471101
 31
0.0
  0
LINE
  5
229
330
1F
100
AcDbEntity
  8
0
  6
Continuous
 62
     7
100
AcDbLine
 10
1371.9051151252
 20
609.2842471101
 30
0.0
 11
1371.9717399335
 21
608.7842471101
 31
0.0
  0
LINE
  5
22A
330
1F
100
AcDbEntity
  8
0
  6
Continuous
 62
     7
100
AcDbLine
 10
1371.9717399335
 20
608.7842471101
 30
0.0
 11
1374.5719910838
 21
608.7842471101
 31
0.0
  0
LINE
  5
22B
330
1F
100
AcDbEntity
  8
0
  6
Continuous
 62
     7
100
AcDbLine
 10
1371.9051151252
 20
609.2842471101
 30
0.0
 11
1374.0719910838
 21
609.2842471101
 31
0.0
  0
LINE
  5
22C
330
1F
100
AcDbEntity
  8
0
  6
Continuous
 62
     7
100
AcDbLine
 10
1521.5719910838
 20
595.9138833748
 30
0.0
 11
1521.5719910838
 21
597.244254501
 31
0.0
  0
LINE
  5
22D
330
1F
100
AcDbEntity
  8
0
  6
Continuous
 62
     7
100
AcDbLine
 10
1521.5719910838
 20
597.244254501
 30
0.0
 11
1521.5719910838
 21
600.0842471101
 31
0.0
  0
LINE
  5
22E
330
1F
100
AcDbEntity
  8
0
  6
Continuous
 62
     7
100
AcDbLine
 10
1521.5719910838
 20
595.2538759838
 30
0.0
 11
1521.5719910838
 21
595.9138833748
 31
0.0
  0
LINE
  5
22F
330
1F
100
AcDbEntity
  8
0
  6
Continuous
 62
     7
100
AcDbLine
 10
1521.5719910838
 20
595.0842471101
 30
0.0
 11
1521.5719910838
 21
595.2538759838
 31
0.0
  0
LINE
  5
230
330
1F
100
AcDbEntity
  8
0
  6
Continuous
 62
     7
100
AcDbLine
 10
1518.4392052745
 20
595.0842471101
 30
0.0
 11
1521.5719910838
 21
595.0842471101
 31
0.0
  0
LINE
  5
231
330
1F
100
AcDbEntity
  8
0
  6
Continuous
 62
     7
100
AcDbLine
 10
1521.5719910838
 20
595.0842471101
 30
0.0
 11
1524.7047768932
 21
595.0842471101
 31
0.0
  0
LINE
  5
232
330
1F
100
AcDbEntity
  8
0
  6
Continuous
 62
     7
100
AcDbLine
 10
1518.5719910838
 20
608.7842471101
 30
0.0
 11
1521.5719910838
 21
608.7842471101
 31
0.0
  0
LINE
  5
233
330
1F
100
AcDbEntity
  8
0
  6
Continuous
 62
     7
100
AcDbLine
 10
1519.0719910838
 20
609.2842471101
 30
0.0
 11
1521.5719910838
 21
609.2842471101
 31
0.0
  0
LINE
  5
234
330
1F
100
AcDbEntity
  8
0
  6
Continuous
 62
     7
100
AcDbLine
 10
1521.5719910838
 20
609.2842471101
 30
0.0
 11
1521.5719910838
 21
608.7842471101
 31
0.0
  0
LINE
  5
235
330
1F
100
AcDbEntity
  8
0
  6
Continuous
 62
     7
100
AcDbLine
 10
1521.5719910838
 20
608.7842471101
 30
0.0
 11
1524.5719910838
 21
608.7842471101
 31
0.0
  0
LINE
  5
236
330
1F
100
AcDbEntity
  8
0
  6
Continuous
 62
     7
100
AcDbLine
 10
1521.5719910838
 20
609.2842471101
 30
0.0
 11
1524.0719910838
 21
609.2842471101
 31
0.0
  0
LINE
  5
237
330
1F
100
AcDbEntity
  8
0
  6
Continuous
 62
     7
100
AcDbLine
 10
1371.5076820598
 20
-301.5757602809
 30
0.0
 11
1371.5076820598
 21
-304.4157528899
 31
0.0
  0
ARC
  5
238
330
1F
100
AcDbEntity
  8
0
  6
Continuous
 62
     7
100
AcDbCircle
 10
1448.3174015941
 20
-301.41845912
 30
0.0
 40
76.80988060523298
100
AcDbArc
 50
179.124922853
 51
180.1173377547
  0
LINE
  5
239
330
1F
100
AcDbEntity
  8
0
  6
Continuous
 62
     7
100
AcDbLine
 10
1371.5302917236
 20
-299.5853817637
 30
0.0
 11
1371.5164792986
 21
-300.2453891546
 31
0.0
  0
ARC
  5
23A
330
1F
100
AcDbEntity
  8
0
  6
Continuous
 62
     7
100
AcDbCircle
 10
1372.9882791348
 20
-299.5653142569
 30
0.0
 40
1.458125507652994
100
AcDbArc
 50
174.1127615397
 51
180.7885602017
  0
LINE
  5
23B
330
1F
100
AcDbEntity
  8
0
  6
Continuous
 62
     7
100
AcDbLine
 10
1374.7047768932
 20
-299.4157528899
 30
0.0
 11
1371.5378442367
 21
-299.4157528899
 31
0.0
  0
LINE
  5
23C
330
1F
100
AcDbEntity
  8
0
  6
Continuous
 62
     7
100
AcDbLine
 10
1371.5378442367
 20
-299.4157528899
 30
0.0
 11
1368.4392052745
 21
-299.4157528899
 31
0.0
  0
LINE
  5
23D
330
1F
100
AcDbEntity
  8
0
  6
Continuous
 62
     7
100
AcDbLine
 10
1374.5719910838
 20
-313.1157528899
 30
0.0
 11
1371.5392915801
 21
-313.1157528899
 31
0.0
  0
LINE
  5
23E
330
1F
100
AcDbEntity
  8
0
  6
Continuous
 62
     7
100
AcDbLine
 10
1374.0719910838
 20
-313.6157528899
 30
0.0
 11
1371.5447414974
 21
-313.6157528899
 31
0.0
  0
LINE
  5
23F
330
1F
100
AcDbEntity
  8
0
  6
Continuous
 62
     7
100
AcDbLine
 10
1371.5447414974
 20
-313.6157528899
 30
0.0
 11
1371.5392915801
 21
-313.1157528899
 31
0.0
  0
LINE
  5
240
330
1F
100
AcDbEntity
  8
0
  6
Continuous
 62
     7
100
AcDbLine
 10
1371.5392915801
 20
-313.1157528899
 30
0.0
 11
1368.5719910838
 21
-313.1157528899
 31
0.0
  0
LINE
  5
241
330
1F
100
AcDbEntity
  8
0
  6
Continuous
 62
     7
100
AcDbLine
 10
1371.5447414974
 20
-313.6157528899
 30
0.0
 11
1369.0719910838
 21
-313.6157528899
 31
0.0
  0
LINE
  5
242
330
1F
100
AcDbEntity
  8
0
  6
Continuous
 62
     7
100
AcDbLine
 10
1523.0194832641
 20
-301.5757602809
 30
0.0
 11
1523.0194832641
 21
-304.4157528899
 31
0.0
  0
ARC
  5
243
330
1F
100
AcDbEntity
  8
0
  6
Continuous
 62
     7
100
AcDbCircle
 10
1519.4446845851
 20
-301.4279096004
 30
0.0
 40
3.577854862829143
100
AcDbArc
 50
357.6316443333
 51
19.2997950071
  0
LINE
  5
244
330
1F
100
AcDbEntity
  8
0
  6
Continuous
 62
     7
100
AcDbLine
 10
1522.5105762788
 20
-299.5853817637
 30
0.0
 11
1522.8214716401
 21
-300.2453891546
 31
0.0
  0
LINE
  5
245
330
1F
100
AcDbEntity
  8
0
  6
Continuous
 62
     7
100
AcDbLine
 10
1522.3405814163
 20
-299.4157528899
 30
0.0
 11
1518.4392052745
 21
-299.4157528899
 31
0.0
  0
ARC
  5
246
330
1F
100
AcDbEntity
  8
0
  6
Continuous
 62
     7
100
AcDbCircle
 10
1522.2800131235
 20
-299.6464471213
 30
0.0
 40
0.2385127805388505
100
AcDbArc
 50
14.8343602582
 51
75.2891269962
  0
LINE
  5
247
330
1F
100
AcDbEntity
  8
0
  6
Continuous
 62
     7
100
AcDbLine
 10
1524.7047768932
 20
-299.4157528899
 30
0.0
 11
1522.3405814163
 21
-299.4157528899
 31
0.0
  0
LINE
  5
248
330
1F
100
AcDbEntity
  8
0
  6
Continuous
 62
     7
100
AcDbLine
 10
1522.3080040569
 20
-313.1157528899
 30
0.0
 11
1518.5719910838
 21
-313.1157528899
 31
0.0
  0
LINE
  5
249
330
1F
100
AcDbEntity
  8
0
  6
Continuous
 62
     7
100
AcDbLine
 10
1522.185335228
 20
-313.6157528899
 30
0.0
 11
1522.3080040569
 21
-313.1157528899
 31
0.0
  0
LINE
  5
24A
330
1F
100
AcDbEntity
  8
0
  6
Continuous
 62
     7
100
AcDbLine
 10
1522.185335228
 20
-313.6157528899
 30
0.0
 11
1519.0719910838
 21
-313.6157528899
 31
0.0
  0
LINE
  5
24B
330
1F
100
AcDbEntity
  8
0
  6
Continuous
 62
     7
100
AcDbLine
 10
1524.5719910838
 20
-313.1157528899
 30
0.0
 11
1522.3080040569
 21
-313.1157528899
 31
0.0
  0
LINE
  5
24C
330
1F
100
AcDbEntity
  8
0
  6
Continuous
 62
     7
100
AcDbLine
 10
1524.0719910838
 20
-313.6157528899
 30
0.0
 11
1522.185335228
 21
-313.6157528899
 31
0.0
  0
LINE
  5
24D
330
1F
100
AcDbEntity
  8
0
  6
Continuous
 62
     7
100
AcDbLine
 10
1616.0719910838
 20
599.3342471101
 30
0.0
 11
1616.0719910838
 21
597.8342471101
 31
0.0
  0
LINE
  5
24E
330
1F
100
AcDbEntity
  8
0
  6
Continuous
 62
     7
100
AcDbLine
 10
1616.0719910838
 20
597.8342471101
 30
0.0
 11
1613.0719910838
 21
597.8342471101
 31
0.0
  0
LINE
  5
24F
330
1F
100
AcDbEntity
  8
0
  6
Continuous
 62
     7
100
AcDbLine
 10
1613.0719910838
 20
597.8342471101
 30
0.0
 11
1613.0719910838
 21
599.3342471101
 31
0.0
  0
LINE
  5
250
330
1F
100
AcDbEntity
  8
0
  6
Continuous
 62
     7
100
AcDbLine
 10
1613.0719910838
 20
599.3342471101
 30
0.0
 11
1616.0719910838
 21
599.3342471101
 31
0.0
  0
LINE
  5
251
330
1F
100
AcDbEntity
  8
0
  6
Continuous
 62
     7
100
AcDbLine
 10
1613.0719910838
 20
-303.6657528899
 30
0.0
 11
1613.0719910838
 21
-302.1657528899
 31
0.0
  0
LINE
  5
252
330
1F
100
AcDbEntity
  8
0
  6
Continuous
 62
     7
100
AcDbLine
 10
1616.0719910838
 20
-302.1657528899
 30
0.0
 11
1616.0719910838
 21
-303.6657528899
 31
0.0
  0
LINE
  5
253
330
1F
100
AcDbEntity
  8
0
  6
Continuous
 62
     7
100
AcDbLine
 10
1613.0719910838
 20
-302.1657528899
 30
0.0
 11
1616.0719910838
 21
-302.1657528899
 31
0.0
  0
LINE
  5
254
330
1F
100
AcDbEntity
  8
0
  6
Continuous
 62
     7
100
AcDbLine
 10
1616.0719910838
 20
-303.6657528899
 30
0.0
 11
1613.0719910838
 21
-303.6657528899
 31
0.0
  0
LINE
  5
255
330
1F
100
AcDbEntity
  8
0
  6
Continuous
 62
     7
100
AcDbLine
 10
1642.0719910838
 20
-302.1657528899
 30
0.0
 11
1642.0719910838
 21
-303.6657528899
 31
0.0
  0
LINE
  5
256
330
1F
100
AcDbEntity
  8
0
  6
Continuous
 62
     7
100
AcDbLine
 10
1616.0719910838
 20
-302.1657528899
 30
0.0
 11
1642.0719910838
 21
-302.1657528899
 31
0.0
  0
LINE
  5
257
330
1F
100
AcDbEntity
  8
0
  6
Continuous
 62
     7
100
AcDbLine
 10
1616.0719910838
 20
-303.6657528899
 30
0.0
 11
1642.0719910838
 21
-303.6657528899
 31
0.0
  0
LINE
  5
258
330
1F
100
AcDbEntity
  8
0
  6
Continuous
 62
     7
100
AcDbLine
 10
1642.0719910838
 20
597.8342471101
 30
0.0
 11
1642.0719910838
 21
599.3342471101
 31
0.0
  0
LINE
  5
259
330
1F
100
AcDbEntity
  8
0
  6
Continuous
 62
     7
100
AcDbLine
 10
1616.0719910838
 20
597.8342471101
 30
0.0
 11
1642.0719910838
 21
597.8342471101
 31
0.0
  0
LINE
  5
25A
330
1F
100
AcDbEntity
  8
0
  6
Continuous
 62
     7
100
AcDbLine
 10
1616.0719910838
 20
599.3342471101
 30
0.0
 11
1642.0719910838
 21
599.3342471101
 31
0.0
  0
LINE
  5
25B
330
1F
100
AcDbEntity
  8
0
  6
Continuous
 62
     7
100
AcDbLine
 10
1643.0719910838
 20
596.8342471101
 30
0.0
 11
1644.5719910838
 21
596.8342471101
 31
0.0
  0
LINE
  5
25C
330
1F
100
AcDbEntity
  8
0
  6
Continuous
 62
     7
100
AcDbLine
 10
1644.5719910838
 20
596.8342471101
 30
0.0
 11
1644.5719910838
 21
-301.1657528899
 31
0.0
  0
LINE
  5
25D
330
1F
100
AcDbEntity
  8
0
  6
Continuous
 62
     7
100
AcDbLine
 10
1643.0719910838
 20
-301.1657528899
 30
0.0
 11
1644.5719910838
 21
-301.1657528899
 31
0.0
  0
LINE
  5
25E
330
1F
100
AcDbEntity
  8
0
  6
Continuous
 62
     7
100
AcDbLine
 10
1643.0719910838
 20
596.8342471101
 30
0.0
 11
1643.0719910838
 21
-301.1657528899
 31
0.0
  0
LINE
  5
25F
330
1F
100
AcDbEntity
  8
0
  6
Continuous
 62
     7
100
AcDbLine
 10
1644.5719910838
 20
596.8342471101
 30
0.0
 11
1644.5719910838
 21
599.3342471101
 31
0.0
  0
LINE
  5
260
330
1F
100
AcDbEntity
  8
0
  6
Continuous
 62
     7
100
AcDbLine
 10
1643.0719910838
 20
596.8342471101
 30
0.0
 11
1643.0719910838
 21
597.8342471101
 31
0.0
  0
LINE
  5
261
330
1F
100
AcDbEntity
  8
0
  6
Continuous
 62
     7
100
AcDbLine
 10
1642.0719910838
 20
597.8342471101
 30
0.0
 11
1643.0719910838
 21
597.8342471101
 31
0.0
  0
LINE
  5
262
330
1F
100
AcDbEntity
  8
0
  6
Continuous
 62
     7
100
AcDbLine
 10
1642.0719910838
 20
599.3342471101
 30
0.0
 11
1644.5719910838
 21
599.3342471101
 31
0.0
  0
LINE
  5
263
330
1F
100
AcDbEntity
  8
0
  6
Continuous
 62
     7
100
AcDbLine
 10
1644.5719910838
 20
-301.1657528899
 30
0.0
 11
1644.5719910838
 21
-303.6657528899
 31
0.0
  0
LINE
  5
264
330
1F
100
AcDbEntity
  8
0
  6
Continuous
 62
     7
100
AcDbLine
 10
1643.0719910838
 20
-301.1657528899
 30
0.0
 11
1643.0719910838
 21
-302.1657528899
 31
0.0
  0
LINE
  5
265
330
1F
100
AcDbEntity
  8
0
  6
Continuous
 62
     7
100
AcDbLine
 10
1642.0719910838
 20
-302.1657528899
 30
0.0
 11
1643.0719910838
 21
-302.1657528899
 31
0.0
  0
LINE
  5
266
330
1F
100
AcDbEntity
  8
0
  6
Continuous
 62
     7
100
AcDbLine
 10
1642.0719910838
 20
-303.6657528899
 30
0.0
 11
1644.5719910838
 21
-303.6657528899
 31
0.0
  0
LINE
  5
267
330
1F
100
AcDbEntity
  8
0
  6
Continuous
 62
     7
100
AcDbLine
 10
1610.0719910838
 20
-299.1657528899
 30
0.0
 11
1611.5719910838
 21
-299.1657528899
 31
0.0
  0
LINE
  5
268
330
1F
100
AcDbEntity
  8
0
  6
Continuous
 62
     7
100
AcDbLine
 10
1611.5719910838
 20
594.8342471101
 30
0.0
 11
1610.0719910838
 21
594.8342471101
 31
0.0
  0
LINE
  5
269
330
1F
100
AcDbEntity
  8
0
  6
Continuous
 62
     7
100
AcDbLine
 10
1610.0719910838
 20
-299.1657528899
 30
0.0
 11
1610.0719910838
 21
594.8342471101
 31
0.0
  0
LINE
  5
26A
330
1F
100
AcDbEntity
  8
0
  6
Continuous
 62
     7
100
AcDbLine
 10
1611.5719910838
 20
-299.1657528899
 30
0.0
 11
1611.5719910838
 21
594.8342471101
 31
0.0
  0
LINE
  5
26B
330
1F
100
AcDbEntity
  8
0
  6
Continuous
 62
     7
100
AcDbLine
 10
1611.5719910838
 20
-302.1657528899
 30
0.0
 11
1610.0719910838
 21
-302.1657528899
 31
0.0
  0
LINE
  5
26C
330
1F
100
AcDbEntity
  8
0
  6
Continuous
 62
     7
100
AcDbLine
 10
1610.0719910838
 20
-302.1657528899
 30
0.0
 11
1610.0719910838
 21
-299.1657528899
 31
0.0
  0
LINE
  5
26D
330
1F
100
AcDbEntity
  8
0
  6
Continuous
 62
     7
100
AcDbLine
 10
1611.5719910838
 20
-299.1657528899
 30
0.0
 11
1611.5719910838
 21
-302.1657528899
 31
0.0
  0
LINE
  5
26E
330
1F
100
AcDbEntity
  8
0
  6
Continuous
 62
     7
100
AcDbLine
 10
1610.0719910838
 20
597.8342471101
 30
0.0
 11
1611.5719910838
 21
597.8342471101
 31
0.0
  0
LINE
  5
26F
330
1F
100
AcDbEntity
  8
0
  6
Continuous
 62
     7
100
AcDbLine
 10
1610.0719910838
 20
594.8342471101
 30
0.0
 11
1610.0719910838
 21
597.8342471101
 31
0.0
  0
LINE
  5
270
330
1F
100
AcDbEntity
  8
0
  6
Continuous
 62
     7
100
AcDbLine
 10
1611.5719910838
 20
597.8342471101
 30
0.0
 11
1611.5719910838
 21
594.8342471101
 31
0.0
  0
LINE
  5
271
330
1F
100
AcDbEntity
  8
0
  6
Continuous
 62
     7
100
AcDbLine
 10
1613.0719910838
 20
597.8342471101
 30
0.0
 11
1612.5719910838
 21
597.8342471101
 31
0.0
  0
ARC
  5
272
330
1F
100
AcDbEntity
  8
0
  6
Continuous
 62
     7
100
AcDbCircle
 10
1627.8219910838
 20
-216.4157528899
 30
0.0
 40
2.650000000000091
100
AcDbArc
 50
180.0
 51
0.0
  0
ARC
  5
273
330
1F
100
AcDbEntity
  8
0
  6
Continuous
 62
     7
100
AcDbCircle
 10
1627.8219910838
 20
-216.4157528899
 30
0.0
 40
2.650000000000091
100
AcDbArc
 50
0.0
 51
180.0
  0
LINE
  5
274
330
1F
100
AcDbEntity
  8
0
  6
Continuous
 62
     7
100
AcDbLine
 10
1612.5719910838
 20
-302.1657528899
 30
0.0
 11
1613.0719910838
 21
-302.1657528899
 31
0.0
  0
LINE
  5
275
330
1F
100
AcDbEntity
  8
0
  6
Continuous
 62
     7
100
AcDbLine
 10
1612.5719910838
 20
597.8342471101
 30
0.0
 11
1611.5719910838
 21
597.8342471101
 31
0.0
  0
LINE
  5
276
330
1F
100
AcDbEntity
  8
0
  6
Continuous
 62
     7
100
AcDbLine
 10
1612.5719910838
 20
-302.1657528899
 30
0.0
 11
1611.5719910838
 21
-302.1657528899
 31
0.0
  0
LINE
  5
277
330
1F
100
AcDbEntity
  8
0
  6
Continuous
 62
     7
100
AcDbLine
 10
1250.0719910838
 20
596.8342471101
 30
0.0
 11
1248.5719910838
 21
596.8342471101
 31
0.0
  0
LINE
  5
278
330
1F
100
AcDbEntity
  8
0
  6
Continuous
 62
     7
100
AcDbLine
 10
1248.5719910838
 20
596.8342471101
 30
0.0
 11
1248.5719910838
 21
599.3342471101
 31
0.0
  0
LINE
  5
279
330
1F
100
AcDbEntity
  8
0
  6
Continuous
 62
     7
100
AcDbLine
 10
1251.0719910838
 20
599.3342471101
 30
0.0
 11
1248.5719910838
 21
599.3342471101
 31
0.0
  0
LINE
  5
27A
330
1F
100
AcDbEntity
  8
0
  6
Continuous
 62
     7
100
AcDbLine
 10
1251.0719910838
 20
597.8342471101
 30
0.0
 11
1251.0719910838
 21
599.3342471101
 31
0.0
  0
LINE
  5
27B
330
1F
100
AcDbEntity
  8
0
  6
Continuous
 62
     7
100
AcDbLine
 10
1251.0719910838
 20
597.8342471101
 30
0.0
 11
1250.0719910838
 21
597.8342471101
 31
0.0
  0
LINE
  5
27C
330
1F
100
AcDbEntity
  8
0
  6
Continuous
 62
     7
100
AcDbLine
 10
1250.0719910838
 20
596.8342471101
 30
0.0
 11
1250.0719910838
 21
597.8342471101
 31
0.0
  0
LINE
  5
27D
330
1F
100
AcDbEntity
  8
0
  6
Continuous
 62
     7
100
AcDbLine
 10
1277.0719910838
 20
599.3342471101
 30
0.0
 11
1251.0719910838
 21
599.3342471101
 31
0.0
  0
LINE
  5
27E
330
1F
100
AcDbEntity
  8
0
  6
Continuous
 62
     7
100
AcDbLine
 10
1277.0719910838
 20
597.8342471101
 30
0.0
 11
1277.0719910838
 21
599.3342471101
 31
0.0
  0
LINE
  5
27F
330
1F
100
AcDbEntity
  8
0
  6
Continuous
 62
     7
100
AcDbLine
 10
1277.0719910838
 20
597.8342471101
 30
0.0
 11
1251.0719910838
 21
597.8342471101
 31
0.0
  0
LINE
  5
280
330
1F
100
AcDbEntity
  8
0
  6
Continuous
 62
     7
100
AcDbLine
 10
1248.5719910838
 20
-301.1657528899
 30
0.0
 11
1248.5719910838
 21
-303.6657528899
 31
0.0
  0
LINE
  5
281
330
1F
100
AcDbEntity
  8
0
  6
Continuous
 62
     7
100
AcDbLine
 10
1250.0719910838
 20
-301.1657528899
 30
0.0
 11
1248.5719910838
 21
-301.1657528899
 31
0.0
  0
LINE
  5
282
330
1F
100
AcDbEntity
  8
0
  6
Continuous
 62
     7
100
AcDbLine
 10
1251.0719910838
 20
-302.1657528899
 30
0.0
 11
1250.0719910838
 21
-302.1657528899
 31
0.0
  0
LINE
  5
283
330
1F
100
AcDbEntity
  8
0
  6
Continuous
 62
     7
100
AcDbLine
 10
1251.0719910838
 20
-302.1657528899
 30
0.0
 11
1251.0719910838
 21
-303.6657528899
 31
0.0
  0
LINE
  5
284
330
1F
100
AcDbEntity
  8
0
  6
Continuous
 62
     7
100
AcDbLine
 10
1251.0719910838
 20
-303.6657528899
 30
0.0
 11
1248.5719910838
 21
-303.6657528899
 31
0.0
  0
LINE
  5
285
330
1F
100
AcDbEntity
  8
0
  6
Continuous
 62
     7
100
AcDbLine
 10
1250.0719910838
 20
-301.1657528899
 30
0.0
 11
1250.0719910838
 21
-302.1657528899
 31
0.0
  0
LINE
  5
286
330
1F
100
AcDbEntity
  8
0
  6
Continuous
 62
     7
100
AcDbLine
 10
1277.0719910838
 20
-302.1657528899
 30
0.0
 11
1251.0719910838
 21
-302.1657528899
 31
0.0
  0
LINE
  5
287
330
1F
100
AcDbEntity
  8
0
  6
Continuous
 62
     7
100
AcDbLine
 10
1277.0719910838
 20
-303.6657528899
 30
0.0
 11
1277.0719910838
 21
-302.1657528899
 31
0.0
  0
LINE
  5
288
330
1F
100
AcDbEntity
  8
0
  6
Continuous
 62
     7
100
AcDbLine
 10
1277.0719910838
 20
-303.6657528899
 30
0.0
 11
1251.0719910838
 21
-303.6657528899
 31
0.0
  0
LINE
  5
289
330
1F
100
AcDbEntity
  8
0
  6
Continuous
 62
     7
100
AcDbLine
 10
1248.5719910838
 20
-301.1657528899
 30
0.0
 11
1248.5719910838
 21
596.8342471101
 31
0.0
  0
LINE
  5
28A
330
1F
100
AcDbEntity
  8
0
  6
Continuous
 62
     7
100
AcDbLine
 10
1250.0719910838
 20
-301.1657528899
 30
0.0
 11
1250.0719910838
 21
596.8342471101
 31
0.0
  0
LINE
  5
28B
330
1F
100
AcDbEntity
  8
0
  6
Continuous
 62
     7
100
AcDbLine
 10
1280.0719910838
 20
599.3342471101
 30
0.0
 11
1280.0719910838
 21
597.8342471101
 31
0.0
  0
LINE
  5
28C
330
1F
100
AcDbEntity
  8
0
  6
Continuous
 62
     7
100
AcDbLine
 10
1277.0719910838
 20
599.3342471101
 30
0.0
 11
1280.0719910838
 21
599.3342471101
 31
0.0
  0
LINE
  5
28D
330
1F
100
AcDbEntity
  8
0
  6
Continuous
 62
     7
100
AcDbLine
 10
1280.0719910838
 20
597.8342471101
 30
0.0
 11
1277.0719910838
 21
597.8342471101
 31
0.0
  0
LINE
  5
28E
330
1F
100
AcDbEntity
  8
0
  6
Continuous
 62
     7
100
AcDbLine
 10
1280.0719910838
 20
-302.1657528899
 30
0.0
 11
1280.0719910838
 21
-303.6657528899
 31
0.0
  0
LINE
  5
28F
330
1F
100
AcDbEntity
  8
0
  6
Continuous
 62
     7
100
AcDbLine
 10
1277.0719910838
 20
-302.1657528899
 30
0.0
 11
1280.0719910838
 21
-302.1657528899
 31
0.0
  0
LINE
  5
290
330
1F
100
AcDbEntity
  8
0
  6
Continuous
 62
     7
100
AcDbLine
 10
1280.0719910838
 20
-303.6657528899
 30
0.0
 11
1277.0719910838
 21
-303.6657528899
 31
0.0
  0
LINE
  5
291
330
1F
100
AcDbEntity
  8
0
  6
Continuous
 62
     7
100
AcDbLine
 10
1283.0719910838
 20
594.8342471101
 30
0.0
 11
1281.5719910838
 21
594.8342471101
 31
0.0
  0
LINE
  5
292
330
1F
100
AcDbEntity
  8
0
  6
Continuous
 62
     7
100
AcDbLine
 10
1281.5719910838
 20
594.8342471101
 30
0.0
 11
1281.5719910838
 21
597.8342471101
 31
0.0
  0
LINE
  5
293
330
1F
100
AcDbEntity
  8
0
  6
Continuous
 62
     7
100
AcDbLine
 10
1281.5719910838
 20
597.8342471101
 30
0.0
 11
1283.0719910838
 21
597.8342471101
 31
0.0
  0
LINE
  5
294
330
1F
100
AcDbEntity
  8
0
  6
Continuous
 62
     7
100
AcDbLine
 10
1283.0719910838
 20
597.8342471101
 30
0.0
 11
1283.0719910838
 21
594.8342471101
 31
0.0
  0
LINE
  5
295
330
1F
100
AcDbEntity
  8
0
  6
Continuous
 62
     7
100
AcDbLine
 10
1283.0719910838
 20
594.8342471101
 30
0.0
 11
1283.0719910838
 21
-299.1657528899
 31
0.0
  0
LINE
  5
296
330
1F
100
AcDbEntity
  8
0
  6
Continuous
 62
     7
100
AcDbLine
 10
1281.5719910838
 20
-299.1657528899
 30
0.0
 11
1283.0719910838
 21
-299.1657528899
 31
0.0
  0
LINE
  5
297
330
1F
100
AcDbEntity
  8
0
  6
Continuous
 62
     7
100
AcDbLine
 10
1281.5719910838
 20
594.8342471101
 30
0.0
 11
1281.5719910838
 21
-299.1657528899
 31
0.0
  0
LINE
  5
298
330
1F
100
AcDbEntity
  8
0
  6
Continuous
 62
     7
100
AcDbLine
 10
1283.0719910838
 20
-302.1657528899
 30
0.0
 11
1281.5719910838
 21
-302.1657528899
 31
0.0
  0
LINE
  5
299
330
1F
100
AcDbEntity
  8
0
  6
Continuous
 62
     7
100
AcDbLine
 10
1281.5719910838
 20
-302.1657528899
 30
0.0
 11
1281.5719910838
 21
-299.1657528899
 31
0.0
  0
LINE
  5
29A
330
1F
100
AcDbEntity
  8
0
  6
Continuous
 62
     7
100
AcDbLine
 10
1283.0719910838
 20
-299.1657528899
 30
0.0
 11
1283.0719910838
 21
-302.1657528899
 31
0.0
  0
ARC
  5
29B
330
1F
100
AcDbEntity
  8
0
  6
Continuous
 62
     7
100
AcDbCircle
 10
1265.3219910838
 20
-216.4157528899
 30
0.0
 40
2.650000000000091
100
AcDbArc
 50
0.0
 51
180.0
  0
ARC
  5
29C
330
1F
100
AcDbEntity
  8
0
  6
Continuous
 62
     7
100
AcDbCircle
 10
1265.3219910838
 20
-216.4157528899
 30
0.0
 40
2.650000000000091
100
AcDbArc
 50
180.0
 51
0.0
  0
LINE
  5
29D
330
1F
100
AcDbEntity
  8
0
  6
Continuous
 62
     7
100
AcDbLine
 10
1280.0719910838
 20
-302.1657528899
 30
0.0
 11
1280.5719910838
 21
-302.1657528899
 31
0.0
  0
LINE
  5
29E
330
1F
100
AcDbEntity
  8
0
  6
Continuous
 62
     7
100
AcDbLine
 10
1280.5719910838
 20
597.8342471101
 30
0.0
 11
1280.0719910838
 21
597.8342471101
 31
0.0
  0
LINE
  5
29F
330
1F
100
AcDbEntity
  8
0
  6
Continuous
 62
     7
100
AcDbLine
 10
1280.5719910838
 20
-302.1657528899
 30
0.0
 11
1281.5719910838
 21
-302.1657528899
 31
0.0
  0
LINE
  5
2A0
330
1F
100
AcDbEntity
  8
0
  6
Continuous
 62
     7
100
AcDbLine
 10
1280.5719910838
 20
597.8342471101
 30
0.0
 11
1281.5719910838
 21
597.8342471101
 31
0.0
  0
LINE
  5
2A1
330
1F
100
AcDbEntity
  8
0
  6
Continuous
 62
     7
100
AcDbLine
 10
1642.5719910838
 20
602.0842471101
 30
0.0
 11
1642.5719910838
 21
600.0842471101
 31
0.0
  0
LINE
  5
2A2
330
1F
100
AcDbEntity
  8
0
  6
Continuous
 62
     7
100
AcDbLine
 10
1250.5719910838
 20
602.0842471101
 30
0.0
 11
1642.5719910838
 21
602.0842471101
 31
0.0
  0
LINE
  5
2A3
330
1F
100
AcDbEntity
  8
0
  6
Continuous
 62
     7
100
AcDbLine
 10
1250.5719910838
 20
602.0842471101
 30
0.0
 11
1250.5719910838
 21
600.0842471101
 31
0.0
  0
LINE
  5
2A4
330
1F
100
AcDbEntity
  8
0
  6
Continuous
 62
     7
100
AcDbLine
 10
1250.5719910838
 20
600.0842471101
 30
0.0
 11
1642.5719910838
 21
600.0842471101
 31
0.0
  0
LINE
  5
2A5
330
1F
100
AcDbEntity
  8
0
  6
Continuous
 62
     7
100
AcDbLine
 10
1609.0719910838
 20
502.0842471101
 30
0.0
 11
1609.0719910838
 21
504.0842471101
 31
0.0
  0
LINE
  5
2A6
330
1F
100
AcDbEntity
  8
0
  6
Continuous
 62
     7
100
AcDbLine
 10
1609.0719910838
 20
502.0842471101
 30
0.0
 11
1284.0719910838
 21
502.0842471101
 31
0.0
  0
LINE
  5
2A7
330
1F
100
AcDbEntity
  8
0
  6
Continuous
 62
     7
100
AcDbLine
 10
1284.0719910838
 20
502.0842471101
 30
0.0
 11
1284.0719910838
 21
504.0842471101
 31
0.0
  0
LINE
  5
2A8
330
1F
100
AcDbEntity
  8
0
  6
Continuous
 62
     7
100
AcDbLine
 10
1609.0719910838
 20
504.0842471101
 30
0.0
 11
1284.0719910838
 21
504.0842471101
 31
0.0
  0
LINE
  5
2A9
330
1F
100
AcDbEntity
  8
0
  6
Continuous
 62
     7
100
AcDbLine
 10
1610.0719910838
 20
505.0842471101
 30
0.0
 11
1609.0719910838
 21
505.0842471101
 31
0.0
  0
LINE
  5
2AA
330
1F
100
AcDbEntity
  8
0
  6
Continuous
 62
     7
100
AcDbLine
 10
1284.0719910838
 20
505.0842471101
 30
0.0
 11
1283.0719910838
 21
505.0842471101
 31
0.0
  0
LINE
  5
2AB
330
1F
100
AcDbEntity
  8
0
  6
Continuous
 62
     7
100
AcDbLine
 10
1609.0719910838
 20
505.0842471101
 30
0.0
 11
1609.0719910838
 21
504.0842471101
 31
0.0
  0
LINE
  5
2AC
330
1F
100
AcDbEntity
  8
0
  6
Continuous
 62
     7
100
AcDbLine
 10
1284.0719910838
 20
505.0842471101
 30
0.0
 11
1284.0719910838
 21
504.0842471101
 31
0.0
  0
LINE
  5
2AD
330
1F
100
AcDbEntity
  8
0
  6
Continuous
 62
     7
100
AcDbLine
 10
1642.5719910838
 20
599.3342471101
 30
0.0
 11
1642.5719910838
 21
600.0842471101
 31
0.0
  0
LINE
  5
2AE
330
1F
100
AcDbEntity
  8
0
  6
Continuous
 62
     7
100
AcDbLine
 10
1250.5719910838
 20
599.3342471101
 30
0.0
 11
1250.5719910838
 21
600.0842471101
 31
0.0
  0
LINE
  5
2AF
330
1F
100
AcDbEntity
  8
0
  6
Continuous
 62
     7
100
AcDbLine
 10
1271.5719910838
 20
-297.9953891546
 30
0.0
 11
1271.5719910838
 21
-299.3257602809
 31
0.0
  0
LINE
  5
2B0
330
1F
100
AcDbEntity
  8
0
  6
Continuous
 62
     7
100
AcDbLine
 10
1271.5719910838
 20
-299.3257602809
 30
0.0
 11
1271.5719910838
 21
-302.1657528899
 31
0.0
  0
LINE
  5
2B1
330
1F
100
AcDbEntity
  8
0
  6
Continuous
 62
     7
100
AcDbLine
 10
1271.5719910838
 20
-297.3353817637
 30
0.0
 11
1271.5719910838
 21
-297.9953891546
 31
0.0
  0
LINE
  5
2B2
330
1F
100
AcDbEntity
  8
0
  6
Continuous
 62
     7
100
AcDbLine
 10
1271.5719910838
 20
-297.1657528899
 30
0.0
 11
1268.4392052745
 21
-297.1657528899
 31
0.0
  0
LINE
  5
2B3
330
1F
100
AcDbEntity
  8
0
  6
Continuous
 62
     7
100
AcDbLine
 10
1271.5719910838
 20
-297.1657528899
 30
0.0
 11
1271.5719910838
 21
-297.3353817637
 31
0.0
  0
LINE
  5
2B4
330
1F
100
AcDbEntity
  8
0
  6
Continuous
 62
     7
100
AcDbLine
 10
1274.7047768932
 20
-297.1657528899
 30
0.0
 11
1271.5719910838
 21
-297.1657528899
 31
0.0
  0
LINE
  5
2B5
330
1F
100
AcDbEntity
  8
0
  6
Continuous
 62
     7
100
AcDbLine
 10
1271.5719910838
 20
-310.8657528899
 30
0.0
 11
1268.5719910838
 21
-310.8657528899
 31
0.0
  0
LINE
  5
2B6
330
1F
100
AcDbEntity
  8
0
  6
Continuous
 62
     7
100
AcDbLine
 10
1271.5719910838
 20
-311.3657528899
 30
0.0
 11
1271.5719910838
 21
-310.8657528899
 31
0.0
  0
LINE
  5
2B7
330
1F
100
AcDbEntity
  8
0
  6
Continuous
 62
     7
100
AcDbLine
 10
1271.5719910838
 20
-311.3657528899
 30
0.0
 11
1269.0719910838
 21
-311.3657528899
 31
0.0
  0
LINE
  5
2B8
330
1F
100
AcDbEntity
  8
0
  6
Continuous
 62
     7
100
AcDbLine
 10
1274.5719910838
 20
-310.8657528899
 30
0.0
 11
1271.5719910838
 21
-310.8657528899
 31
0.0
  0
LINE
  5
2B9
330
1F
100
AcDbEntity
  8
0
  6
Continuous
 62
     7
100
AcDbLine
 10
1274.0719910838
 20
-311.3657528899
 30
0.0
 11
1271.5719910838
 21
-311.3657528899
 31
0.0
  0
LINE
  5
2BA
330
1F
100
AcDbEntity
  8
0
  6
Continuous
 62
     7
100
AcDbLine
 10
1630.3219910838
 20
-291.4157528899
 30
0.0
 11
1630.8219910838
 21
-291.4157528899
 31
0.0
  0
ARC
  5
2BB
330
1F
100
AcDbEntity
  8
0
  6
Continuous
 62
     7
100
AcDbCircle
 10
1627.8219910838
 20
-291.4157528899
 30
0.0
 40
3.0
100
AcDbArc
 50
180.0
 51
0.0
  0
LINE
  5
2BC
330
1F
100
AcDbEntity
  8
0
  6
Continuous
 62
     7
100
AcDbLine
 10
1625.3219910838
 20
-291.4157528899
 30
0.0
 11
1624.8219910838
 21
-291.4157528899
 31
0.0
  0
ARC
  5
2BD
330
1F
100
AcDbEntity
  8
0
  6
Continuous
 62
     7
100
AcDbCircle
 10
1627.8219910838
 20
-291.4157528899
 30
0.0
 40
2.5
100
AcDbArc
 50
180.0
 51
0.0
  0
ARC
  5
2BE
330
1F
100
AcDbEntity
  8
0
  6
Continuous
 62
     7
100
AcDbCircle
 10
1627.8219910838
 20
-291.4157528899
 30
0.0
 40
3.0
100
AcDbArc
 50
0.0
 51
180.0
  0
ARC
  5
2BF
330
1F
100
AcDbEntity
  8
0
  6
Continuous
 62
     7
100
AcDbCircle
 10
1627.8219910838
 20
-291.4157528899
 30
0.0
 40
2.5
100
AcDbArc
 50
0.0
 51
180.0
  0
LINE
  5
2C0
330
1F
100
AcDbEntity
  8
0
  6
Continuous
 62
     7
100
AcDbLine
 10
1621.5719910838
 20
-299.3257602809
 30
0.0
 11
1621.5719910838
 21
-302.1657528899
 31
0.0
  0
LINE
  5
2C1
330
1F
100
AcDbEntity
  8
0
  6
Continuous
 62
     7
100
AcDbLine
 10
1621.5719910838
 20
-297.9953891546
 30
0.0
 11
1621.5719910838
 21
-299.3257602809
 31
0.0
  0
LINE
  5
2C2
330
1F
100
AcDbEntity
  8
0
  6
Continuous
 62
     7
100
AcDbLine
 10
1621.5719910838
 20
-297.3353817637
 30
0.0
 11
1621.5719910838
 21
-297.9953891546
 31
0.0
  0
LINE
  5
2C3
330
1F
100
AcDbEntity
  8
0
  6
Continuous
 62
     7
100
AcDbLine
 10
1621.5719910838
 20
-297.1657528899
 30
0.0
 11
1618.4392052745
 21
-297.1657528899
 31
0.0
  0
LINE
  5
2C4
330
1F
100
AcDbEntity
  8
0
  6
Continuous
 62
     7
100
AcDbLine
 10
1621.5719910838
 20
-297.1657528899
 30
0.0
 11
1621.5719910838
 21
-297.3353817637
 31
0.0
  0
LINE
  5
2C5
330
1F
100
AcDbEntity
  8
0
  6
Continuous
 62
     7
100
AcDbLine
 10
1624.7047768932
 20
-297.1657528899
 30
0.0
 11
1621.5719910838
 21
-297.1657528899
 31
0.0
  0
LINE
  5
2C6
330
1F
100
AcDbEntity
  8
0
  6
Continuous
 62
     7
100
AcDbLine
 10
1621.5719910838
 20
-310.8657528899
 30
0.0
 11
1618.5719910838
 21
-310.8657528899
 31
0.0
  0
LINE
  5
2C7
330
1F
100
AcDbEntity
  8
0
  6
Continuous
 62
     7
100
AcDbLine
 10
1621.5719910838
 20
-311.3657528899
 30
0.0
 11
1621.5719910838
 21
-310.8657528899
 31
0.0
  0
LINE
  5
2C8
330
1F
100
AcDbEntity
  8
0
  6
Continuous
 62
     7
100
AcDbLine
 10
1621.5719910838
 20
-311.3657528899
 30
0.0
 11
1619.0719910838
 21
-311.3657528899
 31
0.0
  0
LINE
  5
2C9
330
1F
100
AcDbEntity
  8
0
  6
Continuous
 62
     7
100
AcDbLine
 10
1624.5719910838
 20
-310.8657528899
 30
0.0
 11
1621.5719910838
 21
-310.8657528899
 31
0.0
  0
LINE
  5
2CA
330
1F
100
AcDbEntity
  8
0
  6
Continuous
 62
     7
100
AcDbLine
 10
1624.0719910838
 20
-311.3657528899
 30
0.0
 11
1621.5719910838
 21
-311.3657528899
 31
0.0
  0
LINE
  5
2CB
330
1F
100
AcDbEntity
  8
0
  6
Continuous
 62
     7
100
AcDbLine
 10
1627.8219910838
 20
509.5842471101
 30
0.0
 11
1627.8219910838
 21
509.0842471101
 31
0.0
  0
ARC
  5
2CC
330
1F
100
AcDbEntity
  8
0
  6
Continuous
 62
     7
100
AcDbCircle
 10
1627.8219910838
 20
512.0842471101
 30
0.0
 40
3.0
100
AcDbArc
 50
90.0
 51
270.0
  0
LINE
  5
2CD
330
1F
100
AcDbEntity
  8
0
  6
Continuous
 62
     7
100
AcDbLine
 10
1627.8219910838
 20
514.5842471101
 30
0.0
 11
1627.8219910838
 21
515.0842471101
 31
0.0
  0
ARC
  5
2CE
330
1F
100
AcDbEntity
  8
0
  6
Continuous
 62
     7
100
AcDbCircle
 10
1627.8219910838
 20
512.0842471101
 30
0.0
 40
2.500000000000057
100
AcDbArc
 50
90.0
 51
270.0
  0
ARC
  5
2CF
330
1F
100
AcDbEntity
  8
0
  6
Continuous
 62
     7
100
AcDbCircle
 10
1627.8219910838
 20
512.0842471101
 30
0.0
 40
2.500000000000057
100
AcDbArc
 50
270.0
 51
90.0
  0
ARC
  5
2D0
330
1F
100
AcDbEntity
  8
0
  6
Continuous
 62
     7
100
AcDbCircle
 10
1627.8219910838
 20
512.0842471101
 30
0.0
 40
3.0
100
AcDbArc
 50
270.0
 51
90.0
  0
ARC
  5
2D1
330
1F
100
AcDbEntity
  8
0
  6
Continuous
 62
     7
100
AcDbCircle
 10
1265.3219910838
 20
-291.4157528899
 30
0.0
 40
3.0
100
AcDbArc
 50
90.0
 51
270.0
  0
LINE
  5
2D2
330
1F
100
AcDbEntity
  8
0
  6
Continuous
 62
     7
100
AcDbLine
 10
1265.3219910838
 20
-288.9157528899
 30
0.0
 11
1265.3219910838
 21
-288.4157528899
 31
0.0
  0
ARC
  5
2D3
330
1F
100
AcDbEntity
  8
0
  6
Continuous
 62
     7
100
AcDbCircle
 10
1265.3219910838
 20
-291.4157528899
 30
0.0
 40
2.500000000000057
100
AcDbArc
 50
90.0
 51
270.0
  0
LINE
  5
2D4
330
1F
100
AcDbEntity
  8
0
  6
Continuous
 62
     7
100
AcDbLine
 10
1265.3219910838
 20
-293.9157528899
 30
0.0
 11
1265.3219910838
 21
-294.4157528899
 31
0.0
  0
ARC
  5
2D5
330
1F
100
AcDbEntity
  8
0
  6
Continuous
 62
     7
100
AcDbCircle
 10
1265.3219910838
 20
-291.4157528899
 30
0.0
 40
2.500000000000057
100
AcDbArc
 50
270.0
 51
90.0
  0
ARC
  5
2D6
330
1F
100
AcDbEntity
  8
0
  6
Continuous
 62
     7
100
AcDbCircle
 10
1265.3219910838
 20
-291.4157528899
 30
0.0
 40
3.0
100
AcDbArc
 50
270.0
 51
90.0
  0
LINE
  5
2D7
330
1F
100
AcDbEntity
  8
0
  6
Continuous
 62
     7
100
AcDbLine
 10
1621.5719910838
 20
594.994254501
 30
0.0
 11
1621.5719910838
 21
597.8342471101
 31
0.0
  0
LINE
  5
2D8
330
1F
100
AcDbEntity
  8
0
  6
Continuous
 62
     7
100
AcDbLine
 10
1621.5719910838
 20
593.6638833748
 30
0.0
 11
1621.5719910838
 21
594.994254501
 31
0.0
  0
LINE
  5
2D9
330
1F
100
AcDbEntity
  8
0
  6
Continuous
 62
     7
100
AcDbLine
 10
1621.5719910838
 20
593.0038759838
 30
0.0
 11
1621.5719910838
 21
593.6638833748
 31
0.0
  0
LINE
  5
2DA
330
1F
100
AcDbEntity
  8
0
  6
Continuous
 62
     7
100
AcDbLine
 10
1621.5719910838
 20
592.8342471101
 30
0.0
 11
1621.5719910838
 21
593.0038759838
 31
0.0
  0
LINE
  5
2DB
330
1F
100
AcDbEntity
  8
0
  6
Continuous
 62
     7
100
AcDbLine
 10
1618.4392052745
 20
592.8342471101
 30
0.0
 11
1621.5719910838
 21
592.8342471101
 31
0.0
  0
LINE
  5
2DC
330
1F
100
AcDbEntity
  8
0
  6
Continuous
 62
     7
100
AcDbLine
 10
1621.5719910838
 20
592.8342471101
 30
0.0
 11
1624.7047768932
 21
592.8342471101
 31
0.0
  0
LINE
  5
2DD
330
1F
100
AcDbEntity
  8
0
  6
Continuous
 62
     7
100
AcDbLine
 10
1618.5719910838
 20
606.5342471101
 30
0.0
 11
1621.5719910838
 21
606.5342471101
 31
0.0
  0
LINE
  5
2DE
330
1F
100
AcDbEntity
  8
0
  6
Continuous
 62
     7
100
AcDbLine
 10
1619.0719910838
 20
607.0342471101
 30
0.0
 11
1621.5719910838
 21
607.0342471101
 31
0.0
  0
LINE
  5
2DF
330
1F
100
AcDbEntity
  8
0
  6
Continuous
 62
     7
100
AcDbLine
 10
1621.5719910838
 20
607.0342471101
 30
0.0
 11
1621.5719910838
 21
606.5342471101
 31
0.0
  0
LINE
  5
2E0
330
1F
100
AcDbEntity
  8
0
  6
Continuous
 62
     7
100
AcDbLine
 10
1621.5719910838
 20
606.5342471101
 30
0.0
 11
1624.5719910838
 21
606.5342471101
 31
0.0
  0
LINE
  5
2E1
330
1F
100
AcDbEntity
  8
0
  6
Continuous
 62
     7
100
AcDbLine
 10
1621.5719910838
 20
607.0342471101
 30
0.0
 11
1624.0719910838
 21
607.0342471101
 31
0.0
  0
LINE
  5
2E2
330
1F
100
AcDbEntity
  8
0
  6
Continuous
 62
     7
100
AcDbLine
 10
1265.3219910838
 20
509.5842471101
 30
0.0
 11
1265.3219910838
 21
509.0842471101
 31
0.0
  0
ARC
  5
2E3
330
1F
100
AcDbEntity
  8
0
  6
Continuous
 62
     7
100
AcDbCircle
 10
1265.3219910838
 20
512.0842471101
 30
0.0
 40
3.0
100
AcDbArc
 50
90.0
 51
270.0
  0
LINE
  5
2E4
330
1F
100
AcDbEntity
  8
0
  6
Continuous
 62
     7
100
AcDbLine
 10
1265.3219910838
 20
514.5842471101
 30
0.0
 11
1265.3219910838
 21
515.0842471101
 31
0.0
  0
ARC
  5
2E5
330
1F
100
AcDbEntity
  8
0
  6
Continuous
 62
     7
100
AcDbCircle
 10
1265.3219910838
 20
512.0842471101
 30
0.0
 40
2.500000000000057
100
AcDbArc
 50
90.0
 51
270.0
  0
ARC
  5
2E6
330
1F
100
AcDbEntity
  8
0
  6
Continuous
 62
     7
100
AcDbCircle
 10
1265.3219910838
 20
512.0842471101
 30
0.0
 40
2.500000000000057
100
AcDbArc
 50
270.0
 51
90.0
  0
ARC
  5
2E7
330
1F
100
AcDbEntity
  8
0
  6
Continuous
 62
     7
100
AcDbCircle
 10
1265.3219910838
 20
512.0842471101
 30
0.0
 40
3.0
100
AcDbArc
 50
270.0
 51
90.0
  0
ARC
  5
2E8
330
1F
100
AcDbEntity
  8
0
  6
Continuous
 62
     7
100
AcDbCircle
 10
1265.3219910838
 20
587.0842471101
 30
0.0
 40
2.500000000000114
100
AcDbArc
 50
90.0
 51
270.0
  0
ARC
  5
2E9
330
1F
100
AcDbEntity
  8
0
  6
Continuous
 62
     7
100
AcDbCircle
 10
1265.3219910838
 20
587.0842471101
 30
0.0
 40
2.500000000000114
100
AcDbArc
 50
270.0
 51
90.0
  0
LINE
  5
2EA
330
1F
100
AcDbEntity
  8
0
  6
Continuous
 62
     7
100
AcDbLine
 10
1265.3219910838
 20
584.5842471101
 30
0.0
 11
1265.3219910838
 21
584.0842471101
 31
0.0
  0
ARC
  5
2EB
330
1F
100
AcDbEntity
  8
0
  6
Continuous
 62
     7
100
AcDbCircle
 10
1265.3219910838
 20
587.0842471101
 30
0.0
 40
3.0
100
AcDbArc
 50
90.0
 51
270.0
  0
LINE
  5
2EC
330
1F
100
AcDbEntity
  8
0
  6
Continuous
 62
     7
100
AcDbLine
 10
1265.3219910838
 20
589.5842471101
 30
0.0
 11
1265.3219910838
 21
590.0842471101
 31
0.0
  0
ARC
  5
2ED
330
1F
100
AcDbEntity
  8
0
  6
Continuous
 62
     7
100
AcDbCircle
 10
1265.3219910838
 20
587.0842471101
 30
0.0
 40
3.0
100
AcDbArc
 50
270.0
 51
90.0
  0
ARC
  5
2EE
330
1F
100
AcDbEntity
  8
0
  6
Continuous
 62
     7
100
AcDbCircle
 10
1266.2365986827
 20
594.8399377877
 30
0.0
 40
6.1524974540516
100
AcDbArc
 50
348.9800525853
 51
1.4372413428
  0
LINE
  5
2EF
330
1F
100
AcDbEntity
  8
0
  6
Continuous
 62
     7
100
AcDbLine
 10
1272.3871605493
 20
594.994254501
 30
0.0
 11
1272.3871605493
 21
597.8342471101
 31
0.0
  0
LINE
  5
2F0
330
1F
100
AcDbEntity
  8
0
  6
Continuous
 62
     7
100
AcDbLine
 10
1272.1005645725
 20
593.0038759838
 30
0.0
 11
1272.2756483546
 21
593.6638833748
 31
0.0
  0
LWPOLYLINE
  5
2F1
330
1F
100
AcDbEntity
  8
0
  6
Continuous
 62
     7
100
AcDbPolyline
 90
        9
 70
   128
 43
0.0
 10
1272.0048302929
 20
592.8342471101
 10
1272.0172621479
 20
592.8369482684
 10
1272.0296492291
 20
592.8450420152
 10
1272.0419469238
 20
592.8584992003
 10
1272.0541109412
 20
592.8772713571
 10
1272.0660974723
 20
592.9012908769
 10
1272.0778633468
 20
592.9304712524
 10
1272.0893661896
 20
592.964707389
 10
1272.1005645725
 20
593.0038759838
  0
LINE
  5
2F2
330
1F
100
AcDbEntity
  8
0
  6
Continuous
 62
     7
100
AcDbLine
 10
1268.4392052745
 20
592.8342471101
 30
0.0
 11
1272.0048302929
 21
592.8342471101
 31
0.0
  0
LINE
  5
2F3
330
1F
100
AcDbEntity
  8
0
  6
Continuous
 62
     7
100
AcDbLine
 10
1272.0048302929
 20
592.8342471101
 30
0.0
 11
1274.7047768932
 21
592.8342471101
 31
0.0
  0
LINE
  5
2F4
330
1F
100
AcDbEntity
  8
0
  6
Continuous
 62
     7
100
AcDbLine
 10
1268.5719910838
 20
606.5342471101
 30
0.0
 11
1271.9864840323
 21
606.5342471101
 31
0.0
  0
LINE
  5
2F5
330
1F
100
AcDbEntity
  8
0
  6
Continuous
 62
     7
100
AcDbLine
 10
1269.0719910838
 20
607.0342471101
 30
0.0
 11
1271.9174018743
 21
607.0342471101
 31
0.0
  0
LINE
  5
2F6
330
1F
100
AcDbEntity
  8
0
  6
Continuous
 62
     7
100
AcDbLine
 10
1271.9174018743
 20
607.0342471101
 30
0.0
 11
1271.9864840323
 21
606.5342471101
 31
0.0
  0
LINE
  5
2F7
330
1F
100
AcDbEntity
  8
0
  6
Continuous
 62
     7
100
AcDbLine
 10
1271.9864840323
 20
606.5342471101
 30
0.0
 11
1274.5719910838
 21
606.5342471101
 31
0.0
  0
LINE
  5
2F8
330
1F
100
AcDbEntity
  8
0
  6
Continuous
 62
     7
100
AcDbLine
 10
1271.9174018743
 20
607.0342471101
 30
0.0
 11
1274.0719910838
 21
607.0342471101
 31
0.0
  0
LINE
  5
2F9
330
1F
100
AcDbEntity
  8
0
  6
Continuous
 62
     7
100
AcDbLine
 10
1627.8219910838
 20
584.5842471101
 30
0.0
 11
1627.8219910838
 21
584.0842471101
 31
0.0
  0
ARC
  5
2FA
330
1F
100
AcDbEntity
  8
0
  6
Continuous
 62
     7
100
AcDbCircle
 10
1627.8219910838
 20
587.0842471101
 30
0.0
 40
3.0
100
AcDbArc
 50
90.0
 51
270.0
  0
LINE
  5
2FB
330
1F
100
AcDbEntity
  8
0
  6
Continuous
 62
     7
100
AcDbLine
 10
1627.8219910838
 20
589.5842471101
 30
0.0
 11
1627.8219910838
 21
590.0842471101
 31
0.0
  0
ARC
  5
2FC
330
1F
100
AcDbEntity
  8
0
  6
Continuous
 62
     7
100
AcDbCircle
 10
1627.8219910838
 20
587.0842471101
 30
0.0
 40
2.500000000000114
100
AcDbArc
 50
90.0
 51
270.0
  0
ARC
  5
2FD
330
1F
100
AcDbEntity
  8
0
  6
Continuous
 62
     7
100
AcDbCircle
 10
1627.8219910838
 20
587.0842471101
 30
0.0
 40
2.500000000000114
100
AcDbArc
 50
270.0
 51
90.0
  0
ARC
  5
2FE
330
1F
100
AcDbEntity
  8
0
  6
Continuous
 62
     7
100
AcDbCircle
 10
1627.8219910838
 20
587.0842471101
 30
0.0
 40
3.0
100
AcDbArc
 50
270.0
 51
90.0
  0
LINE
  5
2FF
330
1F
100
AcDbEntity
  8
0
  6
Continuous
 62
     7
100
AcDbLine
 10
1253.5719910838
 20
-304.4157528899
 30
0.0
 11
1253.5719910838
 21
-305.9157528899
 31
0.0
  0
LINE
  5
300
330
1F
100
AcDbEntity
  8
0
  6
Continuous
 62
     7
100
AcDbLine
 10
1639.5719910838
 20
-304.4157528899
 30
0.0
 11
1253.5719910838
 21
-304.4157528899
 31
0.0
  0
LINE
  5
301
330
1F
100
AcDbEntity
  8
0
  6
Continuous
 62
     7
100
AcDbLine
 10
1639.5719910838
 20
-305.9157528899
 30
0.0
 11
1639.5719910838
 21
-304.4157528899
 31
0.0
  0
LINE
  5
302
330
1F
100
AcDbEntity
  8
0
  6
Continuous
 62
     7
100
AcDbLine
 10
1639.5719910838
 20
-305.9157528899
 30
0.0
 11
1253.5719910838
 21
-305.9157528899
 31
0.0
  0
LINE
  5
303
330
1F
100
AcDbEntity
  8
0
  6
Continuous
 62
     7
100
AcDbLine
 10
1250.5719910838
 20
-305.9157528899
 30
0.0
 11
1250.5719910838
 21
-304.4157528899
 31
0.0
  0
LINE
  5
304
330
1F
100
AcDbEntity
  8
0
  6
Continuous
 62
     7
100
AcDbLine
 10
1250.5719910838
 20
-304.4157528899
 30
0.0
 11
1253.5719910838
 21
-304.4157528899
 31
0.0
  0
LINE
  5
305
330
1F
100
AcDbEntity
  8
0
  6
Continuous
 62
     7
100
AcDbLine
 10
1253.5719910838
 20
-305.9157528899
 30
0.0
 11
1250.5719910838
 21
-305.9157528899
 31
0.0
  0
LINE
  5
306
330
1F
100
AcDbEntity
  8
0
  6
Continuous
 62
     7
100
AcDbLine
 10
1642.5719910838
 20
-304.4157528899
 30
0.0
 11
1642.5719910838
 21
-305.9157528899
 31
0.0
  0
LINE
  5
307
330
1F
100
AcDbEntity
  8
0
  6
Continuous
 62
     7
100
AcDbLine
 10
1639.5719910838
 20
-304.4157528899
 30
0.0
 11
1642.5719910838
 21
-304.4157528899
 31
0.0
  0
LINE
  5
308
330
1F
100
AcDbEntity
  8
0
  6
Continuous
 62
     7
100
AcDbLine
 10
1642.5719910838
 20
-305.9157528899
 30
0.0
 11
1639.5719910838
 21
-305.9157528899
 31
0.0
  0
LINE
  5
309
330
1F
100
AcDbEntity
  8
0
  6
Continuous
 62
     7
100
AcDbLine
 10
1284.0719910838
 20
-276.9657528899
 30
0.0
 11
1284.0719910838
 21
-298.5024787671
 31
0.0
  0
LINE
  5
30A
330
1F
100
AcDbEntity
  8
0
  6
Continuous
 62
     7
100
AcDbLine
 10
1609.0719910838
 20
-298.5024787671
 30
0.0
 11
1609.0719910838
 21
-276.9657528899
 31
0.0
  0
LINE
  5
30B
330
1F
100
AcDbEntity
  8
0
  6
Continuous
 62
     7
100
AcDbLine
 10
1349.1989348086
 20
-286.3657528899
 30
0.0
 11
1343.945047359
 21
-286.3657528899
 31
0.0
  0
LINE
  5
30C
330
1F
100
AcDbEntity
  8
0
  6
Continuous
 62
     7
100
AcDbLine
 10
1343.945047359
 20
-295.4657528899
 30
0.0
 11
1349.1989348086
 21
-295.4657528899
 31
0.0
  0
LINE
  5
30D
330
1F
100
AcDbEntity
  8
0
  6
Continuous
 62
     7
100
AcDbLine
 10
1543.945047359
 20
-295.4657528899
 30
0.0
 11
1549.1989348086
 21
-295.4657528899
 31
0.0
  0
LINE
  5
30E
330
1F
100
AcDbEntity
  8
0
  6
Continuous
 62
     7
100
AcDbLine
 10
1549.1989348086
 20
-286.3657528899
 30
0.0
 11
1543.945047359
 21
-286.3657528899
 31
0.0
  0
LINE
  5
30F
330
1F
100
AcDbEntity
  8
0
  6
Continuous
 62
     7
100
AcDbLine
 10
1609.0719910838
 20
-276.9657528899
 30
0.0
 11
1284.0719910838
 21
-276.9657528899
 31
0.0
  0
LINE
  5
310
330
1F
100
AcDbEntity
  8
0
  6
Continuous
 62
     7
100
AcDbLine
 10
1284.0719910838
 20
-298.5024787671
 30
0.0
 11
1609.0719910838
 21
-298.5024787671
 31
0.0
  0
LINE
  5
311
330
1F
100
AcDbEntity
  8
0
  6
Continuous
 62
     7
100
AcDbLine
 10
1609.0719910838
 20
-278.5157528899
 30
0.0
 11
1610.0719910838
 21
-278.5157528899
 31
0.0
  0
LINE
  5
312
330
1F
100
AcDbEntity
  8
0
  6
Continuous
 62
     7
100
AcDbLine
 10
1283.0719910838
 20
-278.5157528899
 30
0.0
 11
1284.0719910838
 21
-278.5157528899
 31
0.0
  0
LINE
  5
313
330
1F
100
AcDbEntity
  8
0
  6
Continuous
 62
     7
100
AcDbLine
 10
1642.5719910838
 20
-303.6657528899
 30
0.0
 11
1642.5719910838
 21
-304.4157528899
 31
0.0
  0
LINE
  5
314
330
1F
100
AcDbEntity
  8
0
  6
Continuous
 62
     7
100
AcDbLine
 10
1250.5719910838
 20
-303.6657528899
 30
0.0
 11
1250.5719910838
 21
-304.4157528899
 31
0.0
  0
SPLINE
  5
315
330
1F
100
AcDbEntity
  8
0
  6
Continuous
 62
     7
100
AcDbSpline
210
0.0
220
0.0
230
1.0
 70
    24
 71
     3
 72
    10
 73
     6
 74
     0
 42
0.00000001
 43
0.00000001
 40
0.0
 40
0.0
 40
0.0
 40
0.0
 40
0.2500529242397351
 40
0.5005341244401854
 40
1.0
 40
1.0
 40
1.0
 40
1.0
 10
1546.571991083819
 20
-295.3657528899222
 30
0.0
 10
1546.330903056224
 20
-295.3657528899222
 30
0.0
 10
1545.848314079622
 20
-295.3657528899222
 30
0.0
 10
1544.948733028642
 20
-295.3657528899223
 30
0.0
 10
1544.380936034406
 20
-295.3657528899224
 30
0.0
 10
1544.002782385925
 20
-295.3657528899223
 30
0.0
  0
SPLINE
  5
316
330
1F
100
AcDbEntity
  8
0
  6
Continuous
 62
     7
100
AcDbSpline
210
0.0
220
0.0
230
1.0
 70
    24
 71
     3
 72
    13
 73
     9
 74
     0
 42
0.00000001
 43
0.00000001
 40
0.0
 40
0.0
 40
0.0
 40
0.0
 40
0.2489219667265508
 40
0.37960062127475
 40
0.4995941385410465
 40
0.6191589989933928
 40
0.7494280488665098
 40
1.0
 40
1.0
 40
1.0
 40
1.0
 10
1544.002782385925
 20
-295.3657528899222
 30
0.0
 10
1543.814403826665
 20
-295.0394716542273
 30
0.0
 10
1543.52713059373
 20
-294.5418998191305
 30
0.0
 10
1543.076584334681
 20
-293.7615308072968
 30
0.0
 10
1542.719795064894
 20
-293.14355366443
 30
0.0
 10
1542.363301371609
 20
-292.5260884750819
 30
0.0
 10
1541.911561451108
 20
-291.7436519809683
 30
0.0
 10
1541.623259892608
 20
-291.2442990337445
 30
0.0
 10
1541.433573688031
 20
-290.9157528899222
 30
0.0
  0
SPLINE
  5
317
330
1F
100
AcDbEntity
  8
0
  6
Continuous
 62
     7
100
AcDbSpline
210
0.0
220
0.0
230
1.0
 70
    24
 71
     3
 72
    13
 73
     9
 74
     0
 42
0.00000001
 43
0.00000001
 40
0.0
 40
0.0
 40
0.0
 40
0.0
 40
0.2489219667265545
 40
0.3796006212868685
 40
0.4995941385402637
 40
0.6191589990049983
 40
0.7494280488665114
 40
1.0
 40
1.0
 40
1.0
 40
1.0
 10
1541.433573688031
 20
-290.9157528899222
 30
0.0
 10
1541.62195224729
 20
-290.5894716542294
 30
0.0
 10
1541.909225480231
 20
-290.0918998191199
 30
0.0
 10
1542.359771739291
 20
-289.3115308072686
 30
0.0
 10
1542.716561009085
 20
-288.6935536643902
 30
0.0
 10
1543.073054702363
 20
-288.076088475055
 30
0.0
 10
1543.524794622854
 20
-287.2936519809579
 30
0.0
 10
1543.813096181347
 20
-286.7942990337463
 30
0.0
 10
1544.002782385925
 20
-286.4657528899222
 30
0.0
  0
SPLINE
  5
318
330
1F
100
AcDbEntity
  8
0
  6
Continuous
 62
     7
100
AcDbSpline
210
0.0
220
0.0
230
1.0
 70
    24
 71
     3
 72
    10
 73
     6
 74
     0
 42
0.00000001
 43
0.00000001
 40
0.0
 40
0.0
 40
0.0
 40
0.0
 40
0.4994658755596739
 40
0.7499470757601908
 40
1.0
 40
1.0
 40
1.0
 40
1.0
 10
1544.002782385925
 20
-286.4657528899222
 30
0.0
 10
1544.380936034406
 20
-286.4657528899223
 30
0.0
 10
1544.948733028642
 20
-286.4657528899225
 30
0.0
 10
1545.848314079622
 20
-286.4657528899222
 30
0.0
 10
1546.330903056224
 20
-286.4657528899222
 30
0.0
 10
1546.571991083819
 20
-286.4657528899222
 30
0.0
  0
LINE
  5
319
330
1F
100
AcDbEntity
  8
0
  6
Continuous
 62
     7
100
AcDbLine
 10
1546.5719910838
 20
-287.2773354941
 30
0.0
 11
1546.5719910838
 21
-286.4657528899
 31
0.0
  0
ARC
  5
31A
330
1F
100
AcDbEntity
  8
0
  6
Continuous
 62
     7
100
AcDbCircle
 10
1546.5719910838
 20
-290.9157528899
 30
0.0
 40
3.638417395790952
100
AcDbArc
 50
90.0
 51
270.0
  0
LINE
  5
31B
330
1F
100
AcDbEntity
  8
0
  6
Continuous
 62
     7
100
AcDbLine
 10
1546.5719910838
 20
-294.5541702857
 30
0.0
 11
1546.5719910838
 21
-295.3657528899
 31
0.0
  0
SPLINE
  5
31C
330
1F
100
AcDbEntity
  8
0
  6
Continuous
 62
     7
100
AcDbSpline
210
0.0
220
0.0
230
1.0
 70
    24
 71
     3
 72
    10
 73
     6
 74
     0
 42
0.00000001
 43
0.00000001
 40
0.0
 40
0.0
 40
0.0
 40
0.0
 40
0.2504088817240016
 40
0.5011408861612311
 40
1.0
 40
1.0
 40
1.0
 40
1.0
 10
1546.571991083819
 20
-286.4657528899222
 30
0.0
 10
1546.813423649166
 20
-286.4657528899223
 30
0.0
 10
1547.29660031971
 20
-286.465752889922
 30
0.0
 10
1548.196029173229
 20
-286.4657528899223
 30
0.0
 10
1548.763525958563
 20
-286.4657528899223
 30
0.0
 10
1549.141199781713
 20
-286.4657528899222
 30
0.0
  0
SPLINE
  5
31D
330
1F
100
AcDbEntity
  8
0
  6
Continuous
 62
     7
100
AcDbSpline
210
0.0
220
0.0
230
1.0
 70
    24
 71
     3
 72
    13
 73
     9
 74
     0
 42
0.00000001
 43
0.00000001
 40
0.0
 40
0.0
 40
0.0
 40
0.0
 40
0.2489219667266027
 40
0.3796006212788713
 40
0.4995941385409404
 40
0.6191589989942862
 40
0.7494280488664766
 40
1.0
 40
1.0
 40
1.0
 40
1.0
 10
1549.141199781713
 20
-286.4657528899222
 30
0.0
 10
1549.329578340972
 20
-286.7920341256162
 30
0.0
 10
1549.616851573909
 20
-287.2896059607173
 30
0.0
 10
1550.067397832961
 20
-288.069974972557
 30
0.0
 10
1550.424187102749
 20
-288.6879521154231
 30
0.0
 10
1550.78068079603
 20
-289.3054173047647
 30
0.0
 10
1551.23242071653
 20
-290.0878537988772
 30
0.0
 10
1551.520722275029
 20
-290.5872067460998
 30
0.0
 10
1551.710408479606
 20
-290.9157528899222
 30
0.0
  0
SPLINE
  5
31E
330
1F
100
AcDbEntity
  8
0
  6
Continuous
 62
     7
100
AcDbSpline
210
0.0
220
0.0
230
1.0
 70
    24
 71
     3
 72
    13
 73
     9
 74
     0
 42
0.00000001
 43
0.00000001
 40
0.0
 40
0.0
 40
0.0
 40
0.0
 40
0.2489219667264068
 40
0.3796006212758294
 40
0.4995941385407118
 40
0.6191589990053661
 40
0.7494280488667061
 40
1.0
 40
1.0
 40
1.0
 40
1.0
 10
1551.710408479607
 20
-290.9157528899222
 30
0.0
 10
1551.522029920347
 20
-291.2420341256168
 30
0.0
 10
1551.234756687411
 20
-291.7396059607147
 30
0.0
 10
1550.784210428361
 20
-292.5199749725511
 30
0.0
 10
1550.427421158563
 20
-293.1379521154363
 30
0.0
 10
1550.070927465275
 20
-293.7554173047893
 30
0.0
 10
1549.619187544783
 20
-294.537853798887
 30
0.0
 10
1549.330885986291
 20
-295.0372067460983
 30
0.0
 10
1549.141199781713
 20
-295.3657528899222
 30
0.0
  0
SPLINE
  5
31F
330
1F
100
AcDbEntity
  8
0
  6
Continuous
 62
     7
100
AcDbSpline
210
0.0
220
0.0
230
1.0
 70
    24
 71
     3
 72
    10
 73
     6
 74
     0
 42
0.00000001
 43
0.00000001
 40
0.0
 40
0.0
 40
0.0
 40
0.0
 40
0.4988591138386924
 40
0.74959111827585
 40
1.0
 40
1.0
 40
1.0
 40
1.0
 10
1549.141199781713
 20
-295.3657528899223
 30
0.0
 10
1548.763525958563
 20
-295.3657528899223
 30
0.0
 10
1548.196029173229
 20
-295.3657528899223
 30
0.0
 10
1547.29660031971
 20
-295.3657528899221
 30
0.0
 10
1546.813423649166
 20
-295.3657528899222
 30
0.0
 10
1546.571991083819
 20
-295.3657528899222
 30
0.0
  0
ARC
  5
320
330
1F
100
AcDbEntity
  8
0
  6
Continuous
 62
     7
100
AcDbCircle
 10
1546.5719910838
 20
-290.9157528899
 30
0.0
 40
3.638417395790952
100
AcDbArc
 50
270.0
 51
90.0
  0
ARC
  5
321
330
1F
100
AcDbEntity
  8
0
  6
Continuous
 62
     7
100
AcDbCircle
 10
1546.5719910838
 20
-290.9157528899
 30
0.0
 40
2.458500000000015
100
AcDbArc
 50
90.0
 51
270.0
  0
ARC
  5
322
330
1F
100
AcDbEntity
  8
0
  6
Continuous
 62
     7
100
AcDbCircle
 10
1546.5719910838
 20
-290.9157528899
 30
0.0
 40
2.458500000000015
100
AcDbArc
 50
270.0
 51
90.0
  0
SPLINE
  5
323
330
1F
100
AcDbEntity
  8
0
  6
Continuous
 62
     7
100
AcDbSpline
210
0.0
220
0.0
230
1.0
 70
    24
 71
     3
 72
    10
 73
     6
 74
     0
 42
0.00000001
 43
0.00000001
 40
0.0
 40
0.0
 40
0.0
 40
0.0
 40
0.2500529242397254
 40
0.5005341244402732
 40
1.0
 40
1.0
 40
1.0
 40
1.0
 10
1346.571991083819
 20
-295.3657528899222
 30
0.0
 10
1346.330903056225
 20
-295.3657528899223
 30
0.0
 10
1345.848314079622
 20
-295.3657528899222
 30
0.0
 10
1344.948733028642
 20
-295.3657528899224
 30
0.0
 10
1344.380936034406
 20
-295.3657528899223
 30
0.0
 10
1344.002782385925
 20
-295.3657528899222
 30
0.0
  0
SPLINE
  5
324
330
1F
100
AcDbEntity
  8
0
  6
Continuous
 62
     7
100
AcDbSpline
210
0.0
220
0.0
230
1.0
 70
    24
 71
     3
 72
    13
 73
     9
 74
     0
 42
0.00000001
 43
0.00000001
 40
0.0
 40
0.0
 40
0.0
 40
0.0
 40
0.2489219667266639
 40
0.3796006212858077
 40
0.4995941385404334
 40
0.6191589990029858
 40
0.7494280488664898
 40
1.0
 40
1.0
 40
1.0
 40
1.0
 10
1344.002782385925
 20
-295.3657528899222
 30
0.0
 10
1343.814403826666
 20
-295.0394716542291
 30
0.0
 10
1343.527130593725
 20
-294.5418998191209
 30
0.0
 10
1343.076584334666
 20
-293.7615308072707
 30
0.0
 10
1342.719795064874
 20
-293.1435536643954
 30
0.0
 10
1342.363301371596
 20
-292.5260884750593
 30
0.0
 10
1341.911561451103
 20
-291.7436519809598
 30
0.0
 10
1341.623259892609
 20
-291.2442990337461
 30
0.0
 10
1341.433573688031
 20
-290.9157528899222
 30
0.0
  0
SPLINE
  5
325
330
1F
100
AcDbEntity
  8
0
  6
Continuous
 62
     7
100
AcDbSpline
210
0.0
220
0.0
230
1.0
 70
    24
 71
     3
 72
    13
 73
     9
 74
     0
 42
0.00000001
 43
0.00000001
 40
0.0
 40
0.0
 40
0.0
 40
0.0
 40
0.24892196672658
 40
0.3796006212822615
 40
0.4995941385404835
 40
0.6191589990032673
 40
0.7494280488665406
 40
1.0
 40
1.0
 40
1.0
 40
1.0
 10
1341.433573688031
 20
-290.9157528899222
 30
0.0
 10
1341.62195224729
 20
-290.5894716542285
 30
0.0
 10
1341.909225480229
 20
-290.0918998191239
 30
0.0
 10
1342.359771739285
 20
-289.3115308072789
 30
0.0
 10
1342.716561009079
 20
-288.6935536644011
 30
0.0
 10
1343.073054702361
 20
-288.0760884750591
 30
0.0
 10
1343.524794622853
 20
-287.2936519809596
 30
0.0
 10
1343.813096181347
 20
-286.7942990337462
 30
0.0
 10
1344.002782385925
 20
-286.4657528899223
 30
0.0
  0
SPLINE
  5
326
330
1F
100
AcDbEntity
  8
0
  6
Continuous
 62
     7
100
AcDbSpline
210
0.0
220
0.0
230
1.0
 70
    24
 71
     3
 72
    10
 73
     6
 74
     0
 42
0.00000001
 43
0.00000001
 40
0.0
 40
0.0
 40
0.0
 40
0.0
 40
0.4994658755599024
 40
0.7499470757603813
 40
1.0
 40
1.0
 40
1.0
 40
1.0
 10
1344.002782385925
 20
-286.4657528899222
 30
0.0
 10
1344.380936034406
 20
-286.4657528899222
 30
0.0
 10
1344.948733028643
 20
-286.4657528899223
 30
0.0
 10
1345.848314079623
 20
-286.4657528899219
 30
0.0
 10
1346.330903056224
 20
-286.465752889922
 30
0.0
 10
1346.571991083819
 20
-286.4657528899222
 30
0.0
  0
LINE
  5
327
330
1F
100
AcDbEntity
  8
0
  6
Continuous
 62
     7
100
AcDbLine
 10
1346.5719910838
 20
-287.2773354941
 30
0.0
 11
1346.5719910838
 21
-286.4657528899
 31
0.0
  0
ARC
  5
328
330
1F
100
AcDbEntity
  8
0
  6
Continuous
 62
     7
100
AcDbCircle
 10
1346.5719910838
 20
-290.9157528899
 30
0.0
 40
3.638417395790952
100
AcDbArc
 50
90.0
 51
270.0
  0
LINE
  5
329
330
1F
100
AcDbEntity
  8
0
  6
Continuous
 62
     7
100
AcDbLine
 10
1346.5719910838
 20
-294.5541702857
 30
0.0
 11
1346.5719910838
 21
-295.3657528899
 31
0.0
  0
SPLINE
  5
32A
330
1F
100
AcDbEntity
  8
0
  6
Continuous
 62
     7
100
AcDbSpline
210
0.0
220
0.0
230
1.0
 70
    24
 71
     3
 72
    10
 73
     6
 74
     0
 42
0.00000001
 43
0.00000001
 40
0.0
 40
0.0
 40
0.0
 40
0.0
 40
0.2504088817243872
 40
0.5011408861614426
 40
0.9999999999999999
 40
0.9999999999999999
 40
0.9999999999999999
 40
0.9999999999999999
 10
1346.571991083819
 20
-286.4657528899222
 30
0.0
 10
1346.813423649166
 20
-286.4657528899223
 30
0.0
 10
1347.29660031971
 20
-286.4657528899222
 30
0.0
 10
1348.19602917323
 20
-286.4657528899222
 30
0.0
 10
1348.763525958564
 20
-286.4657528899223
 30
0.0
 10
1349.141199781713
 20
-286.4657528899222
 30
0.0
  0
SPLINE
  5
32B
330
1F
100
AcDbEntity
  8
0
  6
Continuous
 62
     7
100
AcDbSpline
210
0.0
220
0.0
230
1.0
 70
    24
 71
     3
 72
    13
 73
     9
 74
     0
 42
0.00000001
 43
0.00000001
 40
0.0
 40
0.0
 40
0.0
 40
0.0
 40
0.2489219667266328
 40
0.3796006212814977
 40
0.4995941385407105
 40
0.6191589989977825
 40
0.7494280488664962
 40
1.0
 40
1.0
 40
1.0
 40
1.0
 10
1349.141199781713
 20
-286.4657528899223
 30
0.0
 10
1349.329578340973
 20
-286.7920341256159
 30
0.0
 10
1349.616851573911
 20
-287.2896059607198
 30
0.0
 10
1350.067397832966
 20
-288.0699749725633
 30
0.0
 10
1350.424187102755
 20
-288.6879521154331
 30
0.0
 10
1350.780680796035
 20
-289.3054173047729
 30
0.0
 10
1351.232420716532
 20
-290.08785379888
 30
0.0
 10
1351.52072227503
 20
-290.5872067460992
 30
0.0
 10
1351.710408479607
 20
-290.9157528899222
 30
0.0
  0
SPLINE
  5
32C
330
1F
100
AcDbEntity
  8
0
  6
Continuous
 62
     7
100
AcDbSpline
210
0.0
220
0.0
230
1.0
 70
    24
 71
     3
 72
    13
 73
     9
 74
     0
 42
0.00000001
 43
0.00000001
 40
0.0
 40
0.0
 40
0.0
 40
0.0
 40
0.2489219667269573
 40
0.379600621297279
 40
0.4995941385404686
 40
0.6191589989886573
 40
0.7494280488661136
 40
1.0
 40
1.0
 40
1.0
 40
1.0
 10
1351.710408479606
 20
-290.9157528899222
 30
0.0
 10
1351.522029920349
 20
-291.2420341256134
 30
0.0
 10
1351.234756687401
 20
-291.7396059607336
 30
0.0
 10
1350.784210428334
 20
-292.5199749725982
 30
0.0
 10
1350.427421158559
 20
-293.1379521154446
 30
0.0
 10
1350.070927465296
 20
-293.7554173047538
 30
0.0
 10
1349.619187544793
 20
-294.5378537988724
 30
0.0
 10
1349.33088598629
 20
-295.0372067461007
 30
0.0
 10
1349.141199781713
 20
-295.3657528899222
 30
0.0
  0
SPLINE
  5
32D
330
1F
100
AcDbEntity
  8
0
  6
Continuous
 62
     7
100
AcDbSpline
210
0.0
220
0.0
230
1.0
 70
    24
 71
     3
 72
    10
 73
     6
 74
     0
 42
0.00000001
 43
0.00000001
 40
0.0
 40
0.0
 40
0.0
 40
0.0
 40
0.498859113838826
 40
0.7495911182759533
 40
0.9999999999999999
 40
0.9999999999999999
 40
0.9999999999999999
 40
0.9999999999999999
 10
1349.141199781713
 20
-295.3657528899222
 30
0.0
 10
1348.763525958564
 20
-295.3657528899223
 30
0.0
 10
1348.196029173229
 20
-295.3657528899224
 30
0.0
 10
1347.29660031971
 20
-295.3657528899223
 30
0.0
 10
1346.813423649166
 20
-295.3657528899222
 30
0.0
 10
1346.571991083819
 20
-295.3657528899222
 30
0.0
  0
ARC
  5
32E
330
1F
100
AcDbEntity
  8
0
  6
Continuous
 62
     7
100
AcDbCircle
 10
1346.5719910838
 20
-290.9157528899
 30
0.0
 40
3.638417395790952
100
AcDbArc
 50
270.0
 51
90.0
  0
ARC
  5
32F
330
1F
100
AcDbEntity
  8
0
  6
Continuous
 62
     7
100
AcDbCircle
 10
1346.5719910838
 20
-290.9157528899
 30
0.0
 40
2.458500000000015
100
AcDbArc
 50
90.0
 51
270.0
  0
ARC
  5
330
330
1F
100
AcDbEntity
  8
0
  6
Continuous
 62
     7
100
AcDbCircle
 10
1346.5719910838
 20
-290.9157528899
 30
0.0
 40
2.458500000000015
100
AcDbArc
 50
270.0
 51
90.0
  0
LINE
  5
331
330
1F
100
AcDbEntity
  8
0
  6
Continuous
 62
     7
100
AcDbLine
 10
1365.6719910838
 20
597.244254501
 30
0.0
 11
1372.3581638216
 21
597.244254501
 31
0.0
  0
LINE
  5
332
330
1F
100
AcDbEntity
  8
0
  6
Continuous
 62
     7
100
AcDbLine
 10
1366.4790894556
 20
595.9138833748
 30
0.0
 11
1372.250618273
 21
595.9138833748
 31
0.0
  0
LINE
  5
333
330
1F
100
AcDbEntity
  8
0
  6
Continuous
 62
     7
100
AcDbLine
 10
1372.3581638216
 20
597.244254501
 30
0.0
 11
1377.4719910838
 21
597.244254501
 31
0.0
  0
LINE
  5
334
330
1F
100
AcDbEntity
  8
0
  6
Continuous
 62
     7
100
AcDbLine
 10
1372.250618273
 20
595.9138833748
 30
0.0
 11
1376.6648927121
 21
595.9138833748
 31
0.0
  0
LINE
  5
335
330
1F
100
AcDbEntity
  8
0
  6
Continuous
 62
     7
100
AcDbLine
 10
1367.7463036462
 20
595.2538759838
 30
0.0
 11
1372.081762468
 21
595.2538759838
 31
0.0
  0
LINE
  5
336
330
1F
100
AcDbEntity
  8
0
  6
Continuous
 62
     7
100
AcDbLine
 10
1372.081762468
 20
595.2538759838
 30
0.0
 11
1375.3976785214
 21
595.2538759838
 31
0.0
  0
LINE
  5
337
330
1F
100
AcDbEntity
  8
0
  6
Continuous
 62
     7
100
AcDbLine
 10
1371.9717399335
 20
608.7842471101
 30
0.0
 11
1371.9717399335
 21
602.0842471101
 31
0.0
  0
LINE
  5
338
330
1F
100
AcDbEntity
  8
0
  6
Continuous
 62
     7
100
AcDbLine
 10
1515.6719910838
 20
597.244254501
 30
0.0
 11
1521.5719910838
 21
597.244254501
 31
0.0
  0
LINE
  5
339
330
1F
100
AcDbEntity
  8
0
  6
Continuous
 62
     7
100
AcDbLine
 10
1516.4790894556
 20
595.9138833748
 30
0.0
 11
1521.5719910838
 21
595.9138833748
 31
0.0
  0
LINE
  5
33A
330
1F
100
AcDbEntity
  8
0
  6
Continuous
 62
     7
100
AcDbLine
 10
1521.5719910838
 20
597.244254501
 30
0.0
 11
1527.4719910838
 21
597.244254501
 31
0.0
  0
LINE
  5
33B
330
1F
100
AcDbEntity
  8
0
  6
Continuous
 62
     7
100
AcDbLine
 10
1521.5719910838
 20
595.9138833748
 30
0.0
 11
1526.6648927121
 21
595.9138833748
 31
0.0
  0
LINE
  5
33C
330
1F
100
AcDbEntity
  8
0
  6
Continuous
 62
     7
100
AcDbLine
 10
1517.7463036462
 20
595.2538759838
 30
0.0
 11
1521.5719910838
 21
595.2538759838
 31
0.0
  0
LINE
  5
33D
330
1F
100
AcDbEntity
  8
0
  6
Continuous
 62
     7
100
AcDbLine
 10
1521.5719910838
 20
595.2538759838
 30
0.0
 11
1525.3976785214
 21
595.2538759838
 31
0.0
  0
LINE
  5
33E
330
1F
100
AcDbEntity
  8
0
  6
Continuous
 62
     7
100
AcDbLine
 10
1521.5719910838
 20
608.7842471101
 30
0.0
 11
1521.5719910838
 21
602.0842471101
 31
0.0
  0
LINE
  5
33F
330
1F
100
AcDbEntity
  8
0
  6
Continuous
 62
     7
100
AcDbLine
 10
1377.4719910838
 20
-301.5757602809
 30
0.0
 11
1371.5076820598
 21
-301.5757602809
 31
0.0
  0
LINE
  5
340
330
1F
100
AcDbEntity
  8
0
  6
Continuous
 62
     7
100
AcDbLine
 10
1376.6648927121
 20
-300.2453891546
 30
0.0
 11
1371.5164792986
 21
-300.2453891546
 31
0.0
  0
LINE
  5
341
330
1F
100
AcDbEntity
  8
0
  6
Continuous
 62
     7
100
AcDbLine
 10
1371.5076820598
 20
-301.5757602809
 30
0.0
 11
1365.6719910838
 21
-301.5757602809
 31
0.0
  0
LINE
  5
342
330
1F
100
AcDbEntity
  8
0
  6
Continuous
 62
     7
100
AcDbLine
 10
1371.5164792986
 20
-300.2453891546
 30
0.0
 11
1366.4790894556
 21
-300.2453891546
 31
0.0
  0
LINE
  5
343
330
1F
100
AcDbEntity
  8
0
  6
Continuous
 62
     7
100
AcDbLine
 10
1375.3976785214
 20
-299.5853817637
 30
0.0
 11
1371.5302917236
 21
-299.5853817637
 31
0.0
  0
LINE
  5
344
330
1F
100
AcDbEntity
  8
0
  6
Continuous
 62
     7
100
AcDbLine
 10
1371.5302917236
 20
-299.5853817637
 30
0.0
 11
1367.7463036462
 21
-299.5853817637
 31
0.0
  0
LINE
  5
345
330
1F
100
AcDbEntity
  8
0
  6
Continuous
 62
     7
100
AcDbLine
 10
1371.5392915801
 20
-313.1157528899
 30
0.0
 11
1371.5392915801
 21
-305.9157528899
 31
0.0
  0
LINE
  5
346
330
1F
100
AcDbEntity
  8
0
  6
Continuous
 62
     7
100
AcDbLine
 10
1523.0194832641
 20
-301.5757602809
 30
0.0
 11
1515.6719910838
 21
-301.5757602809
 31
0.0
  0
LINE
  5
347
330
1F
100
AcDbEntity
  8
0
  6
Continuous
 62
     7
100
AcDbLine
 10
1522.8214716401
 20
-300.2453891546
 30
0.0
 11
1516.4790894556
 21
-300.2453891546
 31
0.0
  0
LINE
  5
348
330
1F
100
AcDbEntity
  8
0
  6
Continuous
 62
     7
100
AcDbLine
 10
1527.4719910838
 20
-301.5757602809
 30
0.0
 11
1523.0194832641
 21
-301.5757602809
 31
0.0
  0
LINE
  5
349
330
1F
100
AcDbEntity
  8
0
  6
Continuous
 62
     7
100
AcDbLine
 10
1526.6648927121
 20
-300.2453891546
 30
0.0
 11
1522.8214716401
 21
-300.2453891546
 31
0.0
  0
LINE
  5
34A
330
1F
100
AcDbEntity
  8
0
  6
Continuous
 62
     7
100
AcDbLine
 10
1522.5105762788
 20
-299.5853817637
 30
0.0
 11
1517.7463036462
 21
-299.5853817637
 31
0.0
  0
LINE
  5
34B
330
1F
100
AcDbEntity
  8
0
  6
Continuous
 62
     7
100
AcDbLine
 10
1525.3976785214
 20
-299.5853817637
 30
0.0
 11
1522.5105762788
 21
-299.5853817637
 31
0.0
  0
LINE
  5
34C
330
1F
100
AcDbEntity
  8
0
  6
Continuous
 62
     7
100
AcDbLine
 10
1522.3080040569
 20
-313.1157528899
 30
0.0
 11
1522.3080040569
 21
-305.9157528899
 31
0.0
  0
LINE
  5
34D
330
1F
100
AcDbEntity
  8
0
  6
Continuous
 62
     7
100
AcDbLine
 10
1271.5719910838
 20
-299.3257602809
 30
0.0
 11
1265.6719910838
 21
-299.3257602809
 31
0.0
  0
LINE
  5
34E
330
1F
100
AcDbEntity
  8
0
  6
Continuous
 62
     7
100
AcDbLine
 10
1271.5719910838
 20
-297.9953891546
 30
0.0
 11
1266.4790894556
 21
-297.9953891546
 31
0.0
  0
LINE
  5
34F
330
1F
100
AcDbEntity
  8
0
  6
Continuous
 62
     7
100
AcDbLine
 10
1277.4719910838
 20
-299.3257602809
 30
0.0
 11
1271.5719910838
 21
-299.3257602809
 31
0.0
  0
LINE
  5
350
330
1F
100
AcDbEntity
  8
0
  6
Continuous
 62
     7
100
AcDbLine
 10
1276.6648927121
 20
-297.9953891546
 30
0.0
 11
1271.5719910838
 21
-297.9953891546
 31
0.0
  0
LINE
  5
351
330
1F
100
AcDbEntity
  8
0
  6
Continuous
 62
     7
100
AcDbLine
 10
1271.5719910838
 20
-297.3353817637
 30
0.0
 11
1267.7463036462
 21
-297.3353817637
 31
0.0
  0
LINE
  5
352
330
1F
100
AcDbEntity
  8
0
  6
Continuous
 62
     7
100
AcDbLine
 10
1275.3976785214
 20
-297.3353817637
 30
0.0
 11
1271.5719910838
 21
-297.3353817637
 31
0.0
  0
LINE
  5
353
330
1F
100
AcDbEntity
  8
0
  6
Continuous
 62
     7
100
AcDbLine
 10
1271.5719910838
 20
-310.8657528899
 30
0.0
 11
1271.5719910838
 21
-305.9157528899
 31
0.0
  0
LINE
  5
354
330
1F
100
AcDbEntity
  8
0
  6
Continuous
 62
     7
100
AcDbLine
 10
1271.5719910838
 20
-304.4157528899
 30
0.0
 11
1271.5719910838
 21
-303.6657528899
 31
0.0
  0
LINE
  5
355
330
1F
100
AcDbEntity
  8
0
  6
Continuous
 62
     7
100
AcDbLine
 10
1621.5719910838
 20
-299.3257602809
 30
0.0
 11
1615.6719910838
 21
-299.3257602809
 31
0.0
  0
LINE
  5
356
330
1F
100
AcDbEntity
  8
0
  6
Continuous
 62
     7
100
AcDbLine
 10
1621.5719910838
 20
-297.9953891546
 30
0.0
 11
1616.4790894556
 21
-297.9953891546
 31
0.0
  0
LINE
  5
357
330
1F
100
AcDbEntity
  8
0
  6
Continuous
 62
     7
100
AcDbLine
 10
1627.4719910838
 20
-299.3257602809
 30
0.0
 11
1621.5719910838
 21
-299.3257602809
 31
0.0
  0
LINE
  5
358
330
1F
100
AcDbEntity
  8
0
  6
Continuous
 62
     7
100
AcDbLine
 10
1626.6648927121
 20
-297.9953891546
 30
0.0
 11
1621.5719910838
 21
-297.9953891546
 31
0.0
  0
LINE
  5
359
330
1F
100
AcDbEntity
  8
0
  6
Continuous
 62
     7
100
AcDbLine
 10
1621.5719910838
 20
-297.3353817637
 30
0.0
 11
1617.7463036462
 21
-297.3353817637
 31
0.0
  0
LINE
  5
35A
330
1F
100
AcDbEntity
  8
0
  6
Continuous
 62
     7
100
AcDbLine
 10
1625.3976785214
 20
-297.3353817637
 30
0.0
 11
1621.5719910838
 21
-297.3353817637
 31
0.0
  0
LINE
  5
35B
330
1F
100
AcDbEntity
  8
0
  6
Continuous
 62
     7
100
AcDbLine
 10
1621.5719910838
 20
-310.8657528899
 30
0.0
 11
1621.5719910838
 21
-305.9157528899
 31
0.0
  0
LINE
  5
35C
330
1F
100
AcDbEntity
  8
0
  6
Continuous
 62
     7
100
AcDbLine
 10
1621.5719910838
 20
-304.4157528899
 30
0.0
 11
1621.5719910838
 21
-303.6657528899
 31
0.0
  0
LINE
  5
35D
330
1F
100
AcDbEntity
  8
0
  6
Continuous
 62
     7
100
AcDbLine
 10
1615.6719910838
 20
594.994254501
 30
0.0
 11
1621.5719910838
 21
594.994254501
 31
0.0
  0
LINE
  5
35E
330
1F
100
AcDbEntity
  8
0
  6
Continuous
 62
     7
100
AcDbLine
 10
1616.4790894556
 20
593.6638833748
 30
0.0
 11
1621.5719910838
 21
593.6638833748
 31
0.0
  0
LINE
  5
35F
330
1F
100
AcDbEntity
  8
0
  6
Continuous
 62
     7
100
AcDbLine
 10
1621.5719910838
 20
594.994254501
 30
0.0
 11
1627.4719910838
 21
594.994254501
 31
0.0
  0
LINE
  5
360
330
1F
100
AcDbEntity
  8
0
  6
Continuous
 62
     7
100
AcDbLine
 10
1621.5719910838
 20
593.6638833748
 30
0.0
 11
1626.6648927121
 21
593.6638833748
 31
0.0
  0
LINE
  5
361
330
1F
100
AcDbEntity
  8
0
  6
Continuous
 62
     7
100
AcDbLine
 10
1617.7463036462
 20
593.0038759838
 30
0.0
 11
1621.5719910838
 21
593.0038759838
 31
0.0
  0
LINE
  5
362
330
1F
100
AcDbEntity
  8
0
  6
Continuous
 62
     7
100
AcDbLine
 10
1621.5719910838
 20
593.0038759838
 30
0.0
 11
1625.3976785214
 21
593.0038759838
 31
0.0
  0
LINE
  5
363
330
1F
100
AcDbEntity
  8
0
  6
Continuous
 62
     7
100
AcDbLine
 10
1621.5719910838
 20
606.5342471101
 30
0.0
 11
1621.5719910838
 21
602.0842471101
 31
0.0
  0
LINE
  5
364
330
1F
100
AcDbEntity
  8
0
  6
Continuous
 62
     7
100
AcDbLine
 10
1621.5719910838
 20
600.0842471101
 30
0.0
 11
1621.5719910838
 21
599.3342471101
 31
0.0
  0
LINE
  5
365
330
1F
100
AcDbEntity
  8
0
  6
Continuous
 62
     7
100
AcDbLine
 10
1265.6719910838
 20
594.994254501
 30
0.0
 11
1272.3871605493
 21
594.994254501
 31
0.0
  0
LINE
  5
366
330
1F
100
AcDbEntity
  8
0
  6
Continuous
 62
     7
100
AcDbLine
 10
1266.4790894556
 20
593.6638833748
 30
0.0
 11
1272.2756483546
 21
593.6638833748
 31
0.0
  0
LINE
  5
367
330
1F
100
AcDbEntity
  8
0
  6
Continuous
 62
     7
100
AcDbLine
 10
1272.3871605493
 20
594.994254501
 30
0.0
 11
1277.4719910838
 21
594.994254501
 31
0.0
  0
LINE
  5
368
330
1F
100
AcDbEntity
  8
0
  6
Continuous
 62
     7
100
AcDbLine
 10
1272.2756483546
 20
593.6638833748
 30
0.0
 11
1276.6648927121
 21
593.6638833748
 31
0.0
  0
LINE
  5
369
330
1F
100
AcDbEntity
  8
0
  6
Continuous
 62
     7
100
AcDbLine
 10
1267.7463036462
 20
593.0038759838
 30
0.0
 11
1272.1005645725
 21
593.0038759838
 31
0.0
  0
LINE
  5
36A
330
1F
100
AcDbEntity
  8
0
  6
Continuous
 62
     7
100
AcDbLine
 10
1272.1005645725
 20
593.0038759838
 30
0.0
 11
1275.3976785214
 21
593.0038759838
 31
0.0
  0
LINE
  5
36B
330
1F
100
AcDbEntity
  8
0
  6
Continuous
 62
     7
100
AcDbLine
 10
1271.9864840323
 20
606.5342471101
 30
0.0
 11
1271.9864840323
 21
602.0842471101
 31
0.0
  0
LINE
  5
36C
330
1F
100
AcDbEntity
  8
0
  6
Continuous
 62
     7
100
AcDbLine
 10
1271.9864840323
 20
600.0842471101
 30
0.0
 11
1271.9864840323
 21
599.3342471101
 31
0.0
  0
LINE
  5
36D
330
1F
100
AcDbEntity
  8
0
  6
Continuous
 62
     7
100
AcDbLine
 10
934.5138918482
 20
608.7842471101
 30
0.0
 11
934.5138918482
 21
602.0842471101
 31
0.0
  0
LINE
  5
36E
330
1F
100
AcDbEntity
  8
0
  6
Continuous
 62
     7
100
AcDbLine
 10
935.0138918482
 20
609.2842471101
 30
0.0
 11
934.5138918482
 21
608.7842471101
 31
0.0
  0
LINE
  5
36F
330
1F
100
AcDbEntity
  8
0
  6
Continuous
 62
     7
100
AcDbLine
 10
940.5138918482
 20
602.0842471101
 30
0.0
 11
940.5138918482
 21
608.7842471101
 31
0.0
  0
LINE
  5
370
330
1F
100
AcDbEntity
  8
0
  6
Continuous
 62
     7
100
AcDbLine
 10
940.5138918482
 20
608.7842471101
 30
0.0
 11
940.0138918482
 21
609.2842471101
 31
0.0
  0
LINE
  5
371
330
1F
100
AcDbEntity
  8
0
  6
Continuous
 62
     7
100
AcDbLine
 10
790.5138918482
 20
608.7842471101
 30
0.0
 11
790.0138918482
 21
609.2842471101
 31
0.0
  0
LINE
  5
372
330
1F
100
AcDbEntity
  8
0
  6
Continuous
 62
     7
100
AcDbLine
 10
784.5138918482
 20
608.7842471101
 30
0.0
 11
784.5138918482
 21
602.0842471101
 31
0.0
  0
LINE
  5
373
330
1F
100
AcDbEntity
  8
0
  6
Continuous
 62
     7
100
AcDbLine
 10
790.5138918482
 20
602.0842471101
 30
0.0
 11
790.5138918482
 21
608.7842471101
 31
0.0
  0
LINE
  5
374
330
1F
100
AcDbEntity
  8
0
  6
Continuous
 62
     7
100
AcDbLine
 10
785.0138918482
 20
609.2842471101
 30
0.0
 11
784.5138918482
 21
608.7842471101
 31
0.0
  0
LINE
  5
375
330
1F
100
AcDbEntity
  8
0
  6
Continuous
 62
     7
100
AcDbLine
 10
940.5138918482
 20
-313.1157528899
 30
0.0
 11
940.5138918482
 21
-305.9157528899
 31
0.0
  0
LINE
  5
376
330
1F
100
AcDbEntity
  8
0
  6
Continuous
 62
     7
100
AcDbLine
 10
940.0138918482
 20
-313.6157528899
 30
0.0
 11
940.5138918482
 21
-313.1157528899
 31
0.0
  0
LINE
  5
377
330
1F
100
AcDbEntity
  8
0
  6
Continuous
 62
     7
100
AcDbLine
 10
934.5138918482
 20
-313.1157528899
 30
0.0
 11
935.0138918482
 21
-313.6157528899
 31
0.0
  0
LINE
  5
378
330
1F
100
AcDbEntity
  8
0
  6
Continuous
 62
     7
100
AcDbLine
 10
934.5138918482
 20
-305.9157528899
 30
0.0
 11
934.5138918482
 21
-313.1157528899
 31
0.0
  0
LINE
  5
379
330
1F
100
AcDbEntity
  8
0
  6
Continuous
 62
     7
100
AcDbLine
 10
784.5138918482
 20
-313.1157528899
 30
0.0
 11
785.0138918482
 21
-313.6157528899
 31
0.0
  0
LINE
  5
37A
330
1F
100
AcDbEntity
  8
0
  6
Continuous
 62
     7
100
AcDbLine
 10
784.5138918482
 20
-305.9157528899
 30
0.0
 11
784.5138918482
 21
-313.1157528899
 31
0.0
  0
LINE
  5
37B
330
1F
100
AcDbEntity
  8
0
  6
Continuous
 62
     7
100
AcDbLine
 10
790.0138918482
 20
-313.6157528899
 30
0.0
 11
790.5138918482
 21
-313.1157528899
 31
0.0
  0
LINE
  5
37C
330
1F
100
AcDbEntity
  8
0
  6
Continuous
 62
     7
100
AcDbLine
 10
790.5138918482
 20
-313.1157528899
 30
0.0
 11
790.5138918482
 21
-305.9157528899
 31
0.0
  0
LINE
  5
37D
330
1F
100
AcDbEntity
  8
0
  6
Continuous
 62
     7
100
AcDbLine
 10
1040.0138918482
 20
-311.3657528899
 30
0.0
 11
1040.5138918482
 21
-310.8657528899
 31
0.0
  0
LINE
  5
37E
330
1F
100
AcDbEntity
  8
0
  6
Continuous
 62
     7
100
AcDbLine
 10
1040.5138918482
 20
-310.8657528899
 30
0.0
 11
1040.5138918482
 21
-305.9157528899
 31
0.0
  0
LINE
  5
37F
330
1F
100
AcDbEntity
  8
0
  6
Continuous
 62
     7
100
AcDbLine
 10
1034.5138918482
 20
-310.8657528899
 30
0.0
 11
1035.0138918482
 21
-311.3657528899
 31
0.0
  0
LINE
  5
380
330
1F
100
AcDbEntity
  8
0
  6
Continuous
 62
     7
100
AcDbLine
 10
1034.5138918482
 20
-305.9157528899
 30
0.0
 11
1034.5138918482
 21
-310.8657528899
 31
0.0
  0
LINE
  5
381
330
1F
100
AcDbEntity
  8
0
  6
Continuous
 62
     7
100
AcDbLine
 10
690.5138918482
 20
-310.8657528899
 30
0.0
 11
690.5138918482
 21
-305.9157528899
 31
0.0
  0
LINE
  5
382
330
1F
100
AcDbEntity
  8
0
  6
Continuous
 62
     7
100
AcDbLine
 10
690.0138918482
 20
-311.3657528899
 30
0.0
 11
690.5138918482
 21
-310.8657528899
 31
0.0
  0
LINE
  5
383
330
1F
100
AcDbEntity
  8
0
  6
Continuous
 62
     7
100
AcDbLine
 10
684.5138918482
 20
-310.8657528899
 30
0.0
 11
685.0138918482
 21
-311.3657528899
 31
0.0
  0
LINE
  5
384
330
1F
100
AcDbEntity
  8
0
  6
Continuous
 62
     7
100
AcDbLine
 10
684.5138918482
 20
-305.9157528899
 30
0.0
 11
684.5138918482
 21
-310.8657528899
 31
0.0
  0
LINE
  5
385
330
1F
100
AcDbEntity
  8
0
  6
Continuous
 62
     7
100
AcDbLine
 10
690.5138918482
 20
606.5342471101
 30
0.0
 11
690.0138918482
 21
607.0342471101
 31
0.0
  0
LINE
  5
386
330
1F
100
AcDbEntity
  8
0
  6
Continuous
 62
     7
100
AcDbLine
 10
690.5138918482
 20
602.0842471101
 30
0.0
 11
690.5138918482
 21
606.5342471101
 31
0.0
  0
LINE
  5
387
330
1F
100
AcDbEntity
  8
0
  6
Continuous
 62
     7
100
AcDbLine
 10
685.0138918482
 20
607.0342471101
 30
0.0
 11
684.5138918482
 21
606.5342471101
 31
0.0
  0
LINE
  5
388
330
1F
100
AcDbEntity
  8
0
  6
Continuous
 62
     7
100
AcDbLine
 10
684.5138918482
 20
606.5342471101
 30
0.0
 11
684.5138918482
 21
602.0842471101
 31
0.0
  0
LINE
  5
389
330
1F
100
AcDbEntity
  8
0
  6
Continuous
 62
     7
100
AcDbLine
 10
1035.0138918482
 20
607.0342471101
 30
0.0
 11
1034.5138918482
 21
606.5342471101
 31
0.0
  0
LINE
  5
38A
330
1F
100
AcDbEntity
  8
0
  6
Continuous
 62
     7
100
AcDbLine
 10
1034.5138918482
 20
606.5342471101
 30
0.0
 11
1034.5138918482
 21
602.0842471101
 31
0.0
  0
LINE
  5
38B
330
1F
100
AcDbEntity
  8
0
  6
Continuous
 62
     7
100
AcDbLine
 10
1040.5138918482
 20
606.5342471101
 30
0.0
 11
1040.0138918482
 21
607.0342471101
 31
0.0
  0
LINE
  5
38C
330
1F
100
AcDbEntity
  8
0
  6
Continuous
 62
     7
100
AcDbLine
 10
1040.5138918482
 20
602.0842471101
 30
0.0
 11
1040.5138918482
 21
606.5342471101
 31
0.0
  0
ARC
  5
38D
330
1F
100
AcDbEntity
  8
0
  6
Continuous
 62
     7
100
AcDbCircle
 10
762.5138918482
 20
-290.9157528899
 30
0.0
 40
3.132785809343634
100
AcDbArc
 50
44.4283794066
 51
224.4283794066
  0
ARC
  5
38E
330
1F
100
AcDbEntity
  8
0
  6
Continuous
 62
     7
100
AcDbCircle
 10
762.5138918482
 20
-290.9157528899
 30
0.0
 40
3.132785809343634
100
AcDbArc
 50
224.4283794066
 51
44.4283794066
  0
ARC
  5
38F
330
1F
100
AcDbEntity
  8
0
  6
Continuous
 62
     7
100
AcDbCircle
 10
767.0872989376
 20
-286.4327020132
 30
0.0
 40
4.154201555956226
100
AcDbArc
 50
224.4283794066
 51
240.3916588683
  0
ARC
  5
390
330
1F
100
AcDbEntity
  8
0
  6
Continuous
 62
     7
100
AcDbCircle
 10
767.0872989376
 20
-286.4327020132
 30
0.0
 40
4.154201555956226
100
AcDbArc
 50
208.4650999449
 51
224.4283794066
  0
ARC
  5
391
330
1F
100
AcDbEntity
  8
0
  6
Continuous
 62
     7
100
AcDbCircle
 10
763.1715765113
 20
-288.5556785513
 30
0.0
 40
0.3000000000004754
100
AcDbArc
 50
28.4650999449
 51
120.3916588684
  0
ARC
  5
392
330
1F
100
AcDbEntity
  8
0
  6
Continuous
 62
     7
100
AcDbCircle
 10
760.9181594472
 20
-284.7135407302
 30
0.0
 40
4.154201555956265
100
AcDbArc
 50
268.4650999449
 51
300.3916588683
  0
ARC
  5
393
330
1F
100
AcDbEntity
  8
0
  6
Continuous
 62
     7
100
AcDbCircle
 10
760.7988498477
 20
-289.1661440946
 30
0.0
 40
0.3000000000004093
100
AcDbArc
 50
88.4650999448
 51
180.3916588684
  0
ARC
  5
394
330
1F
100
AcDbEntity
  8
0
  6
Continuous
 62
     7
100
AcDbCircle
 10
756.3447523577
 20
-289.196591607
 30
0.0
 40
4.154201555956286
100
AcDbArc
 50
328.4650999449
 51
0.3916588683
  0
ARC
  5
395
330
1F
100
AcDbEntity
  8
0
  6
Continuous
 62
     7
100
AcDbCircle
 10
760.1411651845
 20
-291.5262184332
 30
0.0
 40
0.3000000000006254
100
AcDbArc
 50
148.4650999449
 51
224.4283794066
  0
ARC
  5
396
330
1F
100
AcDbEntity
  8
0
  6
Continuous
 62
     7
100
AcDbCircle
 10
760.1411651845
 20
-291.5262184332
 30
0.0
 40
0.3000000000007307
100
AcDbArc
 50
224.4283794066
 51
240.3916588683
  0
ARC
  5
397
330
1F
100
AcDbEntity
  8
0
  6
Continuous
 62
     7
100
AcDbCircle
 10
757.9404847587
 20
-295.3988037666
 30
0.0
 40
4.154201555956287
100
AcDbArc
 50
28.4650999449
 51
60.3916588684
  0
ARC
  5
398
330
1F
100
AcDbEntity
  8
0
  6
Continuous
 62
     7
100
AcDbCircle
 10
761.856207185
 20
-293.2758272285
 30
0.0
 40
0.3000000000004591
100
AcDbArc
 50
208.4650999448
 51
224.4283794066
  0
ARC
  5
399
330
1F
100
AcDbEntity
  8
0
  6
Continuous
 62
     7
100
AcDbCircle
 10
761.856207185
 20
-293.2758272285
 30
0.0
 40
0.3000000000004591
100
AcDbArc
 50
224.4283794066
 51
300.3916588684
  0
ARC
  5
39A
330
1F
100
AcDbEntity
  8
0
  6
Continuous
 62
     7
100
AcDbCircle
 10
764.1096242492
 20
-297.1179650496
 30
0.0
 40
4.154201555956242
100
AcDbArc
 50
88.4650999449
 51
120.3916588684
  0
ARC
  5
39B
330
1F
100
AcDbEntity
  8
0
  6
Continuous
 62
     7
100
AcDbCircle
 10
764.2289338487
 20
-292.6653616852
 30
0.0
 40
0.2999999999999915
100
AcDbArc
 50
268.4650999449
 51
0.3916588683
  0
ARC
  5
39C
330
1F
100
AcDbEntity
  8
0
  6
Continuous
 62
     7
100
AcDbCircle
 10
768.6830313386
 20
-292.6349141728
 30
0.0
 40
4.154201555956435
100
AcDbArc
 50
148.4650999448
 51
180.3916588683
  0
ARC
  5
39D
330
1F
100
AcDbEntity
  8
0
  6
Continuous
 62
     7
100
AcDbCircle
 10
764.8866185118
 20
-290.3052873466
 30
0.0
 40
0.3000000000004239
100
AcDbArc
 50
328.4650999448
 51
60.3916588684
  0
LINE
  5
39E
330
1F
100
AcDbEntity
  8
0
  6
Continuous
 62
     7
100
AcDbLine
 10
759.7818688323
 20
-293.5937996802
 30
0.0
 11
760.2766879274
 21
-293.108756662
 31
0.0
  0
LINE
  5
39F
330
1F
100
AcDbEntity
  8
0
  6
Continuous
 62
     7
100
AcDbLine
 10
765.245914864
 20
-288.2377060996
 30
0.0
 11
764.7510957689
 21
-288.7227491178
 31
0.0
  0
ARC
  5
3A0
330
1F
100
AcDbEntity
  8
0
  6
Continuous
 62
     7
100
AcDbCircle
 10
762.5138918482
 20
-290.9157528899
 30
0.0
 40
3.825687437599111
100
AcDbArc
 50
224.4283794066
 51
44.4283794066
  0
ARC
  5
3A1
330
1F
100
AcDbEntity
  8
0
  6
Continuous
 62
     7
100
AcDbCircle
 10
762.5138918482
 20
-290.9157528899
 30
0.0
 40
3.825687437599111
100
AcDbArc
 50
44.4283794066
 51
224.4283794066
  0
LINE
  5
3A2
330
1F
100
AcDbEntity
  8
0
  6
Continuous
 62
     7
100
AcDbLine
 10
765.245914864
 20
-288.2377060996
 30
0.0
 11
766.1508655145
 21
-287.3506344422
 31
0.0
  0
ARC
  5
3A3
330
1F
100
AcDbEntity
  8
0
  6
Continuous
 62
     7
100
AcDbCircle
 10
762.5138918482
 20
-290.9157528899
 30
0.0
 40
5.092901628255535
100
AcDbArc
 50
224.4283794066
 51
44.4283794066
  0
LINE
  5
3A4
330
1F
100
AcDbEntity
  8
0
  6
Continuous
 62
     7
100
AcDbLine
 10
759.7818688323
 20
-293.5937996802
 30
0.0
 11
758.8769181819
 21
-294.4808713376
 31
0.0
  0
ARC
  5
3A5
330
1F
100
AcDbEntity
  8
0
  6
Continuous
 62
     7
100
AcDbCircle
 10
762.5138918482
 20
-290.9157528899
 30
0.0
 40
5.092901628255535
100
AcDbArc
 50
44.4283794066
 51
224.4283794066
  0
LINE
  5
3A6
330
1F
100
AcDbEntity
  8
0
  6
Continuous
 62
     7
100
AcDbLine
 10
758.3005482187
 20
-295.0458540339
 30
0.0
 11
758.8769181819
 21
-294.4808713376
 31
0.0
  0
LINE
  5
3A7
330
1F
100
AcDbEntity
  8
0
  6
Continuous
 62
     7
100
AcDbLine
 10
766.7272354777
 20
-286.7856517459
 30
0.0
 11
766.1508655145
 21
-287.3506344422
 31
0.0
  0
ARC
  5
3A8
330
1F
100
AcDbEntity
  8
0
  6
Continuous
 62
     7
100
AcDbCircle
 10
762.5138918482
 20
-290.9157528899
 30
0.0
 40
5.900000000000024
100
AcDbArc
 50
224.4283794066
 51
44.4283794066
  0
ARC
  5
3A9
330
1F
100
AcDbEntity
  8
0
  6
Continuous
 62
     7
100
AcDbCircle
 10
762.5138918482
 20
-290.9157528899
 30
0.0
 40
5.900000000000024
100
AcDbArc
 50
44.4283794066
 51
224.4283794066
  0
LINE
  5
3AA
330
1F
100
AcDbEntity
  8
0
  6
Continuous
 62
     7
100
AcDbLine
 10
966.3358020671
 20
-291.0857136161
 30
0.0
 11
965.6435845619
 21
-291.054930635
 31
0.0
  0
ARC
  5
3AB
330
1F
100
AcDbEntity
  8
0
  6
Continuous
 62
     7
100
AcDbCircle
 10
962.5138918482
 20
-290.9157528899
 30
0.0
 40
3.132785809343706
100
AcDbArc
 50
357.4537286165
 51
177.4537286165
  0
LINE
  5
3AC
330
1F
100
AcDbEntity
  8
0
  6
Continuous
 62
     7
100
AcDbLine
 10
958.6919816292
 20
-290.7457921637
 30
0.0
 11
959.3841991344
 21
-290.7765751448
 31
0.0
  0
ARC
  5
3AD
330
1F
100
AcDbEntity
  8
0
  6
Continuous
 62
     7
100
AcDbCircle
 10
962.5138918482
 20
-290.9157528899
 30
0.0
 40
3.825687437599248
100
AcDbArc
 50
357.4537286165
 51
177.4537286165
  0
ARC
  5
3AE
330
1F
100
AcDbEntity
  8
0
  6
Continuous
 62
     7
100
AcDbCircle
 10
962.5138918482
 20
-290.9157528899
 30
0.0
 40
3.132785809343706
100
AcDbArc
 50
177.4537286165
 51
357.4537286165
  0
ARC
  5
3AF
330
1F
100
AcDbEntity
  8
0
  6
Continuous
 62
     7
100
AcDbCircle
 10
956.116013357
 20
-290.6312385994
 30
0.0
 40
4.154201555956224
100
AcDbArc
 50
357.4537286165
 51
13.4170080783
  0
ARC
  5
3B0
330
1F
100
AcDbEntity
  8
0
  6
Continuous
 62
     7
100
AcDbCircle
 10
956.116013357
 20
-290.6312385994
 30
0.0
 40
4.15420155595632
100
AcDbArc
 50
341.4904491548
 51
357.4537286165
  0
ARC
  5
3B1
330
1F
100
AcDbEntity
  8
0
  6
Continuous
 62
     7
100
AcDbCircle
 10
960.3398024042
 20
-292.0452815923
 30
0.0
 40
0.3000000000006777
100
AcDbArc
 50
161.4904491548
 51
253.4170080783
  0
ARC
  5
3B2
330
1F
100
AcDbEntity
  8
0
  6
Continuous
 62
     7
100
AcDbCircle
 10
959.0685559993
 20
-296.3142210483
 30
0.0
 40
4.154201555956144
100
AcDbArc
 50
41.4904491548
 51
73.4170080783
  0
ARC
  5
3B3
330
1F
100
AcDbEntity
  8
0
  6
Continuous
 62
     7
100
AcDbCircle
 10
962.4050476768
 20
-293.3633339297
 30
0.0
 40
0.3000000000004423
100
AcDbArc
 50
221.4904491548
 51
313.4170080783
  0
ARC
  5
3B4
330
1F
100
AcDbEntity
  8
0
  6
Continuous
 62
     7
100
AcDbCircle
 10
964.5791371208
 20
-292.2338052273
 30
0.0
 40
0.3000000000005322
100
AcDbArc
 50
281.4904491548
 51
357.4537286166
  0
ARC
  5
3B5
330
1F
100
AcDbEntity
  8
0
  6
Continuous
 62
     7
100
AcDbCircle
 10
964.6879812921
 20
-289.7862241875
 30
0.0
 40
0.3000000000005261
100
AcDbArc
 50
341.4904491548
 51
357.4537286166
  0
ARC
  5
3B6
330
1F
100
AcDbEntity
  8
0
  6
Continuous
 62
     7
100
AcDbCircle
 10
964.6879812921
 20
-289.7862241875
 30
0.0
 40
0.3000000000005261
100
AcDbArc
 50
357.4537286166
 51
73.4170080784
  0
ARC
  5
3B7
330
1F
100
AcDbEntity
  8
0
  6
Continuous
 62
     7
100
AcDbCircle
 10
962.6227360196
 20
-288.4681718501
 30
0.0
 40
0.2999999999999008
100
AcDbArc
 50
41.4904491548
 51
133.4170080783
  0
ARC
  5
3B8
330
1F
100
AcDbEntity
  8
0
  6
Continuous
 62
     7
100
AcDbCircle
 10
959.5613492059
 20
-285.232770441
 30
0.0
 40
4.154201555956442
100
AcDbArc
 50
281.4904491548
 51
313.4170080783
  0
ARC
  5
3B9
330
1F
100
AcDbEntity
  8
0
  6
Continuous
 62
     7
100
AcDbCircle
 10
960.4486465756
 20
-289.5977005525
 30
0.0
 40
0.300000000000487
100
AcDbArc
 50
101.4904491548
 51
193.4170080783
  0
ARC
  5
3BA
330
1F
100
AcDbEntity
  8
0
  6
Continuous
 62
     7
100
AcDbCircle
 10
965.9592276971
 20
-285.5172847315
 30
0.0
 40
4.154201555956407
100
AcDbArc
 50
221.4904491548
 51
253.4170080783
  0
ARC
  5
3BB
330
1F
100
AcDbEntity
  8
0
  6
Continuous
 62
     7
100
AcDbCircle
 10
965.4664344905
 20
-296.5987353388
 30
0.0
 40
4.154201555956248
100
AcDbArc
 50
101.4904491548
 51
133.4170080783
  0
ARC
  5
3BC
330
1F
100
AcDbEntity
  8
0
  6
Continuous
 62
     7
100
AcDbCircle
 10
964.5791371208
 20
-292.2338052273
 30
0.0
 40
0.3000000000007663
100
AcDbArc
 50
357.4537286166
 51
13.4170080783
  0
ARC
  5
3BD
330
1F
100
AcDbEntity
  8
0
  6
Continuous
 62
     7
100
AcDbCircle
 10
968.9117703393
 20
-291.2002671804
 30
0.0
 40
4.154201555956356
100
AcDbArc
 50
161.4904491548
 51
193.4170080783
  0
ARC
  5
3BE
330
1F
100
AcDbEntity
  8
0
  6
Continuous
 62
     7
100
AcDbCircle
 10
962.5138918482
 20
-290.9157528899
 30
0.0
 40
3.825687437599248
100
AcDbArc
 50
177.4537286165
 51
357.4537286165
  0
ARC
  5
3BF
330
1F
100
AcDbEntity
  8
0
  6
Continuous
 62
     7
100
AcDbCircle
 10
962.5138918482
 20
-290.9157528899
 30
0.0
 40
5.092901628255471
100
AcDbArc
 50
177.4537286165
 51
357.4537286165
  0
LINE
  5
3C0
330
1F
100
AcDbEntity
  8
0
  6
Continuous
 62
     7
100
AcDbLine
 10
958.6919816292
 20
-290.7457921637
 30
0.0
 11
957.426018598
 21
-290.6894946623
 31
0.0
  0
LINE
  5
3C1
330
1F
100
AcDbEntity
  8
0
  6
Continuous
 62
     7
100
AcDbLine
 10
966.3358020671
 20
-291.0857136161
 30
0.0
 11
967.6017650983
 21
-291.1420111175
 31
0.0
  0
ARC
  5
3C2
330
1F
100
AcDbEntity
  8
0
  6
Continuous
 62
     7
100
AcDbCircle
 10
962.5138918482
 20
-290.9157528899
 30
0.0
 40
5.092901628255471
100
AcDbArc
 50
357.4537286165
 51
177.4537286165
  0
LINE
  5
3C3
330
1F
100
AcDbEntity
  8
0
  6
Continuous
 62
     7
100
AcDbLine
 10
968.4080665971
 20
-291.1778674251
 30
0.0
 11
967.6017650983
 21
-291.1420111175
 31
0.0
  0
ARC
  5
3C4
330
1F
100
AcDbEntity
  8
0
  6
Continuous
 62
     7
100
AcDbCircle
 10
962.5138918482
 20
-290.9157528899
 30
0.0
 40
5.900000000000068
100
AcDbArc
 50
177.4537286165
 51
357.4537286165
  0
LINE
  5
3C5
330
1F
100
AcDbEntity
  8
0
  6
Continuous
 62
     7
100
AcDbLine
 10
956.6197170993
 20
-290.6536383547
 30
0.0
 11
957.426018598
 21
-290.6894946623
 31
0.0
  0
ARC
  5
3C6
330
1F
100
AcDbEntity
  8
0
  6
Continuous
 62
     7
100
AcDbCircle
 10
962.5138918482
 20
-290.9157528899
 30
0.0
 40
5.900000000000068
100
AcDbArc
 50
357.4537286165
 51
177.4537286165
  0
LINE
  5
3C7
330
1F
100
AcDbEntity
  8
0
  6
Continuous
 62
     7
100
AcDbLine
 10
700.0138918482
 20
-278.9157528899
 30
0.0
 11
700.0138918482
 21
500.5842471101
 31
0.0
  0
LINE
  5
3C8
330
1F
100
AcDbEntity
  8
0
  6
Continuous
 62
     7
100
AcDbLine
 10
1025.0138918482
 20
-278.9157528899
 30
0.0
 11
700.0138918482
 21
-278.9157528899
 31
0.0
  0
LINE
  5
3C9
330
1F
100
AcDbEntity
  8
0
  6
Continuous
 62
     7
100
AcDbLine
 10
700.0138918482
 20
500.5842471101
 30
0.0
 11
1025.0138918482
 21
500.5842471101
 31
0.0
  0
LINE
  5
3CA
330
1F
100
AcDbEntity
  8
0
  6
Continuous
 62
     7
100
AcDbLine
 10
1025.0138918482
 20
500.5842471101
 30
0.0
 11
1025.0138918482
 21
-278.9157528899
 31
0.0
  0
LINE
  5
3CB
330
1F
100
AcDbEntity
  8
0
  6
Continuous
 62
     7
100
AcDbLine
 10
984.5138918482
 20
-297.9157528899
 30
0.0
 11
987.5138918482
 21
-294.9157528899
 31
0.0
  0
LINE
  5
3CC
330
1F
100
AcDbEntity
  8
0
  6
Continuous
 62
     7
100
AcDbLine
 10
940.5138918482
 20
-297.9157528899
 30
0.0
 11
984.5138918482
 21
-297.9157528899
 31
0.0
  0
LINE
  5
3CD
330
1F
100
AcDbEntity
  8
0
  6
Continuous
 62
     7
100
AcDbLine
 10
937.5138918482
 20
-294.9157528899
 30
0.0
 11
940.5138918482
 21
-297.9157528899
 31
0.0
  0
LINE
  5
3CE
330
1F
100
AcDbEntity
  8
0
  6
Continuous
 62
     7
100
AcDbLine
 10
937.5138918482
 20
-279.9157528899
 30
0.0
 11
937.5138918482
 21
-294.9157528899
 31
0.0
  0
LINE
  5
3CF
330
1F
100
AcDbEntity
  8
0
  6
Continuous
 62
     7
100
AcDbLine
 10
987.5138918482
 20
-294.9157528899
 30
0.0
 11
987.5138918482
 21
-279.9157528899
 31
0.0
  0
LINE
  5
3D0
330
1F
100
AcDbEntity
  8
0
  6
Continuous
 62
     7
100
AcDbLine
 10
937.5138918482
 20
-279.9157528899
 30
0.0
 11
937.5138918482
 21
-278.9157528899
 31
0.0
  0
LINE
  5
3D1
330
1F
100
AcDbEntity
  8
0
  6
Continuous
 62
     7
100
AcDbLine
 10
987.5138918482
 20
-279.9157528899
 30
0.0
 11
987.5138918482
 21
-278.9157528899
 31
0.0
  0
LINE
  5
3D2
330
1F
100
AcDbEntity
  8
0
  6
Continuous
 62
     7
100
AcDbLine
 10
787.5138918482
 20
-279.9157528899
 30
0.0
 11
787.5138918482
 21
-294.9157528899
 31
0.0
  0
LINE
  5
3D3
330
1F
100
AcDbEntity
  8
0
  6
Continuous
 62
     7
100
AcDbLine
 10
784.5138918482
 20
-297.9157528899
 30
0.0
 11
787.5138918482
 21
-294.9157528899
 31
0.0
  0
LINE
  5
3D4
330
1F
100
AcDbEntity
  8
0
  6
Continuous
 62
     7
100
AcDbLine
 10
784.5138918482
 20
-297.9157528899
 30
0.0
 11
740.5138918482
 21
-297.9157528899
 31
0.0
  0
LINE
  5
3D5
330
1F
100
AcDbEntity
  8
0
  6
Continuous
 62
     7
100
AcDbLine
 10
737.5138918482
 20
-294.9157528899
 30
0.0
 11
740.5138918482
 21
-297.9157528899
 31
0.0
  0
LINE
  5
3D6
330
1F
100
AcDbEntity
  8
0
  6
Continuous
 62
     7
100
AcDbLine
 10
737.5138918482
 20
-294.9157528899
 30
0.0
 11
737.5138918482
 21
-279.9157528899
 31
0.0
  0
LINE
  5
3D7
330
1F
100
AcDbEntity
  8
0
  6
Continuous
 62
     7
100
AcDbLine
 10
737.5138918482
 20
-279.9157528899
 30
0.0
 11
737.5138918482
 21
-278.9157528899
 31
0.0
  0
LINE
  5
3D8
330
1F
100
AcDbEntity
  8
0
  6
Continuous
 62
     7
100
AcDbLine
 10
787.5138918482
 20
-279.9157528899
 30
0.0
 11
787.5138918482
 21
-278.9157528899
 31
0.0
  0
LINE
  5
3D9
330
1F
100
AcDbEntity
  8
0
  6
Continuous
 62
     7
100
AcDbLine
 10
753.7638918482
 20
512.5842471101
 30
0.0
 11
771.2638918482
 21
512.5842471101
 31
0.0
  0
LINE
  5
3DA
330
1F
100
AcDbEntity
  8
0
  6
Continuous
 62
     7
100
AcDbLine
 10
753.7638918482
 20
512.5842471101
 30
0.0
 11
753.7638918482
 21
519.5842471101
 31
0.0
  0
LINE
  5
3DB
330
1F
100
AcDbEntity
  8
0
  6
Continuous
 62
     7
100
AcDbLine
 10
753.7638918482
 20
519.5842471101
 30
0.0
 11
771.2638918482
 21
519.5842471101
 31
0.0
  0
LINE
  5
3DC
330
1F
100
AcDbEntity
  8
0
  6
Continuous
 62
     7
100
AcDbLine
 10
771.2638918482
 20
512.5842471101
 30
0.0
 11
771.2638918482
 21
519.5842471101
 31
0.0
  0
LINE
  5
3DD
330
1F
100
AcDbEntity
  8
0
  6
Continuous
 62
     7
100
AcDbLine
 10
753.7638918482
 20
500.5842471101
 30
0.0
 11
753.7638918482
 21
512.5842471101
 31
0.0
  0
LINE
  5
3DE
330
1F
100
AcDbEntity
  8
0
  6
Continuous
 62
     7
100
AcDbLine
 10
771.2638918482
 20
500.5842471101
 30
0.0
 11
771.2638918482
 21
512.5842471101
 31
0.0
  0
LINE
  5
3DF
330
1F
100
AcDbEntity
  8
0
  6
Continuous
 62
     7
100
AcDbLine
 10
953.7638918482
 20
512.5842471101
 30
0.0
 11
971.2638918482
 21
512.5842471101
 31
0.0
  0
LINE
  5
3E0
330
1F
100
AcDbEntity
  8
0
  6
Continuous
 62
     7
100
AcDbLine
 10
953.7638918482
 20
512.5842471101
 30
0.0
 11
953.7638918482
 21
519.5842471101
 31
0.0
  0
LINE
  5
3E1
330
1F
100
AcDbEntity
  8
0
  6
Continuous
 62
     7
100
AcDbLine
 10
953.7638918482
 20
519.5842471101
 30
0.0
 11
971.2638918482
 21
519.5842471101
 31
0.0
  0
LINE
  5
3E2
330
1F
100
AcDbEntity
  8
0
  6
Continuous
 62
     7
100
AcDbLine
 10
971.2638918482
 20
512.5842471101
 30
0.0
 11
971.2638918482
 21
519.5842471101
 31
0.0
  0
LINE
  5
3E3
330
1F
100
AcDbEntity
  8
0
  6
Continuous
 62
     7
100
AcDbLine
 10
953.7638918482
 20
500.5842471101
 30
0.0
 11
953.7638918482
 21
512.5842471101
 31
0.0
  0
LINE
  5
3E4
330
1F
100
AcDbEntity
  8
0
  6
Continuous
 62
     7
100
AcDbLine
 10
971.2638918482
 20
500.5842471101
 30
0.0
 11
971.2638918482
 21
512.5842471101
 31
0.0
  0
LINE
  5
3E5
330
1F
100
AcDbEntity
  8
0
  6
Continuous
 62
     7
100
AcDbLine
 10
771.2638918482
 20
519.5842471101
 30
0.0
 11
787.5138918482
 21
519.5842471101
 31
0.0
  0
LINE
  5
3E6
330
1F
100
AcDbEntity
  8
0
  6
Continuous
 62
     7
100
AcDbLine
 10
787.5138918482
 20
505.5842471101
 30
0.0
 11
787.5138918482
 21
519.5842471101
 31
0.0
  0
LINE
  5
3E7
330
1F
100
AcDbEntity
  8
0
  6
Continuous
 62
     7
100
AcDbLine
 10
771.2638918482
 20
505.5842471101
 30
0.0
 11
787.5138918482
 21
505.5842471101
 31
0.0
  0
LINE
  5
3E8
330
1F
100
AcDbEntity
  8
0
  6
Continuous
 62
     7
100
AcDbLine
 10
737.5138918482
 20
505.5842471101
 30
0.0
 11
737.5138918482
 21
519.5842471101
 31
0.0
  0
LINE
  5
3E9
330
1F
100
AcDbEntity
  8
0
  6
Continuous
 62
     7
100
AcDbLine
 10
737.5138918482
 20
519.5842471101
 30
0.0
 11
753.7638918482
 21
519.5842471101
 31
0.0
  0
LINE
  5
3EA
330
1F
100
AcDbEntity
  8
0
  6
Continuous
 62
     7
100
AcDbLine
 10
737.5138918482
 20
505.5842471101
 30
0.0
 11
753.7638918482
 21
505.5842471101
 31
0.0
  0
LINE
  5
3EB
330
1F
100
AcDbEntity
  8
0
  6
Continuous
 62
     7
100
AcDbLine
 10
971.2638918482
 20
519.5842471101
 30
0.0
 11
987.5138918482
 21
519.5842471101
 31
0.0
  0
LINE
  5
3EC
330
1F
100
AcDbEntity
  8
0
  6
Continuous
 62
     7
100
AcDbLine
 10
987.5138918482
 20
505.5842471101
 30
0.0
 11
987.5138918482
 21
519.5842471101
 31
0.0
  0
LINE
  5
3ED
330
1F
100
AcDbEntity
  8
0
  6
Continuous
 62
     7
100
AcDbLine
 10
971.2638918482
 20
505.5842471101
 30
0.0
 11
987.5138918482
 21
505.5842471101
 31
0.0
  0
LINE
  5
3EE
330
1F
100
AcDbEntity
  8
0
  6
Continuous
 62
     7
100
AcDbLine
 10
937.5138918482
 20
505.5842471101
 30
0.0
 11
937.5138918482
 21
519.5842471101
 31
0.0
  0
LINE
  5
3EF
330
1F
100
AcDbEntity
  8
0
  6
Continuous
 62
     7
100
AcDbLine
 10
937.5138918482
 20
519.5842471101
 30
0.0
 11
953.7638918482
 21
519.5842471101
 31
0.0
  0
LINE
  5
3F0
330
1F
100
AcDbEntity
  8
0
  6
Continuous
 62
     7
100
AcDbLine
 10
937.5138918482
 20
505.5842471101
 30
0.0
 11
953.7638918482
 21
505.5842471101
 31
0.0
  0
LINE
  5
3F1
330
1F
100
AcDbEntity
  8
0
  6
Continuous
 62
     7
100
AcDbLine
 10
934.5138918482
 20
608.7842471101
 30
0.0
 11
937.9136406979
 21
608.7842471101
 31
0.0
  0
LINE
  5
3F2
330
1F
100
AcDbEntity
  8
0
  6
Continuous
 62
     7
100
AcDbLine
 10
937.8470158896
 20
609.2842471101
 30
0.0
 11
937.9136406979
 21
608.7842471101
 31
0.0
  0
LINE
  5
3F3
330
1F
100
AcDbEntity
  8
0
  6
Continuous
 62
     7
100
AcDbLine
 10
935.0138918482
 20
609.2842471101
 30
0.0
 11
937.8470158896
 21
609.2842471101
 31
0.0
  0
LINE
  5
3F4
330
1F
100
AcDbEntity
  8
0
  6
Continuous
 62
     7
100
AcDbLine
 10
937.9136406979
 20
608.7842471101
 30
0.0
 11
940.5138918482
 21
608.7842471101
 31
0.0
  0
LINE
  5
3F5
330
1F
100
AcDbEntity
  8
0
  6
Continuous
 62
     7
100
AcDbLine
 10
937.8470158896
 20
609.2842471101
 30
0.0
 11
940.0138918482
 21
609.2842471101
 31
0.0
  0
LINE
  5
3F6
330
1F
100
AcDbEntity
  8
0
  6
Continuous
 62
     7
100
AcDbLine
 10
787.5138918482
 20
608.7842471101
 30
0.0
 11
790.5138918482
 21
608.7842471101
 31
0.0
  0
LINE
  5
3F7
330
1F
100
AcDbEntity
  8
0
  6
Continuous
 62
     7
100
AcDbLine
 10
787.5138918482
 20
609.2842471101
 30
0.0
 11
787.5138918482
 21
608.7842471101
 31
0.0
  0
LINE
  5
3F8
330
1F
100
AcDbEntity
  8
0
  6
Continuous
 62
     7
100
AcDbLine
 10
787.5138918482
 20
609.2842471101
 30
0.0
 11
790.0138918482
 21
609.2842471101
 31
0.0
  0
LINE
  5
3F9
330
1F
100
AcDbEntity
  8
0
  6
Continuous
 62
     7
100
AcDbLine
 10
784.5138918482
 20
608.7842471101
 30
0.0
 11
787.5138918482
 21
608.7842471101
 31
0.0
  0
LINE
  5
3FA
330
1F
100
AcDbEntity
  8
0
  6
Continuous
 62
     7
100
AcDbLine
 10
785.0138918482
 20
609.2842471101
 30
0.0
 11
787.5138918482
 21
609.2842471101
 31
0.0
  0
LINE
  5
3FB
330
1F
100
AcDbEntity
  8
0
  6
Continuous
 62
     7
100
AcDbLine
 10
940.5138918482
 20
-313.1157528899
 30
0.0
 11
937.4811923445
 21
-313.1157528899
 31
0.0
  0
LINE
  5
3FC
330
1F
100
AcDbEntity
  8
0
  6
Continuous
 62
     7
100
AcDbLine
 10
937.4866422618
 20
-313.6157528899
 30
0.0
 11
937.4811923445
 21
-313.1157528899
 31
0.0
  0
LINE
  5
3FD
330
1F
100
AcDbEntity
  8
0
  6
Continuous
 62
     7
100
AcDbLine
 10
940.0138918482
 20
-313.6157528899
 30
0.0
 11
937.4866422618
 21
-313.6157528899
 31
0.0
  0
LINE
  5
3FE
330
1F
100
AcDbEntity
  8
0
  6
Continuous
 62
     7
100
AcDbLine
 10
937.4811923445
 20
-313.1157528899
 30
0.0
 11
934.5138918482
 21
-313.1157528899
 31
0.0
  0
LINE
  5
3FF
330
1F
100
AcDbEntity
  8
0
  6
Continuous
 62
     7
100
AcDbLine
 10
937.4866422618
 20
-313.6157528899
 30
0.0
 11
935.0138918482
 21
-313.6157528899
 31
0.0
  0
LINE
  5
400
330
1F
100
AcDbEntity
  8
0
  6
Continuous
 62
     7
100
AcDbLine
 10
788.2499048212
 20
-313.1157528899
 30
0.0
 11
784.5138918482
 21
-313.1157528899
 31
0.0
  0
LINE
  5
401
330
1F
100
AcDbEntity
  8
0
  6
Continuous
 62
     7
100
AcDbLine
 10
788.1272359924
 20
-313.6157528899
 30
0.0
 11
788.2499048212
 21
-313.1157528899
 31
0.0
  0
LINE
  5
402
330
1F
100
AcDbEntity
  8
0
  6
Continuous
 62
     7
100
AcDbLine
 10
788.1272359924
 20
-313.6157528899
 30
0.0
 11
785.0138918482
 21
-313.6157528899
 31
0.0
  0
LINE
  5
403
330
1F
100
AcDbEntity
  8
0
  6
Continuous
 62
     7
100
AcDbLine
 10
790.5138918482
 20
-313.1157528899
 30
0.0
 11
788.2499048212
 21
-313.1157528899
 31
0.0
  0
LINE
  5
404
330
1F
100
AcDbEntity
  8
0
  6
Continuous
 62
     7
100
AcDbLine
 10
790.0138918482
 20
-313.6157528899
 30
0.0
 11
788.1272359924
 21
-313.6157528899
 31
0.0
  0
LINE
  5
405
330
1F
100
AcDbEntity
  8
0
  6
Continuous
 62
     7
100
AcDbLine
 10
666.5138918482
 20
-302.1657528899
 30
0.0
 11
664.5138918482
 21
-302.1657528899
 31
0.0
  0
LINE
  5
406
330
1F
100
AcDbEntity
  8
0
  6
Continuous
 62
     7
100
AcDbLine
 10
664.5138918482
 20
-302.1657528899
 30
0.0
 11
664.5138918482
 21
597.8342471101
 31
0.0
  0
LINE
  5
407
330
1F
100
AcDbEntity
  8
0
  6
Continuous
 62
     7
100
AcDbLine
 10
666.5138918482
 20
597.8342471101
 30
0.0
 11
664.5138918482
 21
597.8342471101
 31
0.0
  0
LINE
  5
408
330
1F
100
AcDbEntity
  8
0
  6
Continuous
 62
     7
100
AcDbLine
 10
699.0138918482
 20
505.0842471101
 30
0.0
 11
699.0138918482
 21
-278.5157528899
 31
0.0
  0
ARC
  5
409
330
1F
100
AcDbEntity
  8
0
  6
Continuous
 62
     7
100
AcDbCircle
 10
681.2638918482
 20
-216.4157528899
 30
0.0
 40
2.650000000000091
100
AcDbArc
 50
180.0
 51
0.0
  0
ARC
  5
40A
330
1F
100
AcDbEntity
  8
0
  6
Continuous
 62
     7
100
AcDbCircle
 10
681.2638918482
 20
-216.4157528899
 30
0.0
 40
2.650000000000091
100
AcDbArc
 50
0.0
 51
180.0
  0
LINE
  5
40B
330
1F
100
AcDbEntity
  8
0
  6
Continuous
 62
     7
100
AcDbLine
 10
666.5138918482
 20
599.3342471101
 30
0.0
 11
664.5138918482
 21
599.3342471101
 31
0.0
  0
LINE
  5
40C
330
1F
100
AcDbEntity
  8
0
  6
Continuous
 62
     7
100
AcDbLine
 10
664.5138918482
 20
597.8342471101
 30
0.0
 11
664.5138918482
 21
599.3342471101
 31
0.0
  0
LINE
  5
40D
330
1F
100
AcDbEntity
  8
0
  6
Continuous
 62
     7
100
AcDbLine
 10
666.5138918482
 20
-303.6657528899
 30
0.0
 11
664.5138918482
 21
-303.6657528899
 31
0.0
  0
LINE
  5
40E
330
1F
100
AcDbEntity
  8
0
  6
Continuous
 62
     7
100
AcDbLine
 10
664.5138918482
 20
-302.1657528899
 30
0.0
 11
664.5138918482
 21
-303.6657528899
 31
0.0
  0
LINE
  5
40F
330
1F
100
AcDbEntity
  8
0
  6
Continuous
 62
     7
100
AcDbLine
 10
1058.5138918482
 20
597.8342471101
 30
0.0
 11
1060.5138918482
 21
597.8342471101
 31
0.0
  0
LINE
  5
410
330
1F
100
AcDbEntity
  8
0
  6
Continuous
 62
     7
100
AcDbLine
 10
1060.5138918482
 20
597.8342471101
 30
0.0
 11
1060.5138918482
 21
-302.1657528899
 31
0.0
  0
LINE
  5
411
330
1F
100
AcDbEntity
  8
0
  6
Continuous
 62
     7
100
AcDbLine
 10
1058.5138918482
 20
-302.1657528899
 30
0.0
 11
1060.5138918482
 21
-302.1657528899
 31
0.0
  0
LINE
  5
412
330
1F
100
AcDbEntity
  8
0
  6
Continuous
 62
     7
100
AcDbLine
 10
1026.0138918482
 20
-278.5157528899
 30
0.0
 11
1026.0138918482
 21
505.0842471101
 31
0.0
  0
ARC
  5
413
330
1F
100
AcDbEntity
  8
0
  6
Continuous
 62
     7
100
AcDbCircle
 10
1043.7638918482
 20
-216.4157528899
 30
0.0
 40
2.650000000000091
100
AcDbArc
 50
0.0
 51
180.0
  0
ARC
  5
414
330
1F
100
AcDbEntity
  8
0
  6
Continuous
 62
     7
100
AcDbCircle
 10
1043.7638918482
 20
-216.4157528899
 30
0.0
 40
2.650000000000091
100
AcDbArc
 50
180.0
 51
0.0
  0
LINE
  5
415
330
1F
100
AcDbEntity
  8
0
  6
Continuous
 62
     7
100
AcDbLine
 10
1058.5138918482
 20
599.3342471101
 30
0.0
 11
1060.5138918482
 21
599.3342471101
 31
0.0
  0
LINE
  5
416
330
1F
100
AcDbEntity
  8
0
  6
Continuous
 62
     7
100
AcDbLine
 10
1060.5138918482
 20
597.8342471101
 30
0.0
 11
1060.5138918482
 21
599.3342471101
 31
0.0
  0
LINE
  5
417
330
1F
100
AcDbEntity
  8
0
  6
Continuous
 62
     7
100
AcDbLine
 10
1058.5138918482
 20
-303.6657528899
 30
0.0
 11
1060.5138918482
 21
-303.6657528899
 31
0.0
  0
LINE
  5
418
330
1F
100
AcDbEntity
  8
0
  6
Continuous
 62
     7
100
AcDbLine
 10
1060.5138918482
 20
-302.1657528899
 30
0.0
 11
1060.5138918482
 21
-303.6657528899
 31
0.0
  0
LINE
  5
419
330
1F
100
AcDbEntity
  8
0
  6
Continuous
 62
     7
100
AcDbLine
 10
666.5138918482
 20
598.0842471101
 30
0.0
 11
666.5138918482
 21
602.0842471101
 31
0.0
  0
LINE
  5
41A
330
1F
100
AcDbEntity
  8
0
  6
Continuous
 62
     7
100
AcDbLine
 10
666.5138918482
 20
602.0842471101
 30
0.0
 11
1058.5138918482
 21
602.0842471101
 31
0.0
  0
LINE
  5
41B
330
1F
100
AcDbEntity
  8
0
  6
Continuous
 62
     7
100
AcDbLine
 10
1058.5138918482
 20
598.0842471101
 30
0.0
 11
1058.5138918482
 21
602.0842471101
 31
0.0
  0
LINE
  5
41C
330
1F
100
AcDbEntity
  8
0
  6
Continuous
 62
     7
100
AcDbLine
 10
1058.5138918482
 20
505.0842471101
 30
0.0
 11
1058.5138918482
 21
598.0842471101
 31
0.0
  0
LINE
  5
41D
330
1F
100
AcDbEntity
  8
0
  6
Continuous
 62
     7
100
AcDbLine
 10
1055.5138918482
 20
502.0842471101
 30
0.0
 11
1058.5138918482
 21
505.0842471101
 31
0.0
  0
LINE
  5
41E
330
1F
100
AcDbEntity
  8
0
  6
Continuous
 62
     7
100
AcDbLine
 10
1029.0138918482
 20
502.0842471101
 30
0.0
 11
1055.5138918482
 21
502.0842471101
 31
0.0
  0
LINE
  5
41F
330
1F
100
AcDbEntity
  8
0
  6
Continuous
 62
     7
100
AcDbLine
 10
1026.0138918482
 20
505.0842471101
 30
0.0
 11
1029.0138918482
 21
502.0842471101
 31
0.0
  0
LINE
  5
420
330
1F
100
AcDbEntity
  8
0
  6
Continuous
 62
     7
100
AcDbLine
 10
1025.0138918482
 20
505.0842471101
 30
0.0
 11
1026.0138918482
 21
505.0842471101
 31
0.0
  0
LINE
  5
421
330
1F
100
AcDbEntity
  8
0
  6
Continuous
 62
     7
100
AcDbLine
 10
1025.0138918482
 20
505.0842471101
 30
0.0
 11
1025.0138918482
 21
502.0842471101
 31
0.0
  0
LINE
  5
422
330
1F
100
AcDbEntity
  8
0
  6
Continuous
 62
     7
100
AcDbLine
 10
1025.0138918482
 20
502.0842471101
 30
0.0
 11
971.2638918482
 21
502.0842471101
 31
0.0
  0
LINE
  5
423
330
1F
100
AcDbEntity
  8
0
  6
Continuous
 62
     7
100
AcDbLine
 10
953.7638918482
 20
502.0842471101
 30
0.0
 11
771.2638918482
 21
502.0842471101
 31
0.0
  0
LINE
  5
424
330
1F
100
AcDbEntity
  8
0
  6
Continuous
 62
     7
100
AcDbLine
 10
753.7638918482
 20
502.0842471101
 30
0.0
 11
700.0138918482
 21
502.0842471101
 31
0.0
  0
LINE
  5
425
330
1F
100
AcDbEntity
  8
0
  6
Continuous
 62
     7
100
AcDbLine
 10
700.0138918482
 20
505.0842471101
 30
0.0
 11
700.0138918482
 21
502.0842471101
 31
0.0
  0
LINE
  5
426
330
1F
100
AcDbEntity
  8
0
  6
Continuous
 62
     7
100
AcDbLine
 10
699.0138918482
 20
505.0842471101
 30
0.0
 11
700.0138918482
 21
505.0842471101
 31
0.0
  0
LINE
  5
427
330
1F
100
AcDbEntity
  8
0
  6
Continuous
 62
     7
100
AcDbLine
 10
696.0138918482
 20
502.0842471101
 30
0.0
 11
699.0138918482
 21
505.0842471101
 31
0.0
  0
LINE
  5
428
330
1F
100
AcDbEntity
  8
0
  6
Continuous
 62
     7
100
AcDbLine
 10
669.5138918482
 20
502.0842471101
 30
0.0
 11
696.0138918482
 21
502.0842471101
 31
0.0
  0
LINE
  5
429
330
1F
100
AcDbEntity
  8
0
  6
Continuous
 62
     7
100
AcDbLine
 10
666.5138918482
 20
505.0842471101
 30
0.0
 11
669.5138918482
 21
502.0842471101
 31
0.0
  0
LINE
  5
42A
330
1F
100
AcDbEntity
  8
0
  6
Continuous
 62
     7
100
AcDbLine
 10
666.5138918482
 20
598.0842471101
 30
0.0
 11
666.5138918482
 21
505.0842471101
 31
0.0
  0
LINE
  5
42B
330
1F
100
AcDbEntity
  8
0
  6
Continuous
 62
     7
100
AcDbLine
 10
1037.5138918482
 20
-311.3657528899
 30
0.0
 11
1037.5138918482
 21
-310.8657528899
 31
0.0
  0
LINE
  5
42C
330
1F
100
AcDbEntity
  8
0
  6
Continuous
 62
     7
100
AcDbLine
 10
1040.5138918482
 20
-310.8657528899
 30
0.0
 11
1037.5138918482
 21
-310.8657528899
 31
0.0
  0
LINE
  5
42D
330
1F
100
AcDbEntity
  8
0
  6
Continuous
 62
     7
100
AcDbLine
 10
1040.0138918482
 20
-311.3657528899
 30
0.0
 11
1037.5138918482
 21
-311.3657528899
 31
0.0
  0
LINE
  5
42E
330
1F
100
AcDbEntity
  8
0
  6
Continuous
 62
     7
100
AcDbLine
 10
1037.5138918482
 20
-310.8657528899
 30
0.0
 11
1034.5138918482
 21
-310.8657528899
 31
0.0
  0
LINE
  5
42F
330
1F
100
AcDbEntity
  8
0
  6
Continuous
 62
     7
100
AcDbLine
 10
1037.5138918482
 20
-311.3657528899
 30
0.0
 11
1035.0138918482
 21
-311.3657528899
 31
0.0
  0
LINE
  5
430
330
1F
100
AcDbEntity
  8
0
  6
Continuous
 62
     7
100
AcDbLine
 10
678.1311060388
 20
-291.4157528899
 30
0.0
 11
677.4382044106
 21
-291.4157528899
 31
0.0
  0
ARC
  5
431
330
1F
100
AcDbEntity
  8
0
  6
Continuous
 62
     7
100
AcDbCircle
 10
681.2638918482
 20
-291.4157528899
 30
0.0
 40
3.825687437599527
100
AcDbArc
 50
0.0
 51
180.0
  0
LINE
  5
432
330
1F
100
AcDbEntity
  8
0
  6
Continuous
 62
     7
100
AcDbLine
 10
684.3966776575
 20
-291.4157528899
 30
0.0
 11
685.0895792858
 21
-291.4157528899
 31
0.0
  0
ARC
  5
433
330
1F
100
AcDbEntity
  8
0
  6
Continuous
 62
     7
100
AcDbCircle
 10
681.2638918482
 20
-291.4157528899
 30
0.0
 40
3.132785809344
100
AcDbArc
 50
0.0
 51
180.0
  0
ARC
  5
434
330
1F
100
AcDbEntity
  8
0
  6
Continuous
 62
     7
100
AcDbCircle
 10
681.2638918482
 20
-291.4157528899
 30
0.0
 40
3.825687437599527
100
AcDbArc
 50
180.0
 51
0.0
  0
ARC
  5
435
330
1F
100
AcDbEntity
  8
0
  6
Continuous
 62
     7
100
AcDbCircle
 10
681.2638918482
 20
-291.4157528899
 30
0.0
 40
3.132785809344
100
AcDbArc
 50
180.0
 51
0.0
  0
ARC
  5
436
330
1F
100
AcDbEntity
  8
0
  6
Continuous
 62
     7
100
AcDbCircle
 10
674.8596902922
 20
-291.4157528899
 30
0.0
 40
4.154201555956547
100
AcDbArc
 50
0.0
 51
15.9632794617
  0
ARC
  5
437
330
1F
100
AcDbEntity
  8
0
  6
Continuous
 62
     7
100
AcDbCircle
 10
674.8596902922
 20
-291.4157528899
 30
0.0
 40
4.154201555956547
100
AcDbArc
 50
344.0367205383
 51
0.0
  0
ARC
  5
438
330
1F
100
AcDbEntity
  8
0
  6
Continuous
 62
     7
100
AcDbCircle
 10
679.1421296089
 20
-292.6407528899
 30
0.0
 40
0.3000000000007
100
AcDbArc
 50
164.0367205383
 51
255.9632794617
  0
ARC
  5
439
330
1F
100
AcDbEntity
  8
0
  6
Continuous
 62
     7
100
AcDbCircle
 10
678.0617910702
 20
-296.9619541283
 30
0.0
 40
4.154201555956377
100
AcDbArc
 50
44.0367205383
 51
75.9632794618
  0
ARC
  5
43A
330
1F
100
AcDbEntity
  8
0
  6
Continuous
 62
     7
100
AcDbCircle
 10
681.2638918482
 20
-293.8657528899
 30
0.0
 40
0.3000000000005213
100
AcDbArc
 50
224.0367205382
 51
315.9632794618
  0
ARC
  5
43B
330
1F
100
AcDbEntity
  8
0
  6
Continuous
 62
     7
100
AcDbCircle
 10
684.4659926262
 20
-296.9619541283
 30
0.0
 40
4.154201555956569
100
AcDbArc
 50
104.0367205383
 51
135.9632794617
  0
ARC
  5
43C
330
1F
100
AcDbEntity
  8
0
  6
Continuous
 62
     7
100
AcDbCircle
 10
683.3856540874
 20
-292.6407528899
 30
0.0
 40
0.300000000000864
100
AcDbArc
 50
284.0367205383
 51
0.0
  0
ARC
  5
43D
330
1F
100
AcDbEntity
  8
0
  6
Continuous
 62
     7
100
AcDbCircle
 10
683.3856540874
 20
-292.6407528899
 30
0.0
 40
0.3000000000009186
100
AcDbArc
 50
0.0
 51
15.9632794617
  0
ARC
  5
43E
330
1F
100
AcDbEntity
  8
0
  6
Continuous
 62
     7
100
AcDbCircle
 10
687.6680934041
 20
-291.4157528899
 30
0.0
 40
4.154201555956591
100
AcDbArc
 50
164.0367205382
 51
195.9632794618
  0
ARC
  5
43F
330
1F
100
AcDbEntity
  8
0
  6
Continuous
 62
     7
100
AcDbCircle
 10
683.3856540874
 20
-290.1907528899
 30
0.0
 40
0.3000000000004093
100
AcDbArc
 50
344.0367205384
 51
0.0
  0
ARC
  5
440
330
1F
100
AcDbEntity
  8
0
  6
Continuous
 62
     7
100
AcDbCircle
 10
683.3856540874
 20
-290.1907528899
 30
0.0
 40
0.3000000000012006
100
AcDbArc
 50
0.0
 51
75.9632794618
  0
ARC
  5
441
330
1F
100
AcDbEntity
  8
0
  6
Continuous
 62
     7
100
AcDbCircle
 10
681.2638918482
 20
-288.9657528899
 30
0.0
 40
0.2999999999997965
100
AcDbArc
 50
44.0367205382
 51
135.9632794618
  0
ARC
  5
442
330
1F
100
AcDbEntity
  8
0
  6
Continuous
 62
     7
100
AcDbCircle
 10
678.0617910702
 20
-285.8695516515
 30
0.0
 40
4.154201555956461
100
AcDbArc
 50
284.0367205382
 51
315.9632794617
  0
ARC
  5
443
330
1F
100
AcDbEntity
  8
0
  6
Continuous
 62
     7
100
AcDbCircle
 10
679.1421296089
 20
-290.1907528899
 30
0.0
 40
0.3000000000008251
100
AcDbArc
 50
104.0367205384
 51
195.9632794618
  0
ARC
  5
444
330
1F
100
AcDbEntity
  8
0
  6
Continuous
 62
     7
100
AcDbCircle
 10
684.4659926262
 20
-285.8695516515
 30
0.0
 40
4.154201555956152
100
AcDbArc
 50
224.0367205383
 51
255.9632794618
  0
ARC
  5
445
330
1F
100
AcDbEntity
  8
0
  6
Continuous
 62
     7
100
AcDbCircle
 10
681.2638918482
 20
-291.4157528899
 30
0.0
 40
5.092901628255504
100
AcDbArc
 50
180.0
 51
0.0
  0
LINE
  5
446
330
1F
100
AcDbEntity
  8
0
  6
Continuous
 62
     7
100
AcDbLine
 10
677.4382044106
 20
-291.4157528899
 30
0.0
 11
676.1709902199
 21
-291.4157528899
 31
0.0
  0
LINE
  5
447
330
1F
100
AcDbEntity
  8
0
  6
Continuous
 62
     7
100
AcDbLine
 10
685.0895792858
 20
-291.4157528899
 30
0.0
 11
686.3567934764
 21
-291.4157528899
 31
0.0
  0
ARC
  5
448
330
1F
100
AcDbEntity
  8
0
  6
Continuous
 62
     7
100
AcDbCircle
 10
681.2638918482
 20
-291.4157528899
 30
0.0
 40
5.092901628255504
100
AcDbArc
 50
0.0
 51
180.0
  0
ARC
  5
449
330
1F
100
AcDbEntity
  8
0
  6
Continuous
 62
     7
100
AcDbCircle
 10
681.2638918482
 20
-291.4157528899
 30
0.0
 40
5.900000000000091
100
AcDbArc
 50
180.0
 51
0.0
  0
LINE
  5
44A
330
1F
100
AcDbEntity
  8
0
  6
Continuous
 62
     7
100
AcDbLine
 10
676.1709902199
 20
-291.4157528899
 30
0.0
 11
675.3638918482
 21
-291.4157528899
 31
0.0
  0
LINE
  5
44B
330
1F
100
AcDbEntity
  8
0
  6
Continuous
 62
     7
100
AcDbLine
 10
686.3567934764
 20
-291.4157528899
 30
0.0
 11
687.1638918482
 21
-291.4157528899
 31
0.0
  0
ARC
  5
44C
330
1F
100
AcDbEntity
  8
0
  6
Continuous
 62
     7
100
AcDbCircle
 10
681.2638918482
 20
-291.4157528899
 30
0.0
 40
5.900000000000091
100
AcDbArc
 50
0.0
 51
180.0
  0
LINE
  5
44D
330
1F
100
AcDbEntity
  8
0
  6
Continuous
 62
     7
100
AcDbLine
 10
690.5138918482
 20
-310.8657528899
 30
0.0
 11
687.5138918482
 21
-310.8657528899
 31
0.0
  0
LINE
  5
44E
330
1F
100
AcDbEntity
  8
0
  6
Continuous
 62
     7
100
AcDbLine
 10
687.5138918482
 20
-311.3657528899
 30
0.0
 11
687.5138918482
 21
-310.8657528899
 31
0.0
  0
LINE
  5
44F
330
1F
100
AcDbEntity
  8
0
  6
Continuous
 62
     7
100
AcDbLine
 10
690.0138918482
 20
-311.3657528899
 30
0.0
 11
687.5138918482
 21
-311.3657528899
 31
0.0
  0
LINE
  5
450
330
1F
100
AcDbEntity
  8
0
  6
Continuous
 62
     7
100
AcDbLine
 10
687.5138918482
 20
-310.8657528899
 30
0.0
 11
684.5138918482
 21
-310.8657528899
 31
0.0
  0
LINE
  5
451
330
1F
100
AcDbEntity
  8
0
  6
Continuous
 62
     7
100
AcDbLine
 10
687.5138918482
 20
-311.3657528899
 30
0.0
 11
685.0138918482
 21
-311.3657528899
 31
0.0
  0
ARC
  5
452
330
1F
100
AcDbEntity
  8
0
  6
Continuous
 62
     7
100
AcDbCircle
 10
681.2638918482
 20
512.0842471101
 30
0.0
 40
3.132785809343545
100
AcDbArc
 50
270.0
 51
90.0
  0
ARC
  5
453
330
1F
100
AcDbEntity
  8
0
  6
Continuous
 62
     7
100
AcDbCircle
 10
681.2638918482
 20
512.0842471101
 30
0.0
 40
3.132785809343545
100
AcDbArc
 50
90.0
 51
270.0
  0
ARC
  5
454
330
1F
100
AcDbEntity
  8
0
  6
Continuous
 62
     7
100
AcDbCircle
 10
681.2638918482
 20
505.6800455541
 30
0.0
 40
4.154201555956035
100
AcDbArc
 50
90.0
 51
105.9632794617
  0
ARC
  5
455
330
1F
100
AcDbEntity
  8
0
  6
Continuous
 62
     7
100
AcDbCircle
 10
681.2638918482
 20
505.6800455541
 30
0.0
 40
4.154201555956286
100
AcDbArc
 50
74.0367205383
 51
90.0
  0
ARC
  5
456
330
1F
100
AcDbEntity
  8
0
  6
Continuous
 62
     7
100
AcDbCircle
 10
682.4888918482
 20
509.9624848708
 30
0.0
 40
0.3000000000006078
100
AcDbArc
 50
254.0367205383
 51
345.9632794617
  0
ARC
  5
457
330
1F
100
AcDbEntity
  8
0
  6
Continuous
 62
     7
100
AcDbCircle
 10
686.8100930866
 20
508.8821463321
 30
0.0
 40
4.154201555956321
100
AcDbArc
 50
134.0367205383
 51
165.9632794617
  0
ARC
  5
458
330
1F
100
AcDbEntity
  8
0
  6
Continuous
 62
     7
100
AcDbCircle
 10
683.7138918482
 20
512.0842471101
 30
0.0
 40
0.3000000000009954
100
AcDbArc
 50
314.0367205383
 51
45.9632794617
  0
ARC
  5
459
330
1F
100
AcDbEntity
  8
0
  6
Continuous
 62
     7
100
AcDbCircle
 10
686.8100930866
 20
515.2863478881
 30
0.0
 40
4.154201555956432
100
AcDbArc
 50
194.0367205383
 51
225.9632794617
  0
ARC
  5
45A
330
1F
100
AcDbEntity
  8
0
  6
Continuous
 62
     7
100
AcDbCircle
 10
682.4888918482
 20
514.2060093493
 30
0.0
 40
0.3000000000006216
100
AcDbArc
 50
14.0367205383
 51
90.0
  0
ARC
  5
45B
330
1F
100
AcDbEntity
  8
0
  6
Continuous
 62
     7
100
AcDbCircle
 10
681.2638918482
 20
518.488448666
 30
0.0
 40
4.154201555956044
100
AcDbArc
 50
254.0367205382
 51
285.9632794618
  0
ARC
  5
45C
330
1F
100
AcDbEntity
  8
0
  6
Continuous
 62
     7
100
AcDbCircle
 10
680.0388918482
 20
514.2060093493
 30
0.0
 40
0.300000000000523
100
AcDbArc
 50
74.0367205383
 51
90.0
  0
ARC
  5
45D
330
1F
100
AcDbEntity
  8
0
  6
Continuous
 62
     7
100
AcDbCircle
 10
680.0388918482
 20
514.2060093493
 30
0.0
 40
0.300000000000523
100
AcDbArc
 50
90.0
 51
165.9632794618
  0
ARC
  5
45E
330
1F
100
AcDbEntity
  8
0
  6
Continuous
 62
     7
100
AcDbCircle
 10
675.7176906098
 20
515.2863478881
 30
0.0
 40
4.154201555956318
100
AcDbArc
 50
314.0367205383
 51
345.9632794618
  0
ARC
  5
45F
330
1F
100
AcDbEntity
  8
0
  6
Continuous
 62
     7
100
AcDbCircle
 10
678.8138918482
 20
512.0842471101
 30
0.0
 40
0.2999999999999056
100
AcDbArc
 50
134.0367205383
 51
225.9632794617
  0
ARC
  5
460
330
1F
100
AcDbEntity
  8
0
  6
Continuous
 62
     7
100
AcDbCircle
 10
675.7176906098
 20
508.8821463321
 30
0.0
 40
4.154201555956504
100
AcDbArc
 50
14.0367205383
 51
45.9632794617
  0
ARC
  5
461
330
1F
100
AcDbEntity
  8
0
  6
Continuous
 62
     7
100
AcDbCircle
 10
680.0388918482
 20
509.9624848708
 30
0.0
 40
0.3000000000005283
100
AcDbArc
 50
194.0367205382
 51
285.9632794618
  0
ARC
  5
462
330
1F
100
AcDbEntity
  8
0
  6
Continuous
 62
     7
100
AcDbCircle
 10
682.4888918482
 20
514.2060093493
 30
0.0
 40
0.300000000000523
100
AcDbArc
 50
90.0
 51
105.9632794617
  0
ARC
  5
463
330
1F
100
AcDbEntity
  8
0
  6
Continuous
 62
     7
100
AcDbCircle
 10
681.2638918482
 20
512.0842471101
 30
0.0
 40
3.825687437599072
100
AcDbArc
 50
270.0
 51
90.0
  0
LINE
  5
464
330
1F
100
AcDbEntity
  8
0
  6
Continuous
 62
     7
100
AcDbLine
 10
681.2638918482
 20
508.9514613007
 30
0.0
 11
681.2638918482
 21
508.2585596725
 31
0.0
  0
LINE
  5
465
330
1F
100
AcDbEntity
  8
0
  6
Continuous
 62
     7
100
AcDbLine
 10
681.2638918482
 20
515.2170329194
 30
0.0
 11
681.2638918482
 21
515.9099345477
 31
0.0
  0
ARC
  5
466
330
1F
100
AcDbEntity
  8
0
  6
Continuous
 62
     7
100
AcDbCircle
 10
681.2638918482
 20
512.0842471101
 30
0.0
 40
3.825687437599072
100
AcDbArc
 50
90.0
 51
270.0
  0
ARC
  5
467
330
1F
100
AcDbEntity
  8
0
  6
Continuous
 62
     7
100
AcDbCircle
 10
681.2638918482
 20
512.0842471101
 30
0.0
 40
5.092901628255504
100
AcDbArc
 50
270.0
 51
90.0
  0
LINE
  5
468
330
1F
100
AcDbEntity
  8
0
  6
Continuous
 62
     7
100
AcDbLine
 10
681.2638918482
 20
508.2585596725
 30
0.0
 11
681.2638918482
 21
506.9913454818
 31
0.0
  0
LINE
  5
469
330
1F
100
AcDbEntity
  8
0
  6
Continuous
 62
     7
100
AcDbLine
 10
681.2638918482
 20
515.9099345477
 30
0.0
 11
681.2638918482
 21
517.1771487383
 31
0.0
  0
ARC
  5
46A
330
1F
100
AcDbEntity
  8
0
  6
Continuous
 62
     7
100
AcDbCircle
 10
681.2638918482
 20
512.0842471101
 30
0.0
 40
5.092901628255504
100
AcDbArc
 50
90.0
 51
270.0
  0
ARC
  5
46B
330
1F
100
AcDbEntity
  8
0
  6
Continuous
 62
     7
100
AcDbCircle
 10
681.2638918482
 20
512.0842471101
 30
0.0
 40
5.900000000000034
100
AcDbArc
 50
270.0
 51
90.0
  0
LINE
  5
46C
330
1F
100
AcDbEntity
  8
0
  6
Continuous
 62
     7
100
AcDbLine
 10
681.2638918482
 20
506.9913454818
 30
0.0
 11
681.2638918482
 21
506.1842471101
 31
0.0
  0
LINE
  5
46D
330
1F
100
AcDbEntity
  8
0
  6
Continuous
 62
     7
100
AcDbLine
 10
681.2638918482
 20
517.1771487383
 30
0.0
 11
681.2638918482
 21
517.9842471101
 31
0.0
  0
ARC
  5
46E
330
1F
100
AcDbEntity
  8
0
  6
Continuous
 62
     7
100
AcDbCircle
 10
681.2638918482
 20
512.0842471101
 30
0.0
 40
5.900000000000034
100
AcDbArc
 50
90.0
 51
270.0
  0
LINE
  5
46F
330
1F
100
AcDbEntity
  8
0
  6
Continuous
 62
     7
100
AcDbLine
 10
1043.7638918482
 20
-288.2829670806
 30
0.0
 11
1043.7638918482
 21
-287.5900654523
 31
0.0
  0
ARC
  5
470
330
1F
100
AcDbEntity
  8
0
  6
Continuous
 62
     7
100
AcDbCircle
 10
1043.7638918482
 20
-291.4157528899
 30
0.0
 40
3.825687437601914
100
AcDbArc
 50
270.0
 51
90.0
  0
LINE
  5
471
330
1F
100
AcDbEntity
  8
0
  6
Continuous
 62
     7
100
AcDbLine
 10
1043.7638918482
 20
-294.5485386993
 30
0.0
 11
1043.7638918482
 21
-295.2414403275
 31
0.0
  0
ARC
  5
472
330
1F
100
AcDbEntity
  8
0
  6
Continuous
 62
     7
100
AcDbCircle
 10
1043.7638918482
 20
-291.4157528899
 30
0.0
 40
3.132785809346501
100
AcDbArc
 50
270.0
 51
90.0
  0
ARC
  5
473
330
1F
100
AcDbEntity
  8
0
  6
Continuous
 62
     7
100
AcDbCircle
 10
1043.7638918482
 20
-291.4157528899
 30
0.0
 40
3.825687437601914
100
AcDbArc
 50
90.0
 51
270.0
  0
ARC
  5
474
330
1F
100
AcDbEntity
  8
0
  6
Continuous
 62
     7
100
AcDbCircle
 10
1043.7638918482
 20
-291.4157528899
 30
0.0
 40
3.132785809346501
100
AcDbArc
 50
90.0
 51
270.0
  0
ARC
  5
475
330
1F
100
AcDbEntity
  8
0
  6
Continuous
 62
     7
100
AcDbCircle
 10
1042.5388918482
 20
-289.2939906506
 30
0.0
 40
0.3000000000005251
100
AcDbArc
 50
74.0367205383
 51
165.9632794617
  0
ARC
  5
476
330
1F
100
AcDbEntity
  8
0
  6
Continuous
 62
     7
100
AcDbCircle
 10
1038.2176906098
 20
-288.2136521119
 30
0.0
 40
4.154201555955963
100
AcDbArc
 50
314.0367205383
 51
345.9632794617
  0
ARC
  5
477
330
1F
100
AcDbEntity
  8
0
  6
Continuous
 62
     7
100
AcDbCircle
 10
1041.3138918482
 20
-291.4157528899
 30
0.0
 40
0.3000000000028316
100
AcDbArc
 50
134.0367205379
 51
225.9632794613
  0
ARC
  5
478
330
1F
100
AcDbEntity
  8
0
  6
Continuous
 62
     7
100
AcDbCircle
 10
1038.2176906098
 20
-294.6178536679
 30
0.0
 40
4.154201555956345
100
AcDbArc
 50
14.0367205383
 51
45.9632794617
  0
ARC
  5
479
330
1F
100
AcDbEntity
  8
0
  6
Continuous
 62
     7
100
AcDbCircle
 10
1042.5388918482
 20
-293.5375151292
 30
0.0
 40
0.300000000000523
100
AcDbArc
 50
194.0367205382
 51
270.0
  0
ARC
  5
47A
330
1F
100
AcDbEntity
  8
0
  6
Continuous
 62
     7
100
AcDbCircle
 10
1042.5388918482
 20
-293.5375151292
 30
0.0
 40
0.300000000000523
100
AcDbArc
 50
270.0
 51
285.9632794617
  0
ARC
  5
47B
330
1F
100
AcDbEntity
  8
0
  6
Continuous
 62
     7
100
AcDbCircle
 10
1043.7638918482
 20
-297.8199544459
 30
0.0
 40
4.154201555956441
100
AcDbArc
 50
74.0367205383
 51
105.9632794618
  0
ARC
  5
47C
330
1F
100
AcDbEntity
  8
0
  6
Continuous
 62
     7
100
AcDbCircle
 10
1044.9888918482
 20
-293.5375151292
 30
0.0
 40
0.300000000000523
100
AcDbArc
 50
254.0367205384
 51
270.0
  0
ARC
  5
47D
330
1F
100
AcDbEntity
  8
0
  6
Continuous
 62
     7
100
AcDbCircle
 10
1049.3100930866
 20
-294.6178536679
 30
0.0
 40
4.15420155595615
100
AcDbArc
 50
134.0367205383
 51
165.9632794618
  0
ARC
  5
47E
330
1F
100
AcDbEntity
  8
0
  6
Continuous
 62
     7
100
AcDbCircle
 10
1044.9888918482
 20
-289.2939906506
 30
0.0
 40
0.3000000000005251
100
AcDbArc
 50
14.0367205383
 51
105.9632794617
  0
ARC
  5
47F
330
1F
100
AcDbEntity
  8
0
  6
Continuous
 62
     7
100
AcDbCircle
 10
1046.2138918482
 20
-291.4157528899
 30
0.0
 40
0.3000000000015564
100
AcDbArc
 50
314.0367205385
 51
45.9632794622
  0
ARC
  5
480
330
1F
100
AcDbEntity
  8
0
  6
Continuous
 62
     7
100
AcDbCircle
 10
1043.7638918482
 20
-285.011551334
 30
0.0
 40
4.154201555959048
100
AcDbArc
 50
270.0
 51
285.9632794617
  0
ARC
  5
481
330
1F
100
AcDbEntity
  8
0
  6
Continuous
 62
     7
100
AcDbCircle
 10
1043.7638918482
 20
-285.011551334
 30
0.0
 40
4.154201555959048
100
AcDbArc
 50
254.0367205383
 51
270.0
  0
ARC
  5
482
330
1F
100
AcDbEntity
  8
0
  6
Continuous
 62
     7
100
AcDbCircle
 10
1049.3100930866
 20
-288.2136521119
 30
0.0
 40
4.154201555956253
100
AcDbArc
 50
194.0367205382
 51
225.9632794617
  0
ARC
  5
483
330
1F
100
AcDbEntity
  8
0
  6
Continuous
 62
     7
100
AcDbCircle
 10
1044.9888918482
 20
-293.5375151292
 30
0.0
 40
0.3000000000014212
100
AcDbArc
 50
270.0
 51
345.9632794617
  0
LINE
  5
484
330
1F
100
AcDbEntity
  8
0
  6
Continuous
 62
     7
100
AcDbLine
 10
1043.7638918482
 20
-287.5900654523
 30
0.0
 11
1043.7638918482
 21
-286.3228512617
 31
0.0
  0
ARC
  5
485
330
1F
100
AcDbEntity
  8
0
  6
Continuous
 62
     7
100
AcDbCircle
 10
1043.7638918482
 20
-291.4157528899
 30
0.0
 40
5.092901628257891
100
AcDbArc
 50
270.0
 51
90.0
  0
LINE
  5
486
330
1F
100
AcDbEntity
  8
0
  6
Continuous
 62
     7
100
AcDbLine
 10
1043.7638918482
 20
-295.2414403275
 30
0.0
 11
1043.7638918482
 21
-296.5086545182
 31
0.0
  0
ARC
  5
487
330
1F
100
AcDbEntity
  8
0
  6
Continuous
 62
     7
100
AcDbCircle
 10
1043.7638918482
 20
-291.4157528899
 30
0.0
 40
5.092901628257891
100
AcDbArc
 50
90.0
 51
270.0
  0
LINE
  5
488
330
1F
100
AcDbEntity
  8
0
  6
Continuous
 62
     7
100
AcDbLine
 10
1043.7638918482
 20
-286.3228512617
 30
0.0
 11
1043.7638918482
 21
-285.5157528899
 31
0.0
  0
ARC
  5
489
330
1F
100
AcDbEntity
  8
0
  6
Continuous
 62
     7
100
AcDbCircle
 10
1043.7638918482
 20
-291.4157528899
 30
0.0
 40
5.900000000000034
100
AcDbArc
 50
270.0
 51
90.0
  0
LINE
  5
48A
330
1F
100
AcDbEntity
  8
0
  6
Continuous
 62
     7
100
AcDbLine
 10
1043.7638918482
 20
-296.5086545182
 30
0.0
 11
1043.7638918482
 21
-297.3157528899
 31
0.0
  0
ARC
  5
48B
330
1F
100
AcDbEntity
  8
0
  6
Continuous
 62
     7
100
AcDbCircle
 10
1043.7638918482
 20
-291.4157528899
 30
0.0
 40
5.900000000000034
100
AcDbArc
 50
90.0
 51
270.0
  0
LINE
  5
48C
330
1F
100
AcDbEntity
  8
0
  6
Continuous
 62
     7
100
AcDbLine
 10
687.5138918482
 20
606.5342471101
 30
0.0
 11
690.5138918482
 21
606.5342471101
 31
0.0
  0
LINE
  5
48D
330
1F
100
AcDbEntity
  8
0
  6
Continuous
 62
     7
100
AcDbLine
 10
687.5138918482
 20
607.0342471101
 30
0.0
 11
687.5138918482
 21
606.5342471101
 31
0.0
  0
LINE
  5
48E
330
1F
100
AcDbEntity
  8
0
  6
Continuous
 62
     7
100
AcDbLine
 10
687.5138918482
 20
607.0342471101
 30
0.0
 11
690.0138918482
 21
607.0342471101
 31
0.0
  0
LINE
  5
48F
330
1F
100
AcDbEntity
  8
0
  6
Continuous
 62
     7
100
AcDbLine
 10
684.5138918482
 20
606.5342471101
 30
0.0
 11
687.5138918482
 21
606.5342471101
 31
0.0
  0
LINE
  5
490
330
1F
100
AcDbEntity
  8
0
  6
Continuous
 62
     7
100
AcDbLine
 10
685.0138918482
 20
607.0342471101
 30
0.0
 11
687.5138918482
 21
607.0342471101
 31
0.0
  0
ARC
  5
491
330
1F
100
AcDbEntity
  8
0
  6
Continuous
 62
     7
100
AcDbCircle
 10
1043.7638918482
 20
512.0842471101
 30
0.0
 40
3.825687437599072
100
AcDbArc
 50
270.0
 51
90.0
  0
LINE
  5
492
330
1F
100
AcDbEntity
  8
0
  6
Continuous
 62
     7
100
AcDbLine
 10
1043.7638918482
 20
508.9514613007
 30
0.0
 11
1043.7638918482
 21
508.2585596725
 31
0.0
  0
ARC
  5
493
330
1F
100
AcDbEntity
  8
0
  6
Continuous
 62
     7
100
AcDbCircle
 10
1043.7638918482
 20
512.0842471101
 30
0.0
 40
3.132785809343545
100
AcDbArc
 50
270.0
 51
90.0
  0
LINE
  5
494
330
1F
100
AcDbEntity
  8
0
  6
Continuous
 62
     7
100
AcDbLine
 10
1043.7638918482
 20
515.2170329194
 30
0.0
 11
1043.7638918482
 21
515.9099345477
 31
0.0
  0
ARC
  5
495
330
1F
100
AcDbEntity
  8
0
  6
Continuous
 62
     7
100
AcDbCircle
 10
1043.7638918482
 20
512.0842471101
 30
0.0
 40
3.132785809343545
100
AcDbArc
 50
90.0
 51
270.0
  0
ARC
  5
496
330
1F
100
AcDbEntity
  8
0
  6
Continuous
 62
     7
100
AcDbCircle
 10
1044.9888918482
 20
509.9624848708
 30
0.0
 40
0.3000000000007181
100
AcDbArc
 50
254.0367205383
 51
345.9632794617
  0
ARC
  5
497
330
1F
100
AcDbEntity
  8
0
  6
Continuous
 62
     7
100
AcDbCircle
 10
1049.3100930866
 20
508.8821463321
 30
0.0
 40
4.154201555956873
100
AcDbArc
 50
134.0367205383
 51
165.9632794617
  0
ARC
  5
498
330
1F
100
AcDbEntity
  8
0
  6
Continuous
 62
     7
100
AcDbCircle
 10
1049.3100930866
 20
515.2863478881
 30
0.0
 40
4.15420155595588
100
AcDbArc
 50
194.0367205383
 51
225.9632794617
  0
ARC
  5
499
330
1F
100
AcDbEntity
  8
0
  6
Continuous
 62
     7
100
AcDbCircle
 10
1042.5388918482
 20
514.2060093493
 30
0.0
 40
0.3000000000005596
100
AcDbArc
 50
74.0367205382
 51
90.0
  0
ARC
  5
49A
330
1F
100
AcDbEntity
  8
0
  6
Continuous
 62
     7
100
AcDbCircle
 10
1042.5388918482
 20
514.2060093493
 30
0.0
 40
0.300000000000523
100
AcDbArc
 50
90.0
 51
165.9632794618
  0
ARC
  5
49B
330
1F
100
AcDbEntity
  8
0
  6
Continuous
 62
     7
100
AcDbCircle
 10
1038.2176906098
 20
515.2863478881
 30
0.0
 40
4.154201555956514
100
AcDbArc
 50
314.0367205383
 51
345.9632794618
  0
ARC
  5
49C
330
1F
100
AcDbEntity
  8
0
  6
Continuous
 62
     7
100
AcDbCircle
 10
1041.3138918482
 20
512.0842471101
 30
0.0
 40
0.2999999999995895
100
AcDbArc
 50
134.0367205383
 51
225.9632794618
  0
ARC
  5
49D
330
1F
100
AcDbEntity
  8
0
  6
Continuous
 62
     7
100
AcDbCircle
 10
1038.2176906098
 20
508.8821463321
 30
0.0
 40
4.154201555956652
100
AcDbArc
 50
14.0367205383
 51
45.9632794617
  0
ARC
  5
49E
330
1F
100
AcDbEntity
  8
0
  6
Continuous
 62
     7
100
AcDbCircle
 10
1042.5388918482
 20
509.9624848708
 30
0.0
 40
0.3000000000006078
100
AcDbArc
 50
194.0367205382
 51
285.9632794617
  0
ARC
  5
49F
330
1F
100
AcDbEntity
  8
0
  6
Continuous
 62
     7
100
AcDbCircle
 10
1044.9888918482
 20
514.2060093493
 30
0.0
 40
0.3000000000007319
100
AcDbArc
 50
14.0367205383
 51
90.0
  0
ARC
  5
4A0
330
1F
100
AcDbEntity
  8
0
  6
Continuous
 62
     7
100
AcDbCircle
 10
1046.2138918482
 20
512.0842471101
 30
0.0
 40
0.3000000000009164
100
AcDbArc
 50
314.0367205383
 51
45.9632794618
  0
ARC
  5
4A1
330
1F
100
AcDbEntity
  8
0
  6
Continuous
 62
     7
100
AcDbCircle
 10
1043.7638918482
 20
505.6800455541
 30
0.0
 40
4.154201555956379
100
AcDbArc
 50
74.0367205383
 51
90.0
  0
ARC
  5
4A2
330
1F
100
AcDbEntity
  8
0
  6
Continuous
 62
     7
100
AcDbCircle
 10
1044.9888918482
 20
514.2060093493
 30
0.0
 40
0.300000000000523
100
AcDbArc
 50
90.0
 51
105.9632794617
  0
ARC
  5
4A3
330
1F
100
AcDbEntity
  8
0
  6
Continuous
 62
     7
100
AcDbCircle
 10
1043.7638918482
 20
518.488448666
 30
0.0
 40
4.154201555955887
100
AcDbArc
 50
254.0367205383
 51
285.9632794617
  0
ARC
  5
4A4
330
1F
100
AcDbEntity
  8
0
  6
Continuous
 62
     7
100
AcDbCircle
 10
1043.7638918482
 20
505.6800455541
 30
0.0
 40
4.154201555956035
100
AcDbArc
 50
90.0
 51
105.9632794617
  0
ARC
  5
4A5
330
1F
100
AcDbEntity
  8
0
  6
Continuous
 62
     7
100
AcDbCircle
 10
1043.7638918482
 20
512.0842471101
 30
0.0
 40
3.825687437599072
100
AcDbArc
 50
90.0
 51
270.0
  0
ARC
  5
4A6
330
1F
100
AcDbEntity
  8
0
  6
Continuous
 62
     7
100
AcDbCircle
 10
1043.7638918482
 20
512.0842471101
 30
0.0
 40
5.092901628255504
100
AcDbArc
 50
270.0
 51
90.0
  0
LINE
  5
4A7
330
1F
100
AcDbEntity
  8
0
  6
Continuous
 62
     7
100
AcDbLine
 10
1043.7638918482
 20
508.2585596725
 30
0.0
 11
1043.7638918482
 21
506.9913454818
 31
0.0
  0
LINE
  5
4A8
330
1F
100
AcDbEntity
  8
0
  6
Continuous
 62
     7
100
AcDbLine
 10
1043.7638918482
 20
515.9099345477
 30
0.0
 11
1043.7638918482
 21
517.1771487383
 31
0.0
  0
ARC
  5
4A9
330
1F
100
AcDbEntity
  8
0
  6
Continuous
 62
     7
100
AcDbCircle
 10
1043.7638918482
 20
512.0842471101
 30
0.0
 40
5.092901628255504
100
AcDbArc
 50
90.0
 51
270.0
  0
ARC
  5
4AA
330
1F
100
AcDbEntity
  8
0
  6
Continuous
 62
     7
100
AcDbCircle
 10
1043.7638918482
 20
512.0842471101
 30
0.0
 40
5.900000000000034
100
AcDbArc
 50
270.0
 51
90.0
  0
LINE
  5
4AB
330
1F
100
AcDbEntity
  8
0
  6
Continuous
 62
     7
100
AcDbLine
 10
1043.7638918482
 20
506.9913454818
 30
0.0
 11
1043.7638918482
 21
506.1842471101
 31
0.0
  0
LINE
  5
4AC
330
1F
100
AcDbEntity
  8
0
  6
Continuous
 62
     7
100
AcDbLine
 10
1043.7638918482
 20
517.1771487383
 30
0.0
 11
1043.7638918482
 21
517.9842471101
 31
0.0
  0
ARC
  5
4AD
330
1F
100
AcDbEntity
  8
0
  6
Continuous
 62
     7
100
AcDbCircle
 10
1043.7638918482
 20
512.0842471101
 30
0.0
 40
5.900000000000034
100
AcDbArc
 50
90.0
 51
270.0
  0
ARC
  5
4AE
330
1F
100
AcDbEntity
  8
0
  6
Continuous
 62
     7
100
AcDbCircle
 10
1043.7638918482
 20
587.0842471101
 30
0.0
 40
3.825687437599072
100
AcDbArc
 50
270.0
 51
90.0
  0
LINE
  5
4AF
330
1F
100
AcDbEntity
  8
0
  6
Continuous
 62
     7
100
AcDbLine
 10
1043.7638918482
 20
583.9514613007
 30
0.0
 11
1043.7638918482
 21
583.2585596725
 31
0.0
  0
ARC
  5
4B0
330
1F
100
AcDbEntity
  8
0
  6
Continuous
 62
     7
100
AcDbCircle
 10
1043.7638918482
 20
587.0842471101
 30
0.0
 40
3.132785809344114
100
AcDbArc
 50
270.0
 51
90.0
  0
LINE
  5
4B1
330
1F
100
AcDbEntity
  8
0
  6
Continuous
 62
     7
100
AcDbLine
 10
1043.7638918482
 20
590.2170329194
 30
0.0
 11
1043.7638918482
 21
590.9099345477
 31
0.0
  0
ARC
  5
4B2
330
1F
100
AcDbEntity
  8
0
  6
Continuous
 62
     7
100
AcDbCircle
 10
1043.7638918482
 20
587.0842471101
 30
0.0
 40
3.825687437599072
100
AcDbArc
 50
90.0
 51
270.0
  0
ARC
  5
4B3
330
1F
100
AcDbEntity
  8
0
  6
Continuous
 62
     7
100
AcDbCircle
 10
1043.7638918482
 20
587.0842471101
 30
0.0
 40
3.132785809344114
100
AcDbArc
 50
90.0
 51
270.0
  0
ARC
  5
4B4
330
1F
100
AcDbEntity
  8
0
  6
Continuous
 62
     7
100
AcDbCircle
 10
1044.9888918482
 20
589.2060093493
 30
0.0
 40
0.3000000000009777
100
AcDbArc
 50
14.0367205383
 51
90.0
  0
ARC
  5
4B5
330
1F
100
AcDbEntity
  8
0
  6
Continuous
 62
     7
100
AcDbCircle
 10
1042.5388918482
 20
589.2060093493
 30
0.0
 40
0.3000000000009777
100
AcDbArc
 50
74.0367205384
 51
90.0
  0
ARC
  5
4B6
330
1F
100
AcDbEntity
  8
0
  6
Continuous
 62
     7
100
AcDbCircle
 10
1042.5388918482
 20
589.2060093493
 30
0.0
 40
0.3000000000009777
100
AcDbArc
 50
90.0
 51
165.9632794617
  0
ARC
  5
4B7
330
1F
100
AcDbEntity
  8
0
  6
Continuous
 62
     7
100
AcDbCircle
 10
1038.2176906098
 20
590.2863478881
 30
0.0
 40
4.154201555956514
100
AcDbArc
 50
314.0367205383
 51
345.9632794618
  0
ARC
  5
4B8
330
1F
100
AcDbEntity
  8
0
  6
Continuous
 62
     7
100
AcDbCircle
 10
1041.3138918482
 20
587.0842471101
 30
0.0
 40
0.300000000000039
100
AcDbArc
 50
134.0367205382
 51
225.9632794617
  0
ARC
  5
4B9
330
1F
100
AcDbEntity
  8
0
  6
Continuous
 62
     7
100
AcDbCircle
 10
1038.2176906098
 20
583.8821463321
 30
0.0
 40
4.154201555956504
100
AcDbArc
 50
14.0367205382
 51
45.9632794617
  0
ARC
  5
4BA
330
1F
100
AcDbEntity
  8
0
  6
Continuous
 62
     7
100
AcDbCircle
 10
1042.5388918482
 20
584.9624848708
 30
0.0
 40
0.3000000000008097
100
AcDbArc
 50
194.0367205383
 51
285.9632794619
  0
ARC
  5
4BB
330
1F
100
AcDbEntity
  8
0
  6
Continuous
 62
     7
100
AcDbCircle
 10
1043.7638918482
 20
593.488448666
 30
0.0
 40
4.154201555956747
100
AcDbArc
 50
254.0367205383
 51
285.9632794618
  0
ARC
  5
4BC
330
1F
100
AcDbEntity
  8
0
  6
Continuous
 62
     7
100
AcDbCircle
 10
1049.3100930866
 20
590.2863478881
 30
0.0
 40
4.15420155595634
100
AcDbArc
 50
194.0367205383
 51
225.9632794617
  0
ARC
  5
4BD
330
1F
100
AcDbEntity
  8
0
  6
Continuous
 62
     7
100
AcDbCircle
 10
1043.7638918482
 20
580.6800455541
 30
0.0
 40
4.154201555956544
100
AcDbArc
 50
74.0367205383
 51
90.0
  0
ARC
  5
4BE
330
1F
100
AcDbEntity
  8
0
  6
Continuous
 62
     7
100
AcDbCircle
 10
1044.9888918482
 20
584.9624848708
 30
0.0
 40
0.3000000000007594
100
AcDbArc
 50
254.0367205383
 51
345.9632794617
  0
ARC
  5
4BF
330
1F
100
AcDbEntity
  8
0
  6
Continuous
 62
     7
100
AcDbCircle
 10
1049.3100930866
 20
583.8821463321
 30
0.0
 40
4.154201555955768
100
AcDbArc
 50
134.0367205383
 51
165.9632794618
  0
ARC
  5
4C0
330
1F
100
AcDbEntity
  8
0
  6
Continuous
 62
     7
100
AcDbCircle
 10
1043.7638918482
 20
580.6800455541
 30
0.0
 40
4.154201555956293
100
AcDbArc
 50
90.0
 51
105.9632794617
  0
ARC
  5
4C1
330
1F
100
AcDbEntity
  8
0
  6
Continuous
 62
     7
100
AcDbCircle
 10
1046.2138918482
 20
587.0842471101
 30
0.0
 40
0.3000000000006712
100
AcDbArc
 50
314.0367205383
 51
45.9632794617
  0
ARC
  5
4C2
330
1F
100
AcDbEntity
  8
0
  6
Continuous
 62
     7
100
AcDbCircle
 10
1044.9888918482
 20
589.2060093493
 30
0.0
 40
0.3000000000009777
100
AcDbArc
 50
90.0
 51
105.9632794617
  0
ARC
  5
4C3
330
1F
100
AcDbEntity
  8
0
  6
Continuous
 62
     7
100
AcDbCircle
 10
1043.7638918482
 20
587.0842471101
 30
0.0
 40
5.092901628256072
100
AcDbArc
 50
270.0
 51
90.0
  0
LINE
  5
4C4
330
1F
100
AcDbEntity
  8
0
  6
Continuous
 62
     7
100
AcDbLine
 10
1043.7638918482
 20
583.2585596725
 30
0.0
 11
1043.7638918482
 21
581.9913454818
 31
0.0
  0
LINE
  5
4C5
330
1F
100
AcDbEntity
  8
0
  6
Continuous
 62
     7
100
AcDbLine
 10
1043.7638918482
 20
590.9099345477
 30
0.0
 11
1043.7638918482
 21
592.1771487383
 31
0.0
  0
ARC
  5
4C6
330
1F
100
AcDbEntity
  8
0
  6
Continuous
 62
     7
100
AcDbCircle
 10
1043.7638918482
 20
587.0842471101
 30
0.0
 40
5.092901628256072
100
AcDbArc
 50
90.0
 51
270.0
  0
ARC
  5
4C7
330
1F
100
AcDbEntity
  8
0
  6
Continuous
 62
     7
100
AcDbCircle
 10
1043.7638918482
 20
587.0842471101
 30
0.0
 40
5.900000000000091
100
AcDbArc
 50
270.0
 51
90.0
  0
LINE
  5
4C8
330
1F
100
AcDbEntity
  8
0
  6
Continuous
 62
     7
100
AcDbLine
 10
1043.7638918482
 20
581.9913454818
 30
0.0
 11
1043.7638918482
 21
581.1842471101
 31
0.0
  0
LINE
  5
4C9
330
1F
100
AcDbEntity
  8
0
  6
Continuous
 62
     7
100
AcDbLine
 10
1043.7638918482
 20
592.1771487383
 30
0.0
 11
1043.7638918482
 21
592.9842471101
 31
0.0
  0
ARC
  5
4CA
330
1F
100
AcDbEntity
  8
0
  6
Continuous
 62
     7
100
AcDbCircle
 10
1043.7638918482
 20
587.0842471101
 30
0.0
 40
5.900000000000091
100
AcDbArc
 50
90.0
 51
270.0
  0
LINE
  5
4CB
330
1F
100
AcDbEntity
  8
0
  6
Continuous
 62
     7
100
AcDbLine
 10
1037.8593026386
 20
607.0342471101
 30
0.0
 11
1037.9283847967
 21
606.5342471101
 31
0.0
  0
LINE
  5
4CC
330
1F
100
AcDbEntity
  8
0
  6
Continuous
 62
     7
100
AcDbLine
 10
1034.5138918482
 20
606.5342471101
 30
0.0
 11
1037.9283847967
 21
606.5342471101
 31
0.0
  0
LINE
  5
4CD
330
1F
100
AcDbEntity
  8
0
  6
Continuous
 62
     7
100
AcDbLine
 10
1035.0138918482
 20
607.0342471101
 30
0.0
 11
1037.8593026386
 21
607.0342471101
 31
0.0
  0
LINE
  5
4CE
330
1F
100
AcDbEntity
  8
0
  6
Continuous
 62
     7
100
AcDbLine
 10
1037.9283847967
 20
606.5342471101
 30
0.0
 11
1040.5138918482
 21
606.5342471101
 31
0.0
  0
LINE
  5
4CF
330
1F
100
AcDbEntity
  8
0
  6
Continuous
 62
     7
100
AcDbLine
 10
1037.8593026386
 20
607.0342471101
 30
0.0
 11
1040.0138918482
 21
607.0342471101
 31
0.0
  0
ARC
  5
4D0
330
1F
100
AcDbEntity
  8
0
  6
Continuous
 62
     7
100
AcDbCircle
 10
681.2638918482
 20
587.0842471101
 30
0.0
 40
3.825687437599072
100
AcDbArc
 50
270.0
 51
90.0
  0
LINE
  5
4D1
330
1F
100
AcDbEntity
  8
0
  6
Continuous
 62
     7
100
AcDbLine
 10
681.2638918482
 20
583.9514613007
 30
0.0
 11
681.2638918482
 21
583.2585596725
 31
0.0
  0
ARC
  5
4D2
330
1F
100
AcDbEntity
  8
0
  6
Continuous
 62
     7
100
AcDbCircle
 10
681.2638918482
 20
587.0842471101
 30
0.0
 40
3.132785809344114
100
AcDbArc
 50
270.0
 51
90.0
  0
LINE
  5
4D3
330
1F
100
AcDbEntity
  8
0
  6
Continuous
 62
     7
100
AcDbLine
 10
681.2638918482
 20
590.2170329194
 30
0.0
 11
681.2638918482
 21
590.9099345477
 31
0.0
  0
ARC
  5
4D4
330
1F
100
AcDbEntity
  8
0
  6
Continuous
 62
     7
100
AcDbCircle
 10
681.2638918482
 20
587.0842471101
 30
0.0
 40
3.132785809344114
100
AcDbArc
 50
90.0
 51
270.0
  0
ARC
  5
4D5
330
1F
100
AcDbEntity
  8
0
  6
Continuous
 62
     7
100
AcDbCircle
 10
681.2638918482
 20
580.6800455541
 30
0.0
 40
4.154201555956418
100
AcDbArc
 50
90.0
 51
105.9632794617
  0
ARC
  5
4D6
330
1F
100
AcDbEntity
  8
0
  6
Continuous
 62
     7
100
AcDbCircle
 10
680.0388918482
 20
589.2060093493
 30
0.0
 40
0.3000000000009777
100
AcDbArc
 50
74.0367205383
 51
90.0
  0
ARC
  5
4D7
330
1F
100
AcDbEntity
  8
0
  6
Continuous
 62
     7
100
AcDbCircle
 10
680.0388918482
 20
589.2060093493
 30
0.0
 40
0.3000000000009777
100
AcDbArc
 50
90.0
 51
165.9632794617
  0
ARC
  5
4D8
330
1F
100
AcDbEntity
  8
0
  6
Continuous
 62
     7
100
AcDbCircle
 10
675.7176906098
 20
590.2863478881
 30
0.0
 40
4.154201555955935
100
AcDbArc
 50
314.0367205383
 51
345.9632794618
  0
ARC
  5
4D9
330
1F
100
AcDbEntity
  8
0
  6
Continuous
 62
     7
100
AcDbCircle
 10
678.8138918482
 20
587.0842471101
 30
0.0
 40
0.3000000000003551
100
AcDbArc
 50
134.0367205382
 51
225.9632794617
  0
ARC
  5
4DA
330
1F
100
AcDbEntity
  8
0
  6
Continuous
 62
     7
100
AcDbCircle
 10
675.7176906098
 20
583.8821463321
 30
0.0
 40
4.154201555956504
100
AcDbArc
 50
14.0367205382
 51
45.9632794617
  0
ARC
  5
4DB
330
1F
100
AcDbEntity
  8
0
  6
Continuous
 62
     7
100
AcDbCircle
 10
680.0388918482
 20
584.9624848708
 30
0.0
 40
0.3000000000005389
100
AcDbArc
 50
194.0367205383
 51
285.9632794618
  0
ARC
  5
4DC
330
1F
100
AcDbEntity
  8
0
  6
Continuous
 62
     7
100
AcDbCircle
 10
682.4888918482
 20
589.2060093493
 30
0.0
 40
0.3000000000009777
100
AcDbArc
 50
90.0
 51
105.9632794618
  0
ARC
  5
4DD
330
1F
100
AcDbEntity
  8
0
  6
Continuous
 62
     7
100
AcDbCircle
 10
682.4888918482
 20
584.9624848708
 30
0.0
 40
0.3000000000006492
100
AcDbArc
 50
254.0367205383
 51
345.9632794617
  0
ARC
  5
4DE
330
1F
100
AcDbEntity
  8
0
  6
Continuous
 62
     7
100
AcDbCircle
 10
686.8100930866
 20
590.2863478881
 30
0.0
 40
4.15420155595634
100
AcDbArc
 50
194.0367205383
 51
225.9632794617
  0
ARC
  5
4DF
330
1F
100
AcDbEntity
  8
0
  6
Continuous
 62
     7
100
AcDbCircle
 10
681.2638918482
 20
580.6800455541
 30
0.0
 40
4.154201555956575
100
AcDbArc
 50
74.0367205383
 51
90.0
  0
ARC
  5
4E0
330
1F
100
AcDbEntity
  8
0
  6
Continuous
 62
     7
100
AcDbCircle
 10
681.2638918482
 20
593.488448666
 30
0.0
 40
4.154201555956496
100
AcDbArc
 50
254.0367205383
 51
285.9632794617
  0
ARC
  5
4E1
330
1F
100
AcDbEntity
  8
0
  6
Continuous
 62
     7
100
AcDbCircle
 10
686.8100930866
 20
583.8821463321
 30
0.0
 40
4.15420155595682
100
AcDbArc
 50
134.0367205383
 51
165.9632794617
  0
ARC
  5
4E2
330
1F
100
AcDbEntity
  8
0
  6
Continuous
 62
     7
100
AcDbCircle
 10
683.7138918482
 20
587.0842471101
 30
0.0
 40
0.3000000000003551
100
AcDbArc
 50
314.0367205383
 51
45.9632794618
  0
ARC
  5
4E3
330
1F
100
AcDbEntity
  8
0
  6
Continuous
 62
     7
100
AcDbCircle
 10
682.4888918482
 20
589.2060093493
 30
0.0
 40
0.3000000000009777
100
AcDbArc
 50
14.0367205383
 51
90.0
  0
ARC
  5
4E4
330
1F
100
AcDbEntity
  8
0
  6
Continuous
 62
     7
100
AcDbCircle
 10
681.2638918482
 20
587.0842471101
 30
0.0
 40
3.825687437599072
100
AcDbArc
 50
90.0
 51
270.0
  0
ARC
  5
4E5
330
1F
100
AcDbEntity
  8
0
  6
Continuous
 62
     7
100
AcDbCircle
 10
681.2638918482
 20
587.0842471101
 30
0.0
 40
5.092901628255049
100
AcDbArc
 50
270.0
 51
90.0
  0
LINE
  5
4E6
330
1F
100
AcDbEntity
  8
0
  6
Continuous
 62
     7
100
AcDbLine
 10
681.2638918482
 20
583.2585596725
 30
0.0
 11
681.2638918482
 21
581.9913454818
 31
0.0
  0
LINE
  5
4E7
330
1F
100
AcDbEntity
  8
0
  6
Continuous
 62
     7
100
AcDbLine
 10
681.2638918482
 20
590.9099345477
 30
0.0
 11
681.2638918482
 21
592.1771487383
 31
0.0
  0
ARC
  5
4E8
330
1F
100
AcDbEntity
  8
0
  6
Continuous
 62
     7
100
AcDbCircle
 10
681.2638918482
 20
587.0842471101
 30
0.0
 40
5.092901628255049
100
AcDbArc
 50
90.0
 51
270.0
  0
ARC
  5
4E9
330
1F
100
AcDbEntity
  8
0
  6
Continuous
 62
     7
100
AcDbCircle
 10
681.2638918482
 20
587.0842471101
 30
0.0
 40
5.900000000000091
100
AcDbArc
 50
270.0
 51
90.0
  0
LINE
  5
4EA
330
1F
100
AcDbEntity
  8
0
  6
Continuous
 62
     7
100
AcDbLine
 10
681.2638918482
 20
581.9913454818
 30
0.0
 11
681.2638918482
 21
581.1842471101
 31
0.0
  0
LINE
  5
4EB
330
1F
100
AcDbEntity
  8
0
  6
Continuous
 62
     7
100
AcDbLine
 10
681.2638918482
 20
592.1771487383
 30
0.0
 11
681.2638918482
 21
592.9842471101
 31
0.0
  0
ARC
  5
4EC
330
1F
100
AcDbEntity
  8
0
  6
Continuous
 62
     7
100
AcDbCircle
 10
681.2638918482
 20
587.0842471101
 30
0.0
 40
5.900000000000091
100
AcDbArc
 50
90.0
 51
270.0
  0
LINE
  5
4ED
330
1F
100
AcDbEntity
  8
0
  6
Continuous
 62
     7
100
AcDbLine
 10
1026.5138918482
 20
-278.5157528899
 30
0.0
 11
1025.0138918482
 21
-278.5157528899
 31
0.0
  0
LINE
  5
4EE
330
1F
100
AcDbEntity
  8
0
  6
Continuous
 62
     7
100
AcDbLine
 10
1026.5138918482
 20
-276.9157528899
 30
0.0
 11
1026.5138918482
 21
-278.5157528899
 31
0.0
  0
LINE
  5
4EF
330
1F
100
AcDbEntity
  8
0
  6
Continuous
 62
     7
100
AcDbLine
 10
1055.5138918482
 20
-276.9157528899
 30
0.0
 11
1026.5138918482
 21
-276.9157528899
 31
0.0
  0
LINE
  5
4F0
330
1F
100
AcDbEntity
  8
0
  6
Continuous
 62
     7
100
AcDbLine
 10
666.5138918482
 20
-303.4157528899
 30
0.0
 11
666.5138918482
 21
-305.9157528899
 31
0.0
  0
LINE
  5
4F1
330
1F
100
AcDbEntity
  8
0
  6
Continuous
 62
     7
100
AcDbLine
 10
666.5138918482
 20
-279.9157528899
 30
0.0
 11
666.5138918482
 21
-303.4157528899
 31
0.0
  0
LINE
  5
4F2
330
1F
100
AcDbEntity
  8
0
  6
Continuous
 62
     7
100
AcDbLine
 10
669.5138918482
 20
-276.9157528899
 30
0.0
 11
666.5138918482
 21
-279.9157528899
 31
0.0
  0
LINE
  5
4F3
330
1F
100
AcDbEntity
  8
0
  6
Continuous
 62
     7
100
AcDbLine
 10
698.5138918482
 20
-276.9157528899
 30
0.0
 11
669.5138918482
 21
-276.9157528899
 31
0.0
  0
LINE
  5
4F4
330
1F
100
AcDbEntity
  8
0
  6
Continuous
 62
     7
100
AcDbLine
 10
698.5138918482
 20
-278.5157528899
 30
0.0
 11
698.5138918482
 21
-276.9157528899
 31
0.0
  0
LINE
  5
4F5
330
1F
100
AcDbEntity
  8
0
  6
Continuous
 62
     7
100
AcDbLine
 10
700.0138918482
 20
-278.5157528899
 30
0.0
 11
698.5138918482
 21
-278.5157528899
 31
0.0
  0
ARC
  5
4F6
330
1F
100
AcDbEntity
  8
0
  6
Continuous
 62
     7
100
AcDbCircle
 10
762.5138918482
 20
-290.9157528899
 30
0.0
 40
7.499999999999953
100
AcDbArc
 50
248.9605302187
 51
291.0394697813
  0
ARC
  5
4F7
330
1F
100
AcDbEntity
  8
0
  6
Continuous
 62
     7
100
AcDbCircle
 10
962.5138918482
 20
-290.9157528899
 30
0.0
 40
7.500000000000055
100
AcDbArc
 50
248.9605302187
 51
291.0394697813
  0
LINE
  5
4F8
330
1F
100
AcDbEntity
  8
0
  6
Continuous
 62
     7
100
AcDbLine
 10
1058.5138918482
 20
-303.4157528899
 30
0.0
 11
1058.5138918482
 21
-305.9157528899
 31
0.0
  0
LINE
  5
4F9
330
1F
100
AcDbEntity
  8
0
  6
Continuous
 62
     7
100
AcDbLine
 10
1058.5138918482
 20
-303.4157528899
 30
0.0
 11
1058.5138918482
 21
-279.9157528899
 31
0.0
  0
LINE
  5
4FA
330
1F
100
AcDbEntity
  8
0
  6
Continuous
 62
     7
100
AcDbLine
 10
1058.5138918482
 20
-279.9157528899
 30
0.0
 11
1055.5138918482
 21
-276.9157528899
 31
0.0
  0
LINE
  5
4FB
330
1F
100
AcDbEntity
  8
0
  6
Continuous
 62
     7
100
AcDbLine
 10
1058.5138918482
 20
-305.9157528899
 30
0.0
 11
666.5138918482
 21
-305.9157528899
 31
0.0
  0
LINE
  5
4FC
330
1F
100
AcDbEntity
  8
0
  6
Continuous
 62
     7
100
AcDbLine
 10
937.9136406979
 20
608.7842471101
 30
0.0
 11
937.9136406979
 21
602.0842471101
 31
0.0
  0
LINE
  5
4FD
330
1F
100
AcDbEntity
  8
0
  6
Continuous
 62
     7
100
AcDbLine
 10
787.5138918482
 20
608.7842471101
 30
0.0
 11
787.5138918482
 21
602.0842471101
 31
0.0
  0
LINE
  5
4FE
330
1F
100
AcDbEntity
  8
0
  6
Continuous
 62
     7
100
AcDbLine
 10
937.4811923445
 20
-313.1157528899
 30
0.0
 11
937.4811923445
 21
-305.9157528899
 31
0.0
  0
LINE
  5
4FF
330
1F
100
AcDbEntity
  8
0
  6
Continuous
 62
     7
100
AcDbLine
 10
788.2499048212
 20
-313.1157528899
 30
0.0
 11
788.2499048212
 21
-305.9157528899
 31
0.0
  0
LINE
  5
500
330
1F
100
AcDbEntity
  8
0
  6
Continuous
 62
     7
100
AcDbLine
 10
1037.5138918482
 20
-310.8657528899
 30
0.0
 11
1037.5138918482
 21
-305.9157528899
 31
0.0
  0
LINE
  5
501
330
1F
100
AcDbEntity
  8
0
  6
Continuous
 62
     7
100
AcDbLine
 10
687.5138918482
 20
-310.8657528899
 30
0.0
 11
687.5138918482
 21
-305.9157528899
 31
0.0
  0
LINE
  5
502
330
1F
100
AcDbEntity
  8
0
  6
Continuous
 62
     7
100
AcDbLine
 10
687.5138918482
 20
606.5342471101
 30
0.0
 11
687.5138918482
 21
602.0842471101
 31
0.0
  0
LINE
  5
503
330
1F
100
AcDbEntity
  8
0
  6
Continuous
 62
     7
100
AcDbLine
 10
1037.9283847967
 20
606.5342471101
 30
0.0
 11
1037.9283847967
 21
602.0842471101
 31
0.0
  0
LINE
  5
504
330
1F
100
AcDbEntity
  8
0
  6
Continuous
 62
     7
100
AcDbLine
 10
577.8449415202
 20
-285.0157528899
 30
0.0
 11
575.0049489112
 21
-285.0157528899
 31
0.0
  0
ARC
  5
505
330
1F
100
AcDbEntity
  8
0
  6
Continuous
 62
     7
100
AcDbCircle
 10
575.0049489112
 20
-286.5157528899
 30
0.0
 40
1.500000000000134
100
AcDbArc
 50
90.0
 51
152.4879973762
  0
LINE
  5
506
330
1F
100
AcDbEntity
  8
0
  6
Continuous
 62
     7
100
AcDbLine
 10
575.0049489112
 20
-296.8157528899
 30
0.0
 11
575.8869149224
 21
-296.8157528899
 31
0.0
  0
ARC
  5
507
330
1F
100
AcDbEntity
  8
0
  6
Continuous
 62
     7
100
AcDbCircle
 10
575.0049489112
 20
-295.3157528899
 30
0.0
 40
1.500000000000134
100
AcDbArc
 50
207.5120026239
 51
270.0
  0
LINE
  5
508
330
1F
100
AcDbEntity
  8
0
  6
Continuous
 62
     7
100
AcDbLine
 10
573.6745777849
 20
-285.8228512616
 30
0.0
 11
573.014570394
 21
-287.0900654523
 31
0.0
  0
LINE
  5
509
330
1F
100
AcDbEntity
  8
0
  6
Continuous
 62
     7
100
AcDbLine
 10
573.014570394
 20
-294.7414403275
 30
0.0
 11
573.6745777849
 21
-296.0086545182
 31
0.0
  0
ARC
  5
50A
330
1F
100
AcDbEntity
  8
0
  6
Continuous
 62
     7
100
AcDbCircle
 10
574.3449415202
 20
-287.7829670806
 30
0.0
 40
1.500000000000007
100
AcDbArc
 50
152.4879973762
 51
180.0
  0
ARC
  5
50B
330
1F
100
AcDbEntity
  8
0
  6
Continuous
 62
     7
100
AcDbCircle
 10
574.3449415202
 20
-294.0485386992
 30
0.0
 40
1.500000000000007
100
AcDbArc
 50
180.0
 51
207.5120026239
  0
LINE
  5
50C
330
1F
100
AcDbEntity
  8
0
  6
Continuous
 62
     7
100
AcDbLine
 10
610.7449415202
 20
599.3342471101
 30
0.0
 11
610.7449415202
 21
600.0842471101
 31
0.0
  0
LINE
  5
50D
330
1F
100
AcDbEntity
  8
0
  6
Continuous
 62
     7
100
AcDbLine
 10
607.8449415202
 20
606.5342471101
 30
0.0
 11
607.8449415202
 21
608.7842471101
 31
0.0
  0
LINE
  5
50E
330
1F
100
AcDbEntity
  8
0
  6
Continuous
 62
     7
100
AcDbLine
 10
607.8449415202
 20
608.7842471101
 30
0.0
 11
607.3449415202
 21
609.2842471101
 31
0.0
  0
LINE
  5
50F
330
1F
100
AcDbEntity
  8
0
  6
Continuous
 62
     7
100
AcDbLine
 10
598.9449415202
 20
600.0842471101
 30
0.0
 11
598.9449415202
 21
599.3342471101
 31
0.0
  0
LINE
  5
510
330
1F
100
AcDbEntity
  8
0
  6
Continuous
 62
     7
100
AcDbLine
 10
601.8449415202
 20
608.7842471101
 30
0.0
 11
601.8449415202
 21
606.5342471101
 31
0.0
  0
LINE
  5
511
330
1F
100
AcDbEntity
  8
0
  6
Continuous
 62
     7
100
AcDbLine
 10
602.3449415202
 20
609.2842471101
 30
0.0
 11
601.8449415202
 21
608.7842471101
 31
0.0
  0
LINE
  5
512
330
1F
100
AcDbEntity
  8
0
  6
Continuous
 62
     7
100
AcDbLine
 10
610.7449415202
 20
-304.4157528899
 30
0.0
 11
610.7449415202
 21
-303.6657528899
 31
0.0
  0
LINE
  5
513
330
1F
100
AcDbEntity
  8
0
  6
Continuous
 62
     7
100
AcDbLine
 10
607.3449415202
 20
-313.6157528899
 30
0.0
 11
607.8449415202
 21
-313.1157528899
 31
0.0
  0
LINE
  5
514
330
1F
100
AcDbEntity
  8
0
  6
Continuous
 62
     7
100
AcDbLine
 10
607.8449415202
 20
-313.1157528899
 30
0.0
 11
607.8449415202
 21
-310.8657528899
 31
0.0
  0
LINE
  5
515
330
1F
100
AcDbEntity
  8
0
  6
Continuous
 62
     7
100
AcDbLine
 10
598.9449415202
 20
-303.6657528899
 30
0.0
 11
598.9449415202
 21
-304.4157528899
 31
0.0
  0
LINE
  5
516
330
1F
100
AcDbEntity
  8
0
  6
Continuous
 62
     7
100
AcDbLine
 10
601.8449415202
 20
-310.8657528899
 30
0.0
 11
601.8449415202
 21
-313.1157528899
 31
0.0
  0
LINE
  5
517
330
1F
100
AcDbEntity
  8
0
  6
Continuous
 62
     7
100
AcDbLine
 10
601.8449415202
 20
-313.1157528899
 30
0.0
 11
602.3449415202
 21
-313.6157528899
 31
0.0
  0
LINE
  5
518
330
1F
100
AcDbEntity
  8
0
  6
Continuous
 62
     7
100
AcDbLine
 10
607.8449415202
 20
599.3342471101
 30
0.0
 11
607.8449415202
 21
600.0842471101
 31
0.0
  0
LINE
  5
519
330
1F
100
AcDbEntity
  8
0
  6
Continuous
 62
     7
100
AcDbLine
 10
607.8449415202
 20
602.0842471101
 30
0.0
 11
607.8449415202
 21
606.5342471101
 31
0.0
  0
LINE
  5
51A
330
1F
100
AcDbEntity
  8
0
  6
Continuous
 62
     7
100
AcDbLine
 10
607.8449415202
 20
606.5342471101
 30
0.0
 11
607.3449415202
 21
607.0342471101
 31
0.0
  0
LINE
  5
51B
330
1F
100
AcDbEntity
  8
0
  6
Continuous
 62
     7
100
AcDbLine
 10
601.8449415202
 20
606.5342471101
 30
0.0
 11
601.8449415202
 21
602.0842471101
 31
0.0
  0
LINE
  5
51C
330
1F
100
AcDbEntity
  8
0
  6
Continuous
 62
     7
100
AcDbLine
 10
601.8449415202
 20
600.0842471101
 30
0.0
 11
601.8449415202
 21
599.3342471101
 31
0.0
  0
LINE
  5
51D
330
1F
100
AcDbEntity
  8
0
  6
Continuous
 62
     7
100
AcDbLine
 10
602.3449415202
 20
607.0342471101
 30
0.0
 11
601.8449415202
 21
606.5342471101
 31
0.0
  0
LINE
  5
51E
330
1F
100
AcDbEntity
  8
0
  6
Continuous
 62
     7
100
AcDbLine
 10
573.014570394
 20
-291.0857136161
 30
0.0
 11
573.6745777849
 21
-291.1420111175
 31
0.0
  0
ARC
  5
51F
330
1F
100
AcDbEntity
  8
0
  6
Continuous
 62
     7
100
AcDbCircle
 10
572.9970080867
 20
-290.6997308895
 30
0.0
 40
0.3863820646143401
100
AcDbArc
 50
246.8234755889
 51
272.6051749931
  0
LINE
  5
520
330
1F
100
AcDbEntity
  8
0
  6
Continuous
 62
     7
100
AcDbLine
 10
572.8449415202
 20
-291.054930635
 30
0.0
 11
572.8449415202
 21
-287.7829670806
 31
0.0
  0
LINE
  5
521
330
1F
100
AcDbEntity
  8
0
  6
Continuous
 62
     7
100
AcDbLine
 10
572.8449415202
 20
-294.0485386992
 30
0.0
 11
572.8449415202
 21
-291.054930635
 31
0.0
  0
LINE
  5
522
330
1F
100
AcDbEntity
  8
0
  6
Continuous
 62
     7
100
AcDbLine
 10
579.8449415202
 20
500.5842471101
 30
0.0
 11
540.3449415202
 21
500.5842471101
 31
0.0
  0
LINE
  5
523
330
1F
100
AcDbEntity
  8
0
  6
Continuous
 62
     7
100
AcDbLine
 10
540.3449415202
 20
-278.9157528899
 30
0.0
 11
579.8449415202
 21
-278.9157528899
 31
0.0
  0
LINE
  5
524
330
1F
100
AcDbEntity
  8
0
  6
Continuous
 62
     7
100
AcDbLine
 10
540.3449415202
 20
500.5842471101
 30
0.0
 11
540.3449415202
 21
-278.9157528899
 31
0.0
  0
LINE
  5
525
330
1F
100
AcDbEntity
  8
0
  6
Continuous
 62
     7
100
AcDbLine
 10
579.8449415202
 20
-276.9157528899
 30
0.0
 11
579.8449415202
 21
500.5842471101
 31
0.0
  0
LINE
  5
526
330
1F
100
AcDbEntity
  8
0
  6
Continuous
 62
     7
100
AcDbLine
 10
579.8449415202
 20
-297.9157528899
 30
0.0
 11
577.8449415202
 21
-297.9157528899
 31
0.0
  0
LINE
  5
527
330
1F
100
AcDbEntity
  8
0
  6
Continuous
 62
     7
100
AcDbLine
 10
577.8449415202
 20
-297.9157528899
 30
0.0
 11
577.8449415202
 21
-297.3157528899
 31
0.0
  0
LINE
  5
528
330
1F
100
AcDbEntity
  8
0
  6
Continuous
 62
     7
100
AcDbLine
 10
577.8449415202
 20
-279.9157528899
 30
0.0
 11
579.8449415202
 21
-279.9157528899
 31
0.0
  0
LINE
  5
529
330
1F
100
AcDbEntity
  8
0
  6
Continuous
 62
     7
100
AcDbLine
 10
577.8449415202
 20
-285.5157528899
 30
0.0
 11
577.8449415202
 21
-279.9157528899
 31
0.0
  0
LINE
  5
52A
330
1F
100
AcDbEntity
  8
0
  6
Continuous
 62
     7
100
AcDbLine
 10
577.8449415202
 20
-279.9157528899
 30
0.0
 11
577.8449415202
 21
-278.9157528899
 31
0.0
  0
LINE
  5
52B
330
1F
100
AcDbEntity
  8
0
  6
Continuous
 62
     7
100
AcDbLine
 10
559.8449415202
 20
500.5842471101
 30
0.0
 11
559.8449415202
 21
505.5842471101
 31
0.0
  0
LINE
  5
52C
330
1F
100
AcDbEntity
  8
0
  6
Continuous
 62
     7
100
AcDbLine
 10
547.8449415202
 20
500.5842471101
 30
0.0
 11
547.8449415202
 21
512.5842471101
 31
0.0
  0
ARC
  5
52D
330
1F
100
AcDbEntity
  8
0
  6
Continuous
 62
     7
100
AcDbCircle
 10
554.8449415202
 20
512.5842471101
 30
0.0
 40
7.0
100
AcDbArc
 50
90.0
 51
180.0
  0
LINE
  5
52E
330
1F
100
AcDbEntity
  8
0
  6
Continuous
 62
     7
100
AcDbLine
 10
554.8449415202
 20
519.5842471101
 30
0.0
 11
567.8449415202
 21
519.5842471101
 31
0.0
  0
LINE
  5
52F
330
1F
100
AcDbEntity
  8
0
  6
Continuous
 62
     7
100
AcDbLine
 10
559.8449415202
 20
505.5842471101
 30
0.0
 11
567.8449415202
 21
505.5842471101
 31
0.0
  0
LINE
  5
530
330
1F
100
AcDbEntity
  8
0
  6
Continuous
 62
     7
100
AcDbLine
 10
579.8449415202
 20
519.5842471101
 30
0.0
 11
567.8449415202
 21
519.5842471101
 31
0.0
  0
LINE
  5
531
330
1F
100
AcDbEntity
  8
0
  6
Continuous
 62
     7
100
AcDbLine
 10
579.8449415202
 20
505.5842471101
 30
0.0
 11
567.8449415202
 21
505.5842471101
 31
0.0
  0
ARC
  5
532
330
1F
100
AcDbEntity
  8
0
  6
Continuous
 62
     7
100
AcDbCircle
 10
567.8449415202
 20
512.5842471101
 30
0.0
 40
7.0
100
AcDbArc
 50
90.0
 51
270.0
  0
ARC
  5
533
330
1F
100
AcDbEntity
  8
0
  6
Continuous
 62
     7
100
AcDbCircle
 10
567.8449415202
 20
512.5842471101
 30
0.0
 40
3.0
100
AcDbArc
 50
90.0
 51
270.0
  0
ARC
  5
534
330
1F
100
AcDbEntity
  8
0
  6
Continuous
 62
     7
100
AcDbCircle
 10
567.8449415202
 20
512.5842471101
 30
0.0
 40
3.0
100
AcDbArc
 50
270.0
 51
90.0
  0
LINE
  5
535
330
1F
100
AcDbEntity
  8
0
  6
Continuous
 62
     7
100
AcDbLine
 10
601.8716939931
 20
608.7842471101
 30
0.0
 11
607.8449415202
 21
608.7842471101
 31
0.0
  0
LINE
  5
536
330
1F
100
AcDbEntity
  8
0
  6
Continuous
 62
     7
100
AcDbLine
 10
602.3672352477
 20
609.2842471101
 30
0.0
 11
601.8716939931
 21
608.7842471101
 31
0.0
  0
LINE
  5
537
330
1F
100
AcDbEntity
  8
0
  6
Continuous
 62
     7
100
AcDbLine
 10
602.3672352477
 20
609.2842471101
 30
0.0
 11
607.3449415202
 21
609.2842471101
 31
0.0
  0
LINE
  5
538
330
1F
100
AcDbEntity
  8
0
  6
Continuous
 62
     7
100
AcDbLine
 10
601.8449415202
 20
608.7842471101
 30
0.0
 11
601.8716939931
 21
608.7842471101
 31
0.0
  0
LINE
  5
539
330
1F
100
AcDbEntity
  8
0
  6
Continuous
 62
     7
100
AcDbLine
 10
602.3449415202
 20
609.2842471101
 30
0.0
 11
602.3672352477
 21
609.2842471101
 31
0.0
  0
LINE
  5
53A
330
1F
100
AcDbEntity
  8
0
  6
Continuous
 62
     7
100
AcDbLine
 10
610.7449415202
 20
599.3342471101
 30
0.0
 11
610.7449415202
 21
600.0842471101
 31
0.0
  0
LINE
  5
53B
330
1F
100
AcDbEntity
  8
0
  6
Continuous
 62
     7
100
AcDbLine
 10
607.8449415202
 20
608.7842471101
 30
0.0
 11
607.8449415202
 21
606.5342471101
 31
0.0
  0
LINE
  5
53C
330
1F
100
AcDbEntity
  8
0
  6
Continuous
 62
     7
100
AcDbLine
 10
598.9452920095
 20
-303.6657528899
 30
0.0
 11
598.9452920095
 21
-304.4157528899
 31
0.0
  0
LINE
  5
53D
330
1F
100
AcDbEntity
  8
0
  6
Continuous
 62
     7
100
AcDbLine
 10
610.7445910309
 20
-303.6657528899
 30
0.0
 11
610.7445910309
 21
-304.4157528899
 31
0.0
  0
LINE
  5
53E
330
1F
100
AcDbEntity
  8
0
  6
Continuous
 62
     7
100
AcDbLine
 10
607.8447633053
 20
-313.1157528899
 30
0.0
 11
607.8447633053
 21
-310.8659311048
 31
0.0
  0
LINE
  5
53F
330
1F
100
AcDbEntity
  8
0
  6
Continuous
 62
     7
100
AcDbLine
 10
607.8447633053
 20
-313.1157528899
 30
0.0
 11
601.8451197351
 21
-313.1157528899
 31
0.0
  0
LINE
  5
540
330
1F
100
AcDbEntity
  8
0
  6
Continuous
 62
     7
100
AcDbLine
 10
601.8451197351
 20
-313.1157528899
 30
0.0
 11
601.8451197351
 21
-310.8659311048
 31
0.0
  0
LINE
  5
541
330
1F
100
AcDbEntity
  8
0
  6
Continuous
 62
     7
100
AcDbLine
 10
602.3450900326
 20
-313.6157528899
 30
0.0
 11
601.8451197351
 21
-313.1157528899
 31
0.0
  0
LINE
  5
542
330
1F
100
AcDbEntity
  8
0
  6
Continuous
 62
     7
100
AcDbLine
 10
607.3447930078
 20
-313.6157528899
 30
0.0
 11
607.8447633053
 21
-313.1157528899
 31
0.0
  0
LINE
  5
543
330
1F
100
AcDbEntity
  8
0
  6
Continuous
 62
     7
100
AcDbLine
 10
607.3447930078
 20
-313.6157528899
 30
0.0
 11
602.3450900326
 21
-313.6157528899
 31
0.0
  0
LINE
  5
544
330
1F
100
AcDbEntity
  8
0
  6
Continuous
 62
     7
100
AcDbLine
 10
613.3449415202
 20
-301.1657528899
 30
0.0
 11
613.3449415202
 21
-303.6657528899
 31
0.0
  0
LINE
  5
545
330
1F
100
AcDbEntity
  8
0
  6
Continuous
 62
     7
100
AcDbLine
 10
613.3449415202
 20
-303.6657528899
 30
0.0
 11
596.3449415202
 21
-303.6657528899
 31
0.0
  0
LINE
  5
546
330
1F
100
AcDbEntity
  8
0
  6
Continuous
 62
     7
100
AcDbLine
 10
596.3449415202
 20
-301.1657528899
 30
0.0
 11
596.3449415202
 21
-303.6657528899
 31
0.0
  0
LINE
  5
547
330
1F
100
AcDbEntity
  8
0
  6
Continuous
 62
     7
100
AcDbLine
 10
596.3449415202
 20
-301.1657528899
 30
0.0
 11
595.3449415202
 21
-301.1657528899
 31
0.0
  0
LINE
  5
548
330
1F
100
AcDbEntity
  8
0
  6
Continuous
 62
     7
100
AcDbLine
 10
595.3449415202
 20
-301.1657528899
 30
0.0
 11
595.3449415202
 21
-302.1657528899
 31
0.0
  0
LINE
  5
549
330
1F
100
AcDbEntity
  8
0
  6
Continuous
 62
     7
100
AcDbLine
 10
584.3449415202
 20
-302.1657528899
 30
0.0
 11
595.3449415202
 21
-302.1657528899
 31
0.0
  0
LINE
  5
54A
330
1F
100
AcDbEntity
  8
0
  6
Continuous
 62
     7
100
AcDbLine
 10
584.3449415202
 20
-302.1657528899
 30
0.0
 11
581.8449415202
 21
-302.1657528899
 31
0.0
  0
LINE
  5
54B
330
1F
100
AcDbEntity
  8
0
  6
Continuous
 62
     7
100
AcDbLine
 10
581.8449415202
 20
597.8342471101
 30
0.0
 11
581.8449415202
 21
-302.1657528899
 31
0.0
  0
LINE
  5
54C
330
1F
100
AcDbEntity
  8
0
  6
Continuous
 62
     7
100
AcDbLine
 10
584.3449415202
 20
597.8342471101
 30
0.0
 11
581.8449415202
 21
597.8342471101
 31
0.0
  0
LINE
  5
54D
330
1F
100
AcDbEntity
  8
0
  6
Continuous
 62
     7
100
AcDbLine
 10
595.3449415202
 20
597.8342471101
 30
0.0
 11
584.3449415202
 21
597.8342471101
 31
0.0
  0
LINE
  5
54E
330
1F
100
AcDbEntity
  8
0
  6
Continuous
 62
     7
100
AcDbLine
 10
595.3449415202
 20
597.8342471101
 30
0.0
 11
595.3449415202
 21
596.8342471101
 31
0.0
  0
LINE
  5
54F
330
1F
100
AcDbEntity
  8
0
  6
Continuous
 62
     7
100
AcDbLine
 10
595.3449415202
 20
596.8342471101
 30
0.0
 11
596.3449415202
 21
596.8342471101
 31
0.0
  0
LINE
  5
550
330
1F
100
AcDbEntity
  8
0
  6
Continuous
 62
     7
100
AcDbLine
 10
596.3449415202
 20
596.8342471101
 30
0.0
 11
596.3449415202
 21
599.3342471101
 31
0.0
  0
LINE
  5
551
330
1F
100
AcDbEntity
  8
0
  6
Continuous
 62
     7
100
AcDbLine
 10
596.3449415202
 20
599.3342471101
 30
0.0
 11
613.3449415202
 21
599.3342471101
 31
0.0
  0
LINE
  5
552
330
1F
100
AcDbEntity
  8
0
  6
Continuous
 62
     7
100
AcDbLine
 10
613.3449415202
 20
596.8342471101
 30
0.0
 11
613.3449415202
 21
599.3342471101
 31
0.0
  0
LINE
  5
553
330
1F
100
AcDbEntity
  8
0
  6
Continuous
 62
     7
100
AcDbLine
 10
613.3449415202
 20
-301.1657528899
 30
0.0
 11
613.3449415202
 21
596.8342471101
 31
0.0
  0
LINE
  5
554
330
1F
100
AcDbEntity
  8
0
  6
Continuous
 62
     7
100
AcDbLine
 10
583.8449415202
 20
600.0842471101
 30
0.0
 11
583.8449415202
 21
602.0842471101
 31
0.0
  0
LINE
  5
555
330
1F
100
AcDbEntity
  8
0
  6
Continuous
 62
     7
100
AcDbLine
 10
613.3449415202
 20
602.0842471101
 30
0.0
 11
613.3449415202
 21
600.0842471101
 31
0.0
  0
LINE
  5
556
330
1F
100
AcDbEntity
  8
0
  6
Continuous
 62
     7
100
AcDbLine
 10
583.8449415202
 20
600.0842471101
 30
0.0
 11
613.3449415202
 21
600.0842471101
 31
0.0
  0
LINE
  5
557
330
1F
100
AcDbEntity
  8
0
  6
Continuous
 62
     7
100
AcDbLine
 10
583.8449415202
 20
602.0842471101
 30
0.0
 11
613.3449415202
 21
602.0842471101
 31
0.0
  0
LINE
  5
558
330
1F
100
AcDbEntity
  8
0
  6
Continuous
 62
     7
100
AcDbLine
 10
581.8449415202
 20
502.0842471101
 30
0.0
 11
579.8449415202
 21
502.0842471101
 31
0.0
  0
LINE
  5
559
330
1F
100
AcDbEntity
  8
0
  6
Continuous
 62
     7
100
AcDbLine
 10
579.8449415202
 20
502.0842471101
 30
0.0
 11
579.8449415202
 21
505.0842471101
 31
0.0
  0
LINE
  5
55A
330
1F
100
AcDbEntity
  8
0
  6
Continuous
 62
     7
100
AcDbLine
 10
579.8449415202
 20
505.0842471101
 30
0.0
 11
581.8449415202
 21
505.0842471101
 31
0.0
  0
LINE
  5
55B
330
1F
100
AcDbEntity
  8
0
  6
Continuous
 62
     7
100
AcDbLine
 10
581.8449415202
 20
598.0842471101
 30
0.0
 11
579.8449415202
 21
598.0842471101
 31
0.0
  0
LINE
  5
55C
330
1F
100
AcDbEntity
  8
0
  6
Continuous
 62
     7
100
AcDbLine
 10
581.8449415202
 20
597.8342471101
 30
0.0
 11
581.8449415202
 21
598.0842471101
 31
0.0
  0
LINE
  5
55D
330
1F
100
AcDbEntity
  8
0
  6
Continuous
 62
     7
100
AcDbLine
 10
579.8449415202
 20
505.0842471101
 30
0.0
 11
579.8449415202
 21
598.0842471101
 31
0.0
  0
LINE
  5
55E
330
1F
100
AcDbEntity
  8
0
  6
Continuous
 62
     7
100
AcDbLine
 10
579.8449415202
 20
598.0842471101
 30
0.0
 11
579.8449415202
 21
602.0842471101
 31
0.0
  0
LINE
  5
55F
330
1F
100
AcDbEntity
  8
0
  6
Continuous
 62
     7
100
AcDbLine
 10
581.8449415202
 20
598.0842471101
 30
0.0
 11
581.8449415202
 21
600.0842471101
 31
0.0
  0
LINE
  5
560
330
1F
100
AcDbEntity
  8
0
  6
Continuous
 62
     7
100
AcDbLine
 10
583.8449415202
 20
600.0842471101
 30
0.0
 11
581.8449415202
 21
600.0842471101
 31
0.0
  0
LINE
  5
561
330
1F
100
AcDbEntity
  8
0
  6
Continuous
 62
     7
100
AcDbLine
 10
583.8449415202
 20
602.0842471101
 30
0.0
 11
579.8449415202
 21
602.0842471101
 31
0.0
  0
LINE
  5
562
330
1F
100
AcDbEntity
  8
0
  6
Continuous
 62
     7
100
AcDbLine
 10
602.3449415202
 20
-311.3657528899
 30
0.0
 11
601.8449415202
 21
-310.8657528899
 31
0.0
  0
LINE
  5
563
330
1F
100
AcDbEntity
  8
0
  6
Continuous
 62
     7
100
AcDbLine
 10
607.8449415202
 20
-310.8657528899
 30
0.0
 11
601.8449415202
 21
-310.8657528899
 31
0.0
  0
LINE
  5
564
330
1F
100
AcDbEntity
  8
0
  6
Continuous
 62
     7
100
AcDbLine
 10
607.3449415202
 20
-311.3657528899
 30
0.0
 11
607.8449415202
 21
-310.8657528899
 31
0.0
  0
LINE
  5
565
330
1F
100
AcDbEntity
  8
0
  6
Continuous
 62
     7
100
AcDbLine
 10
607.3449415202
 20
-311.3657528899
 30
0.0
 11
602.3449415202
 21
-311.3657528899
 31
0.0
  0
LINE
  5
566
330
1F
100
AcDbEntity
  8
0
  6
Continuous
 62
     7
100
AcDbLine
 10
607.8449415202
 20
-310.8657528899
 30
0.0
 11
607.8449415202
 21
-305.9157528899
 31
0.0
  0
LINE
  5
567
330
1F
100
AcDbEntity
  8
0
  6
Continuous
 62
     7
100
AcDbLine
 10
607.8449415202
 20
-304.4157528899
 30
0.0
 11
607.8449415202
 21
-303.6657528899
 31
0.0
  0
LINE
  5
568
330
1F
100
AcDbEntity
  8
0
  6
Continuous
 62
     7
100
AcDbLine
 10
601.8449415202
 20
-310.8657528899
 30
0.0
 11
601.8449415202
 21
-305.9157528899
 31
0.0
  0
LINE
  5
569
330
1F
100
AcDbEntity
  8
0
  6
Continuous
 62
     7
100
AcDbLine
 10
601.8449415202
 20
-304.4157528899
 30
0.0
 11
601.8449415202
 21
-303.6657528899
 31
0.0
  0
LINE
  5
56A
330
1F
100
AcDbEntity
  8
0
  6
Continuous
 62
     7
100
AcDbLine
 10
577.0049489112
 20
-285.5157528899
 30
0.0
 11
579.8449415202
 21
-285.5157528899
 31
0.0
  0
LINE
  5
56B
330
1F
100
AcDbEntity
  8
0
  6
Continuous
 62
     7
100
AcDbLine
 10
577.0049489112
 20
-297.3157528899
 30
0.0
 11
579.8449415202
 21
-297.3157528899
 31
0.0
  0
LINE
  5
56C
330
1F
100
AcDbEntity
  8
0
  6
Continuous
 62
     7
100
AcDbLine
 10
577.0049489112
 20
-285.5157528899
 30
0.0
 11
577.0049489112
 21
-297.3157528899
 31
0.0
  0
ARC
  5
56D
330
1F
100
AcDbEntity
  8
0
  6
Continuous
 62
     7
100
AcDbCircle
 10
577.0049489112
 20
-287.0157528899
 30
0.0
 40
1.500000000001087
100
AcDbArc
 50
90.0
 51
152.4879973761
  0
ARC
  5
56E
330
1F
100
AcDbEntity
  8
0
  6
Continuous
 62
     7
100
AcDbCircle
 10
577.0049489112
 20
-295.8157528899
 30
0.0
 40
1.5
100
AcDbArc
 50
207.5120026238
 51
270.0
  0
LINE
  5
56F
330
1F
100
AcDbEntity
  8
0
  6
Continuous
 62
     7
100
AcDbLine
 10
575.6745777849
 20
-286.3228512617
 30
0.0
 11
575.6745777849
 21
-296.5086545182
 31
0.0
  0
LINE
  5
570
330
1F
100
AcDbEntity
  8
0
  6
Continuous
 62
     7
100
AcDbLine
 10
575.014570394
 20
-287.5900654523
 30
0.0
 11
575.6745777849
 21
-286.3228512617
 31
0.0
  0
LINE
  5
571
330
1F
100
AcDbEntity
  8
0
  6
Continuous
 62
     7
100
AcDbLine
 10
575.014570394
 20
-295.2414403275
 30
0.0
 11
575.6745777849
 21
-296.5086545182
 31
0.0
  0
LINE
  5
572
330
1F
100
AcDbEntity
  8
0
  6
Continuous
 62
     7
100
AcDbLine
 10
575.014570394
 20
-287.5900654523
 30
0.0
 11
575.014570394
 21
-295.2414403275
 31
0.0
  0
ARC
  5
573
330
1F
100
AcDbEntity
  8
0
  6
Continuous
 62
     7
100
AcDbCircle
 10
576.3449415202
 20
-288.2829670806
 30
0.0
 40
1.499999999999932
100
AcDbArc
 50
152.4879973761
 51
180.0
  0
ARC
  5
574
330
1F
100
AcDbEntity
  8
0
  6
Continuous
 62
     7
100
AcDbCircle
 10
576.3449415202
 20
-294.5485386993
 30
0.0
 40
1.499999999999985
100
AcDbArc
 50
180.0
 51
207.5120026239
  0
LINE
  5
575
330
1F
100
AcDbEntity
  8
0
  6
Continuous
 62
     7
100
AcDbLine
 10
574.8449415202
 20
-288.2829670806
 30
0.0
 11
574.8449415202
 21
-294.5485386993
 31
0.0
  0
LINE
  5
576
330
1F
100
AcDbEntity
  8
0
  6
Continuous
 62
     7
100
AcDbLine
 10
581.8449415202
 20
-294.4157528899
 30
0.0
 11
581.3449415202
 21
-294.4157528899
 31
0.0
  0
LINE
  5
577
330
1F
100
AcDbEntity
  8
0
  6
Continuous
 62
     7
100
AcDbLine
 10
581.8449415202
 20
-288.4157528899
 30
0.0
 11
581.3449415202
 21
-288.4157528899
 31
0.0
  0
LINE
  5
578
330
1F
100
AcDbEntity
  8
0
  6
Continuous
 62
     7
100
AcDbLine
 10
577.0049489112
 20
517.9842471101
 30
0.0
 11
577.0049489112
 21
506.1842471101
 31
0.0
  0
ARC
  5
579
330
1F
100
AcDbEntity
  8
0
  6
Continuous
 62
     7
100
AcDbCircle
 10
577.0049489112
 20
507.6842471101
 30
0.0
 40
1.499999999999943
100
AcDbArc
 50
207.5120026239
 51
270.0
  0
LINE
  5
57A
330
1F
100
AcDbEntity
  8
0
  6
Continuous
 62
     7
100
AcDbLine
 10
575.6745777849
 20
517.1771487383
 30
0.0
 11
575.6745777849
 21
506.9913454818
 31
0.0
  0
ARC
  5
57B
330
1F
100
AcDbEntity
  8
0
  6
Continuous
 62
     7
100
AcDbCircle
 10
577.0049489112
 20
516.4842471101
 30
0.0
 40
1.499999999999906
100
AcDbArc
 50
90.0
 51
152.4879973761
  0
LINE
  5
57C
330
1F
100
AcDbEntity
  8
0
  6
Continuous
 62
     7
100
AcDbLine
 10
577.0049489112
 20
506.1842471101
 30
0.0
 11
579.8449415202
 21
506.1842471101
 31
0.0
  0
LINE
  5
57D
330
1F
100
AcDbEntity
  8
0
  6
Continuous
 62
     7
100
AcDbLine
 10
577.0049489112
 20
517.9842471101
 30
0.0
 11
579.8449415202
 21
517.9842471101
 31
0.0
  0
LINE
  5
57E
330
1F
100
AcDbEntity
  8
0
  6
Continuous
 62
     7
100
AcDbLine
 10
575.014570394
 20
508.2585596725
 30
0.0
 11
575.6745777849
 21
506.9913454818
 31
0.0
  0
LINE
  5
57F
330
1F
100
AcDbEntity
  8
0
  6
Continuous
 62
     7
100
AcDbLine
 10
575.014570394
 20
515.9099345477
 30
0.0
 11
575.014570394
 21
508.2585596725
 31
0.0
  0
LINE
  5
580
330
1F
100
AcDbEntity
  8
0
  6
Continuous
 62
     7
100
AcDbLine
 10
575.014570394
 20
515.9099345477
 30
0.0
 11
575.6745777849
 21
517.1771487383
 31
0.0
  0
ARC
  5
581
330
1F
100
AcDbEntity
  8
0
  6
Continuous
 62
     7
100
AcDbCircle
 10
576.3449415202
 20
508.9514613007
 30
0.0
 40
1.499999999999906
100
AcDbArc
 50
180.0
 51
207.5120026239
  0
LINE
  5
582
330
1F
100
AcDbEntity
  8
0
  6
Continuous
 62
     7
100
AcDbLine
 10
574.8449415202
 20
515.2170329194
 30
0.0
 11
574.8449415202
 21
508.9514613007
 31
0.0
  0
ARC
  5
583
330
1F
100
AcDbEntity
  8
0
  6
Continuous
 62
     7
100
AcDbCircle
 10
576.3449415202
 20
515.2170329194
 30
0.0
 40
1.499999999999958
100
AcDbArc
 50
152.4879973761
 51
180.0
  0
LINE
  5
584
330
1F
100
AcDbEntity
  8
0
  6
Continuous
 62
     7
100
AcDbLine
 10
577.0049489112
 20
592.9842471101
 30
0.0
 11
577.0049489112
 21
581.1842471101
 31
0.0
  0
ARC
  5
585
330
1F
100
AcDbEntity
  8
0
  6
Continuous
 62
     7
100
AcDbCircle
 10
577.0049489112
 20
582.6842471101
 30
0.0
 40
1.5
100
AcDbArc
 50
207.5120026238
 51
270.0
  0
LINE
  5
586
330
1F
100
AcDbEntity
  8
0
  6
Continuous
 62
     7
100
AcDbLine
 10
575.6745777849
 20
592.1771487383
 30
0.0
 11
575.6745777849
 21
581.9913454818
 31
0.0
  0
ARC
  5
587
330
1F
100
AcDbEntity
  8
0
  6
Continuous
 62
     7
100
AcDbCircle
 10
577.0049489112
 20
591.4842471101
 30
0.0
 40
1.500000000000169
100
AcDbArc
 50
90.0
 51
152.4879973761
  0
LINE
  5
588
330
1F
100
AcDbEntity
  8
0
  6
Continuous
 62
     7
100
AcDbLine
 10
577.0049489112
 20
581.1842471101
 30
0.0
 11
579.8449415202
 21
581.1842471101
 31
0.0
  0
LINE
  5
589
330
1F
100
AcDbEntity
  8
0
  6
Continuous
 62
     7
100
AcDbLine
 10
577.0049489112
 20
592.9842471101
 30
0.0
 11
579.8449415202
 21
592.9842471101
 31
0.0
  0
LINE
  5
58A
330
1F
100
AcDbEntity
  8
0
  6
Continuous
 62
     7
100
AcDbLine
 10
575.014570394
 20
583.2585596725
 30
0.0
 11
575.6745777849
 21
581.9913454818
 31
0.0
  0
LINE
  5
58B
330
1F
100
AcDbEntity
  8
0
  6
Continuous
 62
     7
100
AcDbLine
 10
575.014570394
 20
590.9099345477
 30
0.0
 11
575.014570394
 21
583.2585596725
 31
0.0
  0
LINE
  5
58C
330
1F
100
AcDbEntity
  8
0
  6
Continuous
 62
     7
100
AcDbLine
 10
575.014570394
 20
590.9099345477
 30
0.0
 11
575.6745777849
 21
592.1771487383
 31
0.0
  0
ARC
  5
58D
330
1F
100
AcDbEntity
  8
0
  6
Continuous
 62
     7
100
AcDbCircle
 10
576.3449415202
 20
583.9514613007
 30
0.0
 40
1.500000000000169
100
AcDbArc
 50
180.0
 51
207.5120026239
  0
LINE
  5
58E
330
1F
100
AcDbEntity
  8
0
  6
Continuous
 62
     7
100
AcDbLine
 10
574.8449415202
 20
590.2170329194
 30
0.0
 11
574.8449415202
 21
583.9514613007
 31
0.0
  0
ARC
  5
58F
330
1F
100
AcDbEntity
  8
0
  6
Continuous
 62
     7
100
AcDbCircle
 10
576.3449415202
 20
590.2170329194
 30
0.0
 40
1.499999999999886
100
AcDbArc
 50
152.4879973762
 51
180.0
  0
LINE
  5
590
330
1F
100
AcDbEntity
  8
0
  6
Continuous
 62
     7
100
AcDbLine
 10
601.8737135593
 20
606.5342471101
 30
0.0
 11
607.8449415202
 21
606.5342471101
 31
0.0
  0
LINE
  5
591
330
1F
100
AcDbEntity
  8
0
  6
Continuous
 62
     7
100
AcDbLine
 10
602.3689182195
 20
607.0342471101
 30
0.0
 11
601.8737135593
 21
606.5342471101
 31
0.0
  0
LINE
  5
592
330
1F
100
AcDbEntity
  8
0
  6
Continuous
 62
     7
100
AcDbLine
 10
602.3689182195
 20
607.0342471101
 30
0.0
 11
607.3449415202
 21
607.0342471101
 31
0.0
  0
LINE
  5
593
330
1F
100
AcDbEntity
  8
0
  6
Continuous
 62
     7
100
AcDbLine
 10
601.8449415202
 20
606.5342471101
 30
0.0
 11
601.8737135593
 21
606.5342471101
 31
0.0
  0
LINE
  5
594
330
1F
100
AcDbEntity
  8
0
  6
Continuous
 62
     7
100
AcDbLine
 10
602.3449415202
 20
607.0342471101
 30
0.0
 11
602.3689182195
 21
607.0342471101
 31
0.0
  0
LINE
  5
595
330
1F
100
AcDbEntity
  8
0
  6
Continuous
 62
     7
100
AcDbLine
 10
610.3449415202
 20
-305.9157528899
 30
0.0
 11
610.3449415202
 21
-304.4157528899
 31
0.0
  0
LINE
  5
596
330
1F
100
AcDbEntity
  8
0
  6
Continuous
 62
     7
100
AcDbLine
 10
613.3449415202
 20
-304.4157528899
 30
0.0
 11
613.3449415202
 21
-305.9157528899
 31
0.0
  0
LINE
  5
597
330
1F
100
AcDbEntity
  8
0
  6
Continuous
 62
     7
100
AcDbLine
 10
613.3449415202
 20
-305.9157528899
 30
0.0
 11
610.3449415202
 21
-305.9157528899
 31
0.0
  0
LINE
  5
598
330
1F
100
AcDbEntity
  8
0
  6
Continuous
 62
     7
100
AcDbLine
 10
610.3449415202
 20
-304.4157528899
 30
0.0
 11
613.3449415202
 21
-304.4157528899
 31
0.0
  0
LINE
  5
599
330
1F
100
AcDbEntity
  8
0
  6
Continuous
 62
     7
100
AcDbLine
 10
582.3449415202
 20
-304.4157528899
 30
0.0
 11
582.3449415202
 21
-305.9157528899
 31
0.0
  0
LINE
  5
59A
330
1F
100
AcDbEntity
  8
0
  6
Continuous
 62
     7
100
AcDbLine
 10
610.3449415202
 20
-305.9157528899
 30
0.0
 11
582.3449415202
 21
-305.9157528899
 31
0.0
  0
LINE
  5
59B
330
1F
100
AcDbEntity
  8
0
  6
Continuous
 62
     7
100
AcDbLine
 10
610.3449415202
 20
-304.4157528899
 30
0.0
 11
582.3449415202
 21
-304.4157528899
 31
0.0
  0
LINE
  5
59C
330
1F
100
AcDbEntity
  8
0
  6
Continuous
 62
     7
100
AcDbLine
 10
581.3449415202
 20
-303.4157528899
 30
0.0
 11
579.8449415202
 21
-303.4157528899
 31
0.0
  0
LINE
  5
59D
330
1F
100
AcDbEntity
  8
0
  6
Continuous
 62
     7
100
AcDbLine
 10
581.3449415202
 20
-303.4157528899
 30
0.0
 11
581.3449415202
 21
-304.4157528899
 31
0.0
  0
LINE
  5
59E
330
1F
100
AcDbEntity
  8
0
  6
Continuous
 62
     7
100
AcDbLine
 10
579.8449415202
 20
-303.4157528899
 30
0.0
 11
579.8449415202
 21
-305.9157528899
 31
0.0
  0
LINE
  5
59F
330
1F
100
AcDbEntity
  8
0
  6
Continuous
 62
     7
100
AcDbLine
 10
582.3449415202
 20
-305.9157528899
 30
0.0
 11
579.8449415202
 21
-305.9157528899
 31
0.0
  0
LINE
  5
5A0
330
1F
100
AcDbEntity
  8
0
  6
Continuous
 62
     7
100
AcDbLine
 10
582.3449415202
 20
-304.4157528899
 30
0.0
 11
581.3449415202
 21
-304.4157528899
 31
0.0
  0
LINE
  5
5A1
330
1F
100
AcDbEntity
  8
0
  6
Continuous
 62
     7
100
AcDbLine
 10
581.3449415202
 20
-279.9157528899
 30
0.0
 11
579.8449415202
 21
-279.9157528899
 31
0.0
  0
LINE
  5
5A2
330
1F
100
AcDbEntity
  8
0
  6
Continuous
 62
     7
100
AcDbLine
 10
581.3449415202
 20
-303.4157528899
 30
0.0
 11
581.3449415202
 21
-279.9157528899
 31
0.0
  0
LINE
  5
5A3
330
1F
100
AcDbEntity
  8
0
  6
Continuous
 62
     7
100
AcDbLine
 10
579.8449415202
 20
-303.4157528899
 30
0.0
 11
579.8449415202
 21
-279.9157528899
 31
0.0
  0
LINE
  5
5A4
330
1F
100
AcDbEntity
  8
0
  6
Continuous
 62
     7
100
AcDbLine
 10
579.8449415202
 20
-276.9157528899
 30
0.0
 11
581.3449415202
 21
-276.9157528899
 31
0.0
  0
LINE
  5
5A5
330
1F
100
AcDbEntity
  8
0
  6
Continuous
 62
     7
100
AcDbLine
 10
581.3449415202
 20
-276.9157528899
 30
0.0
 11
581.3449415202
 21
-279.9157528899
 31
0.0
  0
LINE
  5
5A6
330
1F
100
AcDbEntity
  8
0
  6
Continuous
 62
     7
100
AcDbLine
 10
579.8449415202
 20
-279.9157528899
 30
0.0
 11
579.8449415202
 21
-276.9157528899
 31
0.0
  0
LINE
  5
5A7
330
1F
100
AcDbEntity
  8
0
  6
Continuous
 62
     7
100
AcDbLine
 10
581.3449415202
 20
-298.5024787671
 30
0.0
 11
581.8449415202
 21
-298.5024787671
 31
0.0
  0
LINE
  5
5A8
330
1F
100
AcDbEntity
  8
0
  6
Continuous
 62
     7
100
AcDbLine
 10
581.8449415202
 20
-276.9657528899
 30
0.0
 11
581.3449415202
 21
-276.9657528899
 31
0.0
  0
LINE
  5
5A9
330
1F
100
AcDbEntity
  8
0
  6
Continuous
 62
     7
100
AcDbLine
 10
575.0049489112
 20
-287.6088604067
 30
0.0
 11
575.0049489112
 21
-285.0157528899
 31
0.0
  0
ARC
  5
5AA
330
1F
100
AcDbEntity
  8
0
  6
Continuous
 62
     7
100
AcDbCircle
 10
574.8034036887
 20
-273.2248141925
 30
0.0
 40
17.95272106310879
100
AcDbArc
 50
266.3949947348
 51
270.1325673447
  0
LINE
  5
5AB
330
1F
100
AcDbEntity
  8
0
  6
Continuous
 62
     7
100
AcDbLine
 10
573.6745777849
 20
-291.1420111175
 30
0.0
 11
573.6745777849
 21
-285.8228512616
 31
0.0
  0
LINE
  5
5AC
330
1F
100
AcDbEntity
  8
0
  6
Continuous
 62
     7
100
AcDbLine
 10
575.0049489112
 20
-296.8157528899
 30
0.0
 11
575.0049489112
 21
-295.2226453731
 31
0.0
  0
LINE
  5
5AD
330
1F
100
AcDbEntity
  8
0
  6
Continuous
 62
     7
100
AcDbLine
 10
573.6745777849
 20
-296.0086545182
 30
0.0
 11
573.6745777849
 21
-291.1420111175
 31
0.0
  0
LINE
  5
5AE
330
1F
100
AcDbEntity
  8
0
  6
Continuous
 62
     7
100
AcDbLine
 10
573.014570394
 20
-291.0857136161
 30
0.0
 11
573.014570394
 21
-287.0900654523
 31
0.0
  0
LINE
  5
5AF
330
1F
100
AcDbEntity
  8
0
  6
Continuous
 62
     7
100
AcDbLine
 10
573.014570394
 20
-294.7414403275
 30
0.0
 11
573.014570394
 21
-291.0857136161
 31
0.0
  0
LINE
  5
5B0
330
1F
100
AcDbEntity
  8
0
  6
Continuous
 62
     7
100
AcDbLine
 10
598.997554717
 20
599.3342471101
 30
0.0
 11
598.997554717
 21
600.0842471101
 31
0.0
  0
LINE
  5
5B1
330
1F
100
AcDbEntity
  8
0
  6
Continuous
 62
     7
100
AcDbLine
 10
601.8716939931
 20
608.7842471101
 30
0.0
 11
601.8716939931
 21
606.560999583
 31
0.0
  0
LINE
  5
5B2
330
1F
100
AcDbEntity
  8
0
  6
Continuous
 62
     7
100
AcDbLine
 10
601.8737135593
 20
606.5342471101
 30
0.0
 11
601.8737135593
 21
602.0842471101
 31
0.0
  0
LINE
  5
5B3
330
1F
100
AcDbEntity
  8
0
  6
Continuous
 62
     7
100
AcDbLine
 10
601.8737135593
 20
600.0842471101
 30
0.0
 11
601.8737135593
 21
599.3342471101
 31
0.0
  0
LINE
  5
5B4
330
1F
100
AcDbEntity
  8
0
  6
Continuous
 62
     7
100
AcDbLine
 10
771.2638918482
 20
-409.8389443796
 30
0.0
 11
787.5138918482
 21
-409.8389443796
 31
0.0
  0
LINE
  5
5B5
330
1F
100
AcDbEntity
  8
0
  6
Continuous
 62
     7
100
AcDbLine
 10
737.5138918482
 20
-409.8389443796
 30
0.0
 11
753.7638918482
 21
-409.8389443796
 31
0.0
  0
LINE
  5
5B6
330
1F
100
AcDbEntity
  8
0
  6
Continuous
 62
     7
100
AcDbLine
 10
971.2638918482
 20
-409.8389443796
 30
0.0
 11
987.5138918482
 21
-409.8389443796
 31
0.0
  0
LINE
  5
5B7
330
1F
100
AcDbEntity
  8
0
  6
Continuous
 62
     7
100
AcDbLine
 10
937.5138918482
 20
-409.8389443796
 30
0.0
 11
953.7638918482
 21
-409.8389443796
 31
0.0
  0
ARC
  5
5B8
330
1F
100
AcDbEntity
  8
0
  6
Continuous
 62
     7
100
AcDbCircle
 10
1039.3638918482
 20
-393.6789369886
 30
0.0
 40
1.500000000000007
100
AcDbArc
 50
180.0
 51
242.4879973762
  0
LINE
  5
5B9
330
1F
100
AcDbEntity
  8
0
  6
Continuous
 62
     7
100
AcDbLine
 10
1037.8638918482
 20
-390.8389443796
 30
0.0
 11
1037.8638918482
 21
-393.6789369886
 31
0.0
  0
ARC
  5
5BA
330
1F
100
AcDbEntity
  8
0
  6
Continuous
 62
     7
100
AcDbCircle
 10
1048.1638918482
 20
-393.6789369886
 30
0.0
 40
1.500000000000007
100
AcDbArc
 50
297.5120026239
 51
0.0
  0
LINE
  5
5BB
330
1F
100
AcDbEntity
  8
0
  6
Continuous
 62
     7
100
AcDbLine
 10
1049.6638918482
 20
-393.6789369886
 30
0.0
 11
1049.6638918482
 21
-390.8389443796
 31
0.0
  0
LINE
  5
5BC
330
1F
100
AcDbEntity
  8
0
  6
Continuous
 62
     7
100
AcDbLine
 10
1047.5895792858
 20
-395.6693155059
 30
0.0
 11
1048.8567934764
 21
-395.0093081149
 31
0.0
  0
LINE
  5
5BD
330
1F
100
AcDbEntity
  8
0
  6
Continuous
 62
     7
100
AcDbLine
 10
1038.6709902199
 20
-395.0093081149
 30
0.0
 11
1039.9382044106
 21
-395.6693155059
 31
0.0
  0
ARC
  5
5BE
330
1F
100
AcDbEntity
  8
0
  6
Continuous
 62
     7
100
AcDbCircle
 10
1040.6311060388
 20
-394.3389443796
 30
0.0
 40
1.500000000000061
100
AcDbArc
 50
242.4879973761
 51
270.0
  0
ARC
  5
5BF
330
1F
100
AcDbEntity
  8
0
  6
Continuous
 62
     7
100
AcDbCircle
 10
1046.8966776575
 20
-394.3389443796
 30
0.0
 40
1.500000000000061
100
AcDbArc
 50
270.0
 51
297.5120026239
  0
LINE
  5
5C0
330
1F
100
AcDbEntity
  8
0
  6
Continuous
 62
     7
100
AcDbLine
 10
687.1638918482
 20
-393.6789369886
 30
0.0
 11
687.1638918482
 21
-390.8389443796
 31
0.0
  0
ARC
  5
5C1
330
1F
100
AcDbEntity
  8
0
  6
Continuous
 62
     7
100
AcDbCircle
 10
676.8638918482
 20
-393.6789369886
 30
0.0
 40
1.500000000000059
100
AcDbArc
 50
180.0
 51
242.4879973761
  0
ARC
  5
5C2
330
1F
100
AcDbEntity
  8
0
  6
Continuous
 62
     7
100
AcDbCircle
 10
685.6638918482
 20
-393.6789369886
 30
0.0
 40
1.500000000000114
100
AcDbArc
 50
297.5120026239
 51
0.0
  0
LINE
  5
5C3
330
1F
100
AcDbEntity
  8
0
  6
Continuous
 62
     7
100
AcDbLine
 10
675.3638918482
 20
-390.8389443796
 30
0.0
 11
675.3638918482
 21
-393.6789369886
 31
0.0
  0
LINE
  5
5C4
330
1F
100
AcDbEntity
  8
0
  6
Continuous
 62
     7
100
AcDbLine
 10
676.1709902199
 20
-395.0093081149
 30
0.0
 11
677.4382044106
 21
-395.6693155059
 31
0.0
  0
LINE
  5
5C5
330
1F
100
AcDbEntity
  8
0
  6
Continuous
 62
     7
100
AcDbLine
 10
685.0895792858
 20
-395.6693155059
 30
0.0
 11
686.3567934764
 21
-395.0093081149
 31
0.0
  0
ARC
  5
5C6
330
1F
100
AcDbEntity
  8
0
  6
Continuous
 62
     7
100
AcDbCircle
 10
684.3966776575
 20
-394.3389443796
 30
0.0
 40
1.5
100
AcDbArc
 50
270.0
 51
297.5120026238
  0
ARC
  5
5C7
330
1F
100
AcDbEntity
  8
0
  6
Continuous
 62
     7
100
AcDbCircle
 10
678.1311060388
 20
-394.3389443796
 30
0.0
 40
1.5
100
AcDbArc
 50
242.4879973762
 51
270.0
  0
LINE
  5
5C8
330
1F
100
AcDbEntity
  8
0
  6
Continuous
 62
     7
100
AcDbLine
 10
1025.0138918482
 20
-390.8389443796
 30
0.0
 11
1025.0138918482
 21
-430.3389443796
 31
0.0
  0
LINE
  5
5C9
330
1F
100
AcDbEntity
  8
0
  6
Continuous
 62
     7
100
AcDbLine
 10
700.0138918482
 20
-430.3389443796
 30
0.0
 11
1025.0138918482
 21
-430.3389443796
 31
0.0
  0
LINE
  5
5CA
330
1F
100
AcDbEntity
  8
0
  6
Continuous
 62
     7
100
AcDbLine
 10
700.0138918482
 20
-390.8389443796
 30
0.0
 11
700.0138918482
 21
-430.3389443796
 31
0.0
  0
LINE
  5
5CB
330
1F
100
AcDbEntity
  8
0
  6
Continuous
 62
     7
100
AcDbLine
 10
753.7638918482
 20
-402.8389443796
 30
0.0
 11
771.2638918482
 21
-402.8389443796
 31
0.0
  0
LINE
  5
5CC
330
1F
100
AcDbEntity
  8
0
  6
Continuous
 62
     7
100
AcDbLine
 10
753.7638918482
 20
-395.8389443796
 30
0.0
 11
771.2638918482
 21
-395.8389443796
 31
0.0
  0
LINE
  5
5CD
330
1F
100
AcDbEntity
  8
0
  6
Continuous
 62
     7
100
AcDbLine
 10
753.7638918482
 20
-415.8389443796
 30
0.0
 11
771.2638918482
 21
-415.8389443796
 31
0.0
  0
LINE
  5
5CE
330
1F
100
AcDbEntity
  8
0
  6
Continuous
 62
     7
100
AcDbLine
 10
753.7638918482
 20
-415.8389443796
 30
0.0
 11
753.7638918482
 21
-402.8389443796
 31
0.0
  0
LINE
  5
5CF
330
1F
100
AcDbEntity
  8
0
  6
Continuous
 62
     7
100
AcDbLine
 10
771.2638918482
 20
-415.8389443796
 30
0.0
 11
771.2638918482
 21
-402.8389443796
 31
0.0
  0
LINE
  5
5D0
330
1F
100
AcDbEntity
  8
0
  6
Continuous
 62
     7
100
AcDbLine
 10
753.7638918482
 20
-422.8389443796
 30
0.0
 11
771.2638918482
 21
-422.8389443796
 31
0.0
  0
LINE
  5
5D1
330
1F
100
AcDbEntity
  8
0
  6
Continuous
 62
     7
100
AcDbLine
 10
753.7638918482
 20
-422.8389443796
 30
0.0
 11
753.7638918482
 21
-415.8389443796
 31
0.0
  0
LINE
  5
5D2
330
1F
100
AcDbEntity
  8
0
  6
Continuous
 62
     7
100
AcDbLine
 10
771.2638918482
 20
-422.8389443796
 30
0.0
 11
771.2638918482
 21
-415.8389443796
 31
0.0
  0
LINE
  5
5D3
330
1F
100
AcDbEntity
  8
0
  6
Continuous
 62
     7
100
AcDbLine
 10
953.7638918482
 20
-402.8389443796
 30
0.0
 11
971.2638918482
 21
-402.8389443796
 31
0.0
  0
LINE
  5
5D4
330
1F
100
AcDbEntity
  8
0
  6
Continuous
 62
     7
100
AcDbLine
 10
953.7638918482
 20
-395.8389443796
 30
0.0
 11
971.2638918482
 21
-395.8389443796
 31
0.0
  0
LINE
  5
5D5
330
1F
100
AcDbEntity
  8
0
  6
Continuous
 62
     7
100
AcDbLine
 10
953.7638918482
 20
-415.8389443796
 30
0.0
 11
971.2638918482
 21
-415.8389443796
 31
0.0
  0
LINE
  5
5D6
330
1F
100
AcDbEntity
  8
0
  6
Continuous
 62
     7
100
AcDbLine
 10
953.7638918482
 20
-415.8389443796
 30
0.0
 11
953.7638918482
 21
-402.8389443796
 31
0.0
  0
LINE
  5
5D7
330
1F
100
AcDbEntity
  8
0
  6
Continuous
 62
     7
100
AcDbLine
 10
971.2638918482
 20
-415.8389443796
 30
0.0
 11
971.2638918482
 21
-402.8389443796
 31
0.0
  0
LINE
  5
5D8
330
1F
100
AcDbEntity
  8
0
  6
Continuous
 62
     7
100
AcDbLine
 10
953.7638918482
 20
-422.8389443796
 30
0.0
 11
971.2638918482
 21
-422.8389443796
 31
0.0
  0
LINE
  5
5D9
330
1F
100
AcDbEntity
  8
0
  6
Continuous
 62
     7
100
AcDbLine
 10
953.7638918482
 20
-422.8389443796
 30
0.0
 11
953.7638918482
 21
-415.8389443796
 31
0.0
  0
LINE
  5
5DA
330
1F
100
AcDbEntity
  8
0
  6
Continuous
 62
     7
100
AcDbLine
 10
971.2638918482
 20
-422.8389443796
 30
0.0
 11
971.2638918482
 21
-415.8389443796
 31
0.0
  0
LINE
  5
5DB
330
1F
100
AcDbEntity
  8
0
  6
Continuous
 62
     7
100
AcDbLine
 10
771.2638918482
 20
-394.8389443796
 30
0.0
 11
753.7638918482
 21
-394.8389443796
 31
0.0
  0
LINE
  5
5DC
330
1F
100
AcDbEntity
  8
0
  6
Continuous
 62
     7
100
AcDbLine
 10
753.7638918482
 20
-394.8389443796
 30
0.0
 11
753.7638918482
 21
-402.8389443796
 31
0.0
  0
LINE
  5
5DD
330
1F
100
AcDbEntity
  8
0
  6
Continuous
 62
     7
100
AcDbLine
 10
737.5138918482
 20
-402.8389443796
 30
0.0
 11
753.7638918482
 21
-402.8389443796
 31
0.0
  0
LINE
  5
5DE
330
1F
100
AcDbEntity
  8
0
  6
Continuous
 62
     7
100
AcDbLine
 10
737.5138918482
 20
-390.8389443796
 30
0.0
 11
737.5138918482
 21
-402.8389443796
 31
0.0
  0
LINE
  5
5DF
330
1F
100
AcDbEntity
  8
0
  6
Continuous
 62
     7
100
AcDbLine
 10
771.2638918482
 20
-402.8389443796
 30
0.0
 11
787.5138918482
 21
-402.8389443796
 31
0.0
  0
LINE
  5
5E0
330
1F
100
AcDbEntity
  8
0
  6
Continuous
 62
     7
100
AcDbLine
 10
771.2638918482
 20
-402.8389443796
 30
0.0
 11
771.2638918482
 21
-394.8389443796
 31
0.0
  0
LINE
  5
5E1
330
1F
100
AcDbEntity
  8
0
  6
Continuous
 62
     7
100
AcDbLine
 10
787.5138918482
 20
-390.8389443796
 30
0.0
 11
787.5138918482
 21
-402.8389443796
 31
0.0
  0
LINE
  5
5E2
330
1F
100
AcDbEntity
  8
0
  6
Continuous
 62
     7
100
AcDbLine
 10
787.5138918482
 20
-409.8389443796
 30
0.0
 11
787.5138918482
 21
-402.8389443796
 31
0.0
  0
LINE
  5
5E3
330
1F
100
AcDbEntity
  8
0
  6
Continuous
 62
     7
100
AcDbLine
 10
737.5138918482
 20
-409.8389443796
 30
0.0
 11
737.5138918482
 21
-402.8389443796
 31
0.0
  0
LINE
  5
5E4
330
1F
100
AcDbEntity
  8
0
  6
Continuous
 62
     7
100
AcDbLine
 10
971.2638918482
 20
-394.8389443796
 30
0.0
 11
953.7638918482
 21
-394.8389443796
 31
0.0
  0
LINE
  5
5E5
330
1F
100
AcDbEntity
  8
0
  6
Continuous
 62
     7
100
AcDbLine
 10
953.7638918482
 20
-394.8389443796
 30
0.0
 11
953.7638918482
 21
-402.8389443796
 31
0.0
  0
LINE
  5
5E6
330
1F
100
AcDbEntity
  8
0
  6
Continuous
 62
     7
100
AcDbLine
 10
937.5138918482
 20
-402.8389443796
 30
0.0
 11
953.7638918482
 21
-402.8389443796
 31
0.0
  0
LINE
  5
5E7
330
1F
100
AcDbEntity
  8
0
  6
Continuous
 62
     7
100
AcDbLine
 10
937.5138918482
 20
-390.8389443796
 30
0.0
 11
937.5138918482
 21
-402.8389443796
 31
0.0
  0
LINE
  5
5E8
330
1F
100
AcDbEntity
  8
0
  6
Continuous
 62
     7
100
AcDbLine
 10
987.5138918482
 20
-390.8389443796
 30
0.0
 11
987.5138918482
 21
-402.8389443796
 31
0.0
  0
LINE
  5
5E9
330
1F
100
AcDbEntity
  8
0
  6
Continuous
 62
     7
100
AcDbLine
 10
971.2638918482
 20
-402.8389443796
 30
0.0
 11
987.5138918482
 21
-402.8389443796
 31
0.0
  0
LINE
  5
5EA
330
1F
100
AcDbEntity
  8
0
  6
Continuous
 62
     7
100
AcDbLine
 10
971.2638918482
 20
-402.8389443796
 30
0.0
 11
971.2638918482
 21
-394.8389443796
 31
0.0
  0
LINE
  5
5EB
330
1F
100
AcDbEntity
  8
0
  6
Continuous
 62
     7
100
AcDbLine
 10
987.5138918482
 20
-409.8389443796
 30
0.0
 11
987.5138918482
 21
-402.8389443796
 31
0.0
  0
LINE
  5
5EC
330
1F
100
AcDbEntity
  8
0
  6
Continuous
 62
     7
100
AcDbLine
 10
937.5138918482
 20
-409.8389443796
 30
0.0
 11
937.5138918482
 21
-402.8389443796
 31
0.0
  0
LINE
  5
5ED
330
1F
100
AcDbEntity
  8
0
  6
Continuous
 62
     7
100
AcDbLine
 10
937.8470158896
 20
-368.3166506522
 30
0.0
 11
937.9136406979
 21
-368.8121919067
 31
0.0
  0
ARC
  5
5EE
330
1F
100
AcDbEntity
  8
0
  6
Continuous
 62
     7
100
AcDbCircle
 10
937.5138918482
 20
-365.8389443796
 30
0.0
 40
3.000000000000033
100
AcDbArc
 50
97.6574158572
 51
277.6574158572
  0
LINE
  5
5EF
330
1F
100
AcDbEntity
  8
0
  6
Continuous
 62
     7
100
AcDbLine
 10
937.1807678068
 20
-363.3612381071
 30
0.0
 11
937.1141429985
 21
-362.8656968525
 31
0.0
  0
ARC
  5
5F0
330
1F
100
AcDbEntity
  8
0
  6
Continuous
 62
     7
100
AcDbCircle
 10
937.5138918482
 20
-365.8389443796
 30
0.0
 40
2.500000000000067
100
AcDbArc
 50
97.6574158572
 51
277.6574158572
  0
ARC
  5
5F1
330
1F
100
AcDbEntity
  8
0
  6
Continuous
 62
     7
100
AcDbCircle
 10
937.5138918482
 20
-365.8389443796
 30
0.0
 40
2.500000000000067
100
AcDbArc
 50
277.6574158572
 51
97.6574158572
  0
ARC
  5
5F2
330
1F
100
AcDbEntity
  8
0
  6
Continuous
 62
     7
100
AcDbCircle
 10
937.5138918482
 20
-365.8389443796
 30
0.0
 40
3.000000000000033
100
AcDbArc
 50
277.6574158572
 51
97.6574158572
  0
LINE
  5
5F3
330
1F
100
AcDbEntity
  8
0
  6
Continuous
 62
     7
100
AcDbLine
 10
787.5138918482
 20
-368.3389443796
 30
0.0
 11
787.5138918482
 21
-368.8389443796
 31
0.0
  0
ARC
  5
5F4
330
1F
100
AcDbEntity
  8
0
  6
Continuous
 62
     7
100
AcDbCircle
 10
787.5138918482
 20
-365.8389443796
 30
0.0
 40
3.0
100
AcDbArc
 50
90.0
 51
270.0
  0
LINE
  5
5F5
330
1F
100
AcDbEntity
  8
0
  6
Continuous
 62
     7
100
AcDbLine
 10
787.5138918482
 20
-363.3389443796
 30
0.0
 11
787.5138918482
 21
-362.8389443796
 31
0.0
  0
ARC
  5
5F6
330
1F
100
AcDbEntity
  8
0
  6
Continuous
 62
     7
100
AcDbCircle
 10
787.5138918482
 20
-365.8389443796
 30
0.0
 40
2.500000000000057
100
AcDbArc
 50
90.0
 51
270.0
  0
ARC
  5
5F7
330
1F
100
AcDbEntity
  8
0
  6
Continuous
 62
     7
100
AcDbCircle
 10
787.5138918482
 20
-365.8389443796
 30
0.0
 40
3.0
100
AcDbArc
 50
270.0
 51
90.0
  0
ARC
  5
5F8
330
1F
100
AcDbEntity
  8
0
  6
Continuous
 62
     7
100
AcDbCircle
 10
787.5138918482
 20
-365.8389443796
 30
0.0
 40
2.500000000000057
100
AcDbArc
 50
270.0
 51
90.0
  0
LINE
  5
5F9
330
1F
100
AcDbEntity
  8
0
  6
Continuous
 62
     7
100
AcDbLine
 10
666.5138918482
 20
-374.3389443796
 30
0.0
 11
664.5138918482
 21
-374.3389443796
 31
0.0
  0
LINE
  5
5FA
330
1F
100
AcDbEntity
  8
0
  6
Continuous
 62
     7
100
AcDbLine
 10
664.5138918482
 20
-357.3389443796
 30
0.0
 11
664.5138918482
 21
-374.3389443796
 31
0.0
  0
LINE
  5
5FB
330
1F
100
AcDbEntity
  8
0
  6
Continuous
 62
     7
100
AcDbLine
 10
666.5138918482
 20
-357.3389443796
 30
0.0
 11
664.5138918482
 21
-357.3389443796
 31
0.0
  0
LINE
  5
5FC
330
1F
100
AcDbEntity
  8
0
  6
Continuous
 62
     7
100
AcDbLine
 10
666.0138918482
 20
-386.3389443796
 30
0.0
 11
664.5138918482
 21
-386.3389443796
 31
0.0
  0
LINE
  5
5FD
330
1F
100
AcDbEntity
  8
0
  6
Continuous
 62
     7
100
AcDbLine
 10
666.0138918482
 20
-375.3389443796
 30
0.0
 11
664.5138918482
 21
-375.3389443796
 31
0.0
  0
LINE
  5
5FE
330
1F
100
AcDbEntity
  8
0
  6
Continuous
 62
     7
100
AcDbLine
 10
666.0138918482
 20
-386.3389443796
 30
0.0
 11
666.0138918482
 21
-375.3389443796
 31
0.0
  0
LINE
  5
5FF
330
1F
100
AcDbEntity
  8
0
  6
Continuous
 62
     7
100
AcDbLine
 10
664.5138918482
 20
-386.3389443796
 30
0.0
 11
664.5138918482
 21
-375.3389443796
 31
0.0
  0
LINE
  5
600
330
1F
100
AcDbEntity
  8
0
  6
Continuous
 62
     7
100
AcDbLine
 10
666.5138918482
 20
-388.8389443796
 30
0.0
 11
664.5138918482
 21
-388.8389443796
 31
0.0
  0
LINE
  5
601
330
1F
100
AcDbEntity
  8
0
  6
Continuous
 62
     7
100
AcDbLine
 10
666.5138918482
 20
-387.3389443796
 30
0.0
 11
666.0138918482
 21
-387.3389443796
 31
0.0
  0
LINE
  5
602
330
1F
100
AcDbEntity
  8
0
  6
Continuous
 62
     7
100
AcDbLine
 10
666.0138918482
 20
-386.3389443796
 30
0.0
 11
666.0138918482
 21
-387.3389443796
 31
0.0
  0
LINE
  5
603
330
1F
100
AcDbEntity
  8
0
  6
Continuous
 62
     7
100
AcDbLine
 10
664.5138918482
 20
-386.3389443796
 30
0.0
 11
664.5138918482
 21
-388.8389443796
 31
0.0
  0
LINE
  5
604
330
1F
100
AcDbEntity
  8
0
  6
Continuous
 62
     7
100
AcDbLine
 10
666.0138918482
 20
-375.3389443796
 30
0.0
 11
666.0138918482
 21
-374.3389443796
 31
0.0
  0
LINE
  5
605
330
1F
100
AcDbEntity
  8
0
  6
Continuous
 62
     7
100
AcDbLine
 10
664.5138918482
 20
-374.3389443796
 30
0.0
 11
664.5138918482
 21
-375.3389443796
 31
0.0
  0
LINE
  5
606
330
1F
100
AcDbEntity
  8
0
  6
Continuous
 62
     7
100
AcDbLine
 10
1058.5138918482
 20
-374.3389443796
 30
0.0
 11
1060.5138918482
 21
-374.3389443796
 31
0.0
  0
LINE
  5
607
330
1F
100
AcDbEntity
  8
0
  6
Continuous
 62
     7
100
AcDbLine
 10
1060.5138918482
 20
-374.3389443796
 30
0.0
 11
1060.5138918482
 21
-357.3389443796
 31
0.0
  0
LINE
  5
608
330
1F
100
AcDbEntity
  8
0
  6
Continuous
 62
     7
100
AcDbLine
 10
1058.5138918482
 20
-357.3389443796
 30
0.0
 11
1060.5138918482
 21
-357.3389443796
 31
0.0
  0
LINE
  5
609
330
1F
100
AcDbEntity
  8
0
  6
Continuous
 62
     7
100
AcDbLine
 10
1059.0138918482
 20
-386.3389443796
 30
0.0
 11
1060.5138918482
 21
-386.3389443796
 31
0.0
  0
LINE
  5
60A
330
1F
100
AcDbEntity
  8
0
  6
Continuous
 62
     7
100
AcDbLine
 10
1059.0138918482
 20
-375.3389443796
 30
0.0
 11
1060.5138918482
 21
-375.3389443796
 31
0.0
  0
LINE
  5
60B
330
1F
100
AcDbEntity
  8
0
  6
Continuous
 62
     7
100
AcDbLine
 10
1059.0138918482
 20
-375.3389443796
 30
0.0
 11
1059.0138918482
 21
-386.3389443796
 31
0.0
  0
LINE
  5
60C
330
1F
100
AcDbEntity
  8
0
  6
Continuous
 62
     7
100
AcDbLine
 10
1060.5138918482
 20
-375.3389443796
 30
0.0
 11
1060.5138918482
 21
-386.3389443796
 31
0.0
  0
LINE
  5
60D
330
1F
100
AcDbEntity
  8
0
  6
Continuous
 62
     7
100
AcDbLine
 10
1058.5138918482
 20
-388.8389443796
 30
0.0
 11
1060.5138918482
 21
-388.8389443796
 31
0.0
  0
LINE
  5
60E
330
1F
100
AcDbEntity
  8
0
  6
Continuous
 62
     7
100
AcDbLine
 10
1058.5138918482
 20
-387.3389443796
 30
0.0
 11
1059.0138918482
 21
-387.3389443796
 31
0.0
  0
LINE
  5
60F
330
1F
100
AcDbEntity
  8
0
  6
Continuous
 62
     7
100
AcDbLine
 10
1059.0138918482
 20
-386.3389443796
 30
0.0
 11
1059.0138918482
 21
-387.3389443796
 31
0.0
  0
LINE
  5
610
330
1F
100
AcDbEntity
  8
0
  6
Continuous
 62
     7
100
AcDbLine
 10
1060.5138918482
 20
-386.3389443796
 30
0.0
 11
1060.5138918482
 21
-388.8389443796
 31
0.0
  0
LINE
  5
611
330
1F
100
AcDbEntity
  8
0
  6
Continuous
 62
     7
100
AcDbLine
 10
1059.0138918482
 20
-374.3389443796
 30
0.0
 11
1059.0138918482
 21
-375.3389443796
 31
0.0
  0
LINE
  5
612
330
1F
100
AcDbEntity
  8
0
  6
Continuous
 62
     7
100
AcDbLine
 10
1060.5138918482
 20
-375.3389443796
 30
0.0
 11
1060.5138918482
 21
-374.3389443796
 31
0.0
  0
LINE
  5
613
330
1F
100
AcDbEntity
  8
0
  6
Continuous
 62
     7
100
AcDbLine
 10
1058.5138918482
 20
-357.3389443796
 30
0.0
 11
666.5138918482
 21
-357.3389443796
 31
0.0
  0
LINE
  5
614
330
1F
100
AcDbEntity
  8
0
  6
Continuous
 62
     7
100
AcDbLine
 10
1058.5138918482
 20
-386.8389443796
 30
0.0
 11
1058.5138918482
 21
-357.3389443796
 31
0.0
  0
LINE
  5
615
330
1F
100
AcDbEntity
  8
0
  6
Continuous
 62
     7
100
AcDbLine
 10
1058.5138918482
 20
-386.8389443796
 30
0.0
 11
1058.5138918482
 21
-390.8389443796
 31
0.0
  0
LINE
  5
616
330
1F
100
AcDbEntity
  8
0
  6
Continuous
 62
     7
100
AcDbLine
 10
666.5138918482
 20
-390.8389443796
 30
0.0
 11
1058.5138918482
 21
-390.8389443796
 31
0.0
  0
LINE
  5
617
330
1F
100
AcDbEntity
  8
0
  6
Continuous
 62
     7
100
AcDbLine
 10
666.5138918482
 20
-386.8389443796
 30
0.0
 11
666.5138918482
 21
-390.8389443796
 31
0.0
  0
LINE
  5
618
330
1F
100
AcDbEntity
  8
0
  6
Continuous
 62
     7
100
AcDbLine
 10
666.5138918482
 20
-357.3389443796
 30
0.0
 11
666.5138918482
 21
-386.8389443796
 31
0.0
  0
ARC
  5
619
330
1F
100
AcDbEntity
  8
0
  6
Continuous
 62
     7
100
AcDbCircle
 10
1037.5138918482
 20
-365.8389443796
 30
0.0
 40
3.25
100
AcDbArc
 50
90.0
 51
270.0
  0
ARC
  5
61A
330
1F
100
AcDbEntity
  8
0
  6
Continuous
 62
     7
100
AcDbCircle
 10
1037.5138918482
 20
-365.8389443796
 30
0.0
 40
3.25
100
AcDbArc
 50
270.0
 51
90.0
  0
ARC
  5
61B
330
1F
100
AcDbEntity
  8
0
  6
Continuous
 62
     7
100
AcDbCircle
 10
937.5138918482
 20
-365.8389443796
 30
0.0
 40
3.250000000000057
100
AcDbArc
 50
90.0
 51
270.0
  0
ARC
  5
61C
330
1F
100
AcDbEntity
  8
0
  6
Continuous
 62
     7
100
AcDbCircle
 10
937.5138918482
 20
-365.8389443796
 30
0.0
 40
3.250000000000057
100
AcDbArc
 50
270.0
 51
90.0
  0
ARC
  5
61D
330
1F
100
AcDbEntity
  8
0
  6
Continuous
 62
     7
100
AcDbCircle
 10
787.5138918482
 20
-365.8389443796
 30
0.0
 40
3.250000000000057
100
AcDbArc
 50
90.0
 51
270.0
  0
ARC
  5
61E
330
1F
100
AcDbEntity
  8
0
  6
Continuous
 62
     7
100
AcDbCircle
 10
787.5138918482
 20
-365.8389443796
 30
0.0
 40
3.250000000000057
100
AcDbArc
 50
270.0
 51
90.0
  0
ARC
  5
61F
330
1F
100
AcDbEntity
  8
0
  6
Continuous
 62
     7
100
AcDbCircle
 10
687.5138918482
 20
-365.8389443796
 30
0.0
 40
3.25
100
AcDbArc
 50
90.0
 51
270.0
  0
ARC
  5
620
330
1F
100
AcDbEntity
  8
0
  6
Continuous
 62
     7
100
AcDbCircle
 10
687.5138918482
 20
-365.8389443796
 30
0.0
 40
3.25
100
AcDbArc
 50
270.0
 51
90.0
  0
ARC
  5
621
330
1F
100
AcDbEntity
  8
0
  6
Continuous
 62
     7
100
AcDbCircle
 10
687.5138918482
 20
-365.8389443796
 30
0.0
 40
3.0
100
AcDbArc
 50
270.0
 51
90.0
  0
LINE
  5
622
330
1F
100
AcDbEntity
  8
0
  6
Continuous
 62
     7
100
AcDbLine
 10
687.5138918482
 20
-368.3389443796
 30
0.0
 11
687.5138918482
 21
-368.8389443796
 31
0.0
  0
ARC
  5
623
330
1F
100
AcDbEntity
  8
0
  6
Continuous
 62
     7
100
AcDbCircle
 10
687.5138918482
 20
-365.8389443796
 30
0.0
 40
2.500000000000057
100
AcDbArc
 50
270.0
 51
90.0
  0
LINE
  5
624
330
1F
100
AcDbEntity
  8
0
  6
Continuous
 62
     7
100
AcDbLine
 10
687.5138918482
 20
-363.3389443796
 30
0.0
 11
687.5138918482
 21
-362.8389443796
 31
0.0
  0
ARC
  5
625
330
1F
100
AcDbEntity
  8
0
  6
Continuous
 62
     7
100
AcDbCircle
 10
687.5138918482
 20
-365.8389443796
 30
0.0
 40
3.0
100
AcDbArc
 50
90.0
 51
270.0
  0
ARC
  5
626
330
1F
100
AcDbEntity
  8
0
  6
Continuous
 62
     7
100
AcDbCircle
 10
687.5138918482
 20
-365.8389443796
 30
0.0
 40
2.500000000000057
100
AcDbArc
 50
90.0
 51
270.0
  0
LINE
  5
627
330
1F
100
AcDbEntity
  8
0
  6
Continuous
 62
     7
100
AcDbLine
 10
1043.7638918482
 20
-395.0093081149
 30
0.0
 11
1043.7638918482
 21
-393.6789369886
 31
0.0
  0
LINE
  5
628
330
1F
100
AcDbEntity
  8
0
  6
Continuous
 62
     7
100
AcDbLine
 10
1043.7638918482
 20
-393.6789369886
 30
0.0
 11
1043.7638918482
 21
-390.8389443796
 31
0.0
  0
LINE
  5
629
330
1F
100
AcDbEntity
  8
0
  6
Continuous
 62
     7
100
AcDbLine
 10
1043.7638918482
 20
-395.6693155059
 30
0.0
 11
1043.7638918482
 21
-395.0093081149
 31
0.0
  0
LINE
  5
62A
330
1F
100
AcDbEntity
  8
0
  6
Continuous
 62
     7
100
AcDbLine
 10
1043.7638918482
 20
-395.8389443796
 30
0.0
 11
1043.7638918482
 21
-395.6693155059
 31
0.0
  0
LINE
  5
62B
330
1F
100
AcDbEntity
  8
0
  6
Continuous
 62
     7
100
AcDbLine
 10
1040.6311060388
 20
-395.8389443796
 30
0.0
 11
1043.7638918482
 21
-395.8389443796
 31
0.0
  0
LINE
  5
62C
330
1F
100
AcDbEntity
  8
0
  6
Continuous
 62
     7
100
AcDbLine
 10
1043.7638918482
 20
-395.8389443796
 30
0.0
 11
1046.8966776575
 21
-395.8389443796
 31
0.0
  0
ARC
  5
62D
330
1F
100
AcDbEntity
  8
0
  6
Continuous
 62
     7
100
AcDbCircle
 10
1037.5138918482
 20
-365.8389443796
 30
0.0
 40
3.000000000000107
100
AcDbArc
 50
277.941637032
 51
97.941637032
  0
LINE
  5
62E
330
1F
100
AcDbEntity
  8
0
  6
Continuous
 62
     7
100
AcDbLine
 10
1037.8593026386
 20
-368.3149676803
 30
0.0
 11
1037.9283847967
 21
-368.8101723405
 31
0.0
  0
ARC
  5
62F
330
1F
100
AcDbEntity
  8
0
  6
Continuous
 62
     7
100
AcDbCircle
 10
1037.5138918482
 20
-365.8389443796
 30
0.0
 40
2.500000000000121
100
AcDbArc
 50
277.941637032
 51
97.941637032
  0
LINE
  5
630
330
1F
100
AcDbEntity
  8
0
  6
Continuous
 62
     7
100
AcDbLine
 10
1037.1684810577
 20
-363.3629210789
 30
0.0
 11
1037.0993988997
 21
-362.8677164187
 31
0.0
  0
ARC
  5
631
330
1F
100
AcDbEntity
  8
0
  6
Continuous
 62
     7
100
AcDbCircle
 10
1037.5138918482
 20
-365.8389443796
 30
0.0
 40
3.000000000000107
100
AcDbArc
 50
97.941637032
 51
277.941637032
  0
ARC
  5
632
330
1F
100
AcDbEntity
  8
0
  6
Continuous
 62
     7
100
AcDbCircle
 10
1037.5138918482
 20
-365.8389443796
 30
0.0
 40
2.500000000000121
100
AcDbArc
 50
97.941637032
 51
277.941637032
  0
LINE
  5
633
330
1F
100
AcDbEntity
  8
0
  6
Continuous
 62
     7
100
AcDbLine
 10
681.2638918482
 20
-393.6789369886
 30
0.0
 11
681.2638918482
 21
-390.8389443796
 31
0.0
  0
LINE
  5
634
330
1F
100
AcDbEntity
  8
0
  6
Continuous
 62
     7
100
AcDbLine
 10
681.2638918482
 20
-395.0093081149
 30
0.0
 11
681.2638918482
 21
-393.6789369886
 31
0.0
  0
LINE
  5
635
330
1F
100
AcDbEntity
  8
0
  6
Continuous
 62
     7
100
AcDbLine
 10
681.2638918482
 20
-395.6693155059
 30
0.0
 11
681.2638918482
 21
-395.0093081149
 31
0.0
  0
LINE
  5
636
330
1F
100
AcDbEntity
  8
0
  6
Continuous
 62
     7
100
AcDbLine
 10
681.2638918482
 20
-395.8389443796
 30
0.0
 11
684.3966776575
 21
-395.8389443796
 31
0.0
  0
LINE
  5
637
330
1F
100
AcDbEntity
  8
0
  6
Continuous
 62
     7
100
AcDbLine
 10
681.2638918482
 20
-395.8389443796
 30
0.0
 11
681.2638918482
 21
-395.6693155059
 31
0.0
  0
LINE
  5
638
330
1F
100
AcDbEntity
  8
0
  6
Continuous
 62
     7
100
AcDbLine
 10
678.1311060388
 20
-395.8389443796
 30
0.0
 11
681.2638918482
 21
-395.8389443796
 31
0.0
  0
LINE
  5
639
330
1F
100
AcDbEntity
  8
0
  6
Continuous
 62
     7
100
AcDbLine
 10
1037.8638918482
 20
-393.6789369886
 30
0.0
 11
1043.7638918482
 21
-393.6789369886
 31
0.0
  0
LINE
  5
63A
330
1F
100
AcDbEntity
  8
0
  6
Continuous
 62
     7
100
AcDbLine
 10
1038.6709902199
 20
-395.0093081149
 30
0.0
 11
1043.7638918482
 21
-395.0093081149
 31
0.0
  0
LINE
  5
63B
330
1F
100
AcDbEntity
  8
0
  6
Continuous
 62
     7
100
AcDbLine
 10
1043.7638918482
 20
-393.6789369886
 30
0.0
 11
1049.6638918482
 21
-393.6789369886
 31
0.0
  0
LINE
  5
63C
330
1F
100
AcDbEntity
  8
0
  6
Continuous
 62
     7
100
AcDbLine
 10
1043.7638918482
 20
-395.0093081149
 30
0.0
 11
1048.8567934764
 21
-395.0093081149
 31
0.0
  0
LINE
  5
63D
330
1F
100
AcDbEntity
  8
0
  6
Continuous
 62
     7
100
AcDbLine
 10
1043.7638918482
 20
-395.6693155059
 30
0.0
 11
1047.5895792858
 21
-395.6693155059
 31
0.0
  0
LINE
  5
63E
330
1F
100
AcDbEntity
  8
0
  6
Continuous
 62
     7
100
AcDbLine
 10
1039.9382044106
 20
-395.6693155059
 30
0.0
 11
1043.7638918482
 21
-395.6693155059
 31
0.0
  0
LINE
  5
63F
330
1F
100
AcDbEntity
  8
0
  6
Continuous
 62
     7
100
AcDbLine
 10
681.2638918482
 20
-393.6789369886
 30
0.0
 11
687.1638918482
 21
-393.6789369886
 31
0.0
  0
LINE
  5
640
330
1F
100
AcDbEntity
  8
0
  6
Continuous
 62
     7
100
AcDbLine
 10
675.3638918482
 20
-393.6789369886
 30
0.0
 11
681.2638918482
 21
-393.6789369886
 31
0.0
  0
LINE
  5
641
330
1F
100
AcDbEntity
  8
0
  6
Continuous
 62
     7
100
AcDbLine
 10
676.1709902199
 20
-395.0093081149
 30
0.0
 11
681.2638918482
 21
-395.0093081149
 31
0.0
  0
LINE
  5
642
330
1F
100
AcDbEntity
  8
0
  6
Continuous
 62
     7
100
AcDbLine
 10
681.2638918482
 20
-395.0093081149
 30
0.0
 11
686.3567934764
 21
-395.0093081149
 31
0.0
  0
LINE
  5
643
330
1F
100
AcDbEntity
  8
0
  6
Continuous
 62
     7
100
AcDbLine
 10
677.4382044106
 20
-395.6693155059
 30
0.0
 11
681.2638918482
 21
-395.6693155059
 31
0.0
  0
LINE
  5
644
330
1F
100
AcDbEntity
  8
0
  6
Continuous
 62
     7
100
AcDbLine
 10
681.2638918482
 20
-395.6693155059
 30
0.0
 11
685.0895792858
 21
-395.6693155059
 31
0.0
  0
LINE
  5
645
330
1F
100
AcDbEntity
  8
0
  6
Continuous
 62
     7
100
AcDbLine
 10
768.4138918482
 20
679.0525814523
 30
0.0
 11
768.4138918482
 21
681.8925740614
 31
0.0
  0
ARC
  5
646
330
1F
100
AcDbEntity
  8
0
  6
Continuous
 62
     7
100
AcDbCircle
 10
766.9138918482
 20
681.8925740614
 30
0.0
 40
1.500000000000059
100
AcDbArc
 50
0.0
 51
62.4879973761
  0
LINE
  5
647
330
1F
100
AcDbEntity
  8
0
  6
Continuous
 62
     7
100
AcDbLine
 10
767.6067934764
 20
683.2229451876
 30
0.0
 11
766.3395792858
 21
683.8829525786
 31
0.0
  0
ARC
  5
648
330
1F
100
AcDbEntity
  8
0
  6
Continuous
 62
     7
100
AcDbCircle
 10
765.6466776575
 20
682.5525814523
 30
0.0
 40
1.500000000000059
100
AcDbArc
 50
62.4879973761
 51
90.0
  0
LINE
  5
649
330
1F
100
AcDbEntity
  8
0
  6
Continuous
 62
     7
100
AcDbLine
 10
756.6138918482
 20
681.8925740614
 30
0.0
 11
756.6138918482
 21
679.0525814523
 31
0.0
  0
ARC
  5
64A
330
1F
100
AcDbEntity
  8
0
  6
Continuous
 62
     7
100
AcDbCircle
 10
758.1138918482
 20
681.8925740614
 30
0.0
 40
1.500000000000114
100
AcDbArc
 50
117.5120026239
 51
180.0
  0
LINE
  5
64B
330
1F
100
AcDbEntity
  8
0
  6
Continuous
 62
     7
100
AcDbLine
 10
758.6882044106
 20
683.8829525786
 30
0.0
 11
757.4209902199
 21
683.2229451876
 31
0.0
  0
ARC
  5
64C
330
1F
100
AcDbEntity
  8
0
  6
Continuous
 62
     7
100
AcDbCircle
 10
759.3811060388
 20
682.5525814523
 30
0.0
 40
1.500000000000059
100
AcDbArc
 50
90.0
 51
117.5120026239
  0
LINE
  5
64D
330
1F
100
AcDbEntity
  8
0
  6
Continuous
 62
     7
100
AcDbLine
 10
956.6138918482
 20
681.8925740614
 30
0.0
 11
956.6138918482
 21
679.0525814523
 31
0.0
  0
ARC
  5
64E
330
1F
100
AcDbEntity
  8
0
  6
Continuous
 62
     7
100
AcDbCircle
 10
958.1138918482
 20
681.8925740614
 30
0.0
 40
1.500000000000114
100
AcDbArc
 50
117.5120026239
 51
180.0
  0
LINE
  5
64F
330
1F
100
AcDbEntity
  8
0
  6
Continuous
 62
     7
100
AcDbLine
 10
958.6882044106
 20
683.8829525786
 30
0.0
 11
957.4209902199
 21
683.2229451876
 31
0.0
  0
ARC
  5
650
330
1F
100
AcDbEntity
  8
0
  6
Continuous
 62
     7
100
AcDbCircle
 10
959.3811060388
 20
682.5525814523
 30
0.0
 40
1.500000000000059
100
AcDbArc
 50
90.0
 51
117.5120026239
  0
LINE
  5
651
330
1F
100
AcDbEntity
  8
0
  6
Continuous
 62
     7
100
AcDbLine
 10
968.4138918482
 20
679.0525814523
 30
0.0
 11
968.4138918482
 21
681.8925740614
 31
0.0
  0
ARC
  5
652
330
1F
100
AcDbEntity
  8
0
  6
Continuous
 62
     7
100
AcDbCircle
 10
966.9138918482
 20
681.8925740614
 30
0.0
 40
1.500000000000114
100
AcDbArc
 50
0.0
 51
62.4879973761
  0
LINE
  5
653
330
1F
100
AcDbEntity
  8
0
  6
Continuous
 62
     7
100
AcDbLine
 10
967.6067934764
 20
683.2229451876
 30
0.0
 11
966.3395792858
 21
683.8829525786
 31
0.0
  0
ARC
  5
654
330
1F
100
AcDbEntity
  8
0
  6
Continuous
 62
     7
100
AcDbCircle
 10
965.6466776575
 20
682.5525814523
 30
0.0
 40
1.500000000000059
100
AcDbArc
 50
62.4879973761
 51
90.0
  0
LINE
  5
655
330
1F
100
AcDbEntity
  8
0
  6
Continuous
 62
     7
100
AcDbLine
 10
1037.8638918482
 20
679.8925740614
 30
0.0
 11
1037.8638918482
 21
677.0525814523
 31
0.0
  0
ARC
  5
656
330
1F
100
AcDbEntity
  8
0
  6
Continuous
 62
     7
100
AcDbCircle
 10
1048.1638918482
 20
679.8925740614
 30
0.0
 40
1.500000000000002
100
AcDbArc
 50
0.0
 51
62.4879973762
  0
LINE
  5
657
330
1F
100
AcDbEntity
  8
0
  6
Continuous
 62
     7
100
AcDbLine
 10
1049.6638918482
 20
677.0525814523
 30
0.0
 11
1049.6638918482
 21
679.8925740614
 31
0.0
  0
ARC
  5
658
330
1F
100
AcDbEntity
  8
0
  6
Continuous
 62
     7
100
AcDbCircle
 10
1039.3638918482
 20
679.8925740614
 30
0.0
 40
1.500000000000002
100
AcDbArc
 50
117.5120026238
 51
180.0
  0
LINE
  5
659
330
1F
100
AcDbEntity
  8
0
  6
Continuous
 62
     7
100
AcDbLine
 10
1039.9382044106
 20
681.8829525786
 30
0.0
 11
1038.6709902199
 21
681.2229451876
 31
0.0
  0
LINE
  5
65A
330
1F
100
AcDbEntity
  8
0
  6
Continuous
 62
     7
100
AcDbLine
 10
1048.8567934764
 20
681.2229451876
 30
0.0
 11
1047.5895792858
 21
681.8829525786
 31
0.0
  0
ARC
  5
65B
330
1F
100
AcDbEntity
  8
0
  6
Continuous
 62
     7
100
AcDbCircle
 10
1046.8966776575
 20
680.5525814523
 30
0.0
 40
1.500000000000114
100
AcDbArc
 50
62.4879973762
 51
90.0
  0
ARC
  5
65C
330
1F
100
AcDbEntity
  8
0
  6
Continuous
 62
     7
100
AcDbCircle
 10
1040.6311060388
 20
680.5525814523
 30
0.0
 40
1.500000000000114
100
AcDbArc
 50
90.0
 51
117.5120026238
  0
LINE
  5
65D
330
1F
100
AcDbEntity
  8
0
  6
Continuous
 62
     7
100
AcDbLine
 10
758.3005482187
 20
679.0525814523
 30
0.0
 11
758.3005482187
 21
681.8925740614
 31
0.0
  0
ARC
  5
65E
330
1F
100
AcDbEntity
  8
0
  6
Continuous
 62
     7
100
AcDbCircle
 10
759.9461680728
 20
681.9696645643
 30
0.0
 40
1.64742455055198
100
AcDbArc
 50
130.4695106723
 51
182.682110111
  0
LINE
  5
65F
330
1F
100
AcDbEntity
  8
0
  6
Continuous
 62
     7
100
AcDbLine
 10
759.7818688323
 20
683.8829525786
 30
0.0
 11
758.8769181819
 21
683.2229451876
 31
0.0
  0
ARC
  5
660
330
1F
100
AcDbEntity
  8
0
  6
Continuous
 62
     7
100
AcDbCircle
 10
760.28753749
 20
683.214407423
 30
0.0
 40
0.838244246330103
100
AcDbArc
 50
90.7416114185
 51
127.1028309186
  0
LINE
  5
661
330
1F
100
AcDbEntity
  8
0
  6
Continuous
 62
     7
100
AcDbLine
 10
760.2766879274
 20
684.0525814523
 30
0.0
 11
765.6466776575
 21
684.0525814523
 31
0.0
  0
LINE
  5
662
330
1F
100
AcDbEntity
  8
0
  6
Continuous
 62
     7
100
AcDbLine
 10
759.3811060388
 20
684.0525814523
 30
0.0
 11
760.2766879274
 21
684.0525814523
 31
0.0
  0
LINE
  5
663
330
1F
100
AcDbEntity
  8
0
  6
Continuous
 62
     7
100
AcDbLine
 10
968.4080665971
 20
679.0525814523
 30
0.0
 11
968.4080665971
 21
681.8925740614
 31
0.0
  0
ARC
  5
664
330
1F
100
AcDbEntity
  8
0
  6
Continuous
 62
     7
100
AcDbCircle
 10
966.9078937191
 20
681.8928845614
 30
0.0
 40
1.500172910097991
100
AcDbArc
 50
359.9881411376
 51
62.4496702862
  0
LINE
  5
665
330
1F
100
AcDbEntity
  8
0
  6
Continuous
 62
     7
100
AcDbLine
 10
966.3358020671
 20
683.8829525786
 30
0.0
 11
967.6017650983
 21
683.2229451876
 31
0.0
  0
LINE
  5
666
330
1F
100
AcDbEntity
  8
0
  6
Continuous
 62
     7
100
AcDbLine
 10
959.3811060388
 20
684.0525814523
 30
0.0
 11
965.6435845619
 21
684.0525814523
 31
0.0
  0
ARC
  5
667
330
1F
100
AcDbEntity
  8
0
  6
Continuous
 62
     7
100
AcDbCircle
 10
965.6435533244
 20
682.5552471116
 30
0.0
 40
1.497334341034874
100
AcDbArc
 50
62.4630367474
 51
89.9988046894
  0
LINE
  5
668
330
1F
100
AcDbEntity
  8
0
  6
Continuous
 62
     7
100
AcDbLine
 10
737.5138918482
 20
677.0525814523
 30
0.0
 11
737.5138918482
 21
679.0525814523
 31
0.0
  0
LINE
  5
669
330
1F
100
AcDbEntity
  8
0
  6
Continuous
 62
     7
100
AcDbLine
 10
737.5138918482
 20
679.0525814523
 30
0.0
 11
740.5138918482
 21
679.0525814523
 31
0.0
  0
LINE
  5
66A
330
1F
100
AcDbEntity
  8
0
  6
Continuous
 62
     7
100
AcDbLine
 10
740.5138918482
 20
679.0525814523
 30
0.0
 11
740.5138918482
 21
677.0525814523
 31
0.0
  0
LINE
  5
66B
330
1F
100
AcDbEntity
  8
0
  6
Continuous
 62
     7
100
AcDbLine
 10
784.5138918482
 20
677.0525814523
 30
0.0
 11
784.5138918482
 21
679.0525814523
 31
0.0
  0
LINE
  5
66C
330
1F
100
AcDbEntity
  8
0
  6
Continuous
 62
     7
100
AcDbLine
 10
784.5138918482
 20
679.0525814523
 30
0.0
 11
740.5138918482
 21
679.0525814523
 31
0.0
  0
LINE
  5
66D
330
1F
100
AcDbEntity
  8
0
  6
Continuous
 62
     7
100
AcDbLine
 10
787.5138918482
 20
679.0525814523
 30
0.0
 11
787.5138918482
 21
677.0525814523
 31
0.0
  0
LINE
  5
66E
330
1F
100
AcDbEntity
  8
0
  6
Continuous
 62
     7
100
AcDbLine
 10
784.5138918482
 20
679.0525814523
 30
0.0
 11
787.5138918482
 21
679.0525814523
 31
0.0
  0
LINE
  5
66F
330
1F
100
AcDbEntity
  8
0
  6
Continuous
 62
     7
100
AcDbLine
 10
937.5138918482
 20
677.0525814523
 30
0.0
 11
937.5138918482
 21
679.0525814523
 31
0.0
  0
LINE
  5
670
330
1F
100
AcDbEntity
  8
0
  6
Continuous
 62
     7
100
AcDbLine
 10
937.5138918482
 20
679.0525814523
 30
0.0
 11
940.5138918482
 21
679.0525814523
 31
0.0
  0
LINE
  5
671
330
1F
100
AcDbEntity
  8
0
  6
Continuous
 62
     7
100
AcDbLine
 10
940.5138918482
 20
679.0525814523
 30
0.0
 11
940.5138918482
 21
677.0525814523
 31
0.0
  0
LINE
  5
672
330
1F
100
AcDbEntity
  8
0
  6
Continuous
 62
     7
100
AcDbLine
 10
984.5138918482
 20
677.0525814523
 30
0.0
 11
984.5138918482
 21
679.0525814523
 31
0.0
  0
LINE
  5
673
330
1F
100
AcDbEntity
  8
0
  6
Continuous
 62
     7
100
AcDbLine
 10
940.5138918482
 20
679.0525814523
 30
0.0
 11
984.5138918482
 21
679.0525814523
 31
0.0
  0
LINE
  5
674
330
1F
100
AcDbEntity
  8
0
  6
Continuous
 62
     7
100
AcDbLine
 10
987.5138918482
 20
679.0525814523
 30
0.0
 11
987.5138918482
 21
677.0525814523
 31
0.0
  0
LINE
  5
675
330
1F
100
AcDbEntity
  8
0
  6
Continuous
 62
     7
100
AcDbLine
 10
984.5138918482
 20
679.0525814523
 30
0.0
 11
987.5138918482
 21
679.0525814523
 31
0.0
  0
LINE
  5
676
330
1F
100
AcDbEntity
  8
0
  6
Continuous
 62
     7
100
AcDbLine
 10
988.5138918482
 20
677.0525814523
 30
0.0
 11
988.5138918482
 21
680.0525814523
 31
0.0
  0
LINE
  5
677
330
1F
100
AcDbEntity
  8
0
  6
Continuous
 62
     7
100
AcDbLine
 10
988.5138918482
 20
680.0525814523
 30
0.0
 11
987.5138918482
 21
680.0525814523
 31
0.0
  0
LINE
  5
678
330
1F
100
AcDbEntity
  8
0
  6
Continuous
 62
     7
100
AcDbLine
 10
937.5138918482
 20
680.0525814523
 30
0.0
 11
936.5138918482
 21
680.0525814523
 31
0.0
  0
LINE
  5
679
330
1F
100
AcDbEntity
  8
0
  6
Continuous
 62
     7
100
AcDbLine
 10
936.5138918482
 20
680.0525814523
 30
0.0
 11
936.5138918482
 21
677.0525814523
 31
0.0
  0
LINE
  5
67A
330
1F
100
AcDbEntity
  8
0
  6
Continuous
 62
     7
100
AcDbLine
 10
788.5138918482
 20
677.0525814523
 30
0.0
 11
788.5138918482
 21
680.0525814523
 31
0.0
  0
LINE
  5
67B
330
1F
100
AcDbEntity
  8
0
  6
Continuous
 62
     7
100
AcDbLine
 10
788.5138918482
 20
680.0525814523
 30
0.0
 11
787.5138918482
 21
680.0525814523
 31
0.0
  0
LINE
  5
67C
330
1F
100
AcDbEntity
  8
0
  6
Continuous
 62
     7
100
AcDbLine
 10
737.5138918482
 20
680.0525814523
 30
0.0
 11
736.5138918482
 21
680.0525814523
 31
0.0
  0
LINE
  5
67D
330
1F
100
AcDbEntity
  8
0
  6
Continuous
 62
     7
100
AcDbLine
 10
736.5138918482
 20
680.0525814523
 30
0.0
 11
736.5138918482
 21
677.0525814523
 31
0.0
  0
LINE
  5
67E
330
1F
100
AcDbEntity
  8
0
  6
Continuous
 62
     7
100
AcDbLine
 10
700.0138918482
 20
716.5525814523
 30
0.0
 11
700.0138918482
 21
677.0525814523
 31
0.0
  0
LINE
  5
67F
330
1F
100
AcDbEntity
  8
0
  6
Continuous
 62
     7
100
AcDbLine
 10
1025.0138918482
 20
716.5525814523
 30
0.0
 11
700.0138918482
 21
716.5525814523
 31
0.0
  0
LINE
  5
680
330
1F
100
AcDbEntity
  8
0
  6
Continuous
 62
     7
100
AcDbLine
 10
1025.0138918482
 20
716.5525814523
 30
0.0
 11
1025.0138918482
 21
677.0525814523
 31
0.0
  0
LINE
  5
681
330
1F
100
AcDbEntity
  8
0
  6
Continuous
 62
     7
100
AcDbLine
 10
987.5138918482
 20
680.0525814523
 30
0.0
 11
987.5138918482
 21
679.0525814523
 31
0.0
  0
LINE
  5
682
330
1F
100
AcDbEntity
  8
0
  6
Continuous
 62
     7
100
AcDbLine
 10
937.5138918482
 20
680.0525814523
 30
0.0
 11
937.5138918482
 21
679.0525814523
 31
0.0
  0
LINE
  5
683
330
1F
100
AcDbEntity
  8
0
  6
Continuous
 62
     7
100
AcDbLine
 10
787.5138918482
 20
680.0525814523
 30
0.0
 11
787.5138918482
 21
679.0525814523
 31
0.0
  0
LINE
  5
684
330
1F
100
AcDbEntity
  8
0
  6
Continuous
 62
     7
100
AcDbLine
 10
737.5138918482
 20
680.0525814523
 30
0.0
 11
737.5138918482
 21
679.0525814523
 31
0.0
  0
ARC
  5
685
330
1F
100
AcDbEntity
  8
0
  6
Continuous
 62
     7
100
AcDbCircle
 10
937.5138918482
 20
652.0525814523
 30
0.0
 40
3.000000000000153
100
AcDbArc
 50
90.6245268851
 51
270.6245268851
  0
LINE
  5
686
330
1F
100
AcDbEntity
  8
0
  6
Continuous
 62
     7
100
AcDbLine
 10
937.4866422618
 20
654.5524329399
 30
0.0
 11
937.4811923445
 21
655.0524032374
 31
0.0
  0
ARC
  5
687
330
1F
100
AcDbEntity
  8
0
  6
Continuous
 62
     7
100
AcDbCircle
 10
937.5138918482
 20
652.0525814523
 30
0.0
 40
2.500000000000166
100
AcDbArc
 50
90.6245268851
 51
270.6245268851
  0
LINE
  5
688
330
1F
100
AcDbEntity
  8
0
  6
Continuous
 62
     7
100
AcDbLine
 10
937.5411414346
 20
649.5527299647
 30
0.0
 11
937.5465913519
 21
649.0527596672
 31
0.0
  0
ARC
  5
689
330
1F
100
AcDbEntity
  8
0
  6
Continuous
 62
     7
100
AcDbCircle
 10
937.5138918482
 20
652.0525814523
 30
0.0
 40
3.000000000000153
100
AcDbArc
 50
270.6245268851
 51
90.6245268851
  0
ARC
  5
68A
330
1F
100
AcDbEntity
  8
0
  6
Continuous
 62
     7
100
AcDbCircle
 10
937.5138918482
 20
652.0525814523
 30
0.0
 40
2.500000000000166
100
AcDbArc
 50
270.6245268851
 51
90.6245268851
  0
ARC
  5
68B
330
1F
100
AcDbEntity
  8
0
  6
Continuous
 62
     7
100
AcDbCircle
 10
787.5138918482
 20
652.0525814523
 30
0.0
 40
2.500000000000219
100
AcDbArc
 50
255.7982108808
 51
75.7982108808
  0
ARC
  5
68C
330
1F
100
AcDbEntity
  8
0
  6
Continuous
 62
     7
100
AcDbCircle
 10
787.5138918482
 20
652.0525814523
 30
0.0
 40
2.500000000000219
100
AcDbArc
 50
75.7982108808
 51
255.7982108808
  0
ARC
  5
68D
330
1F
100
AcDbEntity
  8
0
  6
Continuous
 62
     7
100
AcDbCircle
 10
787.5138918482
 20
652.0525814523
 30
0.0
 40
3.000000000000181
100
AcDbArc
 50
75.7982108808
 51
255.7982108808
  0
LINE
  5
68E
330
1F
100
AcDbEntity
  8
0
  6
Continuous
 62
     7
100
AcDbLine
 10
788.1272359924
 20
654.476175676
 30
0.0
 11
788.2499048212
 21
654.9608945207
 31
0.0
  0
LINE
  5
68F
330
1F
100
AcDbEntity
  8
0
  6
Continuous
 62
     7
100
AcDbLine
 10
786.900547704
 20
649.6289872287
 30
0.0
 11
786.7778788751
 21
649.144268384
 31
0.0
  0
ARC
  5
690
330
1F
100
AcDbEntity
  8
0
  6
Continuous
 62
     7
100
AcDbCircle
 10
787.5138918482
 20
652.0525814523
 30
0.0
 40
3.000000000000181
100
AcDbArc
 50
255.7982108808
 51
75.7982108808
  0
LINE
  5
691
330
1F
100
AcDbEntity
  8
0
  6
Continuous
 62
     7
100
AcDbLine
 10
667.0138918482
 20
643.5525814523
 30
0.0
 11
664.5138918482
 21
643.5525814523
 31
0.0
  0
LINE
  5
692
330
1F
100
AcDbEntity
  8
0
  6
Continuous
 62
     7
100
AcDbLine
 10
664.5138918482
 20
660.5525814523
 30
0.0
 11
664.5138918482
 21
643.5525814523
 31
0.0
  0
LINE
  5
693
330
1F
100
AcDbEntity
  8
0
  6
Continuous
 62
     7
100
AcDbLine
 10
666.5138918482
 20
660.5525814523
 30
0.0
 11
664.5138918482
 21
660.5525814523
 31
0.0
  0
LINE
  5
694
330
1F
100
AcDbEntity
  8
0
  6
Continuous
 62
     7
100
AcDbLine
 10
669.5138918482
 20
643.5525814523
 30
0.0
 11
667.0138918482
 21
643.5525814523
 31
0.0
  0
LINE
  5
695
330
1F
100
AcDbEntity
  8
0
  6
Continuous
 62
     7
100
AcDbLine
 10
666.0138918482
 20
672.5525814523
 30
0.0
 11
664.5138918482
 21
672.5525814523
 31
0.0
  0
LINE
  5
696
330
1F
100
AcDbEntity
  8
0
  6
Continuous
 62
     7
100
AcDbLine
 10
666.0138918482
 20
661.5525814523
 30
0.0
 11
664.5138918482
 21
661.5525814523
 31
0.0
  0
LINE
  5
697
330
1F
100
AcDbEntity
  8
0
  6
Continuous
 62
     7
100
AcDbLine
 10
666.0138918482
 20
661.5525814523
 30
0.0
 11
666.0138918482
 21
672.5525814523
 31
0.0
  0
LINE
  5
698
330
1F
100
AcDbEntity
  8
0
  6
Continuous
 62
     7
100
AcDbLine
 10
664.5138918482
 20
661.5525814523
 30
0.0
 11
664.5138918482
 21
672.5525814523
 31
0.0
  0
LINE
  5
699
330
1F
100
AcDbEntity
  8
0
  6
Continuous
 62
     7
100
AcDbLine
 10
666.5138918482
 20
675.0525814523
 30
0.0
 11
664.5138918482
 21
675.0525814523
 31
0.0
  0
LINE
  5
69A
330
1F
100
AcDbEntity
  8
0
  6
Continuous
 62
     7
100
AcDbLine
 10
666.5138918482
 20
673.5525814523
 30
0.0
 11
666.0138918482
 21
673.5525814523
 31
0.0
  0
LINE
  5
69B
330
1F
100
AcDbEntity
  8
0
  6
Continuous
 62
     7
100
AcDbLine
 10
666.0138918482
 20
672.5525814523
 30
0.0
 11
666.0138918482
 21
673.5525814523
 31
0.0
  0
LINE
  5
69C
330
1F
100
AcDbEntity
  8
0
  6
Continuous
 62
     7
100
AcDbLine
 10
664.5138918482
 20
672.5525814523
 30
0.0
 11
664.5138918482
 21
675.0525814523
 31
0.0
  0
LINE
  5
69D
330
1F
100
AcDbEntity
  8
0
  6
Continuous
 62
     7
100
AcDbLine
 10
666.0138918482
 20
660.5525814523
 30
0.0
 11
666.0138918482
 21
661.5525814523
 31
0.0
  0
LINE
  5
69E
330
1F
100
AcDbEntity
  8
0
  6
Continuous
 62
     7
100
AcDbLine
 10
664.5138918482
 20
661.5525814523
 30
0.0
 11
664.5138918482
 21
660.5525814523
 31
0.0
  0
LINE
  5
69F
330
1F
100
AcDbEntity
  8
0
  6
Continuous
 62
     7
100
AcDbLine
 10
1058.5138918482
 20
660.5525814523
 30
0.0
 11
1060.5138918482
 21
660.5525814523
 31
0.0
  0
LINE
  5
6A0
330
1F
100
AcDbEntity
  8
0
  6
Continuous
 62
     7
100
AcDbLine
 10
1058.0138918482
 20
643.5525814523
 30
0.0
 11
1060.5138918482
 21
643.5525814523
 31
0.0
  0
LINE
  5
6A1
330
1F
100
AcDbEntity
  8
0
  6
Continuous
 62
     7
100
AcDbLine
 10
1055.5138918482
 20
643.5525814523
 30
0.0
 11
1058.0138918482
 21
643.5525814523
 31
0.0
  0
LINE
  5
6A2
330
1F
100
AcDbEntity
  8
0
  6
Continuous
 62
     7
100
AcDbLine
 10
1060.5138918482
 20
643.5525814523
 30
0.0
 11
1060.5138918482
 21
660.5525814523
 31
0.0
  0
LINE
  5
6A3
330
1F
100
AcDbEntity
  8
0
  6
Continuous
 62
     7
100
AcDbLine
 10
1059.0138918482
 20
672.5525814523
 30
0.0
 11
1060.5138918482
 21
672.5525814523
 31
0.0
  0
LINE
  5
6A4
330
1F
100
AcDbEntity
  8
0
  6
Continuous
 62
     7
100
AcDbLine
 10
1059.0138918482
 20
661.5525814523
 30
0.0
 11
1060.5138918482
 21
661.5525814523
 31
0.0
  0
LINE
  5
6A5
330
1F
100
AcDbEntity
  8
0
  6
Continuous
 62
     7
100
AcDbLine
 10
1059.0138918482
 20
672.5525814523
 30
0.0
 11
1059.0138918482
 21
661.5525814523
 31
0.0
  0
LINE
  5
6A6
330
1F
100
AcDbEntity
  8
0
  6
Continuous
 62
     7
100
AcDbLine
 10
1060.5138918482
 20
672.5525814523
 30
0.0
 11
1060.5138918482
 21
661.5525814523
 31
0.0
  0
LINE
  5
6A7
330
1F
100
AcDbEntity
  8
0
  6
Continuous
 62
     7
100
AcDbLine
 10
1058.5138918482
 20
673.5525814523
 30
0.0
 11
1059.0138918482
 21
673.5525814523
 31
0.0
  0
LINE
  5
6A8
330
1F
100
AcDbEntity
  8
0
  6
Continuous
 62
     7
100
AcDbLine
 10
1058.5138918482
 20
675.0525814523
 30
0.0
 11
1060.5138918482
 21
675.0525814523
 31
0.0
  0
LINE
  5
6A9
330
1F
100
AcDbEntity
  8
0
  6
Continuous
 62
     7
100
AcDbLine
 10
1059.0138918482
 20
672.5525814523
 30
0.0
 11
1059.0138918482
 21
673.5525814523
 31
0.0
  0
LINE
  5
6AA
330
1F
100
AcDbEntity
  8
0
  6
Continuous
 62
     7
100
AcDbLine
 10
1060.5138918482
 20
672.5525814523
 30
0.0
 11
1060.5138918482
 21
675.0525814523
 31
0.0
  0
LINE
  5
6AB
330
1F
100
AcDbEntity
  8
0
  6
Continuous
 62
     7
100
AcDbLine
 10
1059.0138918482
 20
661.5525814523
 30
0.0
 11
1059.0138918482
 21
660.5525814523
 31
0.0
  0
LINE
  5
6AC
330
1F
100
AcDbEntity
  8
0
  6
Continuous
 62
     7
100
AcDbLine
 10
1060.5138918482
 20
660.5525814523
 30
0.0
 11
1060.5138918482
 21
661.5525814523
 31
0.0
  0
ARC
  5
6AD
330
1F
100
AcDbEntity
  8
0
  6
Continuous
 62
     7
100
AcDbCircle
 10
1037.5138918482
 20
652.0525814523
 30
0.0
 40
2.5
100
AcDbArc
 50
270.0
 51
90.0
  0
ARC
  5
6AE
330
1F
100
AcDbEntity
  8
0
  6
Continuous
 62
     7
100
AcDbCircle
 10
1037.5138918482
 20
652.0525814523
 30
0.0
 40
2.5
100
AcDbArc
 50
90.0
 51
270.0
  0
LINE
  5
6AF
330
1F
100
AcDbEntity
  8
0
  6
Continuous
 62
     7
100
AcDbLine
 10
1037.5138918482
 20
654.5525814523
 30
0.0
 11
1037.5138918482
 21
655.0525814523
 31
0.0
  0
ARC
  5
6B0
330
1F
100
AcDbEntity
  8
0
  6
Continuous
 62
     7
100
AcDbCircle
 10
1037.5138918482
 20
652.0525814523
 30
0.0
 40
3.0
100
AcDbArc
 50
270.0
 51
90.0
  0
LINE
  5
6B1
330
1F
100
AcDbEntity
  8
0
  6
Continuous
 62
     7
100
AcDbLine
 10
1037.5138918482
 20
649.5525814523
 30
0.0
 11
1037.5138918482
 21
649.0525814523
 31
0.0
  0
ARC
  5
6B2
330
1F
100
AcDbEntity
  8
0
  6
Continuous
 62
     7
100
AcDbCircle
 10
1037.5138918482
 20
652.0525814523
 30
0.0
 40
3.0
100
AcDbArc
 50
90.0
 51
270.0
  0
LINE
  5
6B3
330
1F
100
AcDbEntity
  8
0
  6
Continuous
 62
     7
100
AcDbLine
 10
687.1638918482
 20
679.8925740614
 30
0.0
 11
675.3638918482
 21
679.8925740614
 31
0.0
  0
ARC
  5
6B4
330
1F
100
AcDbEntity
  8
0
  6
Continuous
 62
     7
100
AcDbCircle
 10
676.8638918482
 20
679.8925740614
 30
0.0
 40
1.50000000000016
100
AcDbArc
 50
117.5120026239
 51
180.0
  0
LINE
  5
6B5
330
1F
100
AcDbEntity
  8
0
  6
Continuous
 62
     7
100
AcDbLine
 10
686.3567934764
 20
681.2229451876
 30
0.0
 11
676.1709902199
 21
681.2229451876
 31
0.0
  0
ARC
  5
6B6
330
1F
100
AcDbEntity
  8
0
  6
Continuous
 62
     7
100
AcDbCircle
 10
685.6638918482
 20
679.8925740614
 30
0.0
 40
1.50000000000016
100
AcDbArc
 50
0.0
 51
62.4879973761
  0
LINE
  5
6B7
330
1F
100
AcDbEntity
  8
0
  6
Continuous
 62
     7
100
AcDbLine
 10
675.3638918482
 20
679.8925740614
 30
0.0
 11
675.3638918482
 21
677.0525814523
 31
0.0
  0
LINE
  5
6B8
330
1F
100
AcDbEntity
  8
0
  6
Continuous
 62
     7
100
AcDbLine
 10
687.1638918482
 20
679.8925740614
 30
0.0
 11
687.1638918482
 21
677.0525814523
 31
0.0
  0
LINE
  5
6B9
330
1F
100
AcDbEntity
  8
0
  6
Continuous
 62
     7
100
AcDbLine
 10
677.4382044106
 20
681.8829525786
 30
0.0
 11
676.1709902199
 21
681.2229451876
 31
0.0
  0
LINE
  5
6BA
330
1F
100
AcDbEntity
  8
0
  6
Continuous
 62
     7
100
AcDbLine
 10
685.0895792858
 20
681.8829525786
 30
0.0
 11
677.4382044106
 21
681.8829525786
 31
0.0
  0
LINE
  5
6BB
330
1F
100
AcDbEntity
  8
0
  6
Continuous
 62
     7
100
AcDbLine
 10
685.0895792858
 20
681.8829525786
 30
0.0
 11
686.3567934764
 21
681.2229451876
 31
0.0
  0
ARC
  5
6BC
330
1F
100
AcDbEntity
  8
0
  6
Continuous
 62
     7
100
AcDbCircle
 10
678.1311060388
 20
680.5525814523
 30
0.0
 40
1.500000000000114
100
AcDbArc
 50
90.0
 51
117.5120026239
  0
LINE
  5
6BD
330
1F
100
AcDbEntity
  8
0
  6
Continuous
 62
     7
100
AcDbLine
 10
684.3966776575
 20
682.0525814523
 30
0.0
 11
678.1311060388
 21
682.0525814523
 31
0.0
  0
ARC
  5
6BE
330
1F
100
AcDbEntity
  8
0
  6
Continuous
 62
     7
100
AcDbCircle
 10
684.3966776575
 20
680.5525814523
 30
0.0
 40
1.500000000000114
100
AcDbArc
 50
62.4879973761
 51
90.0
  0
ARC
  5
6BF
330
1F
100
AcDbEntity
  8
0
  6
Continuous
 62
     7
100
AcDbCircle
 10
687.5138918482
 20
652.0525814523
 30
0.0
 40
3.0
100
AcDbArc
 50
90.0
 51
270.0
  0
LINE
  5
6C0
330
1F
100
AcDbEntity
  8
0
  6
Continuous
 62
     7
100
AcDbLine
 10
687.5138918482
 20
654.5525814523
 30
0.0
 11
687.5138918482
 21
655.0525814523
 31
0.0
  0
ARC
  5
6C1
330
1F
100
AcDbEntity
  8
0
  6
Continuous
 62
     7
100
AcDbCircle
 10
687.5138918482
 20
652.0525814523
 30
0.0
 40
2.500000000000114
100
AcDbArc
 50
90.0
 51
270.0
  0
LINE
  5
6C2
330
1F
100
AcDbEntity
  8
0
  6
Continuous
 62
     7
100
AcDbLine
 10
687.5138918482
 20
649.5525814523
 30
0.0
 11
687.5138918482
 21
649.0525814523
 31
0.0
  0
ARC
  5
6C3
330
1F
100
AcDbEntity
  8
0
  6
Continuous
 62
     7
100
AcDbCircle
 10
687.5138918482
 20
652.0525814523
 30
0.0
 40
2.500000000000114
100
AcDbArc
 50
270.0
 51
90.0
  0
ARC
  5
6C4
330
1F
100
AcDbEntity
  8
0
  6
Continuous
 62
     7
100
AcDbCircle
 10
687.5138918482
 20
652.0525814523
 30
0.0
 40
3.0
100
AcDbArc
 50
270.0
 51
90.0
  0
LINE
  5
6C5
330
1F
100
AcDbEntity
  8
0
  6
Continuous
 62
     7
100
AcDbLine
 10
1043.7638918482
 20
679.8925740614
 30
0.0
 11
1043.7638918482
 21
677.0525814523
 31
0.0
  0
LINE
  5
6C6
330
1F
100
AcDbEntity
  8
0
  6
Continuous
 62
     7
100
AcDbLine
 10
1043.7638918482
 20
681.2229451876
 30
0.0
 11
1043.7638918482
 21
679.8925740614
 31
0.0
  0
LINE
  5
6C7
330
1F
100
AcDbEntity
  8
0
  6
Continuous
 62
     7
100
AcDbLine
 10
1043.7638918482
 20
681.8829525786
 30
0.0
 11
1043.7638918482
 21
681.2229451876
 31
0.0
  0
LINE
  5
6C8
330
1F
100
AcDbEntity
  8
0
  6
Continuous
 62
     7
100
AcDbLine
 10
1043.7638918482
 20
682.0525814523
 30
0.0
 11
1043.7638918482
 21
681.8829525786
 31
0.0
  0
LINE
  5
6C9
330
1F
100
AcDbEntity
  8
0
  6
Continuous
 62
     7
100
AcDbLine
 10
1046.8966776575
 20
682.0525814523
 30
0.0
 11
1043.7638918482
 21
682.0525814523
 31
0.0
  0
LINE
  5
6CA
330
1F
100
AcDbEntity
  8
0
  6
Continuous
 62
     7
100
AcDbLine
 10
1043.7638918482
 20
682.0525814523
 30
0.0
 11
1040.6311060388
 21
682.0525814523
 31
0.0
  0
LINE
  5
6CB
330
1F
100
AcDbEntity
  8
0
  6
Continuous
 62
     7
100
AcDbLine
 10
666.5138918482
 20
674.5525814523
 30
0.0
 11
666.5138918482
 21
677.0525814523
 31
0.0
  0
LINE
  5
6CC
330
1F
100
AcDbEntity
  8
0
  6
Continuous
 62
     7
100
AcDbLine
 10
1058.5138918482
 20
677.0525814523
 30
0.0
 11
666.5138918482
 21
677.0525814523
 31
0.0
  0
LINE
  5
6CD
330
1F
100
AcDbEntity
  8
0
  6
Continuous
 62
     7
100
AcDbLine
 10
1058.5138918482
 20
674.5525814523
 30
0.0
 11
1058.5138918482
 21
677.0525814523
 31
0.0
  0
LINE
  5
6CE
330
1F
100
AcDbEntity
  8
0
  6
Continuous
 62
     7
100
AcDbLine
 10
1058.5138918482
 20
646.5525814523
 30
0.0
 11
1058.5138918482
 21
674.5525814523
 31
0.0
  0
LINE
  5
6CF
330
1F
100
AcDbEntity
  8
0
  6
Continuous
 62
     7
100
AcDbLine
 10
1055.5138918482
 20
643.5525814523
 30
0.0
 11
1058.5138918482
 21
646.5525814523
 31
0.0
  0
LINE
  5
6D0
330
1F
100
AcDbEntity
  8
0
  6
Continuous
 62
     7
100
AcDbLine
 10
666.5138918482
 20
646.5525814523
 30
0.0
 11
669.5138918482
 21
643.5525814523
 31
0.0
  0
LINE
  5
6D1
330
1F
100
AcDbEntity
  8
0
  6
Continuous
 62
     7
100
AcDbLine
 10
666.5138918482
 20
674.5525814523
 30
0.0
 11
666.5138918482
 21
646.5525814523
 31
0.0
  0
ARC
  5
6D2
330
1F
100
AcDbEntity
  8
0
  6
Continuous
 62
     7
100
AcDbCircle
 10
687.5138918482
 20
652.0525814523
 30
0.0
 40
3.25
100
AcDbArc
 50
270.0
 51
90.0
  0
ARC
  5
6D3
330
1F
100
AcDbEntity
  8
0
  6
Continuous
 62
     7
100
AcDbCircle
 10
687.5138918482
 20
652.0525814523
 30
0.0
 40
3.25
100
AcDbArc
 50
90.0
 51
270.0
  0
ARC
  5
6D4
330
1F
100
AcDbEntity
  8
0
  6
Continuous
 62
     7
100
AcDbCircle
 10
937.5138918482
 20
652.0525814523
 30
0.0
 40
3.25
100
AcDbArc
 50
270.0
 51
90.0
  0
ARC
  5
6D5
330
1F
100
AcDbEntity
  8
0
  6
Continuous
 62
     7
100
AcDbCircle
 10
937.5138918482
 20
652.0525814523
 30
0.0
 40
3.25
100
AcDbArc
 50
90.0
 51
270.0
  0
ARC
  5
6D6
330
1F
100
AcDbEntity
  8
0
  6
Continuous
 62
     7
100
AcDbCircle
 10
787.5138918482
 20
652.0525814523
 30
0.0
 40
3.25
100
AcDbArc
 50
270.0
 51
90.0
  0
ARC
  5
6D7
330
1F
100
AcDbEntity
  8
0
  6
Continuous
 62
     7
100
AcDbCircle
 10
787.5138918482
 20
652.0525814523
 30
0.0
 40
3.25
100
AcDbArc
 50
90.0
 51
270.0
  0
ARC
  5
6D8
330
1F
100
AcDbEntity
  8
0
  6
Continuous
 62
     7
100
AcDbCircle
 10
1037.5138918482
 20
652.0525814523
 30
0.0
 40
3.25
100
AcDbArc
 50
270.0
 51
90.0
  0
ARC
  5
6D9
330
1F
100
AcDbEntity
  8
0
  6
Continuous
 62
     7
100
AcDbCircle
 10
1037.5138918482
 20
652.0525814523
 30
0.0
 40
3.25
100
AcDbArc
 50
90.0
 51
270.0
  0
LINE
  5
6DA
330
1F
100
AcDbEntity
  8
0
  6
Continuous
 62
     7
100
AcDbLine
 10
669.5138918482
 20
643.5525814523
 30
0.0
 11
1055.5138918482
 21
643.5525814523
 31
0.0
  0
LINE
  5
6DB
330
1F
100
AcDbEntity
  8
0
  6
Continuous
 62
     7
100
AcDbLine
 10
758.3005482187
 20
681.8925740614
 30
0.0
 11
768.4138918482
 21
681.8925740614
 31
0.0
  0
LINE
  5
6DC
330
1F
100
AcDbEntity
  8
0
  6
Continuous
 62
     7
100
AcDbLine
 10
758.8769181819
 20
683.2229451876
 30
0.0
 11
767.6067934764
 21
683.2229451876
 31
0.0
  0
LINE
  5
6DD
330
1F
100
AcDbEntity
  8
0
  6
Continuous
 62
     7
100
AcDbLine
 10
759.7818688323
 20
683.8829525786
 30
0.0
 11
766.3395792858
 21
683.8829525786
 31
0.0
  0
LINE
  5
6DE
330
1F
100
AcDbEntity
  8
0
  6
Continuous
 62
     7
100
AcDbLine
 10
756.6138918482
 20
681.8925740614
 30
0.0
 11
758.3005482187
 21
681.8925740614
 31
0.0
  0
LINE
  5
6DF
330
1F
100
AcDbEntity
  8
0
  6
Continuous
 62
     7
100
AcDbLine
 10
757.4209902199
 20
683.2229451876
 30
0.0
 11
758.8769181819
 21
683.2229451876
 31
0.0
  0
LINE
  5
6E0
330
1F
100
AcDbEntity
  8
0
  6
Continuous
 62
     7
100
AcDbLine
 10
758.6882044106
 20
683.8829525786
 30
0.0
 11
759.7818688323
 21
683.8829525786
 31
0.0
  0
LINE
  5
6E1
330
1F
100
AcDbEntity
  8
0
  6
Continuous
 62
     7
100
AcDbLine
 10
956.6138918482
 20
681.8925740614
 30
0.0
 11
968.4080665971
 21
681.8925740614
 31
0.0
  0
LINE
  5
6E2
330
1F
100
AcDbEntity
  8
0
  6
Continuous
 62
     7
100
AcDbLine
 10
957.4209902199
 20
683.2229451876
 30
0.0
 11
967.6017650983
 21
683.2229451876
 31
0.0
  0
LINE
  5
6E3
330
1F
100
AcDbEntity
  8
0
  6
Continuous
 62
     7
100
AcDbLine
 10
958.6882044106
 20
683.8829525786
 30
0.0
 11
966.3358020671
 21
683.8829525786
 31
0.0
  0
LINE
  5
6E4
330
1F
100
AcDbEntity
  8
0
  6
Continuous
 62
     7
100
AcDbLine
 10
968.4080665971
 20
681.8925740614
 30
0.0
 11
968.4138918482
 21
681.8925740614
 31
0.0
  0
LINE
  5
6E5
330
1F
100
AcDbEntity
  8
0
  6
Continuous
 62
     7
100
AcDbLine
 10
967.6017650983
 20
683.2229451876
 30
0.0
 11
967.6067934764
 21
683.2229451876
 31
0.0
  0
LINE
  5
6E6
330
1F
100
AcDbEntity
  8
0
  6
Continuous
 62
     7
100
AcDbLine
 10
966.3358020671
 20
683.8829525786
 30
0.0
 11
966.3395792858
 21
683.8829525786
 31
0.0
  0
LINE
  5
6E7
330
1F
100
AcDbEntity
  8
0
  6
Continuous
 62
     7
100
AcDbLine
 10
1043.7638918482
 20
679.8925740614
 30
0.0
 11
1037.8638918482
 21
679.8925740614
 31
0.0
  0
LINE
  5
6E8
330
1F
100
AcDbEntity
  8
0
  6
Continuous
 62
     7
100
AcDbLine
 10
1049.6638918482
 20
679.8925740614
 30
0.0
 11
1043.7638918482
 21
679.8925740614
 31
0.0
  0
LINE
  5
6E9
330
1F
100
AcDbEntity
  8
0
  6
Continuous
 62
     7
100
AcDbLine
 10
1048.8567934764
 20
681.2229451876
 30
0.0
 11
1043.7638918482
 21
681.2229451876
 31
0.0
  0
LINE
  5
6EA
330
1F
100
AcDbEntity
  8
0
  6
Continuous
 62
     7
100
AcDbLine
 10
1043.7638918482
 20
681.2229451876
 30
0.0
 11
1038.6709902199
 21
681.2229451876
 31
0.0
  0
LINE
  5
6EB
330
1F
100
AcDbEntity
  8
0
  6
Continuous
 62
     7
100
AcDbLine
 10
1043.7638918482
 20
681.8829525786
 30
0.0
 11
1039.9382044106
 21
681.8829525786
 31
0.0
  0
LINE
  5
6EC
330
1F
100
AcDbEntity
  8
0
  6
Continuous
 62
     7
100
AcDbLine
 10
1047.5895792858
 20
681.8829525786
 30
0.0
 11
1043.7638918482
 21
681.8829525786
 31
0.0
  0
ENDSEC
  0
SECTION
  2
OBJECTS
  0
DICTIONARY
  5
C
330
0
100
AcDbDictionary
281
     1
  3
ACAD_GROUP
350
D
  3
ACAD_LAYOUT
350
1A
  3
ACAD_MLINESTYLE
350
17
  3
ACAD_PLOTSETTINGS
350
19
  3
ACAD_PLOTSTYLENAME
350
E
  3
ACAD_SCALELIST
350
47
  3
DWGPROPS
350
6ED
  0
DICTIONARY
  5
D
102
{ACAD_REACTORS
330
C
102
}
330
C
100
AcDbDictionary
281
     1
  0
DICTIONARY
  5
1A
102
{ACAD_REACTORS
330
C
102
}
330
C
100
AcDbDictionary
281
     1
  3
Layout1
350
1E
  3
Layout2
350
26
  3
Model
350
22
  0
DICTIONARY
  5
17
102
{ACAD_REACTORS
330
C
102
}
330
C
100
AcDbDictionary
281
     1
  3
Standard
350
18
  0
DICTIONARY
  5
19
102
{ACAD_REACTORS
330
C
102
}
330
C
100
AcDbDictionary
281
     1
  0
ACDBDICTIONARYWDFLT
  5
E
102
{ACAD_REACTORS
330
C
102
}
330
C
100
AcDbDictionary
281
     1
  3
Normal
350
F
100
AcDbDictionaryWithDefault
340
F
  0
DICTIONARY
  5
47
102
{ACAD_REACTORS
330
C
102
}
330
C
100
AcDbDictionary
281
     1
  3
A0
350
48
  3
A1
350
49
  3
A2
350
4A
  3
A3
350
4B
  3
A4
350
4C
  3
A5
350
4D
  3
A6
350
4E
  3
A7
350
4F
  3
A8
350
50
  3
A9
350
51
  3
B0
350
52
  3
B1
350
53
  3
B2
350
54
  3
B3
350
55
  3
B4
350
56
  3
B5
350
57
  3
B6
350
58
  0
XRECORD
  5
6ED
102
{ACAD_REACTORS
330
C
102
}
330
C
100
AcDbXrecord
280
     1
  1
DWGPROPS COOKIE
  2

  3

  4

  6

  7

  8
moskovchenkovapa
  9

300
=
301
=
302
=
303
=
304
=
305
=
306
=
307
=
308
=
309
=
 40
0.0
 41
2460698.571043507
 42
2460698.571044201
  1

 90
        0
  0
LAYOUT
  5
1E
102
{ACAD_REACTORS
330
1A
102
}
330
1A
100
AcDbPlotSettings
  1

  2
none_device
  4

  6

 40
0.0
 41
0.0
 42
0.0
 43
0.0
 44
0.0
 45
0.0
 46
0.0
 47
0.0
 48
0.0
 49
0.0
140
0.0
141
0.0
142
1.0
143
1.0
 70
   688
 72
     1
 73
     0
 74
     5
  7

 75
    16
147
1.0
148
0.0
149
0.0
100
AcDbLayout
  1
Layout1
 70
     1
 71
     1
 10
0.0
 20
0.0
 11
420.0
 21
297.0
 12
0.0
 22
0.0
 32
0.0
 14
1.0000000000E+20
 24
1.0000000000E+20
 34
1.0000000000E+20
 15
-1.0000000000E+20
 25
-1.0000000000E+20
 35
-1.0000000000E+20
146
0.0
 13
0.0
 23
0.0
 33
0.0
 16
1.0
 26
0.0
 36
0.0
 17
0.0
 27
1.0
 37
0.0
 76
     0
330
1B
  0
LAYOUT
  5
26
102
{ACAD_REACTORS
330
1A
102
}
330
1A
100
AcDbPlotSettings
  1

  2
none_device
  4

  6

 40
0.0
 41
0.0
 42
0.0
 43
0.0
 44
0.0
 45
0.0
 46
0.0
 47
0.0
 48
0.0
 49
0.0
140
0.0
141
0.0
142
1.0
143
1.0
 70
   688
 72
     1
 73
     0
 74
     5
  7

 75
    16
147
1.0
148
0.0
149
0.0
100
AcDbLayout
  1
Layout2
 70
     1
 71
     2
 10
0.0
 20
0.0
 11
0.0
 21
0.0
 12
0.0
 22
0.0
 32
0.0
 14
0.0
 24
0.0
 34
0.0
 15
0.0
 25
0.0
 35
0.0
146
0.0
 13
0.0
 23
0.0
 33
0.0
 16
1.0
 26
0.0
 36
0.0
 17
0.0
 27
1.0
 37
0.0
 76
     0
330
23
  0
LAYOUT
  5
22
102
{ACAD_REACTORS
330
1A
102
}
330
1A
100
AcDbPlotSettings
  1

  2
none_device
  4
Letter_(8.50_x_11.00_Inches)
  6

 40
6.35
 41
6.35
 42
6.35000508
 43
6.35000508
 44
215.9
 45
279.4
 46
0.0
 47
0.0
 48
0.0
 49
0.0
140
0.0
141
0.0
142
1.0
143
1.0
 70
  1712
 72
     1
 73
     0
 74
     0
  7

 75
     0
147
1.0
148
0.0
149
0.0
100
AcDbLayout
  1
Model
 70
     1
 71
     0
 10
0.0
 20
0.0
 11
420.0
 21
297.0
 12
0.0
 22
0.0
 32
0.0
 14
0.0
 24
0.0
 34
0.0
 15
420.0
 25
297.0
 35
0.0
146
0.0
 13
0.0
 23
0.0
 33
0.0
 16
1.0
 26
0.0
 36
0.0
 17
0.0
 27
1.0
 37
0.0
 76
     0
330
1F
331
29
  0
MLINESTYLE
  5
18
102
{ACAD_REACTORS
330
17
102
}
330
17
100
AcDbMlineStyle
  2
Standard
 70
     0
  3

 62
   256
 51
90.0
 52
90.0
 71
     2
 49
0.5
 62
   256
  6
BYLAYER
 49
-0.5
 62
   256
  6
BYLAYER
  0
ACDBPLACEHOLDER
  5
F
102
{ACAD_REACTORS
330
E
102
}
330
E
  0
SCALE
  5
48
102
{ACAD_REACTORS
330
47
102
}
330
47
100
AcDbScale
 70
     0
300
1:1
140
1.0
141
1.0
290
     1
  0
SCALE
  5
49
102
{ACAD_REACTORS
330
47
102
}
330
47
100
AcDbScale
 70
     0
300
1:2
140
1.0
141
2.0
290
     0
  0
SCALE
  5
4A
102
{ACAD_REACTORS
330
47
102
}
330
47
100
AcDbScale
 70
     0
300
1:4
140
1.0
141
4.0
290
     0
  0
SCALE
  5
4B
102
{ACAD_REACTORS
330
47
102
}
330
47
100
AcDbScale
 70
     0
300
1:5
140
1.0
141
5.0
290
     0
  0
SCALE
  5
4C
102
{ACAD_REACTORS
330
47
102
}
330
47
100
AcDbScale
 70
     0
300
1:8
140
1.0
141
8.0
290
     0
  0
SCALE
  5
4D
102
{ACAD_REACTORS
330
47
102
}
330
47
100
AcDbScale
 70
     0
300
1:10
140
1.0
141
10.0
290
     0
  0
SCALE
  5
4E
102
{ACAD_REACTORS
330
47
102
}
330
47
100
AcDbScale
 70
     0
300
1:16
140
1.0
141
16.0
290
     0
  0
SCALE
  5
4F
102
{ACAD_REACTORS
330
47
102
}
330
47
100
AcDbScale
 70
     0
300
1:20
140
1.0
141
20.0
290
     0
  0
SCALE
  5
50
102
{ACAD_REACTORS
330
47
102
}
330
47
100
AcDbScale
 70
     0
300
1:30
140
1.0
141
30.0
290
     0
  0
SCALE
  5
51
102
{ACAD_REACTORS
330
47
102
}
330
47
100
AcDbScale
 70
     0
300
1:40
140
1.0
141
40.0
290
     0
  0
SCALE
  5
52
102
{ACAD_REACTORS
330
47
102
}
330
47
100
AcDbScale
 70
     0
300
1:50
140
1.0
141
50.0
290
     0
  0
SCALE
  5
53
102
{ACAD_REACTORS
330
47
102
}
330
47
100
AcDbScale
 70
     0
300
1:100
140
1.0
141
100.0
290
     0
  0
SCALE
  5
54
102
{ACAD_REACTORS
330
47
102
}
330
47
100
AcDbScale
 70
     0
300
2:1
140
2.0
141
1.0
290
     0
  0
SCALE
  5
55
102
{ACAD_REACTORS
330
47
102
}
330
47
100
AcDbScale
 70
     0
300
4:1
140
4.0
141
1.0
290
     0
  0
SCALE
  5
56
102
{ACAD_REACTORS
330
47
102
}
330
47
100
AcDbScale
 70
     0
300
8:1
140
8.0
141
1.0
290
     0
  0
SCALE
  5
57
102
{ACAD_REACTORS
330
47
102
}
330
47
100
AcDbScale
 70
     0
300
10:1
140
10.0
141
1.0
290
     0
  0
SCALE
  5
58
102
{ACAD_REACTORS
330
47
102
}
330
47
100
AcDbScale
 70
     0
300
100:1
140
100.0
141
1.0
290
     0
  0
ENDSEC
  0
EOF
