ISO-10303-21;
HEADER;
FILE_DESCRIPTION (( 'STEP AP203' ),
    '1' );
FILE_NAME ('TI-00D-STB-006 TITAN Çàãëóøêà ïîä îòâåðñòèå 6ìì (20øò. êîìïë) IEK.STEP',
    '2024-09-11T10:53:05',
    ( '' ),
    ( '' ),
    'SwSTEP 2.0',
    'SolidWorks 2022',
    '' );
FILE_SCHEMA (( 'CONFIG_CONTROL_DESIGN' ));
ENDSEC;

DATA;
#1 = PRODUCT_DEFINITION_SHAPE ( 'NONE', 'NONE',  #64 ) ;
#2 = FACE_OUTER_BOUND ( 'NONE', #91, .T. ) ;
#3 = ADVANCED_FACE ( 'NONE', ( #110 ), #81, .T. ) ;
#4 =( LENGTH_UNIT ( ) NAMED_UNIT ( * ) SI_UNIT ( .MILLI., .METRE. ) );
#5 = LOCAL_TIME ( 13, 53, 5.000000000000000000, #138 ) ;
#6 = CC_DESIGN_DATE_AND_TIME_ASSIGNMENT ( #205, #184, ( #64 ) ) ;
#7 = CC_DESIGN_DATE_AND_TIME_ASSIGNMENT ( #88, #203, ( #152 ) ) ;
#8 = PERSON_AND_ORGANIZATION ( #123, #126 ) ;
#9 = CIRCLE ( 'NONE', #169, 2.399999999999999911 ) ;
#10 = CARTESIAN_POINT ( 'NONE',  ( -2.649999999999999467, 4.000000000000000000, 0.000000000000000000 ) ) ;
#11 = AXIS2_PLACEMENT_3D ( 'NONE', #10, #63, #128 ) ;
#12 = CYLINDRICAL_SURFACE ( 'NONE', #92, 5.049999999999998934 ) ;
#13 = ORIENTED_EDGE ( 'NONE', *, *, #204, .T. ) ;
#14 = CARTESIAN_POINT ( 'NONE',  ( 0.000000000000000000, 2.199999999999999734, 0.000000000000000000 ) ) ;
#15 = ORIENTED_EDGE ( 'NONE', *, *, #60, .T. ) ;
#16 = DIRECTION ( 'NONE',  ( -0.000000000000000000, 1.000000000000000000, -0.000000000000000000 ) ) ;
#17 = APPROVAL_STATUS ( 'not_yet_approved' ) ;
#18 = CARTESIAN_POINT ( 'NONE',  ( 0.000000000000000000, 2.199999999999999734, 0.000000000000000000 ) ) ;
#19 = MANIFOLD_SOLID_BREP ( 'Ïîâåðíóòü1', #186 ) ;
#20 =( NAMED_UNIT ( * ) SI_UNIT ( $, .STERADIAN. ) SOLID_ANGLE_UNIT ( ) );
#21 = CC_DESIGN_PERSON_AND_ORGANIZATION_ASSIGNMENT ( #185, #141, ( #72 ) ) ;
#22 = ADVANCED_FACE ( 'NONE', ( #144, #143 ), #93, .T. ) ;
#23 = PERSON_AND_ORGANIZATION_ROLE ( 'creator' ) ;
#24 = ADVANCED_FACE ( 'NONE', ( #208 ), #174, .T. ) ;
#25 = CALENDAR_DATE ( 2024, 11, 9 ) ;
#26 = CALENDAR_DATE ( 2024, 11, 9 ) ;
#27 = PERSON_AND_ORGANIZATION_ROLE ( 'classification_officer' ) ;
#28 = PLANE ( 'NONE',  #11 ) ;
#29 = ORIENTED_EDGE ( 'NONE', *, *, #204, .F. ) ;
#30 = CIRCLE ( 'NONE', #139, 2.649999999999999467 ) ;
#31 = CC_DESIGN_APPROVAL ( #54, ( #152 ) ) ;
#32 = EDGE_LOOP ( 'NONE', ( #66 ) ) ;
#33 = DIRECTION ( 'NONE',  ( 0.000000000000000000, -0.000000000000000000, -1.000000000000000000 ) ) ;
#34 = ORIENTED_EDGE ( 'NONE', *, *, #127, .T. ) ;
#35 = DIRECTION ( 'NONE',  ( -0.000000000000000000, 1.000000000000000000, -0.000000000000000000 ) ) ;
#36 = PERSON_AND_ORGANIZATION_ROLE ( 'design_owner' ) ;
#37 = CIRCLE ( 'NONE', #202, 5.049999999999998934 ) ;
#38 = CARTESIAN_POINT ( 'NONE',  ( 0.000000000000000000, 0.000000000000000000, 0.000000000000000000 ) ) ;
#39 = DIRECTION ( 'NONE',  ( 0.000000000000000000, -1.000000000000000000, 0.000000000000000000 ) ) ;
#40 = LOCAL_TIME ( 13, 53, 5.000000000000000000, #182 ) ;
#41 = APPROVAL_PERSON_ORGANIZATION ( #85, #176, #83 ) ;
#42 = APPLICATION_CONTEXT ( 'configuration controlled 3d designs of mechanical parts and assemblies' ) ;
#43 = CARTESIAN_POINT ( 'NONE',  ( 0.000000000000000000, 5.000000000000000888, 0.000000000000000000 ) ) ;
#44 = EDGE_LOOP ( 'NONE', ( #107 ) ) ;
#45 = APPROVAL ( #181, 'UNSPECIFIED' ) ;
#46 = ADVANCED_FACE ( 'NONE', ( #132, #79 ), #12, .T. ) ;
#47 = DIRECTION ( 'NONE',  ( -0.000000000000000000, 1.000000000000000000, -0.000000000000000000 ) ) ;
#48 = FACE_BOUND ( 'NONE', #95, .T. ) ;
#49 = DIRECTION ( 'NONE',  ( 0.000000000000000000, 0.000000000000000000, 1.000000000000000000 ) ) ;
#50 = AXIS2_PLACEMENT_3D ( 'NONE', #43, #158, #171 ) ;
#51 = DIRECTION ( 'NONE',  ( 0.000000000000000000, 0.000000000000000000, 1.000000000000000000 ) ) ;
#52 = CARTESIAN_POINT ( 'NONE',  ( 0.000000000000000000, 4.000000000000000888, 0.000000000000000000 ) ) ;
#53 = PERSON_AND_ORGANIZATION ( #123, #126 ) ;
#54 = APPROVAL ( #125, 'UNSPECIFIED' ) ;
#55 = DIRECTION ( 'NONE',  ( -0.000000000000000000, 1.000000000000000000, -0.000000000000000000 ) ) ;
#56 = PERSON_AND_ORGANIZATION ( #123, #126 ) ;
#57 = EDGE_CURVE ( 'NONE', #193, #193, #101, .T. ) ;
#58 = UNCERTAINTY_MEASURE_WITH_UNIT (LENGTH_MEASURE( 1.000000000000000082E-05 ), #4, 'distance_accuracy_value', 'NONE');
#59 = AXIS2_PLACEMENT_3D ( 'NONE', #161, #68, #33 ) ;
#60 = EDGE_CURVE ( 'NONE', #164, #164, #75, .T. ) ;
#61 = APPROVAL_ROLE ( '' ) ;
#62 = CC_DESIGN_PERSON_AND_ORGANIZATION_ASSIGNMENT ( #53, #36, ( #134 ) ) ;
#63 = DIRECTION ( 'NONE',  ( 0.000000000000000000, -1.000000000000000000, 0.000000000000000000 ) ) ;
#64 = PRODUCT_DEFINITION ( 'UNKNOWN', '', #72, #120 ) ;
#65 = ORIENTED_EDGE ( 'NONE', *, *, #57, .F. ) ;
#66 = ORIENTED_EDGE ( 'NONE', *, *, #127, .F. ) ;
#67 = ADVANCED_FACE ( 'NONE', ( #48, #106 ), #28, .T. ) ;
#68 = DIRECTION ( 'NONE',  ( 0.000000000000000000, -1.000000000000000000, 0.000000000000000000 ) ) ;
#69 = DIRECTION ( 'NONE',  ( -0.000000000000000000, 1.000000000000000000, -0.000000000000000000 ) ) ;
#70 = CONICAL_SURFACE ( 'NONE', #210, 2.649999999999999911, 0.3805063771123646799 ) ;
#71 = CARTESIAN_POINT ( 'NONE',  ( 0.000000000000000000, 0.000000000000000000, 0.000000000000000000 ) ) ;
#72 = PRODUCT_DEFINITION_FORMATION_WITH_SPECIFIED_SOURCE ( 'ANY', '', #134, .NOT_KNOWN. ) ;
#73 = PERSON_AND_ORGANIZATION ( #123, #126 ) ;
#74 = COORDINATED_UNIVERSAL_TIME_OFFSET ( 3, 0, .AHEAD. ) ;
#75 = CIRCLE ( 'NONE', #50, 5.049999999999998934 ) ;
#76 = EDGE_LOOP ( 'NONE', ( #29 ) ) ;
#77 = ADVANCED_FACE ( 'NONE', ( #188, #133 ), #189, .T. ) ;
#78 = ORIENTED_EDGE ( 'NONE', *, *, #191, .T. ) ;
#79 = FACE_OUTER_BOUND ( 'NONE', #213, .T. ) ;
#80 = DIRECTION ( 'NONE',  ( -0.000000000000000000, 1.000000000000000000, -0.000000000000000000 ) ) ;
#81 = SPHERICAL_SURFACE ( 'NONE', #155, 13.25124999999999531 ) ;
#82 = CARTESIAN_POINT ( 'NONE',  ( 0.000000000000000000, 3.199999999999999734, 0.000000000000000000 ) ) ;
#83 = APPROVAL_ROLE ( '' ) ;
#84 = DIRECTION ( 'NONE',  ( -0.000000000000000000, 1.000000000000000000, -0.000000000000000000 ) ) ;
#85 = PERSON_AND_ORGANIZATION ( #123, #126 ) ;
#86 = CARTESIAN_POINT ( 'NONE',  ( 0.000000000000000000, 3.199999999999999734, 0.000000000000000000 ) ) ;
#87 = APPROVAL_DATE_TIME ( #200, #176 ) ;
#88 = DATE_AND_TIME ( #170, #40 ) ;
#89 = SECURITY_CLASSIFICATION_LEVEL ( 'unclassified' ) ;
#90 = EDGE_LOOP ( 'NONE', ( #172 ) ) ;
#91 = EDGE_LOOP ( 'NONE', ( #175 ) ) ;
#92 = AXIS2_PLACEMENT_3D ( 'NONE', #209, #69, #187 ) ;
#93 = CYLINDRICAL_SURFACE ( 'NONE', #115, 2.649999999999999467 ) ;
#94 = ORIENTED_EDGE ( 'NONE', *, *, #60, .F. ) ;
#95 = EDGE_LOOP ( 'NONE', ( #78 ) ) ;
#96 = APPROVAL_PERSON_ORGANIZATION ( #154, #45, #140 ) ;
#97 = APPLICATION_PROTOCOL_DEFINITION ( 'international standard', 'config_control_design', 1994, #42 ) ;
#98 = VERTEX_POINT ( 'NONE', #214 ) ;
#99 =( NAMED_UNIT ( * ) PLANE_ANGLE_UNIT ( ) SI_UNIT ( $, .RADIAN. ) );
#100 = PRODUCT_RELATED_PRODUCT_CATEGORY ( 'detail', '', ( #134 ) ) ;
#101 = CIRCLE ( 'NONE', #159, 3.049999999999999822 ) ;
#102 = LOCAL_TIME ( 13, 53, 5.000000000000000000, #124 ) ;
#103 = DATE_AND_TIME ( #167, #102 ) ;
#104 = LOCAL_TIME ( 13, 53, 5.000000000000000000, #74 ) ;
#105 = PERSON_AND_ORGANIZATION_ROLE ( 'design_supplier' ) ;
#106 = FACE_OUTER_BOUND ( 'NONE', #32, .T. ) ;
#107 = ORIENTED_EDGE ( 'NONE', *, *, #191, .F. ) ;
#108 = ORIENTED_EDGE ( 'NONE', *, *, #117, .T. ) ;
#109 =( GEOMETRIC_REPRESENTATION_CONTEXT ( 3 ) GLOBAL_UNCERTAINTY_ASSIGNED_CONTEXT ( ( #58 ) ) GLOBAL_UNIT_ASSIGNED_CONTEXT ( ( #4, #99, #20 ) ) REPRESENTATION_CONTEXT ( 'NONE', 'WORKASPACE' ) );
#110 = FACE_OUTER_BOUND ( 'NONE', #145, .T. ) ;
#111 = EDGE_LOOP ( 'NONE', ( #34 ) ) ;
#112 = AXIS2_PLACEMENT_3D ( 'NONE', #18, #84, #51 ) ;
#113 = VERTEX_POINT ( 'NONE', #166 ) ;
#114 = DIRECTION ( 'NONE',  ( 0.000000000000000000, 0.000000000000000000, 1.000000000000000000 ) ) ;
#115 = AXIS2_PLACEMENT_3D ( 'NONE', #162, #47, #207 ) ;
#116 = ADVANCED_FACE ( 'NONE', ( #2, #177 ), #70, .T. ) ;
#117 = EDGE_CURVE ( 'NONE', #196, #196, #183, .T. ) ;
#118 = CARTESIAN_POINT ( 'NONE',  ( 0.000000000000000000, 5.000000000000000888, 5.049999999999998934 ) ) ;
#119 = CALENDAR_DATE ( 2024, 11, 9 ) ;
#120 = DESIGN_CONTEXT ( 'detailed design', #42, 'design' ) ;
#121 = APPROVAL_DATE_TIME ( #103, #54 ) ;
#122 = AXIS2_PLACEMENT_3D ( 'NONE', #82, #194, #192 ) ;
#123 = PERSON ( 'UNSPECIFIED', 'UNSPECIFIED', 'UNSPECIFIED', ('UNSPECIFIED'), ('UNSPECIFIED'), ('UNSPECIFIED') ) ;
#124 = COORDINATED_UNIVERSAL_TIME_OFFSET ( 3, 0, .AHEAD. ) ;
#125 = APPROVAL_STATUS ( 'not_yet_approved' ) ;
#126 = ORGANIZATION ( 'UNSPECIFIED', 'UNSPECIFIED', '' ) ;
#127 = EDGE_CURVE ( 'NONE', #113, #113, #37, .T. ) ;
#128 = DIRECTION ( 'NONE',  ( 0.000000000000000000, -0.000000000000000000, -1.000000000000000000 ) ) ;
#129 = DIRECTION ( 'NONE',  ( 0.000000000000000000, 0.000000000000000000, 1.000000000000000000 ) ) ;
#130 = LOCAL_TIME ( 13, 53, 5.000000000000000000, #215 ) ;
#131 = CC_DESIGN_PERSON_AND_ORGANIZATION_ASSIGNMENT ( #56, #27, ( #152 ) ) ;
#132 = FACE_OUTER_BOUND ( 'NONE', #111, .T. ) ;
#133 = FACE_OUTER_BOUND ( 'NONE', #146, .T. ) ;
#134 = PRODUCT ( 'TI-00D-STB-006 TITAN \X2\041704300433043b04430448043a0430\X0\ \X2\043f043e0434\X0\ \X2\043e04420432043504400441044204380435\X0\ 6\X2\043c043c\X0\ (20\X2\04480442\X0\. \X2\043a043e043c043f043b\X0\) IEK', 'TI-00D-STB-006 TITAN \X2\041704300433043b04430448043a0430\X0\ \X2\043f043e0434\X0\ \X2\043e04420432043504400441044204380435\X0\ 6\X2\043c043c\X0\ (20\X2\04480442\X0\. \X2\043a043e043c043f043b\X0\) IEK', '', ( #149 ) ) ;
#135 = CARTESIAN_POINT ( 'NONE',  ( 0.000000000000000000, 4.000000000000000000, 0.000000000000000000 ) ) ;
#136 = APPLICATION_PROTOCOL_DEFINITION ( 'international standard', 'config_control_design', 1994, #156 ) ;
#137 = AXIS2_PLACEMENT_3D ( 'NONE', #71, #114, #195 ) ;
#138 = COORDINATED_UNIVERSAL_TIME_OFFSET ( 3, 0, .AHEAD. ) ;
#139 = AXIS2_PLACEMENT_3D ( 'NONE', #135, #16, #163 ) ;
#140 = APPROVAL_ROLE ( '' ) ;
#141 = PERSON_AND_ORGANIZATION_ROLE ( 'creator' ) ;
#142 = CC_DESIGN_PERSON_AND_ORGANIZATION_ASSIGNMENT ( #8, #105, ( #72 ) ) ;
#143 = FACE_OUTER_BOUND ( 'NONE', #44, .T. ) ;
#144 = FACE_OUTER_BOUND ( 'NONE', #147, .T. ) ;
#145 = EDGE_LOOP ( 'NONE', ( #15 ) ) ;
#146 = EDGE_LOOP ( 'NONE', ( #65 ) ) ;
#147 = EDGE_LOOP ( 'NONE', ( #108 ) ) ;
#148 = DIRECTION ( 'NONE',  ( 0.000000000000000000, 0.000000000000000000, 1.000000000000000000 ) ) ;
#149 = MECHANICAL_CONTEXT ( 'NONE', #156, 'mechanical' ) ;
#150 = VERTEX_POINT ( 'NONE', #180 ) ;
#151 = CARTESIAN_POINT ( 'NONE',  ( 0.000000000000000000, 2.199999999999999734, 3.049999999999999822 ) ) ;
#152 = SECURITY_CLASSIFICATION ( '', '', #89 ) ;
#153 = APPROVAL_DATE_TIME ( #201, #45 ) ;
#154 = PERSON_AND_ORGANIZATION ( #123, #126 ) ;
#155 = AXIS2_PLACEMENT_3D ( 'NONE', #212, #129, #160 ) ;
#156 = APPLICATION_CONTEXT ( 'configuration controlled 3d designs of mechanical parts and assemblies' ) ;
#157 = PERSON_AND_ORGANIZATION ( #123, #126 ) ;
#158 = DIRECTION ( 'NONE',  ( -0.000000000000000000, 1.000000000000000000, -0.000000000000000000 ) ) ;
#159 = AXIS2_PLACEMENT_3D ( 'NONE', #14, #80, #190 ) ;
#160 = DIRECTION ( 'NONE',  ( -1.000000000000000000, 0.000000000000000000, 0.000000000000000000 ) ) ;
#161 = CARTESIAN_POINT ( 'NONE',  ( 0.000000000000000000, -1.469576158976823553E-16, 0.000000000000000000 ) ) ;
#162 = CARTESIAN_POINT ( 'NONE',  ( 0.000000000000000000, 6.000000000000000888, 0.000000000000000000 ) ) ;
#163 = DIRECTION ( 'NONE',  ( 0.000000000000000000, 0.000000000000000000, 1.000000000000000000 ) ) ;
#164 = VERTEX_POINT ( 'NONE', #118 ) ;
#165 = CARTESIAN_POINT ( 'NONE',  ( 0.000000000000000000, 3.199999999999999734, 2.649999999999999911 ) ) ;
#166 = CARTESIAN_POINT ( 'NONE',  ( 0.000000000000000000, 4.000000000000000888, 5.049999999999998934 ) ) ;
#167 = CALENDAR_DATE ( 2024, 11, 9 ) ;
#168 = SHAPE_DEFINITION_REPRESENTATION ( #1, #178 ) ;
#169 = AXIS2_PLACEMENT_3D ( 'NONE', #38, #55, #49 ) ;
#170 = CALENDAR_DATE ( 2024, 11, 9 ) ;
#171 = DIRECTION ( 'NONE',  ( 0.000000000000000000, 0.000000000000000000, 1.000000000000000000 ) ) ;
#172 = ORIENTED_EDGE ( 'NONE', *, *, #117, .F. ) ;
#173 = EDGE_LOOP ( 'NONE', ( #13 ) ) ;
#174 = PLANE ( 'NONE',  #59 ) ;
#175 = ORIENTED_EDGE ( 'NONE', *, *, #57, .T. ) ;
#176 = APPROVAL ( #17, 'UNSPECIFIED' ) ;
#177 = FACE_BOUND ( 'NONE', #90, .T. ) ;
#178 = ADVANCED_BREP_SHAPE_REPRESENTATION ( 'TI-00D-STB-006 TITAN \X2\041704300433043b04430448043a0430\X0\ \X2\043f043e0434\X0\ \X2\043e04420432043504400441044204380435\X0\ 6\X2\043c043c\X0\ (20\X2\04480442\X0\. \X2\043a043e043c043f043b\X0\) IEK', ( #19, #137 ), #109 ) ;
#179 = DIRECTION ( 'NONE',  ( 0.000000000000000000, 0.000000000000000000, -1.000000000000000000 ) ) ;
#180 = CARTESIAN_POINT ( 'NONE',  ( 0.000000000000000000, 4.000000000000000000, 2.649999999999999467 ) ) ;
#181 = APPROVAL_STATUS ( 'not_yet_approved' ) ;
#182 = COORDINATED_UNIVERSAL_TIME_OFFSET ( 3, 0, .AHEAD. ) ;
#183 = CIRCLE ( 'NONE', #122, 2.649999999999999911 ) ;
#184 = DATE_TIME_ROLE ( 'creation_date' ) ;
#185 = PERSON_AND_ORGANIZATION ( #123, #126 ) ;
#186 = CLOSED_SHELL ( 'NONE', ( #24, #77, #116, #22, #67, #46, #3 ) ) ;
#187 = DIRECTION ( 'NONE',  ( 0.000000000000000000, 0.000000000000000000, 1.000000000000000000 ) ) ;
#188 = FACE_BOUND ( 'NONE', #173, .T. ) ;
#189 = CONICAL_SURFACE ( 'NONE', #112, 3.049999999999999822, 0.2872814533971341788 ) ;
#190 = DIRECTION ( 'NONE',  ( 0.000000000000000000, 0.000000000000000000, 1.000000000000000000 ) ) ;
#191 = EDGE_CURVE ( 'NONE', #150, #150, #30, .T. ) ;
#192 = DIRECTION ( 'NONE',  ( 0.000000000000000000, 0.000000000000000000, 1.000000000000000000 ) ) ;
#193 = VERTEX_POINT ( 'NONE', #151 ) ;
#194 = DIRECTION ( 'NONE',  ( -0.000000000000000000, 1.000000000000000000, -0.000000000000000000 ) ) ;
#195 = DIRECTION ( 'NONE',  ( 1.000000000000000000, 0.000000000000000000, 0.000000000000000000 ) ) ;
#196 = VERTEX_POINT ( 'NONE', #165 ) ;
#197 = CC_DESIGN_APPROVAL ( #176, ( #64 ) ) ;
#198 = APPROVAL_PERSON_ORGANIZATION ( #157, #54, #61 ) ;
#199 = CC_DESIGN_PERSON_AND_ORGANIZATION_ASSIGNMENT ( #73, #23, ( #64 ) ) ;
#200 = DATE_AND_TIME ( #119, #130 ) ;
#201 = DATE_AND_TIME ( #25, #5 ) ;
#202 = AXIS2_PLACEMENT_3D ( 'NONE', #52, #35, #148 ) ;
#203 = DATE_TIME_ROLE ( 'classification_date' ) ;
#204 = EDGE_CURVE ( 'NONE', #98, #98, #9, .T. ) ;
#205 = DATE_AND_TIME ( #26, #104 ) ;
#206 = CC_DESIGN_SECURITY_CLASSIFICATION ( #152, ( #72 ) ) ;
#207 = DIRECTION ( 'NONE',  ( 0.000000000000000000, 0.000000000000000000, 1.000000000000000000 ) ) ;
#208 = FACE_OUTER_BOUND ( 'NONE', #76, .T. ) ;
#209 = CARTESIAN_POINT ( 'NONE',  ( 0.000000000000000000, 6.000000000000000888, 0.000000000000000000 ) ) ;
#210 = AXIS2_PLACEMENT_3D ( 'NONE', #86, #39, #179 ) ;
#211 = CC_DESIGN_APPROVAL ( #45, ( #72 ) ) ;
#212 = CARTESIAN_POINT ( 'NONE',  ( 0.000000000000000000, -7.251249999999993534, 0.000000000000000000 ) ) ;
#213 = EDGE_LOOP ( 'NONE', ( #94 ) ) ;
#214 = CARTESIAN_POINT ( 'NONE',  ( 0.000000000000000000, 0.000000000000000000, 2.399999999999999911 ) ) ;
#215 = COORDINATED_UNIVERSAL_TIME_OFFSET ( 3, 0, .AHEAD. ) ;
ENDSEC;
END-ISO-10303-21;
