  0
SECTION
  2
HEADER
  9
$ACADVER
  1
AC1015
  9
$ACADMAINTVER
 70
     6
  9
$DWGCODEPAGE
  3
ANSI_1251
  9
$INSBASE
 10
0.0
 20
0.0
 30
0.0
  9
$EXTMIN
 10
0.0
 20
0.0
 30
0.0
  9
$EXTMAX
 10
2000.0
 20
2000.0
 30
0.0
  9
$LIMMIN
 10
0.0
 20
0.0
  9
$LIMMAX
 10
2000.0
 20
2000.0
  9
$ORTHOMODE
 70
     0
  9
$REGENMODE
 70
     1
  9
$FILLMODE
 70
     1
  9
$QTEXTMODE
 70
     0
  9
$MIRRTEXT
 70
     1
  9
$LTSCALE
 40
1.0
  9
$ATTMODE
 70
     1
  9
$TEXTSIZE
 40
5.0
  9
$TRACEWID
 40
1.0
  9
$TEXTSTYLE
  7
Standard
  9
$CLAYER
  8
0
  9
$CELTYPE
  6
ByLayer
  9
$CECOLOR
 62
   256
  9
$CELTSCALE
 40
1.0
  9
$DISPSILH
 70
     0
  9
$DIMSCALE
 40
1.0
  9
$DIMASZ
 40
5.0
  9
$DIMEXO
 40
0.0
  9
$DIMDLI
 40
3.75
  9
$DIMRND
 40
0.0
  9
$DIMDLE
 40
0.0
  9
$DIMEXE
 40
1.0
  9
$DIMTP
 40
0.0
  9
$DIMTM
 40
0.0
  9
$DIMTXT
 40
3.5
  9
$DIMCEN
 40
2.5
  9
$DIMTSZ
 40
0.0
  9
$DIMTOL
 70
     0
  9
$DIMLIM
 70
     0
  9
$DIMTIH
 70
     1
  9
$DIMTOH
 70
     1
  9
$DIMSE1
 70
     0
  9
$DIMSE2
 70
     0
  9
$DIMTAD
 70
     1
  9
$DIMZIN
 70
     0
  9
$DIMBLK
  1

  9
$DIMASO
 70
     1
  9
$DIMSHO
 70
     1
  9
$DIMPOST
  1

  9
$DIMAPOST
  1

  9
$DIMALT
 70
     0
  9
$DIMALTD
 70
     3
  9
$DIMALTF
 40
0.0393700787
  9
$DIMLFAC
 40
1.0
  9
$DIMTOFL
 70
     1
  9
$DIMTVP
 40
0.0
  9
$DIMTIX
 70
     0
  9
$DIMSOXD
 70
     0
  9
$DIMSAH
 70
     0
  9
$DIMBLK1
  1

  9
$DIMBLK2
  1

  9
$DIMSTYLE
  2
ISO-25
  9
$DIMCLRD
 70
     0
  9
$DIMCLRE
 70
     0
  9
$DIMCLRT
 70
     0
  9
$DIMTFAC
 40
1.0
  9
$DIMGAP
 40
1.5
  9
$DIMJUST
 70
     0
  9
$DIMSD1
 70
     0
  9
$DIMSD2
 70
     0
  9
$DIMTOLJ
 70
     0
  9
$DIMTZIN
 70
     0
  9
$DIMALTZ
 70
     0
  9
$DIMALTTZ
 70
     0
  9
$DIMUPT
 70
     0
  9
$DIMDEC
 70
     1
  9
$DIMTDEC
 70
     1
  9
$DIMALTU
 70
     2
  9
$DIMALTTD
 70
     3
  9
$DIMTXSTY
  7
Standard
  9
$DIMAUNIT
 70
     0
  9
$DIMADEC
 70
     2
  9
$DIMALTRND
 40
0.0
  9
$DIMAZIN
 70
     0
  9
$DIMDSEP
 70
    44
  9
$DIMATFIT
 70
     3
  9
$DIMFRAC
 70
     0
  9
$DIMLDRBLK
  1

  9
$DIMLUNIT
 70
     2
  9
$DIMLWD
 70
    -2
  9
$DIMLWE
 70
    -2
  9
$DIMTMOVE
 70
     0
  9
$LUNITS
 70
     2
  9
$LUPREC
 70
     1
  9
$SKETCHINC
 40
1.0
  9
$FILLETRAD
 40
0.0
  9
$AUNITS
 70
     0
  9
$AUPREC
 70
     2
  9
$MENU
  1
.
  9
$ELEVATION
 40
0.0
  9
$PELEVATION
 40
0.0
  9
$THICKNESS
 40
0.0
  9
$LIMCHECK
 70
     0
  9
$CHAMFERA
 40
0.0
  9
$CHAMFERB
 40
0.0
  9
$CHAMFERC
 40
0.0
  9
$CHAMFERD
 40
0.0
  9
$SKPOLY
 70
     0
  9
$TDCREATE
 40
2460213.630006875
  9
$TDUCREATE
 40
2460213.505006875
  9
$TDUPDATE
 40
2460213.630007511
  9
$TDUUPDATE
 40
2460213.505007511
  9
$TDINDWG
 40
0.0000000116
  9
$TDUSRTIMER
 40
0.0000000116
  9
$USRTIMER
 70
     1
  9
$ANGBASE
 50
0.0
  9
$ANGDIR
 70
     0
  9
$PDMODE
 70
     0
  9
$PDSIZE
 40
-1.0
  9
$PLINEWID
 40
0.0
  9
$SPLFRAME
 70
     0
  9
$SPLINETYPE
 70
     6
  9
$SPLINESEGS
 70
     8
  9
$HANDSEED
  5
532
  9
$SURFTAB1
 70
     6
  9
$SURFTAB2
 70
     6
  9
$SURFTYPE
 70
     6
  9
$SURFU
 70
     6
  9
$SURFV
 70
     6
  9
$UCSBASE
  2

  9
$UCSNAME
  2

  9
$UCSORG
 10
0.0
 20
0.0
 30
0.0
  9
$UCSXDIR
 10
1.0
 20
0.0
 30
0.0
  9
$UCSYDIR
 10
0.0
 20
1.0
 30
0.0
  9
$UCSORTHOREF
  2

  9
$UCSORTHOVIEW
 70
     0
  9
$UCSORGTOP
 10
0.0
 20
0.0
 30
0.0
  9
$UCSORGBOTTOM
 10
0.0
 20
0.0
 30
0.0
  9
$UCSORGLEFT
 10
0.0
 20
0.0
 30
0.0
  9
$UCSORGRIGHT
 10
0.0
 20
0.0
 30
0.0
  9
$UCSORGFRONT
 10
0.0
 20
0.0
 30
0.0
  9
$UCSORGBACK
 10
0.0
 20
0.0
 30
0.0
  9
$PUCSBASE
  2

  9
$PUCSNAME
  2

  9
$PUCSORG
 10
0.0
 20
0.0
 30
0.0
  9
$PUCSXDIR
 10
1.0
 20
0.0
 30
0.0
  9
$PUCSYDIR
 10
0.0
 20
1.0
 30
0.0
  9
$PUCSORTHOREF
  2

  9
$PUCSORTHOVIEW
 70
     0
  9
$PUCSORGTOP
 10
0.0
 20
0.0
 30
0.0
  9
$PUCSORGBOTTOM
 10
0.0
 20
0.0
 30
0.0
  9
$PUCSORGLEFT
 10
0.0
 20
0.0
 30
0.0
  9
$PUCSORGRIGHT
 10
0.0
 20
0.0
 30
0.0
  9
$PUCSORGFRONT
 10
0.0
 20
0.0
 30
0.0
  9
$PUCSORGBACK
 10
0.0
 20
0.0
 30
0.0
  9
$USERI1
 70
     0
  9
$USERI2
 70
     0
  9
$USERI3
 70
     0
  9
$USERI4
 70
     0
  9
$USERI5
 70
     0
  9
$USERR1
 40
0.0
  9
$USERR2
 40
0.0
  9
$USERR3
 40
0.0
  9
$USERR4
 40
0.0
  9
$USERR5
 40
0.0
  9
$WORLDVIEW
 70
     1
  9
$SHADEDGE
 70
     3
  9
$SHADEDIF
 70
    70
  9
$TILEMODE
 70
     1
  9
$MAXACTVP
 70
    64
  9
$PINSBASE
 10
0.0
 20
0.0
 30
0.0
  9
$PLIMCHECK
 70
     0
  9
$PEXTMIN
 10
1.0000000000E+20
 20
1.0000000000E+20
 30
1.0000000000E+20
  9
$PEXTMAX
 10
-1.0000000000E+20
 20
-1.0000000000E+20
 30
-1.0000000000E+20
  9
$PLIMMIN
 10
0.0
 20
0.0
  9
$PLIMMAX
 10
420.0
 20
297.0
  9
$UNITMODE
 70
     0
  9
$VISRETAIN
 70
     1
  9
$PLINEGEN
 70
     0
  9
$PSLTSCALE
 70
     1
  9
$TREEDEPTH
 70
  3020
  9
$CMLSTYLE
  2
Standard
  9
$CMLJUST
 70
     0
  9
$CMLSCALE
 40
20.0
  9
$PROXYGRAPHICS
 70
     1
  9
$MEASUREMENT
 70
     1
  9
$CELWEIGHT
370
    -1
  9
$ENDCAPS
280
     0
  9
$JOINSTYLE
280
     0
  9
$LWDISPLAY
290
     1
  9
$INSUNITS
 70
     4
  9
$HYPERLINKBASE
  1

  9
$STYLESHEET
  1

  9
$XEDIT
290
     1
  9
$CEPSNTYPE
380
     0
  9
$PSTYLEMODE
290
     1
  9
$FINGERPRINTGUID
  2
{7885c95f-dc79-40d7-8985-9a156c925216}
  9
$VERSIONGUID
  2
{FAEB1C32-E019-11D5-929B-00C0DF256EC4}
  9
$EXTNAMES
290
     1
  9
$PSVPSCALE
 40
0.0
  9
$OLESTARTUP
290
     0
  0
ENDSEC
  0
SECTION
  2
CLASSES
  0
CLASS
  1
ACDBDICTIONARYWDFLT
  2
AcDbDictionaryWithDefault
  3
ObjectDBX Classes
 90
        0
280
     0
281
     0
  0
CLASS
  1
VISUALSTYLE
  2
AcDbVisualStyle
  3
ObjectDBX Classes
 90
     4095
280
     0
281
     0
  0
CLASS
  1
MATERIAL
  2
AcDbMaterial
  3
ObjectDBX Classes
 90
     1153
280
     0
281
     0
  0
CLASS
  1
SCALE
  2
AcDbScale
  3
ObjectDBX Classes
 90
     1153
280
     0
281
     0
  0
CLASS
  1
TABLESTYLE
  2
AcDbTableStyle
  3
ObjectDBX Classes
 90
     4095
280
     0
281
     0
  0
CLASS
  1
MLEADERSTYLE
  2
AcDbMLeaderStyle
  3
ACDB_MLEADERSTYLE_CLASS
 90
     4095
280
     0
281
     0
  0
CLASS
  1
SUN
  2
AcDbSun
  3
SCENEOE
 90
     1153
280
     0
281
     0
  0
CLASS
  1
ACDBPLACEHOLDER
  2
AcDbPlaceHolder
  3
ObjectDBX Classes
 90
        0
280
     0
281
     0
  0
CLASS
  1
LAYOUT
  2
AcDbLayout
  3
ObjectDBX Classes
 90
        0
280
     0
281
     0
  0
ENDSEC
  0
SECTION
  2
TABLES
  0
TABLE
  2
VPORT
  5
8
330
0
100
AcDbSymbolTable
 70
     1
  0
VPORT
  5
29
330
8
100
AcDbSymbolTableRecord
100
AcDbViewportTableRecord
  2
*Active
 70
     0
 10
0.0
 20
0.0
 11
1.0
 21
1.0
 12
1000.0
 22
1000.0
 13
0.0
 23
0.0
 14
10.0
 24
10.0
 15
10.0
 25
10.0
 16
0.0
 26
0.0
 36
1.0
 17
0.0
 27
0.0
 37
0.0
 40
2000.0
 41
1.0
 42
50.0
 43
0.0
 44
0.0
 50
0.0
 51
0.0
 71
     0
 72
  2000
 73
     1
 74
     3
 75
     0
 76
     0
 77
     0
 78
     0
281
     0
 65
     1
110
0.0
120
0.0
130
0.0
111
1.0
121
0.0
131
0.0
112
0.0
122
1.0
132
0.0
 79
     0
146
0.0
  0
ENDTAB
  0
TABLE
  2
LTYPE
  5
5
330
0
100
AcDbSymbolTable
 70
     8
  0
LTYPE
  5
14
330
5
100
AcDbSymbolTableRecord
100
AcDbLinetypeTableRecord
  2
ByBlock
 70
     0
  3

 72
    65
 73
     0
 40
0.0
  0
LTYPE
  5
15
330
5
100
AcDbSymbolTableRecord
100
AcDbLinetypeTableRecord
  2
ByLayer
 70
     0
  3

 72
    65
 73
     0
 40
0.0
  0
LTYPE
  5
16
330
5
100
AcDbSymbolTableRecord
100
AcDbLinetypeTableRecord
  2
Continuous
 70
     0
  3
Solid line
 72
    65
 73
     0
 40
0.0
  0
LTYPE
  5
5E
330
5
100
AcDbSymbolTableRecord
100
AcDbLinetypeTableRecord
  2
SLD-Сплошная
 70
     0
  3
SolidWorks Line Style
 72
    65
 73
     0
 40
0.0
  0
LTYPE
  5
5F
330
5
100
AcDbSymbolTableRecord
100
AcDbLinetypeTableRecord
  2
SLD-Штриховая
 70
     0
  3
SolidWorks Line Style
 72
    65
 73
     2
 40
1.905
 49
1.27
 74
     0
 49
-0.635
 74
     0
  0
LTYPE
  5
60
330
5
100
AcDbSymbolTableRecord
100
AcDbLinetypeTableRecord
  2
SLD-Штрихпункт.-с-двумя-точками
 70
     0
  3
SolidWorks Line Style
 72
    65
 73
     6
 40
12.7
 49
6.35
 74
     0
 49
-1.27
 74
     0
 49
1.27
 74
     0
 49
-1.27
 74
     0
 49
1.27
 74
     0
 49
-1.27
 74
     0
  0
LTYPE
  5
61
330
5
100
AcDbSymbolTableRecord
100
AcDbLinetypeTableRecord
  2
SLD-Штрихпункт.-утолщ.
 70
     0
  3
SolidWorks Line Style
 72
    65
 73
     4
 40
10.16
 49
6.35
 74
     0
 49
-1.27
 74
     0
 49
1.27
 74
     0
 49
-1.27
 74
     0
  0
LTYPE
  5
62
330
5
100
AcDbSymbolTableRecord
100
AcDbLinetypeTableRecord
  2
SLD-Осевая
 70
     0
  3
SolidWorks Line Style
 72
    65
 73
     4
 40
19.05
 49
15.24
 74
     0
 49
-1.27
 74
     0
 49
1.27
 74
     0
 49
-1.27
 74
     0
  0
LTYPE
  5
63
330
5
100
AcDbSymbolTableRecord
100
AcDbLinetypeTableRecord
  2
SLD-Сшитая
 70
     0
  3
SolidWorks Line Style
 72
    65
 73
     2
 40
0.635
 49
0.0
 74
     0
 49
-0.635
 74
     0
  0
LTYPE
  5
64
330
5
100
AcDbSymbolTableRecord
100
AcDbLinetypeTableRecord
  2
SLD-Тонкая-Толстая
 70
     0
  3
SolidWorks Line Style
 72
    65
 73
     2
 40
5.080508
 49
0.000508
 74
     0
 49
-5.08
 74
     0
  0
ENDTAB
  0
TABLE
  2
LAYER
  5
2
330
0
100
AcDbSymbolTable
 70
     3
  0
LAYER
  5
10
330
2
100
AcDbSymbolTableRecord
100
AcDbLayerTableRecord
  2
0
 70
     0
 62
     7
  6
Continuous
370
    -3
390
F
  0
LAYER
  5
65
330
2
100
AcDbSymbolTableRecord
100
AcDbLayerTableRecord
  2
1
 70
     0
 62
     7
  6
SLD-Сплошная
370
    -1
390
F
  0
LAYER
  5
66
330
2
100
AcDbSymbolTableRecord
100
AcDbLayerTableRecord
  2
2
 70
     0
 62
     7
  6
SLD-Сплошная
370
    -3
390
F
  0
ENDTAB
  0
TABLE
  2
STYLE
  5
3
330
0
100
AcDbSymbolTable
 70
     1
  0
STYLE
  5
11
330
3
100
AcDbSymbolTableRecord
100
AcDbTextStyleTableRecord
  2
Standard
 70
     0
 40
0.0
 41
1.0
 50
0.0
 71
     0
 42
5.0
  3
txt
  4

  0
ENDTAB
  0
TABLE
  2
VIEW
  5
6
330
0
100
AcDbSymbolTable
 70
     0
  0
ENDTAB
  0
TABLE
  2
UCS
  5
7
330
0
100
AcDbSymbolTable
 70
     0
  0
ENDTAB
  0
TABLE
  2
APPID
  5
9
330
0
100
AcDbSymbolTable
 70
     1
  0
APPID
  5
12
330
9
100
AcDbSymbolTableRecord
100
AcDbRegAppTableRecord
  2
ACAD
 70
     0
  0
ENDTAB
  0
TABLE
  2
DIMSTYLE
  5
A
330
0
100
AcDbSymbolTable
 70
     1
100
AcDbDimStyleTable
  0
DIMSTYLE
105
27
330
A
100
AcDbSymbolTableRecord
100
AcDbDimStyleTableRecord
  2
ISO-25
 70
     0
 41
2.5
 42
0.625
 43
3.75
 44
1.25
 73
     0
 74
     0
 77
     1
 78
     8
140
2.5
141
2.5
143
0.0393700787
147
0.625
171
     3
172
     1
178
     0
271
     2
272
     2
274
     3
278
    44
283
     0
284
     8
340
11
  0
ENDTAB
  0
TABLE
  2
BLOCK_RECORD
  5
1
330
0
100
AcDbSymbolTable
 70
     1
  0
BLOCK_RECORD
  5
1F
330
1
100
AcDbSymbolTableRecord
100
AcDbBlockTableRecord
  2
*Model_Space
340
22
  0
BLOCK_RECORD
  5
1B
330
1
100
AcDbSymbolTableRecord
100
AcDbBlockTableRecord
  2
*Paper_Space
340
1E
  0
BLOCK_RECORD
  5
23
330
1
100
AcDbSymbolTableRecord
100
AcDbBlockTableRecord
  2
*Paper_Space0
340
26
  0
ENDTAB
  0
ENDSEC
  0
SECTION
  2
BLOCKS
  0
BLOCK
  5
20
330
1F
100
AcDbEntity
  8
0
100
AcDbBlockBegin
  2
*Model_Space
 70
     0
 10
0.0
 20
0.0
 30
0.0
  3
*Model_Space
  1

  0
ENDBLK
  5
21
330
1F
100
AcDbEntity
  8
0
100
AcDbBlockEnd
  0
BLOCK
  5
1C
330
1B
100
AcDbEntity
 67
     1
  8
0
100
AcDbBlockBegin
  2
*Paper_Space
 70
     0
 10
0.0
 20
0.0
 30
0.0
  3
*Paper_Space
  1

  0
ENDBLK
  5
1D
330
1B
100
AcDbEntity
 67
     1
  8
0
100
AcDbBlockEnd
  0
BLOCK
  5
24
330
23
100
AcDbEntity
  8
0
100
AcDbBlockBegin
  2
*Paper_Space0
 70
     0
 10
0.0
 20
0.0
 30
0.0
  3
*Paper_Space0
  1

  0
ENDBLK
  5
25
330
23
100
AcDbEntity
  8
0
100
AcDbBlockEnd
  0
ENDSEC
  0
SECTION
  2
ENTITIES
  0
ARC
  5
67
330
1F
100
AcDbEntity
  8
1
  6
SLD-Сплошная
100
AcDbCircle
 10
969.6054271659
 20
367.0234668679
 30
0.0
 40
1.0
100
AcDbArc
 50
180.0
 51
257.5813184942
  0
ARC
  5
68
330
1F
100
AcDbEntity
  8
1
  6
SLD-Сплошная
100
AcDbCircle
 10
984.2054271659
 20
367.0234668679
 30
0.0
 40
0.999999999999951
100
AcDbArc
 50
282.4186815058
 51
0.0
  0
LINE
  5
69
330
1F
100
AcDbEntity
  8
1
  6
SLD-Сплошная
100
AcDbLine
 10
968.6054271659
 20
368.2292289255
 30
0.0
 11
968.6054271659
 21
367.0234668679
 31
0.0
  0
LINE
  5
6A
330
1F
100
AcDbEntity
  8
1
  6
SLD-Сплошная
100
AcDbLine
 10
985.2054271659
 20
367.0234668679
 30
0.0
 11
985.2054271659
 21
368.2292289255
 31
0.0
  0
ARC
  5
6B
330
1F
100
AcDbEntity
  8
1
  6
SLD-Сплошная
100
AcDbCircle
 10
976.9054271659
 20
400.1742289255
 30
0.0
 40
34.94500000000001
100
AcDbArc
 50
270.0104111827
 51
282.4186815058
  0
ARC
  5
6C
330
1F
100
AcDbEntity
  8
1
  6
SLD-Сплошная
100
AcDbCircle
 10
976.9054271659
 20
400.1742289255
 30
0.0
 40
34.94500000000001
100
AcDbArc
 50
257.5813184942
 51
270.0104111827
  0
LINE
  5
6D
330
1F
100
AcDbEntity
  8
1
  6
SLD-Сплошная
100
AcDbLine
 10
949.3971010539
 20
367.7292289255
 30
0.0
 11
938.9054271659
 21
367.7292289255
 31
0.0
  0
ARC
  5
6E
330
1F
100
AcDbEntity
  8
1
  6
SLD-Сплошная
100
AcDbCircle
 10
949.3971010539
 20
370.1292289255
 30
0.0
 40
2.400000000000034
100
AcDbArc
 50
270.0
 51
307.6584620067
  0
LINE
  5
6F
330
1F
100
AcDbEntity
  8
1
  6
SLD-Сплошная
100
AcDbLine
 10
938.9054271659
 20
367.7292289255
 30
0.0
 11
644.9054271659
 21
367.7292289255
 31
0.0
  0
LINE
  5
70
330
1F
100
AcDbEntity
  8
1
  6
SLD-Сплошная
100
AcDbLine
 10
644.9054271659
 20
367.7292289255
 30
0.0
 11
634.413753278
 21
367.7292289255
 31
0.0
  0
ARC
  5
71
330
1F
100
AcDbEntity
  8
1
  6
SLD-Сплошная
100
AcDbCircle
 10
634.413753278
 20
370.1292289255
 30
0.0
 40
2.399999999999985
100
AcDbArc
 50
232.3415379933
 51
270.0
  0
LINE
  5
72
330
1F
100
AcDbEntity
  8
1
  6
SLD-Сплошная
100
AcDbLine
 10
594.6175592003
 20
371.012071638
 30
0.0
 11
593.9054271659
 21
370.2999396036
 31
0.0
  0
LINE
  5
73
330
1F
100
AcDbEntity
  8
1
  6
SLD-Сплошная
100
AcDbLine
 10
594.6175592003
 20
965.446386213
 30
0.0
 11
593.9054271659
 21
966.1585182474
 31
0.0
  0
LINE
  5
74
330
1F
100
AcDbEntity
  8
1
  6
SLD-Сплошная
100
AcDbLine
 10
989.9054271659
 20
370.2999396037
 30
0.0
 11
989.105427166
 21
371.0999396036
 31
0.0
  0
LINE
  5
75
330
1F
100
AcDbEntity
  8
1
  6
SLD-Сплошная
100
AcDbLine
 10
989.9054271659
 20
966.1585182474
 30
0.0
 11
989.1054271659
 21
965.3585182474
 31
0.0
  0
LINE
  5
76
330
1F
100
AcDbEntity
  8
1
  6
SLD-Сплошная
100
AcDbLine
 10
989.0518737754
 20
965.4463862131
 30
0.0
 11
989.8347164879
 21
966.2292289255
 31
0.0
  0
LINE
  5
77
330
1F
100
AcDbEntity
  8
1
  6
SLD-Сплошная
100
AcDbLine
 10
593.976137844
 20
966.2292289255
 30
0.0
 11
594.7589805565
 21
965.446386213
 31
0.0
  0
LINE
  5
78
330
1F
100
AcDbEntity
  8
1
  6
SLD-Сплошная
100
AcDbLine
 10
593.976137844
 20
370.2292289255
 30
0.0
 11
594.7589805565
 21
371.012071638
 31
0.0
  0
LINE
  5
79
330
1F
100
AcDbEntity
  8
1
  6
SLD-Сплошная
100
AcDbLine
 10
989.0518737754
 20
371.012071638
 30
0.0
 11
989.8347164879
 21
370.2292289255
 31
0.0
  0
ELLIPSE
  5
7A
330
1F
100
AcDbEntity
  8
1
  6
SLD-Сплошная
100
AcDbEllipse
 10
593.9054271659
 20
966.2292289255
 30
0.0
 11
0.0
 21
1.0
 31
0.0
210
0.0
220
0.0
230
1.0
 40
0.0707106781
 41
4.712388980384804
 42
6.283185307179586
  0
LINE
  5
7B
330
1F
100
AcDbEntity
  8
1
  6
SLD-Сплошная
100
AcDbLine
 10
593.9054271659
 20
968.2292289255
 30
0.0
 11
593.9054271659
 21
967.2292289255
 31
0.0
  0
ELLIPSE
  5
7C
330
1F
100
AcDbEntity
  8
1
  6
SLD-Сплошная
100
AcDbEllipse
 10
593.9054271659
 20
966.2292289255
 30
0.0
 11
0.0
 21
2.0
 31
0.0
210
0.0
220
0.0
230
1.0
 40
0.035355339
 41
4.712388980384803
 42
6.283185307179586
  0
ELLIPSE
  5
7D
330
1F
100
AcDbEntity
  8
1
  6
SLD-Сплошная
100
AcDbEllipse
 10
989.905427166
 20
370.2292289255
 30
0.0
 11
0.0
 21
2.0
 31
0.0
210
0.0
220
0.0
230
1.0
 40
0.035355339
 41
1.570796326794953
 42
3.141592653541557
  0
ELLIPSE
  5
7E
330
1F
100
AcDbEntity
  8
1
  6
SLD-Сплошная
100
AcDbEllipse
 10
989.905427166
 20
370.2292289255
 30
0.0
 11
0.0
 21
1.0
 31
0.0
210
0.0
220
0.0
230
1.0
 40
0.0707106781
 41
1.57079632679501
 42
3.141592653541558
  0
LINE
  5
7F
330
1F
100
AcDbEntity
  8
1
  6
SLD-Сплошная
100
AcDbLine
 10
989.9054271659
 20
369.2292289255
 30
0.0
 11
989.9054271659
 21
368.2292289255
 31
0.0
  0
ELLIPSE
  5
80
330
1F
100
AcDbEntity
  8
1
  6
SLD-Сплошная
100
AcDbEllipse
 10
593.9054271659
 20
370.2292289255
 30
0.0
 11
2.0
 21
5.684341886080801E-14
 31
0.0
210
0.0
220
0.0
230
1.0
 40
0.035355339
 41
1.570796326794953
 42
3.141592653640032
  0
ELLIPSE
  5
81
330
1F
100
AcDbEntity
  8
1
  6
SLD-Сплошная
100
AcDbEllipse
 10
593.9054271659
 20
370.2292289255
 30
0.0
 11
1.0
 21
0.0
 31
0.0
210
0.0
220
0.0
230
1.0
 40
0.0707106781
 41
1.570796326794897
 42
3.141592653640637
  0
LINE
  5
82
330
1F
100
AcDbEntity
  8
1
  6
SLD-Сплошная
100
AcDbLine
 10
592.9054271659
 20
370.2292289255
 30
0.0
 11
591.9054271659
 21
370.2292289255
 31
0.0
  0
ELLIPSE
  5
83
330
1F
100
AcDbEntity
  8
1
  6
SLD-Сплошная
100
AcDbEllipse
 10
989.905427166
 20
966.2292289255
 30
0.0
 11
0.0
 21
1.0
 31
0.0
210
0.0
220
0.0
230
1.0
 40
0.0707106781
 41
0.0
 42
1.570796326794897
  0
ELLIPSE
  5
84
330
1F
100
AcDbEntity
  8
1
  6
SLD-Сплошная
100
AcDbEllipse
 10
989.905427166
 20
966.2292289255
 30
0.0
 11
0.0
 21
2.0
 31
0.0
210
0.0
220
0.0
230
1.0
 40
0.035355339
 41
0.0
 42
1.57079632679484
  0
LINE
  5
85
330
1F
100
AcDbEntity
  8
1
  6
SLD-Сплошная
100
AcDbLine
 10
989.9054271659
 20
967.2292289255
 30
0.0
 11
989.9054271659
 21
968.2292289255
 31
0.0
  0
ELLIPSE
  5
86
330
1F
100
AcDbEntity
  8
1
  6
SLD-Сплошная
100
AcDbEllipse
 10
989.9054271659
 20
966.2292289255
 30
0.0
 11
1.0
 21
0.0
 31
0.0
210
0.0
220
0.0
230
1.0
 40
0.0707106781
 41
4.712388980384691
 42
6.283185307179586
  0
LINE
  5
87
330
1F
100
AcDbEntity
  8
1
  6
SLD-Сплошная
100
AcDbLine
 10
991.9054271659
 20
966.2292289255
 30
0.0
 11
990.9054271659
 21
966.2292289255
 31
0.0
  0
ELLIPSE
  5
88
330
1F
100
AcDbEntity
  8
1
  6
SLD-Сплошная
100
AcDbEllipse
 10
989.9054271659
 20
966.2292289255
 30
0.0
 11
2.0
 21
0.0
 31
0.0
210
0.0
220
0.0
230
1.0
 40
0.0353553391
 41
4.712388980384747
 42
6.283185307179586
  0
ELLIPSE
  5
89
330
1F
100
AcDbEntity
  8
1
  6
SLD-Сплошная
100
AcDbEllipse
 10
593.9054271659
 20
966.2292289255
 30
0.0
 11
2.0
 21
0.0
 31
0.0
210
0.0
220
0.0
230
1.0
 40
0.035355339
 41
3.141592653538341
 42
4.712388980384633
  0
LINE
  5
8A
330
1F
100
AcDbEntity
  8
1
  6
SLD-Сплошная
100
AcDbLine
 10
591.9054271659
 20
370.2292289255
 30
0.0
 11
591.9054271659
 21
966.2292289255
 31
0.0
  0
LINE
  5
8B
330
1F
100
AcDbEntity
  8
1
  6
SLD-Сплошная
100
AcDbLine
 10
595.0054271659
 20
368.2292289255
 30
0.0
 11
989.9054271659
 21
368.2292289255
 31
0.0
  0
LINE
  5
8C
330
1F
100
AcDbEntity
  8
1
  6
SLD-Сплошная
100
AcDbLine
 10
593.9054271659
 20
368.2292289255
 30
0.0
 11
595.0054271659
 21
368.2292289255
 31
0.0
  0
ELLIPSE
  5
8D
330
1F
100
AcDbEntity
  8
1
  6
SLD-Сплошная
100
AcDbEllipse
 10
593.9054271659
 20
370.2292289255
 30
0.0
 11
0.0
 21
2.0
 31
0.0
210
0.0
220
0.0
230
1.0
 40
0.035355339
 41
3.141592653643248
 42
4.712388980384633
  0
ELLIPSE
  5
8E
330
1F
100
AcDbEntity
  8
1
  6
SLD-Сплошная
100
AcDbEllipse
 10
989.9054271659
 20
370.2292289255
 30
0.0
 11
2.0
 21
0.0
 31
0.0
210
0.0
220
0.0
230
1.0
 40
0.0353553391
 41
0.0
 42
1.57079632679484
  0
LINE
  5
8F
330
1F
100
AcDbEntity
  8
1
  6
SLD-Сплошная
100
AcDbLine
 10
991.9054271659
 20
370.2292289255
 30
0.0
 11
990.9054271659
 21
370.2292289255
 31
0.0
  0
ELLIPSE
  5
90
330
1F
100
AcDbEntity
  8
1
  6
SLD-Сплошная
100
AcDbEllipse
 10
989.9054271659
 20
370.2292289255
 30
0.0
 11
1.0
 21
0.0
 31
0.0
210
0.0
220
0.0
230
1.0
 40
0.0707106781
 41
0.0
 42
1.570796326794897
  0
ELLIPSE
  5
91
330
1F
100
AcDbEntity
  8
1
  6
SLD-Сплошная
100
AcDbEllipse
 10
593.9054271659
 20
966.2292289255
 30
0.0
 11
1.0
 21
0.0
 31
0.0
210
0.0
220
0.0
230
1.0
 40
0.0707106781
 41
3.141592653538343
 42
4.712388980384691
  0
LINE
  5
92
330
1F
100
AcDbEntity
  8
1
  6
SLD-Сплошная
100
AcDbLine
 10
592.9054271659
 20
966.2292289255
 30
0.0
 11
591.9054271659
 21
966.2292289255
 31
0.0
  0
LINE
  5
93
330
1F
100
AcDbEntity
  8
1
  6
SLD-Сплошная
100
AcDbLine
 10
593.9054271659
 20
368.2292289255
 30
0.0
 11
593.9054271659
 21
368.5588996167
 31
0.0
  0
LINE
  5
94
330
1F
100
AcDbEntity
  8
1
  6
SLD-Сплошная
100
AcDbLine
 10
593.9054271659
 20
368.5588996167
 30
0.0
 11
593.9054271659
 21
369.2292289255
 31
0.0
  0
ELLIPSE
  5
95
330
1F
100
AcDbEntity
  8
1
  6
SLD-Сплошная
100
AcDbEllipse
 10
593.9054271659
 20
370.2292289255
 30
0.0
 11
0.0
 21
1.0
 31
0.0
210
0.0
220
0.0
230
1.0
 40
0.0707106781
 41
3.141592653643049
 42
4.712388980384691
  0
LINE
  5
96
330
1F
100
AcDbEntity
  8
1
  6
SLD-Сплошная
100
AcDbLine
 10
593.9054271659
 20
968.2292289255
 30
0.0
 11
989.9054271659
 21
968.2292289255
 31
0.0
  0
LINE
  5
97
330
1F
100
AcDbEntity
  8
1
  6
SLD-Сплошная
100
AcDbLine
 10
991.9054271659
 20
966.2292289255
 30
0.0
 11
991.9054271659
 21
370.2292289255
 31
0.0
  0
LINE
  5
98
330
1F
100
AcDbEntity
  8
1
  6
SLD-Сплошная
100
AcDbLine
 10
593.0054271659
 20
370.2292289255
 30
0.0
 11
593.0054271659
 21
370.2600509955
 31
0.0
  0
LINE
  5
99
330
1F
100
AcDbEntity
  8
1
  6
SLD-Сплошная
100
AcDbLine
 10
594.0054271659
 20
370.2585182475
 30
0.0
 11
594.0054271659
 21
370.3999396036
 31
0.0
  0
ARC
  5
9A
330
1F
100
AcDbEntity
  8
1
  6
SLD-Сплошная
100
AcDbCircle
 10
595.0054271659
 20
370.2292289255
 30
0.0
 40
2.000000000000114
100
AcDbArc
 50
180.0
 51
236.6329870308
  0
ARC
  5
9B
330
1F
100
AcDbEntity
  8
1
  6
SLD-Сплошная
100
AcDbCircle
 10
593.9054271659
 20
966.2292289255
 30
0.0
 40
1.000000000005343
100
AcDbArc
 50
90.0
 51
180.0
  0
ARC
  5
9C
330
1F
100
AcDbEntity
  8
1
  6
SLD-Сплошная
100
AcDbCircle
 10
593.9054271659
 20
966.2292289255
 30
0.0
 40
2.000000000005343
100
AcDbArc
 50
90.0
 51
180.0
  0
ARC
  5
9D
330
1F
100
AcDbEntity
  8
1
  6
SLD-Сплошная
100
AcDbCircle
 10
989.9054271659
 20
370.2292289255
 30
0.0
 40
2.0
100
AcDbArc
 50
270.0
 51
0.0
  0
ARC
  5
9E
330
1F
100
AcDbEntity
  8
1
  6
SLD-Сплошная
100
AcDbCircle
 10
989.9054271659
 20
370.2292289255
 30
0.0
 40
1.0
100
AcDbArc
 50
270.0
 51
0.0
  0
ARC
  5
9F
330
1F
100
AcDbEntity
  8
1
  6
SLD-Сплошная
100
AcDbCircle
 10
989.9054271659
 20
966.2292289255
 30
0.0
 40
1.0
100
AcDbArc
 50
0.0
 51
90.0
  0
ARC
  5
A0
330
1F
100
AcDbEntity
  8
1
  6
SLD-Сплошная
100
AcDbCircle
 10
989.9054271659
 20
966.2292289255
 30
0.0
 40
2.0
100
AcDbArc
 50
0.0
 51
90.0
  0
LINE
  5
A1
330
1F
100
AcDbEntity
  8
1
  6
SLD-Сплошная
100
AcDbLine
 10
593.0054271659
 20
370.2292289255
 30
0.0
 11
592.9054271659
 21
370.2292289255
 31
0.0
  0
LINE
  5
A2
330
1F
100
AcDbEntity
  8
1
  6
SLD-Сплошная
100
AcDbLine
 10
593.8347164879
 20
966.2292289255
 30
0.0
 11
592.9054271659
 21
966.2292289255
 31
0.0
  0
LINE
  5
A3
330
1F
100
AcDbEntity
  8
1
  6
SLD-Сплошная
100
AcDbLine
 10
593.9054271659
 20
967.2292289255
 30
0.0
 11
593.9054271659
 21
966.2999396035
 31
0.0
  0
LINE
  5
A4
330
1F
100
AcDbEntity
  8
1
  6
SLD-Сплошная
100
AcDbLine
 10
989.9054271659
 20
966.2999396036
 30
0.0
 11
989.9054271659
 21
967.2292289255
 31
0.0
  0
LINE
  5
A5
330
1F
100
AcDbEntity
  8
1
  6
SLD-Сплошная
100
AcDbLine
 10
989.9054271659
 20
370.1585182474
 30
0.0
 11
989.9054271659
 21
369.2292289255
 31
0.0
  0
LINE
  5
A6
330
1F
100
AcDbEntity
  8
1
  6
SLD-Сплошная
100
AcDbLine
 10
990.9054271659
 20
966.2292289255
 30
0.0
 11
989.9761378441
 21
966.2292289255
 31
0.0
  0
LINE
  5
A7
330
1F
100
AcDbEntity
  8
1
  6
SLD-Сплошная
100
AcDbLine
 10
990.9054271659
 20
370.2292289255
 30
0.0
 11
989.9761378441
 21
370.2292289255
 31
0.0
  0
LINE
  5
A8
330
1F
100
AcDbEntity
  8
1
  6
SLD-Сплошная
100
AcDbLine
 10
594.1054271659
 20
965.446386213
 30
0.0
 11
596.8054271659
 21
964.0292289255
 31
0.0
  0
LINE
  5
A9
330
1F
100
AcDbEntity
  8
1
  6
SLD-Сплошная
100
AcDbLine
 10
594.1054271659
 20
965.446386213
 30
0.0
 11
595.1054271659
 21
965.446386213
 31
0.0
  0
LINE
  5
AA
330
1F
100
AcDbEntity
  8
1
  6
SLD-Сплошная
100
AcDbLine
 10
595.1054271659
 20
965.446386213
 30
0.0
 11
596.8054271659
 21
964.0292289255
 31
0.0
  0
LINE
  5
AB
330
1F
100
AcDbEntity
  8
1
  6
SLD-Сплошная
100
AcDbLine
 10
594.1054271659
 20
371.012071638
 30
0.0
 11
596.8054271659
 21
372.4292289255
 31
0.0
  0
LINE
  5
AC
330
1F
100
AcDbEntity
  8
1
  6
SLD-Сплошная
100
AcDbLine
 10
594.1054271659
 20
965.446386213
 30
0.0
 11
594.1054271659
 21
371.012071638
 31
0.0
  0
LINE
  5
AD
330
1F
100
AcDbEntity
  8
1
  6
SLD-Сплошная
100
AcDbLine
 10
596.8054271659
 20
964.0292289255
 30
0.0
 11
595.3882698784
 21
966.7292289255
 31
0.0
  0
LINE
  5
AE
330
1F
100
AcDbEntity
  8
1
  6
SLD-Сплошная
100
AcDbLine
 10
596.8054271659
 20
964.0292289255
 30
0.0
 11
595.3882698784
 21
965.7292289255
 31
0.0
  0
LINE
  5
AF
330
1F
100
AcDbEntity
  8
1
  6
SLD-Сплошная
100
AcDbLine
 10
595.3882698784
 20
966.7292289255
 30
0.0
 11
595.3882698784
 21
965.7292289255
 31
0.0
  0
LINE
  5
B0
330
1F
100
AcDbEntity
  8
1
  6
SLD-Сплошная
100
AcDbLine
 10
595.3882698784
 20
966.7292289255
 30
0.0
 11
987.8225844534
 21
966.7292289255
 31
0.0
  0
LINE
  5
B1
330
1F
100
AcDbEntity
  8
1
  6
SLD-Сплошная
100
AcDbLine
 10
986.4054271659
 20
964.0292289256
 30
0.0
 11
987.8225844534
 21
966.7292289255
 31
0.0
  0
CIRCLE
  5
B2
330
1F
100
AcDbEntity
  8
1
  6
SLD-Сплошная
100
AcDbCircle
 10
929.105427166
 20
409.7292289255
 30
0.0
 40
0.5
  0
CIRCLE
  5
B3
330
1F
100
AcDbEntity
  8
1
  6
SLD-Сплошная
100
AcDbCircle
 10
929.1054271659
 20
926.7292289255
 30
0.0
 40
0.5000000000001137
  0
CIRCLE
  5
B4
330
1F
100
AcDbEntity
  8
1
  6
SLD-Сплошная
100
AcDbCircle
 10
649.1054271659
 20
906.7292289255
 30
0.0
 40
0.5
  0
CIRCLE
  5
B5
330
1F
100
AcDbEntity
  8
1
  6
SLD-Сплошная
100
AcDbCircle
 10
649.1054271659
 20
429.7292289255
 30
0.0
 40
0.5000000000001137
  0
LINE
  5
B6
330
1F
100
AcDbEntity
  8
1
  6
SLD-Сплошная
100
AcDbLine
 10
595.1054271659
 20
371.012071638
 30
0.0
 11
596.805427166
 21
372.4292289255
 31
0.0
  0
LINE
  5
B7
330
1F
100
AcDbEntity
  8
1
  6
SLD-Сплошная
100
AcDbLine
 10
594.1054271659
 20
371.012071638
 30
0.0
 11
595.1054271659
 21
371.012071638
 31
0.0
  0
LINE
  5
B8
330
1F
100
AcDbEntity
  8
1
  6
SLD-Сплошная
100
AcDbLine
 10
595.3882698785
 20
369.7292289255
 30
0.0
 11
987.8225844535
 21
369.7292289255
 31
0.0
  0
LINE
  5
B9
330
1F
100
AcDbEntity
  8
1
  6
SLD-Сплошная
100
AcDbLine
 10
596.8054271659
 20
372.4292289255
 30
0.0
 11
595.3882698784
 21
369.7292289255
 31
0.0
  0
LINE
  5
BA
330
1F
100
AcDbEntity
  8
1
  6
SLD-Сплошная
100
AcDbLine
 10
986.405427166
 20
372.4292289255
 30
0.0
 11
987.8225844535
 21
369.7292289255
 31
0.0
  0
LINE
  5
BB
330
1F
100
AcDbEntity
  8
1
  6
SLD-Сплошная
100
AcDbLine
 10
596.8054271659
 20
372.4292289255
 30
0.0
 11
595.3882698784
 21
370.7292289255
 31
0.0
  0
LINE
  5
BC
330
1F
100
AcDbEntity
  8
1
  6
SLD-Сплошная
100
AcDbLine
 10
595.3882698785
 20
369.7292289255
 30
0.0
 11
595.3882698784
 21
370.7292289255
 31
0.0
  0
LINE
  5
BD
330
1F
100
AcDbEntity
  8
1
  6
SLD-Сплошная
100
AcDbLine
 10
989.1054271659
 20
965.4463862131
 30
0.0
 11
986.4054271659
 21
964.0292289256
 31
0.0
  0
LINE
  5
BE
330
1F
100
AcDbEntity
  8
1
  6
SLD-Сплошная
100
AcDbLine
 10
989.1054271659
 20
965.4463862131
 30
0.0
 11
989.105427166
 21
371.012071638
 31
0.0
  0
LINE
  5
BF
330
1F
100
AcDbEntity
  8
1
  6
SLD-Сплошная
100
AcDbLine
 10
989.105427166
 20
371.012071638
 30
0.0
 11
986.405427166
 21
372.4292289255
 31
0.0
  0
LINE
  5
C0
330
1F
100
AcDbEntity
  8
1
  6
SLD-Сплошная
100
AcDbLine
 10
988.1054271659
 20
965.4463862131
 30
0.0
 11
986.4054271659
 21
964.0292289255
 31
0.0
  0
LINE
  5
C1
330
1F
100
AcDbEntity
  8
1
  6
SLD-Сплошная
100
AcDbLine
 10
989.1054271659
 20
965.4463862131
 30
0.0
 11
988.1054271659
 21
965.4463862131
 31
0.0
  0
LINE
  5
C2
330
1F
100
AcDbEntity
  8
1
  6
SLD-Сплошная
100
AcDbLine
 10
986.4054271659
 20
964.0292289255
 30
0.0
 11
987.8225844534
 21
965.7292289255
 31
0.0
  0
LINE
  5
C3
330
1F
100
AcDbEntity
  8
1
  6
SLD-Сплошная
100
AcDbLine
 10
987.8225844534
 20
966.7292289255
 30
0.0
 11
987.8225844534
 21
965.7292289255
 31
0.0
  0
LINE
  5
C4
330
1F
100
AcDbEntity
  8
1
  6
SLD-Сплошная
100
AcDbLine
 10
989.105427166
 20
371.012071638
 30
0.0
 11
988.105427166
 21
371.012071638
 31
0.0
  0
LINE
  5
C5
330
1F
100
AcDbEntity
  8
1
  6
SLD-Сплошная
100
AcDbLine
 10
988.105427166
 20
371.012071638
 30
0.0
 11
986.405427166
 21
372.4292289255
 31
0.0
  0
LINE
  5
C6
330
1F
100
AcDbEntity
  8
1
  6
SLD-Сплошная
100
AcDbLine
 10
986.405427166
 20
372.4292289255
 30
0.0
 11
987.8225844535
 21
370.7292289255
 31
0.0
  0
LINE
  5
C7
330
1F
100
AcDbEntity
  8
1
  6
SLD-Сплошная
100
AcDbLine
 10
987.8225844535
 20
369.7292289255
 30
0.0
 11
987.8225844535
 21
370.7292289255
 31
0.0
  0
CIRCLE
  5
C8
330
1F
100
AcDbEntity
  8
1
  6
SLD-Сплошная
100
AcDbCircle
 10
649.1054271659
 20
668.2292289255
 30
0.0
 40
14.0
  0
CIRCLE
  5
C9
330
1F
100
AcDbEntity
  8
1
  6
SLD-Сплошная
100
AcDbCircle
 10
649.1054271659
 20
668.2292289255
 30
0.0
 40
11.0
  0
CIRCLE
  5
CA
330
1F
100
AcDbEntity
  8
1
  6
SLD-Сплошная
100
AcDbCircle
 10
649.1054271659
 20
668.2292289255
 30
0.0
 40
8.0
  0
ARC
  5
CB
330
1F
100
AcDbEntity
  8
1
  6
SLD-Сплошная
100
AcDbCircle
 10
650.9921785119
 20
664.9612797331
 30
0.0
 40
1.000000000000082
100
AcDbArc
 50
240.0
 51
0.0
  0
LINE
  5
CC
330
1F
100
AcDbEntity
  8
1
  6
SLD-Сплошная
100
AcDbLine
 10
644.831924474
 20
667.3632035217
 30
0.0
 11
650.4921785119
 21
664.0952543293
 31
0.0
  0
ARC
  5
CD
330
1F
100
AcDbEntity
  8
1
  6
SLD-Сплошная
100
AcDbCircle
 10
650.9921785119
 20
671.4971781179
 30
0.0
 40
1.00000000000004
100
AcDbArc
 50
0.0
 51
120.0
  0
LINE
  5
CE
330
1F
100
AcDbEntity
  8
1
  6
SLD-Сплошная
100
AcDbLine
 10
651.9921785119
 20
664.9612797331
 30
0.0
 11
651.9921785119
 21
671.4971781179
 31
0.0
  0
ARC
  5
CF
330
1F
100
AcDbEntity
  8
1
  6
SLD-Сплошная
100
AcDbCircle
 10
645.331924474
 20
668.2292289255
 30
0.0
 40
1.00000000000004
100
AcDbArc
 50
120.0
 51
240.0
  0
LINE
  5
D0
330
1F
100
AcDbEntity
  8
1
  6
SLD-Сплошная
100
AcDbLine
 10
650.4921785119
 20
672.3632035217
 30
0.0
 11
644.831924474
 21
669.0952543293
 31
0.0
  0
LINE
  5
D1
330
1F
100
AcDbEntity
  8
1
  6
SLD-Сплошная
100
AcDbLine
 10
1752.7574863966
 20
1153.3246328691
 30
0.0
 11
1752.7574863966
 21
1639.982956753
 31
0.0
  0
LINE
  5
D2
330
1F
100
AcDbEntity
  8
1
  6
SLD-Сплошная
100
AcDbLine
 10
1751.860938203
 20
1641.535706475
 30
0.0
 11
1471.8466528532
 21
1803.1845126159
 31
0.0
  0
LINE
  5
D3
330
1F
100
AcDbEntity
  8
1
  6
SLD-Сплошная
100
AcDbLine
 10
1313.3868159669
 20
1711.7860435528
 30
0.0
 11
1313.3868159669
 21
1705.4582089601
 31
0.0
  0
LINE
  5
D4
330
1F
100
AcDbEntity
  8
1
  6
SLD-Сплошная
100
AcDbLine
 10
1469.5968357047
 20
1803.1597585907
 30
0.0
 11
1314.3868972343
 21
1713.5589683181
 31
0.0
  0
LINE
  5
D5
330
1F
100
AcDbEntity
  8
1
  6
SLD-Сплошная
100
AcDbLine
 10
1596.4010200494
 20
1061.7876428438
 30
0.0
 11
1751.6109585199
 21
1151.3884331163
 31
0.0
  0
LINE
  5
D6
330
1F
100
AcDbEntity
  8
1
  6
SLD-Сплошная
100
AcDbLine
 10
1587.9658199426
 20
1065.5026986196
 30
0.0
 11
1594.3658301183
 21
1061.8080513879
 31
0.0
  0
LINE
  5
D7
330
1F
100
AcDbEntity
  8
1
  6
SLD-Сплошная
100
AcDbLine
 10
1587.9658199426
 20
1060.768808163
 30
0.0
 11
1587.9658199425
 21
1546.15280953
 31
0.0
  0
LINE
  5
D8
330
1F
100
AcDbEntity
  8
1
  6
SLD-Сплошная
100
AcDbLine
 10
1587.2779180608
 20
1547.3442412718
 30
0.0
 11
1309.7813821653
 21
1707.5395815906
 31
0.0
  0
LINE
  5
D9
330
1F
100
AcDbEntity
  8
1
  6
SLD-Сплошная
100
AcDbLine
 10
1296.7769133902
 20
1699.2965464894
 30
0.0
 11
1296.7769133902
 21
1214.5945212488
 31
0.0
  0
LINE
  5
DA
330
1F
100
AcDbEntity
  8
1
  6
SLD-Сплошная
100
AcDbLine
 10
1297.4183868778
 20
1213.483516769
 30
0.0
 11
1574.3244612748
 21
1053.6290426177
 31
0.0
  0
LINE
  5
DB
330
1F
100
AcDbEntity
  8
1
  6
SLD-Сплошная
100
AcDbLine
 10
1323.9428080192
 20
1439.8009635209
 30
0.0
 11
1323.9428080192
 21
1437.3517391854
 31
0.0
  0
LINE
  5
DC
330
1F
100
AcDbEntity
  8
1
  6
SLD-Сплошная
100
AcDbLine
 10
1331.7197184402
 20
1423.8802755493
 30
0.0
 11
1333.8406940095
 21
1422.6554643476
 31
0.0
  0
LINE
  5
DD
330
1F
100
AcDbEntity
  8
1
  6
SLD-Сплошная
100
AcDbLine
 10
1327.5499786086
 20
1446.6189948673
 30
0.0
 11
1326.8428718274
 21
1446.2107908114
 31
0.0
  0
LINE
  5
DE
330
1F
100
AcDbEntity
  8
1
  6
SLD-Сплошная
100
AcDbLine
 10
1340.8417340843
 20
1421.9614226648
 30
0.0
 11
1341.5488408655
 21
1422.3696267207
 31
0.0
  0
LINE
  5
DF
330
1F
100
AcDbEntity
  8
1
  6
SLD-Сплошная
100
AcDbLine
 10
1335.6763969933
 20
1429.781464437
 30
0.0
 11
1337.3002434202
 21
1430.7188910256
 31
0.0
  0
LINE
  5
E0
330
1F
100
AcDbEntity
  8
1
  6
SLD-Сплошная
100
AcDbLine
 10
1332.3711305221
 20
1437.4722044385
 30
0.0
 11
1330.6740742473
 21
1436.4925147043
 31
0.0
  0
LINE
  5
E1
330
1F
100
AcDbEntity
  8
1
  6
SLD-Сплошная
100
AcDbLine
 10
1590.7441657999
 20
1110.7800915569
 30
0.0
 11
1592.1583793623
 21
1111.5964996688
 31
0.0
  0
LINE
  5
E2
330
1F
100
AcDbEntity
  8
1
  6
SLD-Сплошная
100
AcDbLine
 10
1588.5085262464
 20
1476.3796685192
 30
0.0
 11
1588.7913689589
 21
1476.5429501415
 31
0.0
  0
LINE
  5
E3
330
1F
100
AcDbEntity
  8
1
  6
SLD-Сплошная
100
AcDbLine
 10
1589.7442470673
 20
1478.6490362513
 30
0.0
 11
1589.7442470673
 21
1478.7306770625
 31
0.0
  0
LINE
  5
E4
330
1F
100
AcDbEntity
  8
1
  6
SLD-Сплошная
100
AcDbLine
 10
1588.1549728558
 20
1133.2284254991
 30
0.0
 11
1588.4378155683
 21
1133.3917071215
 31
0.0
  0
LINE
  5
E5
330
1F
100
AcDbEntity
  8
1
  6
SLD-Сплошная
100
AcDbLine
 10
1589.3906936767
 20
1135.4977932313
 30
0.0
 11
1589.3906936767
 21
1136.8211400062
 31
0.0
  0
LINE
  5
E6
330
1F
100
AcDbEntity
  8
1
  6
SLD-Сплошная
100
AcDbLine
 10
1589.3906936767
 20
1136.3665973929
 30
0.0
 11
1589.4456936493
 21
1136.3983482013
 31
0.0
  0
LINE
  5
E7
330
1F
100
AcDbEntity
  8
1
  6
SLD-Сплошная
100
AcDbLine
 10
1591.0977191905
 20
1453.9313345769
 30
0.0
 11
1592.1583793623
 21
1454.5436406608
 31
0.0
  0
ELLIPSE
  5
E8
330
1F
100
AcDbEntity
  8
1
  6
SLD-Сплошная
100
AcDbEllipse
 10
1595.4011013168
 20
1063.5197405686
 30
0.0
 11
1.999729017871914
 21
-0.05915489565381904
 31
0.0
210
0.0
220
0.0
230
1.0
 40
0.5565381198
 41
3.943452537665083
 42
5.514248864463397
  0
ELLIPSE
  5
E9
330
1F
100
AcDbEntity
  8
1
  6
SLD-Сплошная
100
AcDbEllipse
 10
1595.4011013168
 20
1550.1780644525
 30
0.0
 11
1.999640479968775
 21
0.06348472512559056
 31
0.0
210
0.0
220
0.0
230
1.0
 40
0.5973141192
 41
3.908029519480334
 42
5.478825846271432
  0
ELLIPSE
  5
EA
330
1F
100
AcDbEntity
  8
1
  6
SLD-Сплошная
100
AcDbEllipse
 10
1595.4011013168
 20
1550.1780644525
 30
0.0
 11
0.9991743340474386
 21
0.06590621744612689
 31
0.0
210
0.0
220
0.0
230
1.0
 40
0.6164546531
 41
3.886351437110872
 42
5.457147763902094
  0
LINE
  5
EB
330
1F
100
AcDbEntity
  8
1
  6
SLD-Сплошная
100
AcDbLine
 10
1596.8153148792
 20
1549.3616563406
 30
0.0
 11
1596.108208098
 21
1549.7698603966
 31
0.0
  0
LINE
  5
EC
330
1F
100
AcDbEntity
  8
1
  6
SLD-Сплошная
100
AcDbLine
 10
1594.6939945356
 20
1549.712122242
 30
0.0
 11
1593.9868877544
 21
1549.3039181861
 31
0.0
  0
ELLIPSE
  5
ED
330
1F
100
AcDbEntity
  8
1
  6
SLD-Сплошная
100
AcDbEllipse
 10
1595.4011013168
 20
1550.1780644525
 30
0.0
 11
1.054720450884588
 21
1.700046099216024
 31
0.0
210
0.0
220
0.0
230
1.0
 40
0.5974079498
 41
0.8042814001590252
 42
2.375077726950234
  0
ELLIPSE
  5
EE
330
1F
100
AcDbEntity
  8
1
  6
SLD-Сплошная
100
AcDbEllipse
 10
1315.3868159669
 20
1711.8268705934
 30
0.0
 11
0.9485527510603334
 21
1.761437681463804
 31
0.0
210
0.0
220
0.0
230
1.0
 40
0.5566319546
 41
0.7688525864808662
 42
2.3396489132795
  0
ARC
  5
EF
330
1F
100
AcDbEntity
  8
1
  6
SLD-Сплошная
100
AcDbCircle
 10
1748.9548211469
 20
1638.8227249087
 30
0.0
 40
3.073609615130374
100
AcDbArc
 50
2.6054784854
 51
57.3945216601
  0
ARC
  5
F0
330
1F
100
AcDbEntity
  8
1
  6
SLD-Сплошная
100
AcDbCircle
 10
1593.7448826764
 20
1549.2219346361
 30
0.0
 40
3.073609615143642
100
AcDbArc
 50
2.6054784856
 51
57.39452166
  0
ELLIPSE
  5
F1
330
1F
100
AcDbEntity
  8
1
  6
SLD-Сплошная
100
AcDbEllipse
 10
1595.4011013168
 20
1550.1780644525
 30
0.0
 11
0.556625815322832
 21
0.8323823098307913
 31
0.0
210
0.0
220
0.0
230
1.0
 40
0.6165484624
 41
0.8259634570347575
 42
2.396759783821939
  0
LINE
  5
F2
330
1F
100
AcDbEntity
  8
1
  6
SLD-Сплошная
100
AcDbLine
 10
1594.6439945356
 20
1549.7987247821
 30
0.0
 11
1593.9368877544
 21
1549.3905207262
 31
0.0
  0
LINE
  5
F3
330
1F
100
AcDbEntity
  8
1
  6
SLD-Сплошная
100
AcDbLine
 10
1595.4011013168
 20
1550.9946052644
 30
0.0
 11
1595.4011013168
 21
1551.8111460762
 31
0.0
  0
ARC
  5
F4
330
1F
100
AcDbEntity
  8
1
  6
SLD-Сплошная
100
AcDbCircle
 10
1594.5729919966
 20
1549.6999995443
 30
0.0
 40
1.536804807572079
100
AcDbArc
 50
2.6054784857
 51
57.39452166
  0
LWPOLYLINE
  5
F5
330
1F
100
AcDbEntity
  8
1
  6
SLD-Сплошная
100
AcDbPolyline
 90
       17
 70
   128
 43
0.0
 10
1659.0407116236
 20
1129.2455698226
 10
1658.9054125985
 20
1129.1985410922
 10
1658.7907116236
 20
1129.220827528
 10
1658.7140708824
 20
1129.3090362221
 10
1658.687158233
 20
1129.4497382006
 10
1658.7140708824
 20
1129.6215128627
 10
1658.7907116236
 20
1129.7982090732
 10
1658.9054125985
 20
1129.9529264358
 10
1659.0407116236
 20
1130.0621106345
 10
1659.1760106486
 20
1130.109139365
 10
1659.2907116236
 20
1130.0868529292
 10
1659.3673523648
 20
1129.998644235
 10
1659.3942650142
 20
1129.8579422565
 10
1659.3673523648
 20
1129.6861675945
 10
1659.2907116236
 20
1129.509471384
 10
1659.1760106486
 20
1129.3547540214
 10
1659.0407116236
 20
1129.2455698226
  0
LWPOLYLINE
  5
F6
330
1F
100
AcDbEntity
  8
1
  6
SLD-Сплошная
100
AcDbPolyline
 90
       17
 70
   128
 43
0.0
 10
1623.6853725642
 20
1117.0007751459
 10
1623.5500735392
 20
1116.9537464155
 10
1623.4353725642
 20
1116.9760328513
 10
1623.358731823
 20
1117.0642415454
 10
1623.3318191737
 20
1117.2049435239
 10
1623.358731823
 20
1117.376718186
 10
1623.4353725642
 20
1117.5534143965
 10
1623.5500735392
 20
1117.7081317591
 10
1623.6853725642
 20
1117.8173159578
 10
1623.8206715893
 20
1117.8643446883
 10
1623.9353725642
 20
1117.8420582525
 10
1624.0120133055
 20
1117.7538495583
 10
1624.0389259548
 20
1117.6131475798
 10
1624.0120133055
 20
1117.4413729178
 10
1623.9353725642
 20
1117.2646767073
 10
1623.8206715893
 20
1117.1099593447
 10
1623.6853725642
 20
1117.0007751459
  0
LWPOLYLINE
  5
F7
330
1F
100
AcDbEntity
  8
1
  6
SLD-Сплошная
100
AcDbPolyline
 90
       17
 70
   128
 43
0.0
 10
1623.6853725642
 20
1526.0877219007
 10
1623.8206715893
 20
1526.1347506312
 10
1623.9353725642
 20
1526.1124641954
 10
1624.0120133055
 20
1526.0242555012
 10
1624.0389259548
 20
1525.8835535227
 10
1624.0120133055
 20
1525.7117788607
 10
1623.9353725642
 20
1525.5350826502
 10
1623.8206715893
 20
1525.3803652876
 10
1623.6853725642
 20
1525.2711810888
 10
1623.5500735392
 20
1525.2241523584
 10
1623.4353725642
 20
1525.2464387941
 10
1623.358731823
 20
1525.3346474883
 10
1623.3318191737
 20
1525.4753494668
 10
1623.358731823
 20
1525.6471241289
 10
1623.4353725642
 20
1525.8238203393
 10
1623.5500735392
 20
1525.9785377019
 10
1623.6853725642
 20
1526.0877219007
  0
LINE
  5
F8
330
1F
100
AcDbEntity
  8
1
  6
SLD-Сплошная
100
AcDbLine
 10
1589.3906936767
 20
1136.2767852465
 30
0.0
 11
1589.4696077806
 21
1136.4633125083
 31
0.0
  0
LINE
  5
F9
330
1F
100
AcDbEntity
  8
1
  6
SLD-Сплошная
100
AcDbLine
 10
1593.9868877544
 20
1062.7610706113
 30
0.0
 11
1587.9658199426
 21
1073.1898659466
 31
0.0
  0
LINE
  5
FA
330
1F
100
AcDbEntity
  8
1
  6
SLD-Сплошная
100
AcDbLine
 10
1593.9868877544
 20
1549.3039181861
 30
0.0
 11
1587.9658199425
 21
1545.8268997736
 31
0.0
  0
LINE
  5
FB
330
1F
100
AcDbEntity
  8
1
  6
SLD-Сплошная
100
AcDbLine
 10
1587.9658199425
 20
1545.9423760826
 30
0.0
 11
1593.9368877544
 21
1549.3905207262
 31
0.0
  0
LINE
  5
FC
330
1F
100
AcDbEntity
  8
1
  6
SLD-Сплошная
100
AcDbLine
 10
1314.0226024045
 20
1710.981598096
 30
0.0
 11
1319.1235801572
 21
1702.146445486
 31
0.0
  0
LINE
  5
FD
330
1F
100
AcDbEntity
  8
1
  6
SLD-Сплошная
100
AcDbLine
 10
1587.9658199425
 20
1545.9422433825
 30
0.0
 11
1594.6439945356
 21
1549.7987247821
 31
0.0
  0
LINE
  5
FE
330
1F
100
AcDbEntity
  8
1
  6
SLD-Сплошная
100
AcDbLine
 10
1588.2895069395
 20
1546.1290186835
 30
0.0
 11
1588.2893805326
 21
1546.1290916567
 31
0.0
  0
LINE
  5
FF
330
1F
100
AcDbEntity
  8
1
  6
SLD-Сплошная
100
AcDbLine
 10
1587.5824001583
 20
1545.7208146276
 30
0.0
 11
1588.2895069395
 21
1546.1290186835
 31
0.0
  0
LINE
  5
100
330
1F
100
AcDbEntity
  8
1
  6
SLD-Сплошная
100
AcDbLine
 10
1587.9658199425
 20
1545.9420974125
 30
0.0
 11
1588.2895069395
 21
1546.1290186835
 31
0.0
  0
LINE
  5
101
330
1F
100
AcDbEntity
  8
1
  6
SLD-Сплошная
100
AcDbLine
 10
1579.7947521307
 20
1542.0404591187
 30
0.0
 11
1575.264588509
 21
1539.4252513261
 31
0.0
  0
ELLIPSE
  5
102
330
1F
100
AcDbEntity
  8
1
  6
SLD-Сплошная
100
AcDbEllipse
 10
1581.2089656931
 20
1542.0405918188
 30
0.0
 11
1.580529840018926
 21
0.1927335649925226
 31
0.0
210
0.0
220
0.0
230
0.9999999999999999
 40
0.2276700627
 41
2.329626123049137
 42
2.650189545573029
  0
ELLIPSE
  5
103
330
1F
100
AcDbEntity
  8
1
  6
SLD-Сплошная
100
AcDbEllipse
 10
1750.2574863966
 20
1639.5169481925
 30
0.0
 11
2.493080340725328
 21
0.9065865826366919
 31
0.0
210
0.0
220
0.0
230
1.0
 40
0.2050299685
 41
0.3206699638821436
 42
0.7109785221994543
  0
ARC
  5
104
330
1F
100
AcDbEntity
  8
1
  6
SLD-Сплошная
100
AcDbCircle
 10
1751.5233840617
 20
1153.4371720966
 30
0.0
 40
1.239223002913934
100
AcDbArc
 50
293.8903166265
 51
354.7895424155
  0
LWPOLYLINE
  5
105
330
1F
100
AcDbEntity
  8
1
  6
SLD-Сплошная
100
AcDbPolyline
 90
        9
 70
   128
 43
0.0
 10
1752.0252533496
 20
1638.9624466132
 10
1752.265950146
 20
1639.1235784581
 10
1752.4629934668
 20
1639.3033886832
 10
1752.6121006228
 20
1639.4979691565
 10
1752.710030806
 20
1639.7030907184
 10
1752.7546555273
 20
1639.9142951011
 10
1752.7450048793
 20
1640.1269918283
 10
1752.6812886165
 20
1640.3365579878
 10
1752.5648915964
 20
1640.5384387097
  0
LWPOLYLINE
  5
106
330
1F
100
AcDbEntity
  8
1
  6
SLD-Сплошная
100
AcDbPolyline
 90
        3
 70
   128
 43
0.0
 10
1751.7423276375
 20
1640.1057529049
 10
1751.7117677285
 20
1640.1951174939
 10
1751.6419295165
 20
1640.316245927
  0
LINE
  5
107
330
1F
100
AcDbEntity
  8
1
  6
SLD-Сплошная
100
AcDbLine
 10
1752.5648915964
 20
1640.5384387097
 30
0.0
 11
1751.6419295165
 21
1640.316245927
 31
0.0
  0
LINE
  5
108
330
1F
100
AcDbEntity
  8
1
  6
SLD-Сплошная
100
AcDbLine
 10
1752.2458560026
 20
1641.0910245658
 30
0.0
 11
1751.5919295165
 21
1640.4028484671
 31
0.0
  0
LWPOLYLINE
  5
109
330
1F
100
AcDbEntity
  8
1
  6
SLD-Сплошная
100
AcDbPolyline
 90
        3
 70
   128
 43
0.0
 10
1751.5919295165
 20
1640.4028484671
 10
1751.5219369549
 20
1640.5239140377
 10
1751.4598994042
 20
1640.594996625
  0
LWPOLYLINE
  5
10A
330
1F
100
AcDbEntity
  8
1
  6
SLD-Сплошная
100
AcDbPolyline
 90
        9
 70
   128
 43
0.0
 10
1752.2458560026
 20
1641.0910245658
 10
1752.1292017333
 20
1641.2928005168
 10
1751.97955058
 20
1641.4527975618
 10
1751.8001551742
 20
1641.5675382037
 10
1751.5949146321
 20
1641.6345285823
 10
1751.3682898072
 20
1641.6523126778
 10
1751.1252063357
 20
1641.6205039572
 10
1750.870947578
 20
1641.5397937754
 10
1750.6110397872
 20
1641.4119363488
  0
ELLIPSE
  5
10B
330
1F
100
AcDbEntity
  8
1
  6
SLD-Сплошная
100
AcDbEllipse
 10
1750.2074863966
 20
1639.6035507326
 30
0.0
 11
2.031629674499754
 21
1.705837126210326
 31
0.0
210
0.0
220
0.0
230
0.9999999999999998
 40
0.2051618287
 41
5.572177975264721
 42
5.962486533586477
  0
ARC
  5
10C
330
1F
100
AcDbEntity
  8
1
  6
SLD-Сплошная
100
AcDbCircle
 10
1471.3269888781
 20
1802.059399699
 30
0.0
 40
1.239326318110454
100
AcDbArc
 50
65.2088626952
 51
126.1015957339
  0
ELLIPSE
  5
10D
330
1F
100
AcDbEntity
  8
1
  6
SLD-Сплошная
100
AcDbEllipse
 10
1750.2074863966
 20
1639.6035507326
 30
0.0
 11
1.499999998601424
 21
0.8660723227114888
 31
0.0
210
0.0
220
0.0
230
1.0
 40
0.0000703729
 41
5.497746512001887
 42
5.888055069176046
  0
LINE
  5
10E
330
1F
100
AcDbEntity
  8
1
  6
SLD-Сплошная
100
AcDbLine
 10
1752.0252533496
 20
1640.5374583323
 30
0.0
 11
1751.6421545457
 21
1640.3163001003
 31
0.0
  0
LINE
  5
10F
330
1F
100
AcDbEntity
  8
1
  6
SLD-Сплошная
100
AcDbLine
 10
1751.9752533496
 20
1640.6240608724
 30
0.0
 11
1751.5858420347
 21
1640.3992585054
 31
0.0
  0
LINE
  5
110
330
1F
100
AcDbEntity
  8
1
  6
SLD-Сплошная
100
AcDbLine
 10
1751.5858744645
 20
1640.3992041534
 30
0.0
 11
1751.9752533496
 21
1640.6240608724
 31
0.0
  0
LINE
  5
111
330
1F
100
AcDbEntity
  8
1
  6
SLD-Сплошная
100
AcDbLine
 10
1319.0235801572
 20
1702.2041742571
 30
0.0
 11
1313.9726024045
 21
1710.9527243271
 31
0.0
  0
LINE
  5
112
330
1F
100
AcDbEntity
  8
1
  6
SLD-Сплошная
100
AcDbLine
 10
1314.0226064677
 20
1710.9815910583
 30
0.0
 11
1313.9726024045
 21
1710.9527243271
 31
0.0
  0
ELLIPSE
  5
113
330
1F
100
AcDbEntity
  8
1
  6
SLD-Сплошная
100
AcDbEllipse
 10
1315.3868159669
 20
1711.8268705934
 30
0.0
 11
1.99964047996923
 21
0.06348472506942927
 31
0.0
210
0.0
220
0.0
230
1.0
 40
0.5973141191
 41
2.337233192698982
 42
3.908029519494014
  0
LINE
  5
114
330
1F
100
AcDbEntity
  8
1
  6
SLD-Сплошная
100
AcDbLine
 10
1314.4220929182
 20
1712.383793355
 30
0.0
 11
1313.9726024045
 21
1712.6432787052
 31
0.0
  0
ARC
  5
115
330
1F
100
AcDbEntity
  8
1
  6
SLD-Сплошная
100
AcDbCircle
 10
1314.8347511394
 20
1712.783133099
 30
0.0
 40
0.8734183948596773
100
AcDbArc
 50
50.7967147647
 51
189.2140369903
  0
ARC
  5
116
330
1F
100
AcDbEntity
  8
1
  6
SLD-Сплошная
100
AcDbCircle
 10
1470.0109143277
 20
1802.2429798314
 30
0.0
 40
1.005954471802688
100
AcDbArc
 50
54.3824225248
 51
114.3071190461
  0
LINE
  5
117
330
1F
100
AcDbEntity
  8
1
  6
SLD-Сплошная
100
AcDbLine
 10
1587.9658199426
 20
1073.0743896376
 30
0.0
 11
1593.9368877544
 21
1062.7321968423
 31
0.0
  0
LINE
  5
118
330
1F
100
AcDbEntity
  8
1
  6
SLD-Сплошная
100
AcDbLine
 10
1593.9868958815
 20
1062.7610659196
 30
0.0
 11
1593.9368877544
 21
1062.7321968423
 31
0.0
  0
ARC
  5
119
330
1F
100
AcDbEntity
  8
1
  6
SLD-Сплошная
100
AcDbCircle
 10
1595.9531661443
 20
1062.5634780629
 30
0.0
 40
0.873418394856978
100
AcDbArc
 50
230.7967147643
 51
9.2140369905
  0
LINE
  5
11A
330
1F
100
AcDbEntity
  8
1
  6
SLD-Сплошная
100
AcDbLine
 10
1595.4011013168
 20
1062.405992185
 30
0.0
 11
1595.4011013168
 21
1061.8866589448
 31
0.0
  0
ARC
  5
11B
330
1F
100
AcDbEntity
  8
1
  6
SLD-Сплошная
100
AcDbCircle
 10
1751.0452495706
 20
1152.1959492429
 30
0.0
 40
0.9859558357288536
100
AcDbArc
 50
305.0133320392
 51
6.2988483542
  0
ELLIPSE
  5
11C
330
1F
100
AcDbEntity
  8
1
  6
SLD-Сплошная
100
AcDbEllipse
 10
1595.4011013168
 20
1063.5197405686
 30
0.0
 11
1.054720450884588
 21
1.700046099215797
 31
0.0
210
0.0
220
0.0
230
1.0
 40
0.5974079498
 41
2.375077726950652
 42
3.945874053744964
  0
ELLIPSE
  5
11D
330
1F
100
AcDbEntity
  8
1
  6
SLD-Сплошная
100
AcDbEllipse
 10
1574.9657153405
 20
1539.4420058419
 30
0.0
 11
1.698791117367819
 21
0.8238102185071057
 31
0.0
210
0.0
220
0.0
230
1.0
 40
0.0778085159
 41
3.889276317734613
 42
5.460072644561624
  0
ELLIPSE
  5
11E
330
1F
100
AcDbEntity
  8
1
  6
SLD-Сплошная
100
AcDbEllipse
 10
1574.9657153405
 20
1539.4420058419
 30
0.0
 11
2.691140751009243
 21
0.8754882017692581
 31
0.0
210
0.0
220
0.0
230
0.9999999999999998
 40
0.2496252376
 41
3.845959967501363
 42
5.416756294296233
  0
LINE
  5
11F
330
1F
100
AcDbEntity
  8
1
  6
SLD-Сплошная
100
AcDbLine
 10
1573.0565270313
 20
1538.3398548909
 30
0.0
 11
1573.7636338124
 21
1538.7480589468
 31
0.0
  0
ELLIPSE
  5
120
330
1F
100
AcDbEntity
  8
1
  6
SLD-Сплошная
100
AcDbEllipse
 10
1574.9657153405
 20
1056.3764615303
 30
0.0
 11
2.346496907398433
 21
-1.886933551543735
 31
0.0
210
0.0
220
0.0
230
1.0
 40
0.7078398481
 41
4.444461987450453
 42
6.015258314245338
  0
ELLIPSE
  5
121
330
1F
100
AcDbEntity
  8
1
  6
SLD-Сплошная
100
AcDbEllipse
 10
1299.4769133902
 20
1698.4783060249
 30
0.0
 11
-0.4612130827501915
 21
2.975579473097696
 31
0.0
210
0.0
220
0.0
230
1.0
 40
0.7078581484
 41
0.2677802284995592
 42
1.838576555295084
  0
ELLIPSE
  5
122
330
1F
100
AcDbEntity
  8
1
  6
SLD-Сплошная
100
AcDbEllipse
 10
1574.9657153405
 20
1539.4420058419
 30
0.0
 11
2.103726216624636
 21
1.892910169506877
 31
0.0
210
0.0
220
0.0
230
1.0
 40
0.2497537726
 41
0.8663954412468516
 42
2.437191768021409
  0
ELLIPSE
  5
123
330
1F
100
AcDbEntity
  8
1
  6
SLD-Сплошная
100
AcDbEllipse
 10
1574.9657153405
 20
1539.4420058419
 30
0.0
 11
1.562801634059952
 21
1.05935063918605
 31
0.0
210
0.0
220
0.0
230
1.0
 40
0.0779476131
 41
0.823099773898535
 42
2.393896100631935
  0
LINE
  5
124
330
1F
100
AcDbEntity
  8
1
  6
SLD-Сплошная
100
AcDbLine
 10
1587.6582820628
 20
1060.3422556698
 30
0.0
 11
1576.8749036497
 21
1054.1171438172
 31
0.0
  0
LINE
  5
125
330
1F
100
AcDbEntity
  8
1
  6
SLD-Сплошная
100
AcDbLine
 10
1587.6582820628
 20
1545.7221335057
 30
0.0
 11
1576.8749036497
 21
1539.4970216531
 31
0.0
  0
LINE
  5
126
330
1F
100
AcDbEntity
  8
1
  6
SLD-Сплошная
100
AcDbLine
 10
1586.9511752816
 20
1546.1303375616
 30
0.0
 11
1576.1677968685
 21
1539.905225709
 31
0.0
  0
LINE
  5
127
330
1F
100
AcDbEntity
  8
1
  6
SLD-Сплошная
100
AcDbLine
 10
1587.6582820628
 20
1545.7221335057
 30
0.0
 11
1586.9511752816
 21
1546.1303375616
 31
0.0
  0
LINE
  5
128
330
1F
100
AcDbEntity
  8
1
  6
SLD-Сплошная
100
AcDbLine
 10
1575.9677968685
 20
1540.2516358695
 30
0.0
 11
1586.7511752816
 21
1546.4767477221
 31
0.0
  0
LINE
  5
129
330
1F
100
AcDbEntity
  8
1
  6
SLD-Сплошная
100
AcDbLine
 10
1575.9677968685
 20
1541.0681766814
 30
0.0
 11
1586.7511752816
 21
1547.293288534
 31
0.0
  0
LINE
  5
12A
330
1F
100
AcDbEntity
  8
1
  6
SLD-Сплошная
100
AcDbLine
 10
1586.7511752816
 20
1547.293288534
 30
0.0
 11
1586.7511752816
 21
1546.4767477221
 31
0.0
  0
LINE
  5
12B
330
1F
100
AcDbEntity
  8
1
  6
SLD-Сплошная
100
AcDbLine
 10
1298.4748318622
 20
1701.2614555696
 30
0.0
 11
1309.2582102753
 21
1707.4865674223
 31
0.0
  0
LWPOLYLINE
  5
12C
330
1F
100
AcDbEntity
  8
1
  6
SLD-Сплошная
100
AcDbPolyline
 90
       17
 70
   128
 43
0.0
 10
1532.1857550787
 20
1109.3254772943
 10
1532.2126677281
 20
1109.4661792728
 10
1532.2893084693
 20
1109.554387967
 10
1532.4040094443
 20
1109.5766744027
 10
1532.5393084693
 20
1109.5296456723
 10
1532.6746074944
 20
1109.4204614735
 10
1532.7893084693
 20
1109.2657441109
 10
1532.8659492105
 20
1109.0890479005
 10
1532.8928618599
 20
1108.9172732384
 10
1532.8659492105
 20
1108.7765712599
 10
1532.7893084693
 20
1108.6883625657
 10
1532.6746074944
 20
1108.66607613
 10
1532.5393084693
 20
1108.7131048604
 10
1532.4040094443
 20
1108.8222890592
 10
1532.2893084693
 20
1108.9770064218
 10
1532.2126677281
 20
1109.1537026322
 10
1532.1857550787
 20
1109.3254772943
  0
LWPOLYLINE
  5
12D
330
1F
100
AcDbEntity
  8
1
  6
SLD-Сплошная
100
AcDbPolyline
 90
       17
 70
   128
 43
0.0
 10
1532.8928618599
 20
1531.0688729834
 10
1532.8659492105
 20
1530.9281710049
 10
1532.7893084693
 20
1530.8399623107
 10
1532.6746074943
 20
1530.8176758749
 10
1532.5393084693
 20
1530.8647046054
 10
1532.4040094443
 20
1530.9738888041
 10
1532.2893084693
 20
1531.1286061667
 10
1532.2126677281
 20
1531.3053023772
 10
1532.1857550787
 20
1531.4770770393
 10
1532.2126677281
 20
1531.6177790178
 10
1532.2893084693
 20
1531.7059877119
 10
1532.4040094443
 20
1531.7282741477
 10
1532.5393084693
 20
1531.6812454172
 10
1532.6746074943
 20
1531.5720612185
 10
1532.7893084693
 20
1531.4173438559
 10
1532.8659492105
 20
1531.2406476454
 10
1532.8928618599
 20
1531.0688729834
  0
LWPOLYLINE
  5
12E
330
1F
100
AcDbEntity
  8
1
  6
SLD-Сплошная
100
AcDbPolyline
 90
       17
 70
   128
 43
0.0
 10
1334.1958563464
 20
1629.4433964567
 10
1334.2227689958
 20
1629.5840984352
 10
1334.299409737
 20
1629.6723071294
 10
1334.414110712
 20
1629.6945935652
 10
1334.549409737
 20
1629.6475648347
 10
1334.6847087621
 20
1629.5383806359
 10
1334.799409737
 20
1629.3836632733
 10
1334.8760504782
 20
1629.2069670629
 10
1334.9029631276
 20
1629.0351924008
 10
1334.8760504782
 20
1628.8944904223
 10
1334.799409737
 20
1628.8062817281
 10
1334.6847087621
 20
1628.7839952924
 10
1334.549409737
 20
1628.8310240228
 10
1334.414110712
 20
1628.9402082216
 10
1334.299409737
 20
1629.0949255842
 10
1334.2227689958
 20
1629.2716217947
 10
1334.1958563464
 20
1629.4433964567
  0
LWPOLYLINE
  5
12F
330
1F
100
AcDbEntity
  8
1
  6
SLD-Сплошная
100
AcDbPolyline
 90
       17
 70
   128
 43
0.0
 10
1334.9029631276
 20
1239.5452251313
 10
1334.8760504783
 20
1239.4045231528
 10
1334.7994097371
 20
1239.3163144586
 10
1334.6847087621
 20
1239.2940280229
 10
1334.5494097371
 20
1239.3410567533
 10
1334.414110712
 20
1239.4502409521
 10
1334.2994097371
 20
1239.6049583147
 10
1334.2227689958
 20
1239.7816545251
 10
1334.1958563465
 20
1239.9534291872
 10
1334.2227689958
 20
1240.0941311657
 10
1334.2994097371
 20
1240.1823398599
 10
1334.414110712
 20
1240.2046262956
 10
1334.5494097371
 20
1240.1575975652
 10
1334.6847087621
 20
1240.0484133664
 10
1334.7994097371
 20
1239.8936960038
 10
1334.8760504783
 20
1239.7169997934
 10
1334.9029631276
 20
1239.5452251313
  0
LINE
  5
130
330
1F
100
AcDbEntity
  8
1
  6
SLD-Сплошная
100
AcDbLine
 10
1575.9244496642
 20
1540.2264660911
 30
0.0
 11
1575.9678600719
 21
1540.251526386
 31
0.0
  0
SPLINE
  5
131
330
1F
100
AcDbEntity
  8
1
  6
SLD-Сплошная
100
AcDbSpline
210
0.0
220
0.0
230
1.0
 70
     8
 71
     3
 72
     9
 73
     5
 74
     0
 42
0.00000001
 43
0.00000001
 40
0.0
 40
0.0
 40
0.0
 40
0.0
 40
0.4999999999999938
 40
1.0
 40
1.0
 40
1.0
 40
1.0
 10
1587.658282062817
 20
1060.342255669817
 30
0.0
 10
1587.746459600617
 20
1060.408265015022
 30
0.0
 10
1587.922814676216
 20
1060.540283705431
 30
0.0
 10
1587.951484853786
 20
1060.707616867693
 30
0.0
 10
1587.965819942571
 20
1060.791283448824
 30
0.0
  0
SPLINE
  5
132
330
1F
100
AcDbEntity
  8
1
  6
SLD-Сплошная
100
AcDbSpline
210
0.0
220
0.0
230
1.0
 70
     8
 71
     3
 72
    11
 73
     7
 74
     0
 42
0.00000001
 43
0.00000001
 40
0.0
 40
0.0
 40
0.0
 40
0.0
 40
0.2499999999999968
 40
0.4999999999999917
 40
0.7499999999999998
 40
1.0
 40
1.0
 40
1.0
 40
1.0
 10
1587.658282062776
 20
1546.538534982524
 30
0.0
 10
1587.744411730749
 20
1546.479330144085
 30
0.0
 10
1587.916671066695
 20
1546.360920467208
 30
0.0
 10
1587.990394380448
 20
1546.130334244114
 30
0.0
 10
1587.916671066695
 20
1545.899748021021
 30
0.0
 10
1587.744411730749
 20
1545.781338344143
 30
0.0
 10
1587.658282062776
 20
1545.722133505704
 30
0.0
  0
SPLINE
  5
133
330
1F
100
AcDbEntity
  8
1
  6
SLD-Сплошная
100
AcDbSpline
210
0.0
220
0.0
230
1.0
 70
     8
 71
     3
 72
    12
 73
     8
 74
     0
 42
0.00000001
 43
0.00000001
 40
0.0
 40
0.0
 40
0.0
 40
0.0
 40
0.0768349934725616
 40
0.165346417166838
 40
0.3824629150557919
 40
0.6595554638269926
 40
1.0
 40
1.0
 40
1.0
 40
1.0
 10
1586.173357822285
 20
1545.681167130044
 30
0.0
 10
1586.210412828081
 20
1545.706364377202
 30
0.0
 10
1586.290154000296
 20
1545.760588036913
 30
0.0
 10
1586.494224099468
 20
1545.903014815909
 30
0.0
 10
1586.821922314556
 20
1546.113047723078
 30
0.0
 10
1587.280728735035
 20
1546.357830456592
 30
0.0
 10
1587.524108332603
 20
1546.474316768772
 30
0.0
 10
1587.658282062776
 20
1546.538534982524
 30
0.0
  0
SPLINE
  5
134
330
1F
100
AcDbEntity
  8
1
  6
SLD-Сплошная
100
AcDbSpline
210
0.0
220
0.0
230
1.0
 70
     8
 71
     3
 72
    11
 73
     7
 74
     0
 42
0.00000001
 43
0.00000001
 40
0.0
 40
0.0
 40
0.0
 40
0.0
 40
0.2499999999995689
 40
0.5000000000000367
 40
0.7499999999996922
 40
1.0
 40
1.0
 40
1.0
 40
1.0
 10
1586.95117528159
 20
1546.130330926613
 30
0.0
 10
1586.95527669435
 20
1546.130751889909
 30
0.0
 10
1586.963479519871
 20
1546.131593816501
 30
0.0
 10
1586.96699015386
 20
1546.130334244114
 30
0.0
 10
1586.963479519872
 20
1546.129074671727
 30
0.0
 10
1586.95527669435
 20
1546.12991659832
 30
0.0
 10
1586.95117528159
 20
1546.130337561616
 30
0.0
  0
LINE
  5
135
330
1F
100
AcDbEntity
  8
1
  6
SLD-Сплошная
100
AcDbLine
 10
1586.9511752816
 20
1546.1303309266
 30
0.0
 11
1587.6582820628
 21
1546.5385349825
 31
0.0
  0
SPLINE
  5
136
330
1F
100
AcDbEntity
  8
1
  6
SLD-Сплошная
100
AcDbSpline
210
0.0
220
0.0
230
1.0
 70
     8
 71
     3
 72
    11
 73
     7
 74
     0
 42
0.00000001
 43
0.00000001
 40
0.0
 40
0.0
 40
0.0
 40
0.0
 40
0.2499999999999989
 40
0.4999999999999981
 40
0.7499999999999872
 40
1.0
 40
1.0
 40
1.0
 40
1.0
 10
1586.751175281549
 20
1547.293288534021
 30
0.0
 10
1586.84551904467
 20
1547.338266142368
 30
0.0
 10
1587.03420657091
 20
1547.428221359062
 30
0.0
 10
1587.270784830979
 20
1547.376734541701
 30
0.0
 10
1587.433639777294
 20
1547.197555199592
 30
0.0
 10
1587.450067967589
 20
1546.989148495226
 30
0.0
 10
1587.458282062736
 20
1546.884945143043
 30
0.0
  0
LINE
  5
137
330
1F
100
AcDbEntity
  8
1
  6
SLD-Сплошная
100
AcDbLine
 10
1586.7511752815
 20
1546.4767410871
 30
0.0
 11
1587.4582820627
 21
1546.884945143
 31
0.0
  0
SPLINE
  5
138
330
1F
100
AcDbEntity
  8
1
  6
SLD-Сплошная
100
AcDbSpline
210
0.0
220
0.0
230
1.0
 70
     8
 71
     3
 72
    11
 73
     7
 74
     0
 42
0.00000001
 43
0.00000001
 40
0.0
 40
0.0
 40
0.0
 40
0.0
 40
0.2500000000000513
 40
0.4999999999999903
 40
0.7500000000001216
 40
1.0
 40
1.0
 40
1.0
 40
1.0
 10
1586.751175281549
 20
1546.476747722135
 30
0.0
 10
1586.752861862408
 20
1546.480509370373
 30
0.0
 10
1586.756235024124
 20
1546.48803266685
 30
0.0
 10
1586.759082717685
 20
1546.490440485736
 30
0.0
 10
1586.758419777257
 20
1546.486767708206
 30
0.0
 10
1586.753590113452
 20
1546.480083294156
 30
0.0
 10
1586.75117528155
 20
1546.476741087131
 30
0.0
  0
SPLINE
  5
139
330
1F
100
AcDbEntity
  8
1
  6
SLD-Сплошная
100
AcDbSpline
210
0.0
220
0.0
230
1.0
 70
     8
 71
     3
 72
    13
 73
     9
 74
     0
 42
0.00000001
 43
0.00000001
 40
0.0
 40
0.0
 40
0.0
 40
0.0
 40
0.3220863390587684
 40
0.4996033953880738
 40
0.6100900277320208
 40
0.7293891021317326
 40
0.8589773925979228
 40
1.0
 40
1.0
 40
1.0
 40
1.0
 10
1587.458282062736
 20
1546.884945143043
 30
0.0
 10
1587.339674794487
 20
1546.811573878129
 30
0.0
 10
1587.155697435783
 20
1546.697764229506
 30
0.0
 10
1586.844123603639
 20
1546.534708201528
 30
0.0
 10
1586.628284030626
 20
1546.393524510663
 30
0.0
 10
1586.429446121269
 20
1546.262133675512
 30
0.0
 10
1586.206585284692
 20
1546.126708833702
 30
0.0
 10
1586.053259833259
 20
1546.061539027181
 30
0.0
 10
1585.973357822244
 20
1546.027577290563
 30
0.0
  0
SPLINE
  5
13A
330
1F
100
AcDbEntity
  8
1
  6
SLD-Сплошная
100
AcDbSpline
210
0.0
220
0.0
230
1.0
 70
     8
 71
     3
 72
     9
 73
     5
 74
     0
 42
0.00000001
 43
0.00000001
 40
0.0
 40
0.0
 40
0.0
 40
0.0
 40
0.4999489266172277
 40
1.0
 40
1.0
 40
1.0
 40
1.0
 10
1309.800836935709
 20
1707.528331742302
 30
0.0
 10
1309.721220532316
 20
1707.557756000807
 30
0.0
 10
1309.561971458753
 20
1707.616610529616
 30
0.0
 10
1309.359470898035
 20
1707.529918076518
 30
0.0
 10
1309.258210275287
 20
1707.486567422293
 30
0.0
  0
LINE
  5
13B
330
1F
100
AcDbEntity
  8
1
  6
SLD-Сплошная
100
AcDbLine
 10
1586.9388525949
 20
1545.9467147476
 30
0.0
 11
1586.9511752816
 21
1546.1303309266
 31
0.0
  0
ELLIPSE
  5
13C
330
1F
100
AcDbEntity
  8
1
  6
SLD-Сплошная
100
AcDbEllipse
 10
1299.4769133902
 20
1698.478306025
 30
0.0
 11
2.346496907398433
 21
-1.886933551543735
 31
0.0
210
0.0
220
0.0
230
1.0
 40
0.7078398481
 41
2.873665660655552
 42
4.444461987450496
  0
ELLIPSE
  5
13D
330
1F
100
AcDbEntity
  8
1
  6
SLD-Сплошная
100
AcDbEllipse
 10
1299.4769133902
 20
1215.4127617133
 30
0.0
 11
2.691140751009243
 21
0.8754882017690307
 31
0.0
210
0.0
220
0.0
230
1.0
 40
0.2496252376
 41
3.060561804102093
 42
3.845959967501477
  0
LINE
  5
13E
330
1F
100
AcDbEntity
  8
1
  6
SLD-Сплошная
100
AcDbLine
 10
1298.4556691744
 20
1701.2502229522
 30
0.0
 11
1297.567725081
 21
1700.737623738
 31
0.0
  0
ELLIPSE
  5
13F
330
1F
100
AcDbEntity
  8
1
  6
SLD-Сплошная
100
AcDbEllipse
 10
1574.9657153405
 20
1056.3764615303
 30
0.0
 11
-0.4612130827501915
 21
2.975579473097924
 31
0.0
210
0.0
220
0.0
230
1.0
 40
0.7078581484
 41
1.838576555302455
 42
3.409372882089504
  0
ELLIPSE
  5
140
330
1F
100
AcDbEntity
  8
1
  6
SLD-Сплошная
100
AcDbEllipse
 10
1299.4769133902
 20
1215.4127617133
 30
0.0
 11
2.103726216624636
 21
1.892910169506877
 31
0.0
210
0.0
220
0.0
230
1.0
 40
0.2497537726
 41
2.437191768032114
 42
3.222671195487542
  0
LINE
  5
141
330
1F
100
AcDbEntity
  8
1
  6
SLD-Сплошная
100
AcDbLine
 10
1575.9677968685
 20
1053.5933119856
 30
0.0
 11
1576.8749773589
 21
1054.1170161353
 31
0.0
  0
LWPOLYLINE
  5
142
330
1F
100
AcDbEntity
  8
1
  6
SLD-Сплошная
100
AcDbPolyline
 90
       21
 70
   128
 43
0.0
 10
1333.8423029559
 20
1445.5176781045
 10
1335.4302936185
 20
1444.4529147612
 10
1336.9771561571
 20
1443.1196565356
 10
1338.4428276444
 20
1441.5524341153
 10
1339.7893479589
 20
1439.7918377378
 10
1340.9818429316
 20
1437.8834659245
 10
1341.9894275692
 20
1435.876744503
 10
1342.7860059588
 20
1433.8236465039
 10
1343.3509471385
 20
1431.777346087
 10
1343.6696194285
 20
1429.7908413583
 10
1343.733769384
 20
1427.9155817466
 10
1343.5417355547
 20
1426.2001354911
 10
1343.098491516
 20
1424.6889317485
 10
1342.4155170556
 20
1423.421109902
 10
1341.5105008533
 20
1422.4295058716
 10
1340.4068823535
 20
1421.7398016806
 10
1339.1332446954
 20
1421.3698603054
 10
1337.7225744255
 20
1421.3292630333
 10
1336.2114071627
 20
1421.6190613123
 10
1334.6388813454
 20
1422.2317495192
 10
1333.8406940095
 20
1422.6554643476
  0
LWPOLYLINE
  5
143
330
1F
100
AcDbEntity
  8
1
  6
SLD-Сплошная
100
AcDbPolyline
 90
       11
 70
   128
 43
0.0
 10
1323.9428080192
 20
1439.8009635209
 10
1324.0149864832
 20
1441.1372194431
 10
1324.3336587732
 20
1442.7557929775
 10
1324.8985999529
 20
1444.1498261921
 10
1325.6951783425
 20
1445.2832143592
 10
1326.7027629801
 20
1446.1266033204
 10
1327.8952579528
 20
1446.6581497448
 10
1329.2417782673
 20
1446.864086859
 10
1330.7074497546
 20
1446.7390810001
 10
1332.2543122932
 20
1446.2863697541
 10
1333.8423029559
 20
1445.5176781045
  0
LWPOLYLINE
  5
144
330
1F
100
AcDbEntity
  8
1
  6
SLD-Сплошная
100
AcDbPolyline
 90
       36
 70
   128
 43
0.0
 10
1331.7209826123
 20
1441.8434435011
 10
1333.1098293148
 20
1440.8973357513
 10
1334.4540373416
 20
1439.6929494539
 10
1335.7104027406
 20
1438.2689945757
 10
1336.8385448942
 20
1436.671238198
 10
1337.8022043853
 20
1434.9510335255
 10
1338.5704084049
 20
1433.1636693516
 10
1339.1184662439
 20
1431.3665930317
 10
1339.4287628723
 20
1429.6175640772
 10
1339.4913251011
 20
1427.9727977179
 10
1339.3041421289
 20
1426.4851580978
 10
1338.8732301704
 20
1425.2024591785
 10
1338.2124390904
 20
1424.1659279585
 10
1337.3430072581
 20
1423.4088794042
 10
1336.2928789278
 20
1422.9556456789
 10
1335.0958060882
 20
1422.8207940876
 10
1333.7902636453
 20
1423.0086588713
 10
1332.4182128073
 20
1423.5132019013
 10
1331.0237524172
 20
1424.3182067495
 10
1329.6517015793
 20
1425.3977998977
 10
1328.3461591364
 20
1426.7172823338
 10
1327.1490862967
 20
1428.2342448067
 10
1326.0989579665
 20
1429.8999308943
 10
1325.2295261342
 20
1431.6608040752
 10
1324.5687350542
 20
1433.4602684366
 10
1324.1378230957
 20
1435.2404877133
 10
1323.9506401235
 20
1436.9442441929
 10
1324.0132023523
 20
1438.5167777403
 10
1324.3234989807
 20
1439.9075458334
 10
1324.8715568197
 20
1441.0718480415
 10
1325.6397608393
 20
1441.9722627335
 10
1326.6034203304
 20
1442.5798498404
 10
1327.731562484
 20
1442.8750810126
 10
1328.987927883
 20
1442.8484672773
 10
1330.3321359098
 20
1442.5008640219
 10
1331.7209826123
 20
1441.8434435011
  0
LWPOLYLINE
  5
145
330
1F
100
AcDbEntity
  8
1
  6
SLD-Сплошная
100
AcDbPolyline
 90
       16
 70
   128
 43
0.0
 10
1334.549409737
 20
1445.9258821604
 10
1336.1374003997
 20
1444.8611188171
 10
1337.6842629383
 20
1443.5278605915
 10
1339.1499344256
 20
1441.9606381712
 10
1340.4964547401
 20
1440.2000417937
 10
1341.6889497128
 20
1438.2916699805
 10
1342.6965343504
 20
1436.2849485589
 10
1343.4931127399
 20
1434.2318505598
 10
1344.0580539197
 20
1432.1855501429
 10
1344.3767262097
 20
1430.1990454142
 10
1344.4408761652
 20
1428.3237858026
 10
1344.2488423359
 20
1426.608339547
 10
1343.8055982972
 20
1425.0971358044
 10
1343.1226238368
 20
1423.8293139579
 10
1342.2176076345
 20
1422.8377099275
 10
1341.5488408655
 20
1422.3696267207
  0
ARC
  5
146
330
1F
100
AcDbEntity
  8
1
  6
SLD-Сплошная
100
AcDbCircle
 10
1330.4395158219
 20
1440.110523863
 30
0.0
 40
7.121068748505238
100
AcDbArc
 50
54.7499671021
 51
113.9395744688
  0
LWPOLYLINE
  5
147
330
1F
100
AcDbEntity
  8
1
  6
SLD-Сплошная
100
AcDbPolyline
 90
       30
 70
   128
 43
0.0
 10
1331.7209826123
 20
1439.3938210654
 10
1332.9370390605
 20
1438.5390844573
 10
1334.0962340608
 20
1437.4188700562
 10
1335.1443649432
 20
1436.0855578426
 10
1336.0324222726
 20
1434.6014920137
 10
1336.7188814754
 20
1433.0360658382
 10
1337.1716444821
 20
1431.4624769042
 10
1337.3695405977
 20
1429.9543044814
 10
1337.3033164198
 20
1428.582069036
 10
1336.9760685175
 20
1427.4099347724
 10
1336.4030986388
 20
1426.492709386
 10
1335.6111982185
 20
1425.8732813163
 10
1334.6373956401
 20
1425.5806143317
 10
1333.5272248299
 20
1425.6283932148
 10
1332.3325961411
 20
1426.0143838783
 10
1331.1093690835
 20
1426.7205378278
 10
1329.9147403947
 20
1427.7138360894
 10
1328.8045695845
 20
1428.9478331403
 10
1327.8307670061
 20
1430.36482865
 10
1327.0388665858
 20
1431.8985654832
 10
1326.4658967071
 20
1433.4773278104
 10
1326.1386488047
 20
1435.0272944597
 10
1326.0724246269
 20
1436.4759907133
 10
1326.2703207425
 20
1437.7556771445
 10
1326.7230837492
 20
1438.806517038
 10
1327.4095429519
 20
1439.5793742883
 10
1328.2976002814
 20
1440.0381109494
 10
1329.3457311638
 20
1440.1612770049
 10
1330.5049261641
 20
1439.9431133468
 10
1331.7209826123
 20
1439.3938210654
  0
LWPOLYLINE
  5
148
330
1F
100
AcDbEntity
  8
1
  6
SLD-Сплошная
100
AcDbPolyline
 90
       12
 70
   128
 43
0.0
 10
1337.1449375123
 20
1427.875231517
 10
1336.1509727595
 20
1428.2186857803
 10
1334.9277457019
 20
1428.9248397297
 10
1333.7331170131
 20
1429.9181379913
 10
1332.6229462029
 20
1431.1521350422
 10
1331.6491436245
 20
1432.5691305519
 10
1330.8572432042
 20
1434.1028673852
 10
1330.2842733255
 20
1435.6816297123
 10
1329.9570254232
 20
1437.2315963616
 10
1329.8908012453
 20
1438.6802926152
 10
1330.0886973609
 20
1439.9599790464
 10
1330.1154043307
 20
1440.0520595256
  0
LINE
  5
149
330
1F
100
AcDbEntity
  8
1
  6
SLD-Сплошная
100
AcDbLine
 10
1332.5175364978
 20
1437.5174026904
 30
0.0
 11
1333.8919902626
 21
1437.6402995686
 31
0.0
  0
LINE
  5
14A
330
1F
100
AcDbEntity
  8
1
  6
SLD-Сплошная
100
AcDbLine
 10
1332.5175364978
 20
1437.5174026904
 30
0.0
 11
1332.3711305221
 21
1437.4722044385
 31
0.0
  0
LWPOLYLINE
  5
14B
330
1F
100
AcDbEntity
  8
1
  6
SLD-Сплошная
100
AcDbPolyline
 90
        9
 70
   128
 43
0.0
 10
1334.8228842364
 20
1430.144470241
 10
1334.9934249251
 20
1429.9644464249
 10
1335.176437627
 20
1429.8309724875
 10
1335.3594503289
 20
1429.753144457
 10
1335.5299910176
 20
1429.7362661851
 10
1335.676437627
 20
1429.7814878982
 10
1335.7888100627
 20
1429.8857278111
 10
1335.8594503289
 20
1430.0418821462
 10
1335.8835444082
 20
1430.2393092435
  0
LINE
  5
14C
330
1F
100
AcDbEntity
  8
1
  6
SLD-Сплошная
100
AcDbLine
 10
1330.820480223
 20
1435.1234227836
 30
0.0
 11
1334.8228842364
 21
1430.144470241
 31
0.0
  0
LWPOLYLINE
  5
14D
330
1F
100
AcDbEntity
  8
1
  6
SLD-Сплошная
100
AcDbPolyline
 90
        9
 70
   128
 43
0.0
 10
1330.820480223
 20
1436.5377129562
 10
1330.6740336136
 20
1436.4924912432
 10
1330.5616611779
 20
1436.3882513302
 10
1330.4910209117
 20
1436.2320969951
 10
1330.4669268324
 20
1436.0346698978
 10
1330.4910209117
 20
1435.8094243687
 10
1330.5616611779
 20
1435.5717105183
 10
1330.6740336136
 20
1435.3377281528
 10
1330.820480223
 20
1435.1234227836
  0
LINE
  5
14E
330
1F
100
AcDbEntity
  8
1
  6
SLD-Сплошная
100
AcDbLine
 10
1334.5604225214
 20
1436.8721201549
 30
0.0
 11
1330.820480223
 21
1436.5377129562
 31
0.0
  0
LINE
  5
14F
330
1F
100
AcDbEntity
  8
1
  6
SLD-Сплошная
100
AcDbLine
 10
1335.8835444082
 20
1430.2393092435
 30
0.0
 11
1335.8835444082
 21
1434.8818714248
 31
0.0
  0
ARC
  5
150
330
1F
100
AcDbEntity
  8
1
  6
SLD-Сплошная
100
AcDbCircle
 10
1588.3993179794
 20
1157.6425608752
 30
0.0
 40
2.603316187504937
100
AcDbArc
 50
37.9787348637
 51
58.8941006488
  0
ARC
  5
151
330
1F
100
AcDbEntity
  8
1
  6
SLD-Сплошная
100
AcDbCircle
 10
1589.5022419893
 20
1158.0987530428
 30
0.0
 40
3.07360961514551
100
AcDbArc
 50
2.6054784857
 51
57.39452166
  0
SPLINE
  5
152
330
1F
100
AcDbEntity
  8
1
  6
SLD-Сплошная
100
AcDbSpline
210
0.0
220
0.0
230
1.0
 70
     8
 71
     3
 72
    12
 73
     8
 74
     0
 42
0.00000001
 43
0.00000001
 40
0.0
 40
0.0
 40
0.0
 40
0.0
 40
0.0038128522418986
 40
0.1589839410707333
 40
0.5234324970000654
 40
0.7821768889117955
 40
1.0
 40
1.0
 40
1.0
 40
1.0
 10
1591.86556741084
 20
1157.830270691386
 30
0.0
 10
1591.864348172725
 20
1157.831556972304
 30
0.0
 10
1591.813509779767
 20
1157.885190839229
 30
0.0
 10
1591.627851051699
 20
1158.072189764837
 30
0.0
 10
1591.274127417636
 20
1158.403833665958
 30
0.0
 10
1590.813123577356
 20
1158.833834430531
 30
0.0
 10
1590.564837248509
 20
1159.115720255102
 30
0.0
 10
1590.451353848466
 20
1159.244560864025
 30
0.0
  0
SPLINE
  5
153
330
1F
100
AcDbEntity
  8
1
  6
SLD-Сплошная
100
AcDbSpline
210
0.0
220
0.0
230
1.0
 70
     8
 71
     3
 72
    12
 73
     8
 74
     0
 42
0.00000001
 43
0.00000001
 40
0.0
 40
0.0
 40
0.0
 40
0.0
 40
0.2178231110882048
 40
0.4765675029999344
 40
0.8410160589292623
 40
0.9961871477580917
 40
1.0
 40
1.0
 40
1.0
 40
1.0
 10
1590.451353848463
 20
1110.689695053146
 30
0.0
 10
1590.564837248505
 20
1110.719110725509
 30
0.0
 10
1590.813123577353
 20
1110.7834682377
 30
0.0
 10
1591.274127417633
 20
1111.161494524138
 30
0.0
 10
1591.627851051694
 20
1111.630082908548
 30
0.0
 10
1591.813509779765
 20
1111.989167015069
 30
0.0
 10
1591.864348172722
 20
1112.101296076551
 30
0.0
 10
1591.865567410836
 20
1112.103985225785
 30
0.0
  0
LWPOLYLINE
  5
154
330
1F
100
AcDbEntity
  8
1
  6
SLD-Сплошная
100
AcDbPolyline
 90
        9
 70
   128
 43
0.0
 10
1587.9658199426
 20
1139.7074892513
 10
1588.3283843449
 20
1139.2013418199
 10
1588.9527166804
 20
1138.0689671181
 10
1589.3735388278
 20
1136.8881909603
 10
1589.5596403337
 20
1135.7465861125
 10
1589.4972189007
 20
1134.7288201837
 10
1589.1909040409
 20
1133.9103762169
 10
1588.6634137262
 20
1133.351954457
 10
1587.9658199426
 20
1133.0965030296
  0
ARC
  5
155
330
1F
100
AcDbEntity
  8
1
  6
SLD-Сплошная
100
AcDbCircle
 10
1590.4008699675
 20
1111.9158070806
 30
0.0
 40
1.227150897865684
100
AcDbArc
 50
237.6507184097
 51
272.3577620584
  0
LINE
  5
156
330
1F
100
AcDbEntity
  8
1
  6
SLD-Сплошная
100
AcDbLine
 10
1587.9658199426
 20
1111.9057717839
 30
0.0
 11
1589.7442470673
 21
1110.8791076579
 31
0.0
  0
LINE
  5
157
330
1F
100
AcDbEntity
  8
1
  6
SLD-Сплошная
100
AcDbLine
 10
1587.9658199426
 20
1160.898220497
 30
0.0
 11
1589.7442470673
 21
1159.8715563711
 31
0.0
  0
LINE
  5
158
330
1F
100
AcDbEntity
  8
1
  6
SLD-Сплошная
100
AcDbLine
 10
1587.9658199426
 20
1162.5310367207
 30
0.0
 11
1591.1584606297
 21
1160.6879644829
 31
0.0
  0
LINE
  5
159
330
1F
100
AcDbEntity
  8
1
  6
SLD-Сплошная
100
AcDbLine
 10
1592.572674192
 20
1112.5121892817
 30
0.0
 11
1592.572674192
 21
1158.2384747473
 31
0.0
  0
ARC
  5
15A
330
1F
100
AcDbEntity
  8
1
  6
SLD-Сплошная
100
AcDbCircle
 10
1591.6213030799
 20
1112.3910612246
 30
0.0
 40
0.9590510930661154
100
AcDbArc
 50
304.0563508403
 51
7.2558295531
  0
LWPOLYLINE
  5
15B
330
1F
100
AcDbEntity
  8
1
  6
SLD-Сплошная
100
AcDbPolyline
 90
        9
 70
   128
 43
0.0
 10
1587.9252249266
 20
1476.1820832647
 10
1588.5087131613
 20
1476.3797764404
 10
1589.0635318814
 20
1476.9153402779
 10
1589.387070167
 20
1477.7302529652
 10
1589.4531168704
 20
1478.7584951228
 10
1589.2563212806
 20
1479.9167646863
 10
1588.8126266057
 20
1481.1112255442
 10
1588.1579783496
 20
1482.2451095814
 10
1587.9658199425
 20
1482.5100204588
  0
LWPOLYLINE
  5
15C
330
1F
100
AcDbEntity
  8
1
  6
SLD-Сплошная
100
AcDbPolyline
 90
        8
 70
   128
 43
0.0
 10
1588.7915558738
 20
1476.5430580628
 10
1589.3463745939
 20
1477.0786219003
 10
1589.6699128795
 20
1477.8935345876
 10
1589.7359595829
 20
1478.9217767452
 10
1589.539163993
 20
1480.0800463087
 10
1589.0954693182
 20
1481.2745071666
 10
1588.4408210621
 20
1482.4083912038
 10
1587.9658199425
 20
1483.023825479
  0
LWPOLYLINE
  5
15D
330
1F
100
AcDbEntity
  8
1
  6
SLD-Сплошная
100
AcDbPolyline
 90
        8
 70
   128
 43
0.0
 10
1587.9658199426
 20
1133.1358727313
 10
1588.1551597708
 20
1133.2285334204
 10
1588.7099784908
 20
1133.7640972579
 10
1589.0335167764
 20
1134.5790099452
 10
1589.0995634798
 20
1135.6072521028
 10
1588.90276789
 20
1136.7655216663
 10
1588.4590732151
 20
1137.9599825242
 10
1588.0065097331
 20
1138.7874730964
  0
LWPOLYLINE
  5
15E
330
1F
100
AcDbEntity
  8
1
  6
SLD-Сплошная
100
AcDbPolyline
 90
        8
 70
   128
 43
0.0
 10
1588.4380024832
 20
1133.3918150427
 10
1588.9928212033
 20
1133.9273788803
 10
1589.3163594889
 20
1134.7422915676
 10
1589.3824061923
 20
1135.7705337252
 10
1589.1856106024
 20
1136.9288032887
 10
1588.7419159276
 20
1138.1232641465
 10
1588.0872676715
 20
1139.2571481838
 10
1587.9658199426
 20
1139.4273083195
  0
ARC
  5
15F
330
1F
100
AcDbEntity
  8
1
  6
SLD-Сплошная
100
AcDbCircle
 10
1588.75287137
 20
1500.7938038952
 30
0.0
 40
2.603316187517886
100
AcDbArc
 50
37.9787348638
 51
58.8941006487
  0
ARC
  5
160
330
1F
100
AcDbEntity
  8
1
  6
SLD-Сплошная
100
AcDbCircle
 10
1589.5022419893
 20
1501.0458940348
 30
0.0
 40
3.073609615143583
100
AcDbArc
 50
2.6054784857
 51
57.39452166
  0
SPLINE
  5
161
330
1F
100
AcDbEntity
  8
1
  6
SLD-Сплошная
100
AcDbSpline
210
0.0
220
0.0
230
1.0
 70
     8
 71
     3
 72
    12
 73
     8
 74
     0
 42
0.00000001
 43
0.00000001
 40
0.0
 40
0.0
 40
0.0
 40
0.0
 40
0.0038128522419083
 40
0.1589839410707364
 40
0.523432497000071
 40
0.7821768889117897
 40
1.0
 40
1.0
 40
1.0
 40
1.0
 10
1592.219120801429
 20
1500.981513711394
 30
0.0
 10
1592.217901563315
 20
1500.982799992312
 30
0.0
 10
1592.167063170358
 20
1501.036433859236
 30
0.0
 10
1591.981404442289
 20
1501.223432784846
 30
0.0
 10
1591.627680808226
 20
1501.555076685966
 30
0.0
 10
1591.166676967946
 20
1501.985077450539
 30
0.0
 10
1590.918390639099
 20
1502.26696327511
 30
0.0
 10
1590.804907239056
 20
1502.395803884033
 30
0.0
  0
SPLINE
  5
162
330
1F
100
AcDbEntity
  8
1
  6
SLD-Сплошная
100
AcDbSpline
210
0.0
220
0.0
230
1.0
 70
     8
 71
     3
 72
    12
 73
     8
 74
     0
 42
0.00000001
 43
0.00000001
 40
0.0
 40
0.0
 40
0.0
 40
0.0
 40
0.2178231110882009
 40
0.4765675029999264
 40
0.8410160589292643
 40
0.9961871477581015
 40
1.0
 40
1.0
 40
1.0
 40
1.0
 10
1590.80490723906
 20
1453.84093807315
 30
0.0
 10
1590.918390639102
 20
1453.870353745513
 30
0.0
 10
1591.16667696795
 20
1453.934711257704
 30
0.0
 10
1591.627680808229
 20
1454.312737544142
 30
0.0
 10
1591.981404442293
 20
1454.781325928551
 30
0.0
 10
1592.16706317036
 20
1455.140410035074
 30
0.0
 10
1592.217901563318
 20
1455.252539096555
 30
0.0
 10
1592.219120801433
 20
1455.25522824579
 30
0.0
  0
ARC
  5
163
330
1F
100
AcDbEntity
  8
1
  6
SLD-Сплошная
100
AcDbCircle
 10
1590.7544233581
 20
1455.0670501006
 30
0.0
 40
1.227150897864566
100
AcDbArc
 50
237.6507184097
 51
272.3577620584
  0
LINE
  5
164
330
1F
100
AcDbEntity
  8
1
  6
SLD-Сплошная
100
AcDbLine
 10
1587.9658199425
 20
1455.2611168318
 30
0.0
 11
1590.0978004579
 21
1454.0303506779
 31
0.0
  0
LINE
  5
165
330
1F
100
AcDbEntity
  8
1
  6
SLD-Сплошная
100
AcDbLine
 10
1587.9658199425
 20
1504.253565545
 30
0.0
 11
1590.0978004579
 21
1503.0227993911
 31
0.0
  0
LINE
  5
166
330
1F
100
AcDbEntity
  8
1
  6
SLD-Сплошная
100
AcDbLine
 10
1587.9658199425
 20
1505.4781777127
 30
0.0
 11
1591.1584606296
 21
1503.6351054749
 31
0.0
  0
LINE
  5
167
330
1F
100
AcDbEntity
  8
1
  6
SLD-Сплошная
100
AcDbLine
 10
1592.572674192
 20
1455.4593302737
 30
0.0
 11
1592.572674192
 21
1501.1856157393
 31
0.0
  0
ARC
  5
168
330
1F
100
AcDbEntity
  8
1
  6
SLD-Сплошная
100
AcDbCircle
 10
1591.621303081
 20
1455.3382022162
 30
0.0
 40
0.9590510920490463
100
AcDbArc
 50
304.0563508028
 51
7.2558295905
  0
ARC
  5
169
330
1F
100
AcDbEntity
  8
1
  6
SLD-Сплошная
100
AcDbCircle
 10
1658.2975172901
 20
1130.0828771852
 30
0.0
 40
0.7434844047174091
100
AcDbArc
 50
301.6059350556
 51
358.399441027
  0
LINE
  5
16A
330
1F
100
AcDbEntity
  8
1
  6
SLD-Сплошная
100
AcDbLine
 10
1532.8094190469
 20
1108.9769109722
 30
0.0
 11
1532.8928634128
 21
1108.9172059919
 31
0.0
  0
ARC
  5
16B
330
1F
100
AcDbEntity
  8
1
  6
SLD-Сплошная
100
AcDbCircle
 10
1533.3097267509
 20
1109.5637676042
 30
0.0
 40
0.7711734599219093
100
AcDbArc
 50
182.5358479492
 51
229.5517055477
  0
LINE
  5
16C
330
1F
100
AcDbEntity
  8
0
  6
SLD-Сплошная
 62
     8
370
    18
100
AcDbLine
 10
1596.8153148792
 20
1549.3616563406
 30
0.0
 11
1596.8153148792
 21
1062.7033324567
 31
0.0
  0
LINE
  5
16D
330
1F
100
AcDbEntity
  8
0
  6
SLD-Сплошная
 62
     8
370
    18
100
AcDbLine
 10
1593.9868877544
 20
1062.7610706113
 30
0.0
 11
1593.9868877544
 21
1549.3039181861
 31
0.0
  0
LINE
  5
16E
330
1F
100
AcDbEntity
  8
0
  6
SLD-Сплошная
 62
     8
370
    18
100
AcDbLine
 10
1315.3868159669
 20
1713.4599522171
 30
0.0
 11
1595.4011013168
 21
1551.8111460762
 31
0.0
  0
LINE
  5
16F
330
1F
100
AcDbEntity
  8
0
  6
SLD-Сплошная
 62
     8
370
    18
100
AcDbLine
 10
1593.9368877544
 20
1549.3905207262
 30
0.0
 11
1314.0226024045
 21
1710.981598096
 31
0.0
  0
LINE
  5
170
330
1F
100
AcDbEntity
  8
0
  6
SLD-Сплошная
 62
     8
370
    18
100
AcDbLine
 10
1750.6110397872
 20
1641.4119363488
 30
0.0
 11
1595.4011013168
 21
1551.8111460762
 31
0.0
  0
LINE
  5
171
330
1F
100
AcDbEntity
  8
0
  6
SLD-Сплошная
 62
     8
370
    18
100
AcDbLine
 10
1752.0252533496
 20
1638.9624466132
 30
0.0
 11
1596.8153148792
 21
1549.3616563406
 31
0.0
  0
LINE
  5
172
330
1F
100
AcDbEntity
  8
0
  6
SLD-Сплошная
 62
     8
370
    18
100
AcDbLine
 10
1752.0252533496
 20
1638.9624466132
 30
0.0
 11
1752.0252533496
 21
1152.3041227293
 31
0.0
  0
LINE
  5
173
330
1F
100
AcDbEntity
  8
0
  6
SLD-Сплошная
 62
     8
370
    18
100
AcDbLine
 10
1752.0252533496
 20
1152.3041227293
 30
0.0
 11
1596.8153148792
 21
1062.7033324567
 31
0.0
  0
LINE
  5
174
330
1F
100
AcDbEntity
  8
0
  6
SLD-Сплошная
 62
     8
370
    18
100
AcDbLine
 10
1470.5967544374
 20
1803.0607424897
 30
0.0
 11
1315.3868159669
 21
1713.4599522171
 31
0.0
  0
LINE
  5
175
330
1F
100
AcDbEntity
  8
0
  6
SLD-Сплошная
 62
     8
370
    18
100
AcDbLine
 10
1470.5967544374
 20
1803.0607424897
 30
0.0
 11
1750.6110397872
 21
1641.4119363488
 31
0.0
  0
LINE
  5
176
330
1F
100
AcDbEntity
  8
0
  6
SLD-Сплошная
 62
     8
370
    18
100
AcDbLine
 10
1581.2449697546
 20
1542.8362152283
 30
0.0
 11
1580.8450636738
 21
1543.0670760947
 31
0.0
  0
LINE
  5
177
330
1F
100
AcDbEntity
  8
0
  6
SLD-Сплошная
 62
     8
370
    18
100
AcDbLine
 10
1579.7947521307
 20
1542.0404591187
 30
0.0
 11
1579.4307351773
 21
1542.2506016329
 31
0.0
  0
LINE
  5
178
330
1F
100
AcDbEntity
  8
0
  6
SLD-Сплошная
 62
     8
370
    18
100
AcDbLine
 10
1579.7947521307
 20
1541.9990224141
 30
0.0
 11
1579.7947521307
 21
1542.0404591187
 31
0.0
  0
LINE
  5
179
330
1F
100
AcDbEntity
  8
0
  6
SLD-Сплошная
 62
     8
370
    18
100
AcDbLine
 10
1313.9726024045
 20
1710.9527243271
 30
0.0
 11
1313.9726024045
 21
1705.1200416478
 31
0.0
  0
LINE
  5
17A
330
1F
100
AcDbEntity
  8
0
  6
SLD-Сплошная
 62
     8
370
    18
100
AcDbLine
 10
1593.9368877544
 20
1062.7321968423
 30
0.0
 11
1587.9658199426
 21
1066.1792209181
 31
0.0
  0
LINE
  5
17B
330
1F
100
AcDbEntity
  8
0
  6
SLD-Сплошная
 62
     8
370
    18
100
AcDbLine
 10
1576.8749036497
 20
1539.4970216531
 30
0.0
 11
1576.1677968685
 21
1539.905225709
 31
0.0
  0
LINE
  5
17C
330
1F
100
AcDbEntity
  8
0
  6
SLD-Сплошная
 62
     8
370
    18
100
AcDbLine
 10
1576.8749036497
 20
1539.4970216531
 30
0.0
 11
1576.8749036497
 21
1054.1171438172
 31
0.0
  0
LINE
  5
17D
330
1F
100
AcDbEntity
  8
0
  6
SLD-Сплошная
 62
     8
370
    18
100
AcDbLine
 10
1573.0565270313
 20
1538.3398548909
 30
0.0
 11
1573.0565270313
 21
1055.2743105793
 31
0.0
  0
LINE
  5
17E
330
1F
100
AcDbEntity
  8
0
  6
SLD-Сплошная
 62
     8
370
    18
100
AcDbLine
 10
1297.567725081
 20
1697.376155074
 30
0.0
 11
1573.0565270313
 21
1538.3398548909
 31
0.0
  0
LINE
  5
17F
330
1F
100
AcDbEntity
  8
0
  6
SLD-Сплошная
 62
     8
370
    18
100
AcDbLine
 10
1298.4748318622
 20
1701.2614555696
 30
0.0
 11
1575.9677968685
 21
1541.0681766814
 31
0.0
  0
LINE
  5
180
330
1F
100
AcDbEntity
  8
0
  6
SLD-Сплошная
 62
     8
370
    18
100
AcDbLine
 10
1575.9677968685
 20
1541.0681766814
 30
0.0
 11
1575.9677968685
 21
1540.2516358695
 31
0.0
  0
LINE
  5
181
330
1F
100
AcDbEntity
  8
0
  6
SLD-Сплошная
 62
     8
370
    18
100
AcDbLine
 10
1587.6582820628
 20
1545.7221335057
 30
0.0
 11
1587.6582820628
 21
1060.3422556698
 31
0.0
  0
LINE
  5
182
330
1F
100
AcDbEntity
  8
0
  6
SLD-Сплошная
 62
     8
370
    18
100
AcDbLine
 10
1309.2582102753
 20
1707.4865674223
 30
0.0
 11
1586.7511752816
 21
1547.293288534
 31
0.0
  0
LINE
  5
183
330
1F
100
AcDbEntity
  8
0
  6
SLD-Сплошная
 62
     8
370
    18
100
AcDbLine
 10
1297.567725081
 20
1214.3106107623
 30
0.0
 11
1573.0565270313
 21
1055.2743105793
 31
0.0
  0
LINE
  5
184
330
1F
100
AcDbEntity
  8
0
  6
SLD-Сплошная
 62
     8
370
    18
100
AcDbLine
 10
1297.567725081
 20
1697.376155074
 30
0.0
 11
1297.567725081
 21
1214.3106107623
 31
0.0
  0
LINE
  5
185
330
1F
100
AcDbEntity
  8
0
  6
SLD-Сплошная
 62
     8
370
    18
100
AcDbLine
 10
1297.567725081
 20
1700.737623738
 30
0.0
 11
1297.803357477
 21
1700.6015960512
 31
0.0
  0
LINE
  5
186
330
1F
100
AcDbEntity
  8
0
  6
SLD-Сплошная
 62
     8
370
    18
100
AcDbLine
 10
1575.9677968685
 20
1053.5933119856
 30
0.0
 11
1575.9677968685
 21
1053.8656293977
 31
0.0
  0
LINE
  5
187
330
1F
100
AcDbEntity
  8
0
  6
SLD-Сплошная
 62
     8
370
    18
100
AcDbLine
 10
1335.8835444082
 20
1430.2393092435
 30
0.0
 11
1337.2534285842
 21
1431.0301265453
 31
0.0
  0
LINE
  5
188
330
1F
100
AcDbEntity
  8
0
  6
SLD-Сплошная
 62
     8
370
    18
100
AcDbLine
 10
1332.5175364978
 20
1437.5174026904
 30
0.0
 11
1330.820480223
 21
1436.5377129562
 31
0.0
  0
LINE
  5
189
330
1F
100
AcDbEntity
  8
0
  6
SLD-Сплошная
 62
     8
370
    18
100
AcDbLine
 10
1589.7442470673
 20
1159.8715563711
 30
0.0
 11
1591.1584606297
 21
1160.6879644829
 31
0.0
  0
LINE
  5
18A
330
1F
100
AcDbEntity
  8
0
  6
SLD-Сплошная
 62
     8
370
    18
100
AcDbLine
 10
1592.572674192
 20
1158.2384747473
 30
0.0
 11
1591.8655674108
 21
1157.8302706914
 31
0.0
  0
LINE
  5
18B
330
1F
100
AcDbEntity
  8
0
  6
SLD-Сплошная
 62
     8
370
    18
100
AcDbLine
 10
1590.4513538485
 20
1159.244560864
 30
0.0
 11
1590.4513538485
 21
1110.6896950531
 31
0.0
  0
LINE
  5
18C
330
1F
100
AcDbEntity
  8
0
  6
SLD-Сплошная
 62
     8
370
    18
100
AcDbLine
 10
1591.8655674108
 20
1157.8302706914
 30
0.0
 11
1591.8655674108
 21
1112.1039852258
 31
0.0
  0
LINE
  5
18D
330
1F
100
AcDbEntity
  8
0
  6
SLD-Сплошная
 62
     8
370
    18
100
AcDbLine
 10
1591.8655674108
 20
1112.1039852258
 30
0.0
 11
1592.572674192
 21
1112.5121892817
 31
0.0
  0
LINE
  5
18E
330
1F
100
AcDbEntity
  8
0
  6
SLD-Сплошная
 62
     8
370
    18
100
AcDbLine
 10
1590.0978004579
 20
1503.0227993911
 30
0.0
 11
1591.1584606296
 21
1503.6351054749
 31
0.0
  0
LINE
  5
18F
330
1F
100
AcDbEntity
  8
0
  6
SLD-Сплошная
 62
     8
370
    18
100
AcDbLine
 10
1592.572674192
 20
1501.1856157393
 30
0.0
 11
1592.2191208014
 21
1500.9815137114
 31
0.0
  0
LINE
  5
190
330
1F
100
AcDbEntity
  8
0
  6
SLD-Сплошная
 62
     8
370
    18
100
AcDbLine
 10
1590.8049072391
 20
1502.395803884
 30
0.0
 11
1590.8049072391
 21
1453.8409380731
 31
0.0
  0
LINE
  5
191
330
1F
100
AcDbEntity
  8
0
  6
SLD-Сплошная
 62
     8
370
    18
100
AcDbLine
 10
1592.2191208014
 20
1500.9815137114
 30
0.0
 11
1592.2191208014
 21
1455.2552282458
 31
0.0
  0
LINE
  5
192
330
1F
100
AcDbEntity
  8
0
  6
SLD-Сплошная
 62
     8
370
    18
100
AcDbLine
 10
1592.2191208014
 20
1455.2552282458
 30
0.0
 11
1592.572674192
 21
1455.4593302737
 31
0.0
  0
LINE
  5
193
330
1F
100
AcDbEntity
  8
1
  6
SLD-Сплошная
100
AcDbLine
 10
595.3857448785
 20
1479.1958155776
 30
0.0
 11
987.8251094534
 21
1479.1958155776
 31
0.0
  0
LINE
  5
194
330
1F
100
AcDbEntity
  8
1
  6
SLD-Сплошная
100
AcDbLine
 10
607.9554271659
 20
1472.0958155776
 30
0.0
 11
607.9554271659
 21
1473.2611916163
 31
0.0
  0
LINE
  5
195
330
1F
100
AcDbEntity
  8
1
  6
SLD-Сплошная
100
AcDbLine
 10
597.8554271659
 20
1473.2611916163
 30
0.0
 11
597.8554271659
 21
1472.0958155776
 31
0.0
  0
ARC
  5
196
330
1F
100
AcDbEntity
  8
1
  6
SLD-Сплошная
100
AcDbCircle
 10
607.7554271659
 20
1473.2611916163
 30
0.0
 40
0.1999999999999318
100
AcDbArc
 50
0.0
 51
68.1849373759
  0
ARC
  5
197
330
1F
100
AcDbEntity
  8
1
  6
SLD-Сплошная
100
AcDbCircle
 10
598.0554271659
 20
1473.2611916163
 30
0.0
 40
0.2000000000000455
100
AcDbArc
 50
111.8150626241
 51
180.0000000001
  0
ARC
  5
198
330
1F
100
AcDbEntity
  8
1
  6
SLD-Сплошная
100
AcDbCircle
 10
602.9054271659
 20
1461.1445655776
 30
0.0
 40
13.25125000000025
100
AcDbArc
 50
68.1849373759
 51
90.0
  0
ARC
  5
199
330
1F
100
AcDbEntity
  8
1
  6
SLD-Сплошная
100
AcDbCircle
 10
602.9054271659
 20
1461.1445655776
 30
0.0
 40
13.25125000000025
100
AcDbArc
 50
90.0
 51
111.8150626241
  0
LWPOLYLINE
  5
19A
330
1F
100
AcDbEntity
  8
1
  6
SLD-Сплошная
100
AcDbPolyline
 90
        3
 70
   128
 43
0.0
 10
988.005427166
 20
1489.0557835268
 10
988.0250132294
 20
1489.1062336932
 10
988.105427166
 20
1489.3536341083
  0
LWPOLYLINE
  5
19B
330
1F
100
AcDbEntity
  8
1
  6
SLD-Сплошная
100
AcDbPolyline
 90
        3
 70
   128
 43
0.0
 10
988.105427166
 20
1490.8379970469
 10
988.0250132294
 20
1491.0853974619
 10
988.005427166
 20
1491.1358476284
  0
LINE
  5
19C
330
1F
100
AcDbEntity
  8
1
  6
SLD-Сплошная
100
AcDbLine
 10
663.1054271659
 20
1498.1958155776
 30
0.0
 11
663.1054271659
 21
1499.1958155776
 31
0.0
  0
LINE
  5
19D
330
1F
100
AcDbEntity
  8
1
  6
SLD-Сплошная
100
AcDbLine
 10
635.1054271659
 20
1499.1958155776
 30
0.0
 11
635.1054271659
 21
1498.1958155776
 31
0.0
  0
LINE
  5
19E
330
1F
100
AcDbEntity
  8
1
  6
SLD-Сплошная
100
AcDbLine
 10
663.1054271659
 20
1499.1958155776
 30
0.0
 11
660.1054271659
 21
1502.1958155776
 31
0.0
  0
LINE
  5
19F
330
1F
100
AcDbEntity
  8
1
  6
SLD-Сплошная
100
AcDbLine
 10
638.1054271659
 20
1502.1958155776
 30
0.0
 11
635.1054271659
 21
1499.1958155776
 31
0.0
  0
LINE
  5
1A0
330
1F
100
AcDbEntity
  8
1
  6
SLD-Сплошная
100
AcDbLine
 10
976.3054271659
 20
1474.1958155776
 30
0.0
 11
976.4054271659
 21
1474.0958155776
 31
0.0
  0
LINE
  5
1A1
330
1F
100
AcDbEntity
  8
1
  6
SLD-Сплошная
100
AcDbLine
 10
985.4054271659
 20
1474.0958155776
 30
0.0
 11
985.5054271659
 21
1474.1958155776
 31
0.0
  0
LINE
  5
1A2
330
1F
100
AcDbEntity
  8
1
  6
SLD-Сплошная
100
AcDbLine
 10
976.3054271659
 20
1474.5958155776
 30
0.0
 11
976.3054271659
 21
1474.1958155776
 31
0.0
  0
LINE
  5
1A3
330
1F
100
AcDbEntity
  8
1
  6
SLD-Сплошная
100
AcDbLine
 10
985.5054271659
 20
1474.1958155776
 30
0.0
 11
985.5054271659
 21
1474.5958155776
 31
0.0
  0
LINE
  5
1A4
330
1F
100
AcDbEntity
  8
1
  6
SLD-Сплошная
100
AcDbLine
 10
593.0054271659
 20
1436.0958155776
 30
0.0
 11
592.9054271659
 21
1436.0958155776
 31
0.0
  0
LINE
  5
1A5
330
1F
100
AcDbEntity
  8
1
  6
SLD-Сплошная
100
AcDbLine
 10
592.9054271659
 20
1428.0958155776
 30
0.0
 11
593.0054271659
 21
1428.0958155776
 31
0.0
  0
LINE
  5
1A6
330
1F
100
AcDbEntity
  8
1
  6
SLD-Сплошная
100
AcDbLine
 10
592.9054271659
 20
1378.5458155776
 30
0.0
 11
593.0054271659
 21
1378.5458155776
 31
0.0
  0
LINE
  5
1A7
330
1F
100
AcDbEntity
  8
1
  6
SLD-Сплошная
100
AcDbLine
 10
593.0054271659
 20
1385.6458155776
 30
0.0
 11
592.9054271659
 21
1385.6458155776
 31
0.0
  0
LINE
  5
1A8
330
1F
100
AcDbEntity
  8
1
  6
SLD-Сплошная
100
AcDbLine
 10
946.9054271659
 20
1444.8458155776
 30
0.0
 11
636.9054271659
 21
1444.8458155776
 31
0.0
  0
ARC
  5
1A9
330
1F
100
AcDbEntity
  8
1
  6
SLD-Сплошная
100
AcDbCircle
 10
946.9054271659
 20
1427.3458155776
 30
0.0
 40
17.5
100
AcDbArc
 50
0.0
 51
90.0
  0
LINE
  5
1AA
330
1F
100
AcDbEntity
  8
1
  6
SLD-Сплошная
100
AcDbLine
 10
964.4054271659
 20
1292.3458155776
 30
0.0
 11
964.4054271659
 21
1427.3458155776
 31
0.0
  0
ARC
  5
1AB
330
1F
100
AcDbEntity
  8
1
  6
SLD-Сплошная
100
AcDbCircle
 10
636.9054271659
 20
1292.3458155776
 30
0.0
 40
17.5
100
AcDbArc
 50
180.0
 51
270.0
  0
LINE
  5
1AC
330
1F
100
AcDbEntity
  8
1
  6
SLD-Сплошная
100
AcDbLine
 10
619.4054271659
 20
1427.3458155776
 30
0.0
 11
619.4054271659
 21
1292.3458155776
 31
0.0
  0
ARC
  5
1AD
330
1F
100
AcDbEntity
  8
1
  6
SLD-Сплошная
100
AcDbCircle
 10
636.9054271659
 20
1427.3458155776
 30
0.0
 40
17.5
100
AcDbArc
 50
90.0
 51
180.0
  0
LINE
  5
1AE
330
1F
100
AcDbEntity
  8
1
  6
SLD-Сплошная
100
AcDbLine
 10
636.9054271659
 20
1274.8458155776
 30
0.0
 11
946.9054271659
 21
1274.8458155776
 31
0.0
  0
ARC
  5
1AF
330
1F
100
AcDbEntity
  8
1
  6
SLD-Сплошная
100
AcDbCircle
 10
946.9054271659
 20
1292.3458155776
 30
0.0
 40
17.5
100
AcDbArc
 50
270.0
 51
0.0
  0
LINE
  5
1B0
330
1F
100
AcDbEntity
  8
1
  6
SLD-Сплошная
100
AcDbLine
 10
593.9054271659
 20
1250.5958155776
 30
0.0
 11
593.0054271659
 21
1250.5958155776
 31
0.0
  0
LINE
  5
1B1
330
1F
100
AcDbEntity
  8
1
  6
SLD-Сплошная
100
AcDbLine
 10
593.0054271659
 20
1250.5958155776
 30
0.0
 11
593.0054271659
 21
1470.0958155776
 31
0.0
  0
LINE
  5
1B2
330
1F
100
AcDbEntity
  8
1
  6
SLD-Сплошная
100
AcDbLine
 10
593.0054271659
 20
1470.0958155776
 30
0.0
 11
593.9054271659
 21
1470.0958155776
 31
0.0
  0
ELLIPSE
  5
1B3
330
1F
100
AcDbEntity
  8
1
  6
SLD-Сплошная
100
AcDbEllipse
 10
594.476137844
 20
1250.5958155776
 30
0.0
 11
0.0
 21
2.500000000000227
 31
0.0
210
0.0
220
0.0
230
1.0
 40
0.6
 41
2.751284095330419
 42
3.141592653589793
  0
LINE
  5
1B4
330
1F
100
AcDbEntity
  8
1
  6
SLD-Сплошная
100
AcDbLine
 10
593.9054271659
 20
1250.5958155776
 30
0.0
 11
593.9054271659
 21
1248.2838363137
 31
0.0
  0
LINE
  5
1B5
330
1F
100
AcDbEntity
  8
1
  6
SLD-Сплошная
100
AcDbLine
 10
593.9054271659
 20
1250.5958155776
 30
0.0
 11
595.0054271659
 21
1250.5958155776
 31
0.0
  0
LINE
  5
1B6
330
1F
100
AcDbEntity
  8
1
  6
SLD-Сплошная
100
AcDbLine
 10
989.9054271659
 20
1248.2838363138
 30
0.0
 11
989.9054271659
 21
1250.5958155776
 31
0.0
  0
ELLIPSE
  5
1B7
330
1F
100
AcDbEntity
  8
1
  6
SLD-Сплошная
100
AcDbEllipse
 10
989.3347164878
 20
1250.5958155776
 30
0.0
 11
0.0
 21
2.500000000000227
 31
0.0
210
0.0
220
0.0
230
1.0
 40
0.6
 41
3.141592653589793
 42
3.531901211912032
  0
LINE
  5
1B8
330
1F
100
AcDbEntity
  8
1
  6
SLD-Сплошная
100
AcDbLine
 10
594.476137844
 20
1248.0958155776
 30
0.0
 11
989.3347164878
 21
1248.0958155776
 31
0.0
  0
LINE
  5
1B9
330
1F
100
AcDbEntity
  8
1
  6
SLD-Сплошная
100
AcDbLine
 10
991.9054271659
 20
1250.5958155776
 30
0.0
 11
991.9054271659
 21
1470.0958155776
 31
0.0
  0
LINE
  5
1BA
330
1F
100
AcDbEntity
  8
1
  6
SLD-Сплошная
100
AcDbLine
 10
989.9054271659
 20
1470.0958155776
 30
0.0
 11
991.9054271659
 21
1470.0958155776
 31
0.0
  0
LINE
  5
1BB
330
1F
100
AcDbEntity
  8
1
  6
SLD-Сплошная
100
AcDbLine
 10
989.9054271659
 20
1250.5958155776
 30
0.0
 11
991.9054271659
 21
1250.5958155776
 31
0.0
  0
LINE
  5
1BC
330
1F
100
AcDbEntity
  8
1
  6
SLD-Сплошная
100
AcDbLine
 10
989.8347164879
 20
1472.0958155776
 30
0.0
 11
593.976137844
 21
1472.0958155776
 31
0.0
  0
LINE
  5
1BD
330
1F
100
AcDbEntity
  8
1
  6
SLD-Сплошная
100
AcDbLine
 10
989.8347164879
 20
1472.0958155776
 30
0.0
 11
989.905427166
 21
1470.0958155776
 31
0.0
  0
LINE
  5
1BE
330
1F
100
AcDbEntity
  8
1
  6
SLD-Сплошная
100
AcDbLine
 10
593.9054271659
 20
1470.0958155776
 30
0.0
 11
593.976137844
 21
1472.0958155776
 31
0.0
  0
LINE
  5
1BF
330
1F
100
AcDbEntity
  8
1
  6
SLD-Сплошная
100
AcDbLine
 10
593.9054271659
 20
1470.0958155776
 30
0.0
 11
595.0054271659
 21
1470.0958155776
 31
0.0
  0
LINE
  5
1C0
330
1F
100
AcDbEntity
  8
1
  6
SLD-Сплошная
100
AcDbLine
 10
591.9054271659
 20
1250.5958155776
 30
0.0
 11
591.9054271659
 21
1470.0958155776
 31
0.0
  0
LINE
  5
1C1
330
1F
100
AcDbEntity
  8
1
  6
SLD-Сплошная
100
AcDbLine
 10
592.9054271659
 20
1470.0958155776
 30
0.0
 11
591.9054271659
 21
1470.0958155776
 31
0.0
  0
LINE
  5
1C2
330
1F
100
AcDbEntity
  8
1
  6
SLD-Сплошная
100
AcDbLine
 10
592.9054271659
 20
1250.5958155776
 30
0.0
 11
592.9054271659
 21
1470.0958155776
 31
0.0
  0
LINE
  5
1C3
330
1F
100
AcDbEntity
  8
1
  6
SLD-Сплошная
100
AcDbLine
 10
593.4542427025
 20
1248.2838363137
 30
0.0
 11
593.8347164879
 21
1249.2086280193
 31
0.0
  0
LINE
  5
1C4
330
1F
100
AcDbEntity
  8
1
  6
SLD-Сплошная
100
AcDbLine
 10
594.4054271659
 20
1248.0958155776
 30
0.0
 11
594.4054271659
 21
1248.0985949003
 31
0.0
  0
ARC
  5
1C5
330
1F
100
AcDbEntity
  8
1
  6
SLD-Сплошная
100
AcDbCircle
 10
594.4054271659
 20
1250.5958155776
 30
0.0
 40
2.500000000000004
100
AcDbArc
 50
247.6369669013
 51
270.0
  0
ARC
  5
1C6
330
1F
100
AcDbEntity
  8
1
  6
SLD-Сплошная
100
AcDbCircle
 10
594.4054271659
 20
1250.5958155776
 30
0.0
 40
1.500000000000227
100
AcDbArc
 50
180.0
 51
247.6369669013
  0
ARC
  5
1C7
330
1F
100
AcDbEntity
  8
1
  6
SLD-Сплошная
100
AcDbCircle
 10
594.4054271659
 20
1250.5958155776
 30
0.0
 40
2.500000000000004
100
AcDbArc
 50
180.0
 51
247.6369669013
  0
LINE
  5
1C8
330
1F
100
AcDbEntity
  8
1
  6
SLD-Сплошная
100
AcDbLine
 10
990.3566116295
 20
1248.2838363137
 30
0.0
 11
989.9761378441
 21
1249.2086280193
 31
0.0
  0
ARC
  5
1C9
330
1F
100
AcDbEntity
  8
1
  6
SLD-Сплошная
100
AcDbCircle
 10
989.4054271659
 20
1250.5958155776
 30
0.0
 40
1.500000000000114
100
AcDbArc
 50
292.3630330994
 51
0.0
  0
ARC
  5
1CA
330
1F
100
AcDbEntity
  8
1
  6
SLD-Сплошная
100
AcDbCircle
 10
989.4054271659
 20
1250.5958155776
 30
0.0
 40
2.500000000000114
100
AcDbArc
 50
292.3630330994
 51
0.0
  0
LINE
  5
1CB
330
1F
100
AcDbEntity
  8
1
  6
SLD-Сплошная
100
AcDbLine
 10
989.4054271659
 20
1248.0958155776
 30
0.0
 11
989.4054271659
 21
1248.0985949003
 31
0.0
  0
ARC
  5
1CC
330
1F
100
AcDbEntity
  8
1
  6
SLD-Сплошная
100
AcDbCircle
 10
989.4054271659
 20
1250.5958155776
 30
0.0
 40
2.499999999999951
100
AcDbArc
 50
270.0
 51
292.3630330994
  0
ARC
  5
1CD
330
1F
100
AcDbEntity
  8
1
  6
SLD-Сплошная
100
AcDbCircle
 10
593.9054271659
 20
1470.0958155776
 30
0.0
 40
2.0
100
AcDbArc
 50
90.0
 51
180.0
  0
LINE
  5
1CE
330
1F
100
AcDbEntity
  8
1
  6
SLD-Сплошная
100
AcDbLine
 10
593.9054271659
 20
1471.0958155776
 30
0.0
 11
593.9054271659
 21
1472.0958155776
 31
0.0
  0
ARC
  5
1CF
330
1F
100
AcDbEntity
  8
1
  6
SLD-Сплошная
100
AcDbCircle
 10
593.9054271659
 20
1470.0958155776
 30
0.0
 40
1.000000000000227
100
AcDbArc
 50
90.0
 51
180.0
  0
ARC
  5
1D0
330
1F
100
AcDbEntity
  8
1
  6
SLD-Сплошная
100
AcDbCircle
 10
989.9054271659
 20
1470.0958155776
 30
0.0
 40
2.0
100
AcDbArc
 50
0.0
 51
90.0
  0
ARC
  5
1D1
330
1F
100
AcDbEntity
  8
1
  6
SLD-Сплошная
100
AcDbCircle
 10
989.9054271659
 20
1470.0958155776
 30
0.0
 40
1.000000000000227
100
AcDbArc
 50
0.0
 51
90.0
  0
LINE
  5
1D2
330
1F
100
AcDbEntity
  8
1
  6
SLD-Сплошная
100
AcDbLine
 10
989.9054271659
 20
1471.0958155776
 30
0.0
 11
989.9054271659
 21
1472.0958155776
 31
0.0
  0
LINE
  5
1D3
330
1F
100
AcDbEntity
  8
1
  6
SLD-Сплошная
100
AcDbLine
 10
593.940782505
 20
1471.0958155776
 30
0.0
 11
593.9054271659
 21
1471.0958155776
 31
0.0
  0
LINE
  5
1D4
330
1F
100
AcDbEntity
  8
1
  6
SLD-Сплошная
100
AcDbLine
 10
593.976137844
 20
1472.0958155776
 30
0.0
 11
593.9054271659
 21
1472.0958155776
 31
0.0
  0
LINE
  5
1D5
330
1F
100
AcDbEntity
  8
1
  6
SLD-Сплошная
100
AcDbLine
 10
989.9054271659
 20
1472.0958155776
 30
0.0
 11
989.8347164879
 21
1472.0958155776
 31
0.0
  0
LINE
  5
1D6
330
1F
100
AcDbEntity
  8
1
  6
SLD-Сплошная
100
AcDbLine
 10
989.9054271659
 20
1471.0958155776
 30
0.0
 11
989.8700718269
 21
1471.0958155776
 31
0.0
  0
LINE
  5
1D7
330
1F
100
AcDbEntity
  8
1
  6
SLD-Сплошная
100
AcDbLine
 10
594.476137844
 20
1248.0958155776
 30
0.0
 11
594.4054271659
 21
1248.0958155776
 31
0.0
  0
LINE
  5
1D8
330
1F
100
AcDbEntity
  8
1
  6
SLD-Сплошная
100
AcDbLine
 10
989.4054271659
 20
1248.0958155776
 30
0.0
 11
989.3347164878
 21
1248.0958155776
 31
0.0
  0
ELLIPSE
  5
1D9
330
1F
100
AcDbEntity
  8
1
  6
SLD-Сплошная
100
AcDbEllipse
 10
972.8347164879
 20
1473.0958155776
 30
0.0
 11
1.999999999999886
 21
0.0
 31
0.0
210
0.0
220
0.0
230
1.0
 40
0.5
 41
3.141592653589793
 42
4.712388980384697
  0
ELLIPSE
  5
1DA
330
1F
100
AcDbEntity
  8
1
  6
SLD-Сплошная
100
AcDbEllipse
 10
610.976137844
 20
1473.0958155776
 30
0.0
 11
2.0
 21
0.0
 31
0.0
210
0.0
220
0.0
230
1.0
 40
0.5
 41
4.71238898038464
 42
6.283185307179586
  0
ARC
  5
1DB
330
1F
100
AcDbEntity
  8
1
  6
SLD-Сплошная
100
AcDbCircle
 10
610.9054271659
 20
1473.0958155776
 30
0.0
 40
1.000000000000227
100
AcDbArc
 50
270.0
 51
0.0
  0
ARC
  5
1DC
330
1F
100
AcDbEntity
  8
1
  6
SLD-Сплошная
100
AcDbCircle
 10
610.9054271659
 20
1473.0958155776
 30
0.0
 40
2.000000000000027
100
AcDbArc
 50
351.2995225075
 51
0.0
  0
ARC
  5
1DD
330
1F
100
AcDbEntity
  8
1
  6
SLD-Сплошная
100
AcDbCircle
 10
972.9054271659
 20
1473.0958155776
 30
0.0
 40
1.000000000000227
100
AcDbArc
 50
180.0
 51
270.0
  0
ARC
  5
1DE
330
1F
100
AcDbEntity
  8
1
  6
SLD-Сплошная
100
AcDbCircle
 10
972.9054271659
 20
1473.0958155776
 30
0.0
 40
2.0
100
AcDbArc
 50
180.0
 51
188.7004774911
  0
LINE
  5
1DF
330
1F
100
AcDbEntity
  8
1
  6
SLD-Сплошная
100
AcDbLine
 10
970.8347164879
 20
1473.0958155776
 30
0.0
 11
970.8347164879
 21
1479.1958155776
 31
0.0
  0
LINE
  5
1E0
330
1F
100
AcDbEntity
  8
1
  6
SLD-Сплошная
100
AcDbLine
 10
612.976137844
 20
1479.1958155776
 30
0.0
 11
612.976137844
 21
1473.0958155776
 31
0.0
  0
LINE
  5
1E1
330
1F
100
AcDbEntity
  8
1
  6
SLD-Сплошная
100
AcDbLine
 10
611.9054271659
 20
1473.0958155776
 30
0.0
 11
611.9054271659
 21
1479.1958155776
 31
0.0
  0
LINE
  5
1E2
330
1F
100
AcDbEntity
  8
1
  6
SLD-Сплошная
100
AcDbLine
 10
612.9054271659
 20
1473.0958155776
 30
0.0
 11
612.9054271659
 21
1479.1958155776
 31
0.0
  0
LINE
  5
1E3
330
1F
100
AcDbEntity
  8
1
  6
SLD-Сплошная
100
AcDbLine
 10
971.9054271659
 20
1479.1958155776
 30
0.0
 11
971.9054271659
 21
1473.0958155776
 31
0.0
  0
LINE
  5
1E4
330
1F
100
AcDbEntity
  8
1
  6
SLD-Сплошная
100
AcDbLine
 10
970.9054271659
 20
1479.1958155776
 30
0.0
 11
970.9054271659
 21
1473.0958155776
 31
0.0
  0
LINE
  5
1E5
330
1F
100
AcDbEntity
  8
1
  6
SLD-Сплошная
100
AcDbLine
 10
592.9054271659
 20
1470.0958155776
 30
0.0
 11
593.0054271659
 21
1470.0958155776
 31
0.0
  0
SPLINE
  5
1E6
330
1F
100
AcDbEntity
  8
1
  6
SLD-Сплошная
100
AcDbSpline
210
0.0
220
0.0
230
1.0
 70
     8
 71
     3
 72
    11
 73
     7
 74
     0
 42
0.00000001
 43
0.00000001
 40
0.0
 40
0.0
 40
0.0
 40
0.0
 40
0.2500000000000125
 40
0.5000000000000026
 40
0.7499999999999988
 40
1.0
 40
1.0
 40
1.0
 40
1.0
 10
987.7725844534442
 20
1479.195815577579
 30
0.0
 10
987.7767511201109
 20
1479.211598729006
 30
0.0
 10
987.7850844534441
 20
1479.243165031859
 30
0.0
 10
987.7975844534443
 20
1479.485976705637
 30
0.0
 10
987.8100844534443
 20
1479.833048889589
 30
0.0
 10
987.8184177867777
 20
1480.108226681582
 30
0.0
 10
987.8225844534443
 20
1480.245815577579
 30
0.0
  0
SPLINE
  5
1E7
330
1F
100
AcDbEntity
  8
1
  6
SLD-Сплошная
100
AcDbSpline
210
0.0
220
0.0
230
1.0
 70
     8
 71
     3
 72
    11
 73
     7
 74
     0
 42
0.00000001
 43
0.00000001
 40
0.0
 40
0.0
 40
0.0
 40
0.0
 40
0.2500000000000059
 40
0.5000000000000103
 40
0.7500000000000094
 40
0.9999999999999999
 40
0.9999999999999999
 40
0.9999999999999999
 40
0.9999999999999999
 10
595.3882698784649
 20
1480.245815577579
 30
0.0
 10
595.3924365451315
 20
1480.108226681583
 30
0.0
 10
595.4007698784649
 20
1479.833048889589
 30
0.0
 10
595.4132698784649
 20
1479.485976705638
 30
0.0
 10
595.4257698784648
 20
1479.243165031859
 30
0.0
 10
595.4341032117982
 20
1479.211598729006
 30
0.0
 10
595.4382698784648
 20
1479.195815577579
 30
0.0
  0
LINE
  5
1E8
330
1F
100
AcDbEntity
  8
1
  6
SLD-Сплошная
100
AcDbLine
 10
595.3882698785
 20
1495.4958155776
 30
0.0
 11
595.3882698785
 21
1480.2458155776
 31
0.0
  0
LINE
  5
1E9
330
1F
100
AcDbEntity
  8
1
  6
SLD-Сплошная
100
AcDbLine
 10
987.8225844535
 20
1495.4958155776
 30
0.0
 11
987.8225844535
 21
1480.2458155776
 31
0.0
  0
ELLIPSE
  5
1EA
330
1F
100
AcDbEntity
  8
1
  6
SLD-Сплошная
100
AcDbEllipse
 10
596.8054271659
 20
1495.4958155776
 30
0.0
 11
0.0
 21
2.700000000000045
 31
0.0
210
0.0
220
0.0
230
1.0
 40
0.5248730694
 41
0.0
 42
1.570796326794897
  0
LINE
  5
1EB
330
1F
100
AcDbEntity
  8
1
  6
SLD-Сплошная
100
AcDbLine
 10
596.8054271659
 20
1498.1958155776
 30
0.0
 11
986.405427166
 21
1498.1958155776
 31
0.0
  0
ELLIPSE
  5
1EC
330
1F
100
AcDbEntity
  8
1
  6
SLD-Сплошная
100
AcDbEllipse
 10
986.405427166
 20
1495.4958155776
 30
0.0
 11
0.0
 21
2.700000000000045
 31
0.0
210
0.0
220
0.0
230
1.0
 40
0.5248730694
 41
4.712388980384697
 42
6.283185307179586
  0
LINE
  5
1ED
330
1F
100
AcDbEntity
  8
1
  6
SLD-Сплошная
100
AcDbLine
 10
595.1054271659
 20
1480.2458155776
 30
0.0
 11
595.1054271659
 21
1495.4958155776
 31
0.0
  0
LINE
  5
1EE
330
1F
100
AcDbEntity
  8
1
  6
SLD-Сплошная
100
AcDbLine
 10
594.1054271659
 20
1480.2458155776
 30
0.0
 11
595.1054271659
 21
1480.2458155776
 31
0.0
  0
LINE
  5
1EF
330
1F
100
AcDbEntity
  8
1
  6
SLD-Сплошная
100
AcDbLine
 10
594.1054271659
 20
1480.2458155776
 30
0.0
 11
594.1054271659
 21
1495.4958155776
 31
0.0
  0
SPLINE
  5
1F0
330
1F
100
AcDbEntity
  8
1
  6
SLD-Сплошная
100
AcDbSpline
210
0.0
220
0.0
230
1.0
 70
     8
 71
     3
 72
    11
 73
     7
 74
     0
 42
0.00000001
 43
0.00000001
 40
0.0
 40
0.0
 40
0.0
 40
0.0
 40
0.2499999999999967
 40
0.5000000000000075
 40
0.7500000000000032
 40
1.0
 40
1.0
 40
1.0
 40
1.0
 10
595.1554271659335
 20
1479.195815577579
 30
0.0
 10
595.0178382699362
 20
1479.211598729005
 30
0.0
 10
594.7426604779413
 20
1479.243165031857
 30
0.0
 10
594.3955882939866
 20
1479.485976705635
 30
0.0
 10
594.1527766202057
 20
1479.833048889587
 30
0.0
 10
594.1212103173519
 20
1480.108226681582
 30
0.0
 10
594.1054271659252
 20
1480.245815577579
 30
0.0
  0
SPLINE
  5
1F1
330
1F
100
AcDbEntity
  8
1
  6
SLD-Сплошная
100
AcDbSpline
210
0.0
220
0.0
230
1.0
 70
     8
 71
     3
 72
    11
 73
     7
 74
     0
 42
0.00000001
 43
0.00000001
 40
0.0
 40
0.0
 40
0.0
 40
0.0
 40
0.2499999999998893
 40
0.4999999999996901
 40
0.7500000000001737
 40
1.0
 40
1.0
 40
1.0
 40
1.0
 10
595.1554271659256
 20
1480.195815577579
 30
0.0
 10
595.1488753137353
 20
1480.196567156218
 30
0.0
 10
595.1357716093546
 20
1480.198070313497
 30
0.0
 10
595.1192443624994
 20
1480.209632774153
 30
0.0
 10
595.1076819018433
 20
1480.226160021008
 30
0.0
 10
595.1061787445647
 20
1480.239263725389
 30
0.0
 10
595.1054271659252
 20
1480.245815577579
 30
0.0
  0
LINE
  5
1F2
330
1F
100
AcDbEntity
  8
1
  6
SLD-Сплошная
100
AcDbLine
 10
595.1554271659
 20
1480.1958155776
 30
0.0
 11
595.1554271659
 21
1479.1958155776
 31
0.0
  0
LINE
  5
1F3
330
1F
100
AcDbEntity
  8
1
  6
SLD-Сплошная
100
AcDbLine
 10
988.055427166
 20
1480.1958155776
 30
0.0
 11
988.055427166
 21
1479.1958155776
 31
0.0
  0
LINE
  5
1F4
330
1F
100
AcDbEntity
  8
1
  6
SLD-Сплошная
100
AcDbLine
 10
989.105427166
 20
1480.2458155776
 30
0.0
 11
988.105427166
 21
1480.2458155776
 31
0.0
  0
SPLINE
  5
1F5
330
1F
100
AcDbEntity
  8
1
  6
SLD-Сплошная
100
AcDbSpline
210
0.0
220
0.0
230
1.0
 70
     8
 71
     3
 72
    11
 73
     7
 74
     0
 42
0.00000001
 43
0.00000001
 40
0.0
 40
0.0
 40
0.0
 40
0.0
 40
0.2499999999999922
 40
0.5000000000000216
 40
0.7500000000001981
 40
1.0
 40
1.0
 40
1.0
 40
1.0
 10
988.1054271659839
 20
1480.245815577579
 30
0.0
 10
988.1046755873446
 20
1480.239263725389
 30
0.0
 10
988.1031724300658
 20
1480.226160021008
 30
0.0
 10
988.0916099694094
 20
1480.209632774153
 30
0.0
 10
988.0750827225546
 20
1480.198070313497
 30
0.0
 10
988.0619790181738
 20
1480.196567156218
 30
0.0
 10
988.0554271659835
 20
1480.195815577579
 30
0.0
  0
SPLINE
  5
1F6
330
1F
100
AcDbEntity
  8
1
  6
SLD-Сплошная
100
AcDbSpline
210
0.0
220
0.0
230
1.0
 70
     8
 71
     3
 72
    11
 73
     7
 74
     0
 42
0.00000001
 43
0.00000001
 40
0.0
 40
0.0
 40
0.0
 40
0.0
 40
0.2499999999999972
 40
0.5000000000000006
 40
0.7499999999999908
 40
1.0
 40
1.0
 40
1.0
 40
1.0
 10
989.1054271659839
 20
1480.245815577579
 30
0.0
 10
989.089644014557
 20
1480.108226681582
 30
0.0
 10
989.0580777117033
 20
1479.833048889587
 30
0.0
 10
988.8152660379225
 20
1479.485976705634
 30
0.0
 10
988.4681938539677
 20
1479.243165031856
 30
0.0
 10
988.1930160619728
 20
1479.211598729005
 30
0.0
 10
988.0554271659755
 20
1479.195815577579
 30
0.0
  0
LINE
  5
1F7
330
1F
100
AcDbEntity
  8
1
  6
SLD-Сплошная
100
AcDbLine
 10
989.105427166
 20
1480.2458155776
 30
0.0
 11
989.105427166
 21
1495.4958155776
 31
0.0
  0
LINE
  5
1F8
330
1F
100
AcDbEntity
  8
1
  6
SLD-Сплошная
100
AcDbLine
 10
988.105427166
 20
1480.2458155776
 30
0.0
 11
988.105427166
 21
1495.4958155776
 31
0.0
  0
ARC
  5
1F9
330
1F
100
AcDbEntity
  8
1
  6
SLD-Сплошная
100
AcDbCircle
 10
596.8054271659
 20
1495.4958155776
 30
0.0
 40
1.700000000000062
100
AcDbArc
 50
139.5408896282
 51
180.0
  0
ARC
  5
1FA
330
1F
100
AcDbEntity
  8
1
  6
SLD-Сплошная
100
AcDbCircle
 10
596.8054271659
 20
1495.4958155776
 30
0.0
 40
2.700000000000045
100
AcDbArc
 50
90.0
 51
180.0
  0
ARC
  5
1FB
330
1F
100
AcDbEntity
  8
1
  6
SLD-Сплошная
100
AcDbCircle
 10
986.405427166
 20
1495.4958155776
 30
0.0
 40
2.700000000000045
100
AcDbArc
 50
0.0
 51
90.0
  0
ARC
  5
1FC
330
1F
100
AcDbEntity
  8
1
  6
SLD-Сплошная
100
AcDbCircle
 10
986.405427166
 20
1495.4958155776
 30
0.0
 40
1.700000000000143
100
AcDbArc
 50
0.0
 51
40.4591103718
  0
LINE
  5
1FD
330
1F
100
AcDbEntity
  8
1
  6
SLD-Сплошная
100
AcDbLine
 10
595.3882698785
 20
1480.2458155776
 30
0.0
 11
595.2054271659
 21
1480.2458155776
 31
0.0
  0
SPLINE
  5
1FE
330
1F
100
AcDbEntity
  8
1
  6
SLD-Сплошная
100
AcDbSpline
210
0.0
220
0.0
230
1.0
 70
     8
 71
     3
 72
    11
 73
     7
 74
     0
 42
0.00000001
 43
0.00000001
 40
0.0
 40
0.0
 40
0.0
 40
0.0
 40
0.0090245670103488
 40
0.0782108948201317
 40
0.2706367536244352
 40
0.9999999999999999
 40
0.9999999999999999
 40
0.9999999999999999
 40
0.9999999999999999
 10
595.2054271659251
 20
1480.245815577579
 30
0.0
 10
595.2053900166293
 20
1480.244621993844
 30
0.0
 10
595.2050680643779
 20
1480.234277868538
 30
0.0
 10
595.2016874535592
 20
1480.22870890967
 30
0.0
 10
595.1871731359029
 20
1480.196054620275
 30
0.0
 10
595.169450307824
 20
1480.195921169868
 30
0.0
 10
595.1554271659256
 20
1480.195815577579
 30
0.0
  0
LINE
  5
1FF
330
1F
100
AcDbEntity
  8
1
  6
SLD-Сплошная
100
AcDbLine
 10
595.4382698784
 20
1479.2657751469
 30
0.0
 11
595.1554271659
 21
1479.1958155776
 31
0.0
  0
LINE
  5
200
330
1F
100
AcDbEntity
  8
1
  6
SLD-Сплошная
100
AcDbLine
 10
987.8225844535
 20
1480.2458155776
 30
0.0
 11
988.005427166
 21
1480.2458155776
 31
0.0
  0
SPLINE
  5
201
330
1F
100
AcDbEntity
  8
1
  6
SLD-Сплошная
100
AcDbSpline
210
0.0
220
0.0
230
1.0
 70
     8
 71
     3
 72
    12
 73
     8
 74
     0
 42
0.00000001
 43
0.00000001
 40
0.0
 40
0.0
 40
0.0
 40
0.0
 40
0.7293340570144945
 40
0.9217522148751601
 40
0.9750066998633046
 40
0.9909757941542049
 40
1.0
 40
1.0
 40
1.0
 40
1.0
 10
988.0554271659835
 20
1480.195815577579
 30
0.0
 10
988.0415693656388
 20
1480.198536859318
 30
0.0
 10
988.024055500712
 20
1480.201976089183
 30
0.0
 10
988.0091574794335
 20
1480.224344294097
 30
0.0
 10
988.0062634497889
 20
1480.236390950514
 30
0.0
 10
988.0055567871784
 20
1480.241149851152
 30
0.0
 10
988.0054615520538
 20
1480.244577847931
 30
0.0
 10
988.0054271659837
 20
1480.245815577579
 30
0.0
  0
LINE
  5
202
330
1F
100
AcDbEntity
  8
1
  6
SLD-Сплошная
100
AcDbLine
 10
988.055427166
 20
1479.1958155776
 30
0.0
 11
987.6988984482
 21
1479.2840009698
 31
0.0
  0
LINE
  5
203
330
1F
100
AcDbEntity
  8
1
  6
SLD-Сплошная
100
AcDbLine
 10
595.2054271659
 20
1480.2458155776
 30
0.0
 11
595.2054271659
 21
1495.0858155776
 31
0.0
  0
LINE
  5
204
330
1F
100
AcDbEntity
  8
1
  6
SLD-Сплошная
100
AcDbLine
 10
595.3882698785
 20
1495.0858155776
 30
0.0
 11
595.2054271659
 21
1495.0858155776
 31
0.0
  0
LINE
  5
205
330
1F
100
AcDbEntity
  8
1
  6
SLD-Сплошная
100
AcDbLine
 10
987.8225844535
 20
1495.0858155776
 30
0.0
 11
988.005427166
 21
1495.0858155776
 31
0.0
  0
LINE
  5
206
330
1F
100
AcDbEntity
  8
1
  6
SLD-Сплошная
100
AcDbLine
 10
988.005427166
 20
1480.2458155776
 30
0.0
 11
988.005427166
 21
1495.0858155776
 31
0.0
  0
ARC
  5
207
330
1F
100
AcDbEntity
  8
1
  6
SLD-Сплошная
100
AcDbCircle
 10
597.2154271659
 20
1495.0858155776
 30
0.0
 40
2.010000000000021
100
AcDbArc
 50
153.906948711
 51
180.0
  0
ARC
  5
208
330
1F
100
AcDbEntity
  8
1
  6
SLD-Сплошная
100
AcDbCircle
 10
985.995427166
 20
1495.0858155776
 30
0.0
 40
2.010000000000142
100
AcDbArc
 50
0.0
 51
26.0930512844
  0
ELLIPSE
  5
209
330
1F
100
AcDbEntity
  8
1
  6
SLD-Сплошная
100
AcDbEllipse
 10
792.8186406199
 20
1280.4022589938
 30
0.0
 11
-0.3520440699439859
 21
-0.2145091096840588
 31
0.0
210
0.0
220
0.0
230
1.0
 40
0.9702875252
 41
5.512866274278672
 42
7.053504340080785
  0
SPLINE
  5
20A
330
1F
100
AcDbEntity
  8
1
  6
SLD-Сплошная
100
AcDbSpline
210
0.0
220
0.0
230
1.0
 70
     8
 71
     3
 72
    12
 73
     8
 74
     0
 42
0.00000001
 43
0.00000001
 40
0.0
 40
0.0
 40
0.0
 40
0.0
 40
0.2187857887071979
 40
0.4375776469535063
 40
0.656235365886396
 40
0.8748419359490901
 40
1.0
 40
1.0
 40
1.0
 40
1.0
 10
792.7110407895834
 20
1280.662876998574
 30
0.0
 10
792.7063962783312
 20
1280.61868040906
 30
0.0
 10
792.6971071269792
 20
1280.530286003932
 30
0.0
 10
792.7389778074756
 20
1280.398925870251
 30
0.0
 10
792.8174896760718
 20
1280.288042615053
 30
0.0
 10
792.9116241279189
 20
1280.217880074005
 30
0.0
 10
792.9770842723017
 20
1280.195347097437
 30
0.0
 10
793.0009170466197
 20
1280.187143275855
 30
0.0
  0
ELLIPSE
  5
20B
330
1F
100
AcDbEntity
  8
1
  6
SLD-Сплошная
100
AcDbEllipse
 10
792.4618705822
 20
1278.9326021236
 30
0.0
 11
-0.2145091096841724
 21
0.352044069943986
 31
0.0
210
0.0
220
0.0
230
1.0
 40
0.9702875252
 41
5.512866274278771
 42
7.053504340080621
  0
SPLINE
  5
20C
330
1F
100
AcDbEntity
  8
1
  6
SLD-Сплошная
100
AcDbSpline
210
0.0
220
0.0
230
1.0
 70
     8
 71
     3
 72
    12
 73
     8
 74
     0
 42
0.00000001
 43
0.00000001
 40
0.0
 40
0.0
 40
0.0
 40
0.0
 40
0.2187857887071963
 40
0.4375776469534701
 40
0.6562353658863769
 40
0.8748419359490738
 40
1.0
 40
1.0
 40
1.0
 40
1.0
 10
792.722488586942
 20
1279.040201953943
 30
0.0
 10
792.6782919974273
 20
1279.044846465196
 30
0.0
 10
792.5898975922997
 20
1279.054135616548
 30
0.0
 10
792.4585374586188
 20
1279.012264936051
 30
0.0
 10
792.3476542034206
 20
1278.933753067455
 30
0.0
 10
792.2774916623728
 20
1278.839618615608
 30
0.0
 10
792.2549586858049
 20
1278.774158471225
 30
0.0
 10
792.2467548642227
 20
1278.750325696907
 30
0.0
  0
ELLIPSE
  5
20D
330
1F
100
AcDbEntity
  8
1
  6
SLD-Сплошная
100
AcDbEllipse
 10
790.992213712
 20
1279.2893721613
 30
0.0
 11
0.3520440699438723
 21
0.2145091096842861
 31
0.0
210
0.0
220
0.0
230
1.0
 40
0.9702875252
 41
5.512866274278637
 42
7.053504340080465
  0
SPLINE
  5
20E
330
1F
100
AcDbEntity
  8
1
  6
SLD-Сплошная
100
AcDbSpline
210
0.0
220
0.0
230
1.0
 70
     8
 71
     3
 72
    12
 73
     8
 74
     0
 42
0.00000001
 43
0.00000001
 40
0.0
 40
0.0
 40
0.0
 40
0.0
 40
0.218785788707163
 40
0.4375776469534812
 40
0.6562353658863812
 40
0.8748419359490849
 40
1.0
 40
1.0
 40
1.0
 40
1.0
 10
791.0998135423108
 20
1279.028754156585
 30
0.0
 10
791.104458053563
 20
1279.072950746099
 30
0.0
 10
791.1137472049152
 20
1279.161345151227
 30
0.0
 10
791.0718765244187
 20
1279.292705284908
 30
0.0
 10
790.9933646558223
 20
1279.403588540106
 30
0.0
 10
790.8992302039752
 20
1279.473751081154
 30
0.0
 10
790.8337700595927
 20
1279.496284057722
 30
0.0
 10
790.8099372852744
 20
1279.504487879304
 30
0.0
  0
ARC
  5
20F
330
1F
100
AcDbEntity
  8
1
  6
SLD-Сплошная
100
AcDbCircle
 10
768.2052776872
 20
1285.5992015507
 30
0.0
 40
26.56195549571919
100
AcDbArc
 50
345.2366779053
 51
347.4732803565
  0
ARC
  5
210
330
1F
100
AcDbEntity
  8
1
  6
SLD-Сплошная
100
AcDbCircle
 10
786.6819850092
 20
1257.644101834
 30
0.0
 40
23.41191191557298
100
AcDbArc
 50
71.4374562221
 51
74.3415387415
  0
ARC
  5
211
330
1F
100
AcDbEntity
  8
1
  6
SLD-Сплошная
100
AcDbCircle
 10
769.7799095751
 20
1285.3831355509
 30
0.0
 40
23.41191191634308
100
AcDbArc
 50
348.3684195203
 51
351.2725020395
  0
ARC
  5
212
330
1F
100
AcDbEntity
  8
1
  6
SLD-Сплошная
100
AcDbCircle
 10
786.1520411929
 20
1256.1456660992
 30
0.0
 40
26.56195549531724
100
AcDbArc
 50
75.2366779052
 51
77.4732803565
  0
ARC
  5
213
330
1F
100
AcDbEntity
  8
1
  6
SLD-Сплошная
100
AcDbCircle
 10
814.1071409104
 20
1274.6223734206
 30
0.0
 40
23.41191191650603
100
AcDbArc
 50
161.4374562222
 51
164.3415387414
  0
SPLINE
  5
214
330
1F
100
AcDbEntity
  8
1
  6
SLD-Сплошная
100
AcDbSpline
210
0.0
220
0.0
230
1.0
 70
     8
 71
     3
 72
    12
 73
     8
 74
     0
 42
0.00000001
 43
0.00000001
 40
0.0
 40
0.0
 40
0.0
 40
0.0
 40
0.2187857887072001
 40
0.4375776469534799
 40
0.656235365886367
 40
0.8748419359490702
 40
1.0
 40
1.0
 40
1.0
 40
1.0
 10
791.0883657449523
 20
1280.651429201216
 30
0.0
 10
791.1325623344669
 20
1280.646784689964
 30
0.0
 10
791.2209567395945
 20
1280.637495538612
 30
0.0
 10
791.3523168732753
 20
1280.679366219108
 30
0.0
 10
791.4632001284737
 20
1280.757878087704
 30
0.0
 10
791.5333626695215
 20
1280.852012539551
 30
0.0
 10
791.5558956460893
 20
1280.917472683934
 30
0.0
 10
791.5640994676716
 20
1280.941305458252
 30
0.0
  0
ARC
  5
215
330
1F
100
AcDbEntity
  8
1
  6
SLD-Сплошная
100
AcDbCircle
 10
786.3681071927
 20
1257.7202979869
 30
0.0
 40
23.41191191614335
100
AcDbArc
 50
78.3684195203
 51
81.2725020396
  0
ARC
  5
216
330
1F
100
AcDbEntity
  8
1
  6
SLD-Сплошная
100
AcDbCircle
 10
815.6055766448
 20
1274.0924296044
 30
0.0
 40
26.56195549578925
100
AcDbArc
 50
165.2366779053
 51
167.4732803565
  0
ARC
  5
217
330
1F
100
AcDbEntity
  8
1
  6
SLD-Сплошная
100
AcDbCircle
 10
797.128869323
 20
1302.0475293222
 30
0.0
 40
23.41191191666215
100
AcDbArc
 50
251.4374562222
 51
254.3415387414
  0
ARC
  5
218
330
1F
100
AcDbEntity
  8
1
  6
SLD-Сплошная
100
AcDbCircle
 10
814.0309447565
 20
1274.3084956044
 30
0.0
 40
23.4119119159963
100
AcDbArc
 50
168.3684195203
 51
171.2725020396
  0
ARC
  5
219
330
1F
100
AcDbEntity
  8
1
  6
SLD-Сплошная
100
AcDbCircle
 10
797.6588131391
 20
1303.5459650562
 30
0.0
 40
26.56195549561074
100
AcDbArc
 50
255.2366779053
 51
257.4732803565
  0
ARC
  5
21A
330
1F
100
AcDbEntity
  8
1
  6
SLD-Сплошная
100
AcDbCircle
 10
769.7037134218
 20
1285.0692577345
 30
0.0
 40
23.41191191612885
100
AcDbArc
 50
341.4374562222
 51
344.3415387415
  0
ARC
  5
21B
330
1F
100
AcDbEntity
  8
1
  6
SLD-Сплошная
100
AcDbCircle
 10
797.4427471392
 20
1301.9713331683
 30
0.0
 40
23.41191191620416
100
AcDbArc
 50
258.3684195203
 51
261.2725020396
  0
CIRCLE
  5
21C
330
1F
100
AcDbEntity
  8
1
  6
SLD-Сплошная
100
AcDbCircle
 10
791.9054271659
 20
1279.8458155776
 30
0.0
 40
3.499999999999991
  0
ELLIPSE
  5
21D
330
1F
100
AcDbEntity
  8
1
  6
SLD-Сплошная
100
AcDbEllipse
 10
791.3489837497
 20
1280.7590290315
 30
0.0
 11
0.2145091096841725
 21
-0.3520440699437586
 31
0.0
210
0.0
220
0.0
230
1.0
 40
0.9702875252
 41
5.512866274278455
 42
7.053504340080172
  0
LINE
  5
21E
330
1F
100
AcDbEntity
  8
1
  6
SLD-Сплошная
100
AcDbLine
 10
794.1349249097
 20
1279.8380493509
 30
0.0
 11
793.9315460552
 21
1279.714125613
 31
0.0
  0
LINE
  5
21F
330
1F
100
AcDbEntity
  8
1
  6
SLD-Сплошная
100
AcDbLine
 10
793.9315460552
 20
1279.714125613
 30
0.0
 11
792.7109207528
 21
1280.0104414021
 31
0.0
  0
LINE
  5
220
330
1F
100
AcDbEntity
  8
1
  6
SLD-Сплошная
100
AcDbLine
 10
793.8903357534
 20
1278.8305036042
 30
0.0
 11
793.7664120156
 21
1279.0338824588
 31
0.0
  0
LINE
  5
221
330
1F
100
AcDbEntity
  8
1
  6
SLD-Сплошная
100
AcDbLine
 10
792.5457867132
 20
1279.3301982478
 30
0.0
 11
793.7664120156
 21
1279.0338824588
 31
0.0
  0
LINE
  5
222
330
1F
100
AcDbEntity
  8
1
  6
SLD-Сплошная
100
AcDbLine
 10
789.9205185785
 20
1280.861127551
 30
0.0
 11
790.0444423163
 21
1280.6577486964
 31
0.0
  0
LINE
  5
223
330
1F
100
AcDbEntity
  8
1
  6
SLD-Сплошная
100
AcDbLine
 10
791.2650676187
 20
1280.3614329074
 30
0.0
 11
790.0444423163
 21
1280.6577486964
 31
0.0
  0
LINE
  5
224
330
1F
100
AcDbEntity
  8
1
  6
SLD-Сплошная
100
AcDbLine
 10
792.9207391394
 20
1281.830724165
 30
0.0
 11
792.7173602848
 21
1281.7068004272
 31
0.0
  0
LINE
  5
225
330
1F
100
AcDbEntity
  8
1
  6
SLD-Сплошная
100
AcDbLine
 10
792.4210444957
 20
1280.4861751248
 30
0.0
 11
792.7173602848
 21
1281.7068004272
 31
0.0
  0
LINE
  5
226
330
1F
100
AcDbEntity
  8
1
  6
SLD-Сплошная
100
AcDbLine
 10
791.8976609392
 20
1277.6163178338
 30
0.0
 11
791.7737372014
 21
1277.8196966884
 31
0.0
  0
LINE
  5
227
330
1F
100
AcDbEntity
  8
1
  6
SLD-Сплошная
100
AcDbLine
 10
791.7737372014
 20
1277.8196966884
 30
0.0
 11
792.0700529905
 21
1279.0403219908
 31
0.0
  0
LINE
  5
228
330
1F
100
AcDbEntity
  8
1
  6
SLD-Сплошная
100
AcDbLine
 10
789.6759294221
 20
1279.8535818043
 30
0.0
 11
789.8793082767
 21
1279.9775055421
 31
0.0
  0
LINE
  5
229
330
1F
100
AcDbEntity
  8
1
  6
SLD-Сплошная
100
AcDbLine
 10
789.8793082767
 20
1279.9775055421
 30
0.0
 11
791.0999335791
 21
1279.6811897531
 31
0.0
  0
LINE
  5
22A
330
1F
100
AcDbEntity
  8
1
  6
SLD-Сплошная
100
AcDbLine
 10
791.9131933927
 20
1282.0753133214
 30
0.0
 11
792.0371171305
 21
1281.8719344668
 31
0.0
  0
LINE
  5
22B
330
1F
100
AcDbEntity
  8
1
  6
SLD-Сплошная
100
AcDbLine
 10
792.0371171305
 20
1281.8719344668
 30
0.0
 11
791.7408013414
 21
1280.6513091644
 31
0.0
  0
LINE
  5
22C
330
1F
100
AcDbEntity
  8
1
  6
SLD-Сплошная
100
AcDbLine
 10
790.8901151925
 20
1277.8609069901
 30
0.0
 11
791.0934940471
 21
1277.984830728
 31
0.0
  0
LINE
  5
22D
330
1F
100
AcDbEntity
  8
1
  6
SLD-Сплошная
100
AcDbLine
 10
791.3898098362
 20
1279.2054560303
 30
0.0
 11
791.0934940471
 21
1277.984830728
 31
0.0
  0
LINE
  5
22E
330
1F
100
AcDbEntity
  8
1
  6
SLD-Сплошная
100
AcDbLine
 10
792.7173602848
 20
1281.7068004272
 30
0.0
 11
792.0371171305
 21
1281.8719344668
 31
0.0
  0
LINE
  5
22F
330
1F
100
AcDbEntity
  8
1
  6
SLD-Сплошная
100
AcDbLine
 10
793.7664120156
 20
1279.0338824588
 30
0.0
 11
793.9315460552
 21
1279.714125613
 31
0.0
  0
LINE
  5
230
330
1F
100
AcDbEntity
  8
1
  6
SLD-Сплошная
100
AcDbLine
 10
791.0934940471
 20
1277.984830728
 30
0.0
 11
791.7737372014
 21
1277.8196966884
 31
0.0
  0
LINE
  5
231
330
1F
100
AcDbEntity
  8
1
  6
SLD-Сплошная
100
AcDbLine
 10
790.0444423163
 20
1280.6577486964
 30
0.0
 11
789.8793082767
 21
1279.9775055421
 31
0.0
  0
CIRCLE
  5
232
330
1F
100
AcDbEntity
  8
1
  6
SLD-Сплошная
100
AcDbCircle
 10
791.9054271659
 20
1279.8458155776
 30
0.0
 40
4.999999999999972
  0
ELLIPSE
  5
233
330
1F
100
AcDbEntity
  8
1
  6
SLD-Сплошная
100
AcDbEllipse
 10
960.4748139472
 20
1422.3458155776
 30
0.0
 11
-0.4122489361056978
 21
0.0
 31
0.0
210
0.0
220
0.0
230
1.0
 40
0.9702875252
 41
5.512866274278693
 42
7.053504340080086
  0
SPLINE
  5
234
330
1F
100
AcDbEntity
  8
1
  6
SLD-Сплошная
100
AcDbSpline
210
0.0
220
0.0
230
1.0
 70
     8
 71
     3
 72
    12
 73
     8
 74
     0
 42
0.00000001
 43
0.00000001
 40
0.0
 40
0.0
 40
0.0
 40
0.0
 40
0.2187857887072064
 40
0.4375776469534798
 40
0.6562353658863799
 40
0.8748419359490909
 40
1.0
 40
1.0
 40
1.0
 40
1.0
 10
960.5185376597593
 20
1422.624361273708
 30
0.0
 10
960.4915742336873
 20
1422.589035876839
 30
0.0
 10
960.4376466335257
 20
1422.518384103107
 30
0.0
 10
960.4050507445526
 20
1422.384420874466
 30
0.0
 10
960.4143998757947
 20
1422.248878248186
 30
0.0
 10
960.4582786338766
 20
1422.139980443892
 30
0.0
 10
960.502454192163
 20
1422.086676733086
 30
0.0
 10
960.5185376597592
 20
1422.067269881452
 30
0.0
  0
ELLIPSE
  5
235
330
1F
100
AcDbEntity
  8
1
  6
SLD-Сплошная
100
AcDbEllipse
 10
958.3360403847
 20
1422.3458155776
 30
0.0
 11
0.4122489361056978
 21
0.0
 31
0.0
210
0.0
220
0.0
230
1.0
 40
0.9702875252
 41
5.512866274279101
 42
7.053504340080494
  0
SPLINE
  5
236
330
1F
100
AcDbEntity
  8
1
  6
SLD-Сплошная
100
AcDbSpline
210
0.0
220
0.0
230
1.0
 70
     8
 71
     3
 72
    12
 73
     8
 74
     0
 42
0.00000001
 43
0.00000001
 40
0.0
 40
0.0
 40
0.0
 40
0.0
 40
0.2187857887071931
 40
0.4375776469534778
 40
0.6562353658863891
 40
0.8748419359491114
 40
1.0
 40
1.0
 40
1.0
 40
1.0
 10
958.2923166721348
 20
1422.067269881452
 30
0.0
 10
958.3192800982067
 20
1422.102595278321
 30
0.0
 10
958.3732076983683
 20
1422.173247052053
 30
0.0
 10
958.4058035873414
 20
1422.307210280694
 30
0.0
 10
958.3964544560994
 20
1422.442752906974
 30
0.0
 10
958.3525756980175
 20
1422.551650711268
 30
0.0
 10
958.3084001397309
 20
1422.604954422074
 30
0.0
 10
958.2923166721348
 20
1422.624361273708
 30
0.0
  0
ELLIPSE
  5
237
330
1F
100
AcDbEntity
  8
1
  6
SLD-Сплошная
100
AcDbEllipse
 10
959.4054271659
 20
1421.2764287963
 30
0.0
 11
0.0
 21
0.4122489361054704
 31
0.0
210
0.0
220
0.0
230
1.0
 40
0.9702875252
 41
5.512866274279364
 42
7.053504340079822
  0
SPLINE
  5
238
330
1F
100
AcDbEntity
  8
1
  6
SLD-Сплошная
100
AcDbSpline
210
0.0
220
0.0
230
1.0
 70
     8
 71
     3
 72
    12
 73
     8
 74
     0
 42
0.00000001
 43
0.00000001
 40
0.0
 40
0.0
 40
0.0
 40
0.0
 40
0.2187857887072125
 40
0.4375776469534837
 40
0.6562353658864009
 40
0.874841935949103
 40
1.0
 40
1.0
 40
1.0
 40
1.0
 10
959.6839728620749
 20
1421.232705083768
 30
0.0
 10
959.6486474652061
 20
1421.25966850984
 30
0.0
 10
959.5779956914737
 20
1421.313596110001
 30
0.0
 10
959.4440324628326
 20
1421.346191998974
 30
0.0
 10
959.3084898365526
 20
1421.336842867732
 30
0.0
 10
959.1995920322587
 20
1421.29296410965
 30
0.0
 10
959.1462883214527
 20
1421.248788551364
 30
0.0
 10
959.1268814698191
 20
1421.232705083768
 30
0.0
  0
ELLIPSE
  5
239
330
1F
100
AcDbEntity
  8
1
  6
SLD-Сплошная
100
AcDbEllipse
 10
959.4054271659
 20
1423.4152023589
 30
0.0
 11
0.0
 21
-0.4122489361056978
 31
0.0
210
0.0
220
0.0
230
1.0
 40
0.9702875252
 41
5.512866274278704
 42
7.053504340080481
  0
SPLINE
  5
23A
330
1F
100
AcDbEntity
  8
1
  6
SLD-Сплошная
100
AcDbSpline
210
0.0
220
0.0
230
1.0
 70
     8
 71
     3
 72
    12
 73
     8
 74
     0
 42
0.00000001
 43
0.00000001
 40
0.0
 40
0.0
 40
0.0
 40
0.0
 40
0.2187857887071746
 40
0.4375776469534888
 40
0.6562353658863603
 40
0.8748419359491033
 40
1.0
 40
1.0
 40
1.0
 40
1.0
 10
959.1268814698191
 20
1423.458926071392
 30
0.0
 10
959.1622068666879
 20
1423.43196264532
 30
0.0
 10
959.2328586404203
 20
1423.378035045159
 30
0.0
 10
959.3668218690614
 20
1423.345439156185
 30
0.0
 10
959.5023644953413
 20
1423.354788287428
 30
0.0
 10
959.6112622996353
 20
1423.398667045509
 30
0.0
 10
959.6645660104413
 20
1423.442842603796
 30
0.0
 10
959.6839728620749
 20
1423.458926071392
 30
0.0
  0
ARC
  5
23B
330
1F
100
AcDbEntity
  8
1
  6
SLD-Сплошная
100
AcDbCircle
 10
976.6506951465
 20
1439.5910835581
 30
0.0
 40
26.56195549511077
100
AcDbArc
 50
223.8816987744
 51
226.1183012256
  0
ARC
  5
23C
330
1F
100
AcDbEntity
  8
1
  6
SLD-Сплошная
100
AcDbCircle
 10
943.1640129295
 20
1438.3588385518
 30
0.0
 40
23.41191191676794
100
AcDbArc
 50
310.0824770914
 51
312.9865596105
  0
ARC
  5
23D
330
1F
100
AcDbEntity
  8
1
  6
SLD-Сплошная
100
AcDbCircle
 10
975.6468414023
 20
1438.3588385517
 30
0.0
 40
23.41191191673472
100
AcDbArc
 50
227.0134403895
 51
229.9175229087
  0
ARC
  5
23E
330
1F
100
AcDbEntity
  8
1
  6
SLD-Сплошная
100
AcDbCircle
 10
942.1601591852
 20
1439.5910835583
 30
0.0
 40
26.56195549536438
100
AcDbArc
 50
313.8816987744
 51
316.1183012256
  0
ARC
  5
23F
330
1F
100
AcDbEntity
  8
1
  6
SLD-Сплошная
100
AcDbCircle
 10
943.3924041921
 20
1406.1044013414
 30
0.0
 40
23.41191191632747
100
AcDbArc
 50
40.0824770913
 51
42.9865596106
  0
ARC
  5
240
330
1F
100
AcDbEntity
  8
1
  6
SLD-Сплошная
100
AcDbCircle
 10
943.3924041923
 20
1438.5872298135
 30
0.0
 40
23.41191191603391
100
AcDbArc
 50
317.0134403894
 51
319.9175229087
  0
ARC
  5
241
330
1F
100
AcDbEntity
  8
1
  6
SLD-Сплошная
100
AcDbCircle
 10
942.1601591852
 20
1405.1005475969
 30
0.0
 40
26.56195549536438
100
AcDbArc
 50
43.8816987744
 51
46.1183012256
  0
ARC
  5
242
330
1F
100
AcDbEntity
  8
1
  6
SLD-Сплошная
100
AcDbCircle
 10
975.6468414024
 20
1406.3327926034
 30
0.0
 40
23.41191191681524
100
AcDbArc
 50
130.0824770913
 51
132.9865596105
  0
ARC
  5
243
330
1F
100
AcDbEntity
  8
1
  6
SLD-Сплошная
100
AcDbCircle
 10
943.1640129296
 20
1406.3327926035
 30
0.0
 40
23.41191191669064
100
AcDbArc
 50
47.0134403895
 51
49.9175229087
  0
ARC
  5
244
330
1F
100
AcDbEntity
  8
1
  6
SLD-Сплошная
100
AcDbCircle
 10
976.6506951465
 20
1405.100547597
 30
0.0
 40
26.56195549511061
100
AcDbArc
 50
133.8816987744
 51
136.1183012256
  0
ARC
  5
245
330
1F
100
AcDbEntity
  8
1
  6
SLD-Сплошная
100
AcDbCircle
 10
975.4184501395
 20
1438.5872298134
 30
0.0
 40
23.41191191591645
100
AcDbArc
 50
220.0824770913
 51
222.9865596106
  0
ARC
  5
246
330
1F
100
AcDbEntity
  8
1
  6
SLD-Сплошная
100
AcDbCircle
 10
975.4184501397
 20
1406.1044013415
 30
0.0
 40
23.41191191621
100
AcDbArc
 50
137.0134403894
 51
139.9175229087
  0
CIRCLE
  5
247
330
1F
100
AcDbEntity
  8
1
  6
SLD-Сплошная
100
AcDbCircle
 10
959.4054271659
 20
1422.3458155776
 30
0.0
 40
3.499999999999948
  0
LINE
  5
248
330
1F
100
AcDbEntity
  8
1
  6
SLD-Сплошная
100
AcDbLine
 10
961.3052878198
 20
1423.5125417665
 30
0.0
 11
961.0671281017
 21
1423.5125417665
 31
0.0
  0
LINE
  5
249
330
1F
100
AcDbEntity
  8
1
  6
SLD-Сплошная
100
AcDbLine
 10
960.1789476089
 20
1422.6243612737
 30
0.0
 11
961.0671281017
 21
1423.5125417665
 31
0.0
  0
LINE
  5
24A
330
1F
100
AcDbEntity
  8
1
  6
SLD-Сплошная
100
AcDbLine
 10
960.5721533549
 20
1424.2456762314
 30
0.0
 11
960.5721533549
 21
1424.0075165134
 31
0.0
  0
LINE
  5
24B
330
1F
100
AcDbEntity
  8
1
  6
SLD-Сплошная
100
AcDbLine
 10
960.5721533549
 20
1424.0075165134
 30
0.0
 11
959.6839728621
 21
1423.1193360205
 31
0.0
  0
LINE
  5
24C
330
1F
100
AcDbEntity
  8
1
  6
SLD-Сплошная
100
AcDbLine
 10
960.5721533549
 20
1420.4459549238
 30
0.0
 11
960.5721533549
 21
1420.6841146418
 31
0.0
  0
LINE
  5
24D
330
1F
100
AcDbEntity
  8
1
  6
SLD-Сплошная
100
AcDbLine
 10
959.6839728621
 20
1421.5722951346
 30
0.0
 11
960.5721533549
 21
1420.6841146418
 31
0.0
  0
LINE
  5
24E
330
1F
100
AcDbEntity
  8
1
  6
SLD-Сплошная
100
AcDbLine
 10
958.238700977
 20
1424.2456762314
 30
0.0
 11
958.238700977
 21
1424.0075165134
 31
0.0
  0
LINE
  5
24F
330
1F
100
AcDbEntity
  8
1
  6
SLD-Сплошная
100
AcDbLine
 10
959.1268814698
 20
1423.1193360205
 30
0.0
 11
958.238700977
 21
1424.0075165134
 31
0.0
  0
LINE
  5
250
330
1F
100
AcDbEntity
  8
1
  6
SLD-Сплошная
100
AcDbLine
 10
961.3052878198
 20
1421.1790893886
 30
0.0
 11
961.0671281017
 21
1421.1790893886
 31
0.0
  0
LINE
  5
251
330
1F
100
AcDbEntity
  8
1
  6
SLD-Сплошная
100
AcDbLine
 10
961.0671281017
 20
1421.1790893886
 30
0.0
 11
960.1789476089
 21
1422.0672698815
 31
0.0
  0
LINE
  5
252
330
1F
100
AcDbEntity
  8
1
  6
SLD-Сплошная
100
AcDbLine
 10
958.238700977
 20
1420.4459549238
 30
0.0
 11
958.238700977
 21
1420.6841146418
 31
0.0
  0
LINE
  5
253
330
1F
100
AcDbEntity
  8
1
  6
SLD-Сплошная
100
AcDbLine
 10
958.238700977
 20
1420.6841146418
 30
0.0
 11
959.1268814698
 21
1421.5722951346
 31
0.0
  0
LINE
  5
254
330
1F
100
AcDbEntity
  8
1
  6
SLD-Сплошная
100
AcDbLine
 10
957.5055665121
 20
1423.5125417665
 30
0.0
 11
957.7437262302
 21
1423.5125417665
 31
0.0
  0
LINE
  5
255
330
1F
100
AcDbEntity
  8
1
  6
SLD-Сплошная
100
AcDbLine
 10
957.7437262302
 20
1423.5125417665
 30
0.0
 11
958.631906723
 21
1422.6243612737
 31
0.0
  0
LINE
  5
256
330
1F
100
AcDbEntity
  8
1
  6
SLD-Сплошная
100
AcDbLine
 10
957.5055665121
 20
1421.1790893886
 30
0.0
 11
957.7437262302
 21
1421.1790893886
 31
0.0
  0
LINE
  5
257
330
1F
100
AcDbEntity
  8
1
  6
SLD-Сплошная
100
AcDbLine
 10
958.631906723
 20
1422.0672698815
 30
0.0
 11
957.7437262302
 21
1421.1790893886
 31
0.0
  0
LINE
  5
258
330
1F
100
AcDbEntity
  8
1
  6
SLD-Сплошная
100
AcDbLine
 10
960.5721533549
 20
1420.6841146418
 30
0.0
 11
961.0671281017
 21
1421.1790893886
 31
0.0
  0
LINE
  5
259
330
1F
100
AcDbEntity
  8
1
  6
SLD-Сплошная
100
AcDbLine
 10
961.0671281017
 20
1423.5125417665
 30
0.0
 11
960.5721533549
 21
1424.0075165134
 31
0.0
  0
LINE
  5
25A
330
1F
100
AcDbEntity
  8
1
  6
SLD-Сплошная
100
AcDbLine
 10
958.238700977
 20
1424.0075165134
 30
0.0
 11
957.7437262302
 21
1423.5125417665
 31
0.0
  0
LINE
  5
25B
330
1F
100
AcDbEntity
  8
1
  6
SLD-Сплошная
100
AcDbLine
 10
957.7437262302
 20
1421.1790893886
 30
0.0
 11
958.238700977
 21
1420.6841146418
 31
0.0
  0
CIRCLE
  5
25C
330
1F
100
AcDbEntity
  8
1
  6
SLD-Сплошная
100
AcDbCircle
 10
959.4054271659
 20
1422.3458155776
 30
0.0
 40
4.99999999999996
  0
ELLIPSE
  5
25D
330
1F
100
AcDbEntity
  8
1
  6
SLD-Сплошная
100
AcDbEllipse
 10
624.4054271659
 20
1421.2764287963
 30
0.0
 11
0.0
 21
0.4122489361056978
 31
0.0
210
0.0
220
0.0
230
1.0
 40
0.9702875252
 41
5.512866274278742
 42
7.053504340080444
  0
SPLINE
  5
25E
330
1F
100
AcDbEntity
  8
1
  6
SLD-Сплошная
100
AcDbSpline
210
0.0
220
0.0
230
1.0
 70
     8
 71
     3
 72
    12
 73
     8
 74
     0
 42
0.00000001
 43
0.00000001
 40
0.0
 40
0.0
 40
0.0
 40
0.0
 40
0.2187857887072125
 40
0.4375776469534837
 40
0.6562353658864009
 40
0.874841935949103
 40
1.0
 40
1.0
 40
1.0
 40
1.0
 10
624.6839728620752
 20
1421.232705083767
 30
0.0
 10
624.6486474652062
 20
1421.259668509839
 30
0.0
 10
624.5779956914738
 20
1421.313596110001
 30
0.0
 10
624.4440324628328
 20
1421.346191998974
 30
0.0
 10
624.3084898365528
 20
1421.336842867732
 30
0.0
 10
624.1995920322588
 20
1421.29296410965
 30
0.0
 10
624.1462883214529
 20
1421.248788551364
 30
0.0
 10
624.1268814698191
 20
1421.232705083767
 30
0.0
  0
ARC
  5
25F
330
1F
100
AcDbEntity
  8
1
  6
SLD-Сплошная
100
AcDbCircle
 10
641.6506951474
 20
1439.591083559
 30
0.0
 40
26.56195549633228
100
AcDbArc
 50
223.8816987744
 51
226.1183012256
  0
ARC
  5
260
330
1F
100
AcDbEntity
  8
1
  6
SLD-Сплошная
100
AcDbCircle
 10
608.1640129296
 20
1438.3588385517
 30
0.0
 40
23.41191191661593
100
AcDbArc
 50
310.0824770913
 51
312.9865596105
  0
ARC
  5
261
330
1F
100
AcDbEntity
  8
1
  6
SLD-Сплошная
100
AcDbCircle
 10
640.6468414023
 20
1438.3588385517
 30
0.0
 40
23.41191191661585
100
AcDbArc
 50
227.0134403895
 51
229.9175229087
  0
ARC
  5
262
330
1F
100
AcDbEntity
  8
1
  6
SLD-Сплошная
100
AcDbCircle
 10
607.160159185
 20
1439.5910835585
 30
0.0
 40
26.56195549561664
100
AcDbArc
 50
313.8816987744
 51
316.1183012256
  0
ARC
  5
263
330
1F
100
AcDbEntity
  8
1
  6
SLD-Сплошная
100
AcDbCircle
 10
608.392404192
 20
1406.1044013414
 30
0.0
 40
23.41191191640222
100
AcDbArc
 50
40.0824770913
 51
42.9865596106
  0
SPLINE
  5
264
330
1F
100
AcDbEntity
  8
1
  6
SLD-Сплошная
100
AcDbSpline
210
0.0
220
0.0
230
1.0
 70
     8
 71
     3
 72
    12
 73
     8
 74
     0
 42
0.00000001
 43
0.00000001
 40
0.0
 40
0.0
 40
0.0
 40
0.0
 40
0.2187857887072064
 40
0.4375776469534798
 40
0.6562353658863799
 40
0.8748419359490909
 40
1.0
 40
1.0
 40
1.0
 40
1.0
 10
625.5185376597594
 20
1422.624361273708
 30
0.0
 10
625.4915742336873
 20
1422.589035876839
 30
0.0
 10
625.4376466335258
 20
1422.518384103106
 30
0.0
 10
625.4050507445528
 20
1422.384420874465
 30
0.0
 10
625.4143998757947
 20
1422.248878248186
 30
0.0
 10
625.4582786338767
 20
1422.139980443892
 30
0.0
 10
625.5024541921631
 20
1422.086676733086
 30
0.0
 10
625.5185376597594
 20
1422.067269881452
 30
0.0
  0
ARC
  5
265
330
1F
100
AcDbEntity
  8
1
  6
SLD-Сплошная
100
AcDbCircle
 10
608.3924041923
 20
1438.5872298136
 30
0.0
 40
23.41191191611099
100
AcDbArc
 50
317.0134403894
 51
319.9175229087
  0
ARC
  5
266
330
1F
100
AcDbEntity
  8
1
  6
SLD-Сплошная
100
AcDbCircle
 10
607.1601591856
 20
1405.1005475972
 30
0.0
 40
26.56195549485864
100
AcDbArc
 50
43.8816987743
 51
46.1183012256
  0
ARC
  5
267
330
1F
100
AcDbEntity
  8
1
  6
SLD-Сплошная
100
AcDbCircle
 10
640.6468414018
 20
1406.332792604
 30
0.0
 40
23.41191191591275
100
AcDbArc
 50
130.0824770913
 51
132.9865596106
  0
SPLINE
  5
268
330
1F
100
AcDbEntity
  8
1
  6
SLD-Сплошная
100
AcDbSpline
210
0.0
220
0.0
230
1.0
 70
     8
 71
     3
 72
    12
 73
     8
 74
     0
 42
0.00000001
 43
0.00000001
 40
0.0
 40
0.0
 40
0.0
 40
0.0
 40
0.2187857887071746
 40
0.4375776469534888
 40
0.6562353658863603
 40
0.8748419359491033
 40
1.0
 40
1.0
 40
1.0
 40
1.0
 10
624.1268814698191
 20
1423.458926071392
 30
0.0
 10
624.162206866688
 20
1423.43196264532
 30
0.0
 10
624.2328586404204
 20
1423.378035045159
 30
0.0
 10
624.3668218690615
 20
1423.345439156185
 30
0.0
 10
624.5023644953415
 20
1423.354788287427
 30
0.0
 10
624.6112622996354
 20
1423.398667045509
 30
0.0
 10
624.6645660104413
 20
1423.442842603796
 30
0.0
 10
624.6839728620752
 20
1423.458926071392
 30
0.0
  0
ARC
  5
269
330
1F
100
AcDbEntity
  8
1
  6
SLD-Сплошная
100
AcDbCircle
 10
608.1640129299
 20
1406.3327926039
 30
0.0
 40
23.41191191614399
100
AcDbArc
 50
47.0134403894
 51
49.9175229087
  0
ARC
  5
26A
330
1F
100
AcDbEntity
  8
1
  6
SLD-Сплошная
100
AcDbCircle
 10
641.6506951468
 20
1405.1005475967
 30
0.0
 40
26.56195549557468
100
AcDbArc
 50
133.8816987744
 51
136.1183012256
  0
ARC
  5
26B
330
1F
100
AcDbEntity
  8
1
  6
SLD-Сплошная
100
AcDbCircle
 10
640.41845014
 20
1438.5872298139
 30
0.0
 40
23.41191191656495
100
AcDbArc
 50
220.0824770914
 51
222.9865596106
  0
SPLINE
  5
26C
330
1F
100
AcDbEntity
  8
1
  6
SLD-Сплошная
100
AcDbSpline
210
0.0
220
0.0
230
1.0
 70
     8
 71
     3
 72
    12
 73
     8
 74
     0
 42
0.00000001
 43
0.00000001
 40
0.0
 40
0.0
 40
0.0
 40
0.0
 40
0.2187857887071931
 40
0.4375776469534778
 40
0.6562353658863891
 40
0.8748419359491114
 40
1.0
 40
1.0
 40
1.0
 40
1.0
 10
623.2923166721348
 20
1422.067269881452
 30
0.0
 10
623.319280098207
 20
1422.102595278321
 30
0.0
 10
623.3732076983683
 20
1422.173247052053
 30
0.0
 10
623.4058035873414
 20
1422.307210280694
 30
0.0
 10
623.3964544560994
 20
1422.442752906974
 30
0.0
 10
623.3525756980175
 20
1422.551650711268
 30
0.0
 10
623.3084001397311
 20
1422.604954422074
 30
0.0
 10
623.2923166721348
 20
1422.624361273708
 30
0.0
  0
ARC
  5
26D
330
1F
100
AcDbEntity
  8
1
  6
SLD-Сплошная
100
AcDbCircle
 10
640.4184501402
 20
1406.1044013411
 30
0.0
 40
23.41191191685649
100
AcDbArc
 50
137.0134403895
 51
139.9175229086
  0
CIRCLE
  5
26E
330
1F
100
AcDbEntity
  8
1
  6
SLD-Сплошная
100
AcDbCircle
 10
624.4054271659
 20
1422.3458155776
 30
0.0
 40
3.500000000000189
  0
ELLIPSE
  5
26F
330
1F
100
AcDbEntity
  8
1
  6
SLD-Сплошная
100
AcDbEllipse
 10
624.4054271659
 20
1423.4152023589
 30
0.0
 11
0.0
 21
-0.4122489361054704
 31
0.0
210
0.0
220
0.0
230
1.0
 40
0.9702875252
 41
5.512866274278634
 42
7.053504340080551
  0
ELLIPSE
  5
270
330
1F
100
AcDbEntity
  8
1
  6
SLD-Сплошная
100
AcDbEllipse
 10
625.4748139472
 20
1422.3458155776
 30
0.0
 11
-0.4122489361056978
 21
0.0
 31
0.0
210
0.0
220
0.0
230
1.0
 40
0.9702875252
 41
5.512866274278816
 42
7.053504340080777
  0
ELLIPSE
  5
271
330
1F
100
AcDbEntity
  8
1
  6
SLD-Сплошная
100
AcDbEllipse
 10
623.3360403847
 20
1422.3458155776
 30
0.0
 11
0.4122489361056978
 21
0.0
 31
0.0
210
0.0
220
0.0
230
1.0
 40
0.9702875252
 41
5.512866274278977
 42
7.053504340079802
  0
LINE
  5
272
330
1F
100
AcDbEntity
  8
1
  6
SLD-Сплошная
100
AcDbLine
 10
625.5721533549
 20
1424.2456762314
 30
0.0
 11
625.5721533549
 21
1424.0075165134
 31
0.0
  0
LINE
  5
273
330
1F
100
AcDbEntity
  8
1
  6
SLD-Сплошная
100
AcDbLine
 10
625.5721533549
 20
1424.0075165134
 30
0.0
 11
624.6839728621
 21
1423.1193360205
 31
0.0
  0
LINE
  5
274
330
1F
100
AcDbEntity
  8
1
  6
SLD-Сплошная
100
AcDbLine
 10
626.3052878198
 20
1423.5125417665
 30
0.0
 11
626.0671281017
 21
1423.5125417665
 31
0.0
  0
LINE
  5
275
330
1F
100
AcDbEntity
  8
1
  6
SLD-Сплошная
100
AcDbLine
 10
625.1789476089
 20
1422.6243612737
 30
0.0
 11
626.0671281017
 21
1423.5125417665
 31
0.0
  0
LINE
  5
276
330
1F
100
AcDbEntity
  8
1
  6
SLD-Сплошная
100
AcDbLine
 10
623.238700977
 20
1424.2456762314
 30
0.0
 11
623.238700977
 21
1424.0075165134
 31
0.0
  0
LINE
  5
277
330
1F
100
AcDbEntity
  8
1
  6
SLD-Сплошная
100
AcDbLine
 10
624.1268814698
 20
1423.1193360205
 30
0.0
 11
623.238700977
 21
1424.0075165134
 31
0.0
  0
LINE
  5
278
330
1F
100
AcDbEntity
  8
1
  6
SLD-Сплошная
100
AcDbLine
 10
625.5721533549
 20
1420.4459549238
 30
0.0
 11
625.5721533549
 21
1420.6841146418
 31
0.0
  0
LINE
  5
279
330
1F
100
AcDbEntity
  8
1
  6
SLD-Сплошная
100
AcDbLine
 10
624.6839728621
 20
1421.5722951346
 30
0.0
 11
625.5721533549
 21
1420.6841146418
 31
0.0
  0
LINE
  5
27A
330
1F
100
AcDbEntity
  8
1
  6
SLD-Сплошная
100
AcDbLine
 10
626.3052878198
 20
1421.1790893886
 30
0.0
 11
626.0671281017
 21
1421.1790893886
 31
0.0
  0
LINE
  5
27B
330
1F
100
AcDbEntity
  8
1
  6
SLD-Сплошная
100
AcDbLine
 10
626.0671281017
 20
1421.1790893886
 30
0.0
 11
625.1789476089
 21
1422.0672698815
 31
0.0
  0
LINE
  5
27C
330
1F
100
AcDbEntity
  8
1
  6
SLD-Сплошная
100
AcDbLine
 10
623.238700977
 20
1420.4459549238
 30
0.0
 11
623.238700977
 21
1420.6841146418
 31
0.0
  0
LINE
  5
27D
330
1F
100
AcDbEntity
  8
1
  6
SLD-Сплошная
100
AcDbLine
 10
623.238700977
 20
1420.6841146418
 30
0.0
 11
624.1268814698
 21
1421.5722951346
 31
0.0
  0
LINE
  5
27E
330
1F
100
AcDbEntity
  8
1
  6
SLD-Сплошная
100
AcDbLine
 10
622.5055665121
 20
1423.5125417665
 30
0.0
 11
622.7437262302
 21
1423.5125417665
 31
0.0
  0
LINE
  5
27F
330
1F
100
AcDbEntity
  8
1
  6
SLD-Сплошная
100
AcDbLine
 10
622.7437262302
 20
1423.5125417665
 30
0.0
 11
623.631906723
 21
1422.6243612737
 31
0.0
  0
LINE
  5
280
330
1F
100
AcDbEntity
  8
1
  6
SLD-Сплошная
100
AcDbLine
 10
622.5055665121
 20
1421.1790893886
 30
0.0
 11
622.7437262302
 21
1421.1790893886
 31
0.0
  0
LINE
  5
281
330
1F
100
AcDbEntity
  8
1
  6
SLD-Сплошная
100
AcDbLine
 10
623.631906723
 20
1422.0672698815
 30
0.0
 11
622.7437262302
 21
1421.1790893886
 31
0.0
  0
LINE
  5
282
330
1F
100
AcDbEntity
  8
1
  6
SLD-Сплошная
100
AcDbLine
 10
625.5721533549
 20
1420.6841146418
 30
0.0
 11
626.0671281017
 21
1421.1790893886
 31
0.0
  0
LINE
  5
283
330
1F
100
AcDbEntity
  8
1
  6
SLD-Сплошная
100
AcDbLine
 10
626.0671281017
 20
1423.5125417665
 30
0.0
 11
625.5721533549
 21
1424.0075165134
 31
0.0
  0
LINE
  5
284
330
1F
100
AcDbEntity
  8
1
  6
SLD-Сплошная
100
AcDbLine
 10
623.238700977
 20
1424.0075165134
 30
0.0
 11
622.7437262302
 21
1423.5125417665
 31
0.0
  0
LINE
  5
285
330
1F
100
AcDbEntity
  8
1
  6
SLD-Сплошная
100
AcDbLine
 10
622.7437262302
 20
1421.1790893886
 30
0.0
 11
623.238700977
 21
1420.6841146418
 31
0.0
  0
CIRCLE
  5
286
330
1F
100
AcDbEntity
  8
1
  6
SLD-Сплошная
100
AcDbCircle
 10
624.4054271659
 20
1422.3458155776
 30
0.0
 40
5.000000000000121
  0
ELLIPSE
  5
287
330
1F
100
AcDbEntity
  8
1
  6
SLD-Сплошная
100
AcDbEllipse
 10
623.5386378736
 20
1359.2195054223
 30
0.0
 11
0.3341475412566979
 21
0.241442759245956
 31
0.0
210
0.0
220
0.0
230
1.0
 40
0.9702875252
 41
5.512866274278752
 42
7.053504340080899
  0
SPLINE
  5
288
330
1F
100
AcDbEntity
  8
1
  6
SLD-Сплошная
100
AcDbSpline
210
0.0
220
0.0
230
1.0
 70
     8
 71
     3
 72
    12
 73
     8
 74
     0
 42
0.00000001
 43
0.00000001
 40
0.0
 40
0.0
 40
0.0
 40
0.0
 40
0.2187857887071969
 40
0.4375776469534618
 40
0.6562353658863719
 40
0.8748419359490905
 40
1.0
 40
1.0
 40
1.0
 40
1.0
 10
623.6663341895445
 20
1358.968123006973
 30
0.0
 10
623.6675002355721
 20
1359.012547666185
 30
0.0
 10
623.6698323599759
 20
1359.101398217036
 30
0.0
 10
623.617794347197
 20
1359.229072348448
 30
0.0
 10
623.5308328737711
 20
1359.333460623333
 30
0.0
 10
623.431488613825
 20
1359.39602894764
 30
0.0
 10
623.364463700526
 20
1359.413361764286
 30
0.0
 10
623.3400612240662
 20
1359.419672308072
 30
0.0
  0
ELLIPSE
  5
289
330
1F
100
AcDbEntity
  8
1
  6
SLD-Сплошная
100
AcDbEllipse
 10
625.0317373212
 20
1358.9790262852
 30
0.0
 11
-0.2414427592461834
 21
0.3341475412566979
 31
0.0
210
0.0
220
0.0
230
0.9999999999999999
 40
0.9702875252
 41
5.512866274278031
 42
7.053504340080262
  0
SPLINE
  5
28A
330
1F
100
AcDbEntity
  8
1
  6
SLD-Сплошная
100
AcDbSpline
210
0.0
220
0.0
230
1.0
 70
     8
 71
     3
 72
    12
 73
     8
 74
     0
 42
0.00000001
 43
0.00000001
 40
0.0
 40
0.0
 40
0.0
 40
0.0
 40
0.2187857887071959
 40
0.4375776469534898
 40
0.6562353658863794
 40
0.8748419359490905
 40
1.0
 40
1.0
 40
1.0
 40
1.0
 10
625.2831197365542
 20
1359.106722601177
 30
0.0
 10
625.2386950773416
 20
1359.107888647205
 30
0.0
 10
625.1498445264909
 20
1359.110220771608
 30
0.0
 10
625.0221703950785
 20
1359.058182758829
 30
0.0
 10
624.9177821201935
 20
1358.971221285404
 30
0.0
 10
624.8552137958864
 20
1358.871877025457
 30
0.0
 10
624.837880979241
 20
1358.804852112158
 30
0.0
 10
624.8315704354544
 20
1358.780449635698
 30
0.0
  0
ELLIPSE
  5
28B
330
1F
100
AcDbEntity
  8
1
  6
SLD-Сплошная
100
AcDbEllipse
 10
625.2722164583
 20
1360.4721257328
 30
0.0
 11
-0.3341475412566979
 21
-0.2414427592461834
 31
0.0
210
0.0
220
0.0
230
0.9999999999999999
 40
0.9702875252
 41
5.512866274278226
 42
7.05350434008036
  0
SPLINE
  5
28C
330
1F
100
AcDbEntity
  8
1
  6
SLD-Сплошная
100
AcDbSpline
210
0.0
220
0.0
230
1.0
 70
     8
 71
     3
 72
    12
 73
     8
 74
     0
 42
0.00000001
 43
0.00000001
 40
0.0
 40
0.0
 40
0.0
 40
0.0
 40
0.2187857887071911
 40
0.4375776469534893
 40
0.6562353658863781
 40
0.8748419359490928
 40
1.0
 40
1.0
 40
1.0
 40
1.0
 10
625.1445201423497
 20
1360.723508148187
 30
0.0
 10
625.1433540963221
 20
1360.679083488974
 30
0.0
 10
625.1410219719185
 20
1360.590232938123
 30
0.0
 10
625.1930599846975
 20
1360.462558806711
 30
0.0
 10
625.2800214581231
 20
1360.358170531826
 30
0.0
 10
625.3793657180693
 20
1360.295602207519
 30
0.0
 10
625.4463906313684
 20
1360.278269390874
 30
0.0
 10
625.4707931078283
 20
1360.271958847087
 30
0.0
  0
ARC
  5
28D
330
1F
100
AcDbEntity
  8
1
  6
SLD-Сплошная
100
AcDbCircle
 10
628.2834694576
 20
1383.924007442
 30
0.0
 40
26.5619554958366
100
AcDbArc
 50
259.7321939069
 51
261.9687963581
  0
ARC
  5
28E
330
1F
100
AcDbEntity
  8
1
  6
SLD-Сплошная
100
AcDbCircle
 10
601.8625986221
 20
1363.312993446
 30
0.0
 40
23.41191191586835
100
AcDbArc
 50
345.9329722238
 51
348.8370547431
  0
ARC
  5
28F
330
1F
100
AcDbEntity
  8
1
  6
SLD-Сплошная
100
AcDbCircle
 10
628.191489533
 20
1382.3372844691
 30
0.0
 40
23.41191191617808
100
AcDbArc
 50
262.8639355219
 51
265.7680180412
  0
ARC
  5
290
330
1F
100
AcDbEntity
  8
1
  6
SLD-Сплошная
100
AcDbCircle
 10
600.3272353011
 20
1363.7238578693
 30
0.0
 40
26.56195549623748
100
AcDbArc
 50
349.7321939069
 51
351.9687963581
  0
ARC
  5
291
330
1F
100
AcDbEntity
  8
1
  6
SLD-Сплошная
100
AcDbCircle
 10
620.9382492975
 20
1337.3029870333
 30
0.0
 40
23.41191191622822
100
AcDbArc
 50
75.9329722238
 51
78.8370547431
  0
ARC
  5
292
330
1F
100
AcDbEntity
  8
1
  6
SLD-Сплошная
100
AcDbCircle
 10
601.9139582743
 20
1363.6318779447
 30
0.0
 40
23.41191191629041
100
AcDbArc
 50
352.8639355219
 51
355.7680180412
  0
ARC
  5
293
330
1F
100
AcDbEntity
  8
1
  6
SLD-Сплошная
100
AcDbCircle
 10
620.5273848742
 20
1335.7676237125
 30
0.0
 40
26.56195549647122
100
AcDbArc
 50
79.732193907
 51
81.9687963581
  0
ARC
  5
294
330
1F
100
AcDbEntity
  8
1
  6
SLD-Сплошная
100
AcDbCircle
 10
646.9482557104
 20
1356.3786377091
 30
0.0
 40
23.41191191643987
100
AcDbArc
 50
165.9329722239
 51
168.8370547431
  0
SPLINE
  5
295
330
1F
100
AcDbEntity
  8
1
  6
SLD-Сплошная
100
AcDbSpline
210
0.0
220
0.0
230
1.0
 70
     8
 71
     3
 72
    12
 73
     8
 74
     0
 42
0.00000001
 43
0.00000001
 40
0.0
 40
0.0
 40
0.0
 40
0.0
 40
0.2187857887071923
 40
0.4375776469534917
 40
0.6562353658863643
 40
0.874841935949092
 40
1.0
 40
1.0
 40
1.0
 40
1.0
 10
623.5277345953401
 20
1360.584908553982
 30
0.0
 10
623.5721592545526
 20
1360.583742507955
 30
0.0
 10
623.6610098054034
 20
1360.581410383551
 30
0.0
 10
623.7886839368158
 20
1360.63344839633
 30
0.0
 10
623.8930722117009
 20
1360.720409869756
 30
0.0
 10
623.955640536008
 20
1360.819754129702
 30
0.0
 10
623.9729733526532
 20
1360.886779043001
 30
0.0
 10
623.9792838964398
 20
1360.911181519461
 30
0.0
  0
ARC
  5
296
330
1F
100
AcDbEntity
  8
1
  6
SLD-Сплошная
100
AcDbCircle
 10
620.6193647988
 20
1337.3543466855
 30
0.0
 40
23.41191191679851
100
AcDbArc
 50
82.863935522
 51
85.7680180412
  0
ARC
  5
297
330
1F
100
AcDbEntity
  8
1
  6
SLD-Сплошная
100
AcDbCircle
 10
648.4836190306
 20
1355.9677732859
 30
0.0
 40
26.56195549603592
100
AcDbArc
 50
169.7321939069
 51
171.9687963581
  0
ARC
  5
298
330
1F
100
AcDbEntity
  8
1
  6
SLD-Сплошная
100
AcDbCircle
 10
627.8726050344
 20
1382.3886441217
 30
0.0
 40
23.41191191607784
100
AcDbArc
 50
255.9329722238
 51
258.8370547431
  0
ARC
  5
299
330
1F
100
AcDbEntity
  8
1
  6
SLD-Сплошная
100
AcDbCircle
 10
646.8968960577
 20
1356.0597532105
 30
0.0
 40
23.41191191641867
100
AcDbArc
 50
172.863935522
 51
175.7680180412
  0
CIRCLE
  5
29A
330
1F
100
AcDbEntity
  8
1
  6
SLD-Сплошная
100
AcDbCircle
 10
624.4054271659
 20
1359.8458155776
 30
0.0
 40
3.499999999999994
  0
ELLIPSE
  5
29B
330
1F
100
AcDbEntity
  8
1
  6
SLD-Сплошная
100
AcDbEllipse
 10
623.7791170107
 20
1360.71260487
 30
0.0
 11
0.2414427592460697
 21
-0.3341475412566979
 31
0.0
210
0.0
220
0.0
230
1.0
 40
0.9702875252
 41
5.51286627427849
 42
7.05350434008106
  0
LINE
  5
29C
330
1F
100
AcDbEntity
  8
1
  6
SLD-Сплошная
100
AcDbLine
 10
625.2620362313
 20
1361.9041987812
 30
0.0
 11
625.0689963536
 21
1361.7647152449
 31
0.0
  0
LINE
  5
29D
330
1F
100
AcDbEntity
  8
1
  6
SLD-Сплошная
100
AcDbLine
 10
624.8692661136
 20
1360.5246196813
 30
0.0
 11
625.0689963536
 21
1361.7647152449
 31
0.0
  0
LINE
  5
29E
330
1F
100
AcDbEntity
  8
1
  6
SLD-Сплошная
100
AcDbLine
 10
624.2384190671
 20
1362.069062932
 30
0.0
 11
624.3779026034
 21
1361.8760230543
 31
0.0
  0
LINE
  5
29F
330
1F
100
AcDbEntity
  8
1
  6
SLD-Сплошная
100
AcDbLine
 10
624.3779026034
 20
1361.8760230543
 30
0.0
 11
624.1781723634
 21
1360.6359274907
 31
0.0
  0
LINE
  5
2A0
330
1F
100
AcDbEntity
  8
1
  6
SLD-Сплошная
100
AcDbLine
 10
624.5724352648
 20
1357.6225682232
 30
0.0
 11
624.4329517285
 21
1357.8156081009
 31
0.0
  0
LINE
  5
2A1
330
1F
100
AcDbEntity
  8
1
  6
SLD-Сплошная
100
AcDbLine
 10
624.4329517285
 20
1357.8156081009
 30
0.0
 11
624.6326819685
 21
1359.0557036645
 31
0.0
  0
LINE
  5
2A2
330
1F
100
AcDbEntity
  8
1
  6
SLD-Сплошная
100
AcDbLine
 10
626.6286745203
 20
1360.0128236764
 30
0.0
 11
626.4356346426
 21
1359.8733401401
 31
0.0
  0
LINE
  5
2A3
330
1F
100
AcDbEntity
  8
1
  6
SLD-Сплошная
100
AcDbLine
 10
626.4356346426
 20
1359.8733401401
 30
0.0
 11
625.195539079
 21
1360.0730703802
 31
0.0
  0
LINE
  5
2A4
330
1F
100
AcDbEntity
  8
1
  6
SLD-Сплошная
100
AcDbLine
 10
626.4638103696
 20
1358.9892065122
 30
0.0
 11
626.3243268332
 21
1359.1822463899
 31
0.0
  0
LINE
  5
2A5
330
1F
100
AcDbEntity
  8
1
  6
SLD-Сплошная
100
AcDbLine
 10
625.0842312696
 20
1359.38197663
 30
0.0
 11
626.3243268332
 21
1359.1822463899
 31
0.0
  0
LINE
  5
2A6
330
1F
100
AcDbEntity
  8
1
  6
SLD-Сплошная
100
AcDbLine
 10
622.1821798116
 20
1359.6788074787
 30
0.0
 11
622.3752196892
 21
1359.8182910151
 31
0.0
  0
LINE
  5
2A7
330
1F
100
AcDbEntity
  8
1
  6
SLD-Сплошная
100
AcDbLine
 10
622.3752196892
 20
1359.8182910151
 30
0.0
 11
623.6153152529
 21
1359.618560775
 31
0.0
  0
LINE
  5
2A8
330
1F
100
AcDbEntity
  8
1
  6
SLD-Сплошная
100
AcDbLine
 10
623.5488181006
 20
1357.7874323739
 30
0.0
 11
623.7418579783
 21
1357.9269159103
 31
0.0
  0
LINE
  5
2A9
330
1F
100
AcDbEntity
  8
1
  6
SLD-Сплошная
100
AcDbLine
 10
623.9415882183
 20
1359.1670114739
 30
0.0
 11
623.7418579783
 21
1357.9269159103
 31
0.0
  0
LINE
  5
2AA
330
1F
100
AcDbEntity
  8
1
  6
SLD-Сплошная
100
AcDbLine
 10
622.3470439623
 20
1360.7024246429
 30
0.0
 11
622.4865274986
 21
1360.5093847653
 31
0.0
  0
LINE
  5
2AB
330
1F
100
AcDbEntity
  8
1
  6
SLD-Сплошная
100
AcDbLine
 10
623.7266230623
 20
1360.3096545252
 30
0.0
 11
622.4865274986
 21
1360.5093847653
 31
0.0
  0
LINE
  5
2AC
330
1F
100
AcDbEntity
  8
1
  6
SLD-Сплошная
100
AcDbLine
 10
622.4865274986
 20
1360.5093847653
 30
0.0
 11
622.3752196892
 21
1359.8182910151
 31
0.0
  0
LINE
  5
2AD
330
1F
100
AcDbEntity
  8
1
  6
SLD-Сплошная
100
AcDbLine
 10
626.3243268332
 20
1359.1822463899
 30
0.0
 11
626.4356346426
 21
1359.8733401401
 31
0.0
  0
LINE
  5
2AE
330
1F
100
AcDbEntity
  8
1
  6
SLD-Сплошная
100
AcDbLine
 10
625.0689963536
 20
1361.7647152449
 30
0.0
 11
624.3779026034
 21
1361.8760230543
 31
0.0
  0
LINE
  5
2AF
330
1F
100
AcDbEntity
  8
1
  6
SLD-Сплошная
100
AcDbLine
 10
623.7418579783
 20
1357.9269159103
 30
0.0
 11
624.4329517285
 21
1357.8156081009
 31
0.0
  0
CIRCLE
  5
2B0
330
1F
100
AcDbEntity
  8
1
  6
SLD-Сплошная
100
AcDbCircle
 10
624.4054271659
 20
1359.8458155776
 30
0.0
 40
4.999999999999973
  0
ARC
  5
2B1
330
1F
100
AcDbEntity
  8
1
  6
SLD-Сплошная
100
AcDbCircle
 10
884.1506951475
 20
1457.0910835591
 30
0.0
 40
26.56195549653366
100
AcDbArc
 50
223.8816987744
 51
226.1183012256
  0
ARC
  5
2B2
330
1F
100
AcDbEntity
  8
1
  6
SLD-Сплошная
100
AcDbCircle
 10
850.6640129296
 20
1455.8588385517
 30
0.0
 40
23.41191191668582
100
AcDbArc
 50
310.0824770914
 51
312.9865596105
  0
SPLINE
  5
2B3
330
1F
100
AcDbEntity
  8
1
  6
SLD-Сплошная
100
AcDbSpline
210
0.0
220
0.0
230
1.0
 70
     8
 71
     3
 72
    12
 73
     8
 74
     0
 42
0.00000001
 43
0.00000001
 40
0.0
 40
0.0
 40
0.0
 40
0.0
 40
0.2187857887072129
 40
0.4375776469534845
 40
0.6562353658863794
 40
0.8748419359491028
 40
1.0
 40
1.0
 40
1.0
 40
1.0
 10
867.183972862075
 20
1438.732705083768
 30
0.0
 10
867.1486474652062
 20
1438.75966850984
 30
0.0
 10
867.0779956914738
 20
1438.813596110001
 30
0.0
 10
866.9440324628326
 20
1438.846191998974
 30
0.0
 10
866.8084898365527
 20
1438.836842867732
 30
0.0
 10
866.6995920322588
 20
1438.79296410965
 30
0.0
 10
866.6462883214529
 20
1438.748788551364
 30
0.0
 10
866.6268814698191
 20
1438.732705083768
 30
0.0
  0
ARC
  5
2B4
330
1F
100
AcDbEntity
  8
1
  6
SLD-Сплошная
100
AcDbCircle
 10
883.1468414023
 20
1455.8588385517
 30
0.0
 40
23.41191191664092
100
AcDbArc
 50
227.0134403894
 51
229.9175229087
  0
ARC
  5
2B5
330
1F
100
AcDbEntity
  8
1
  6
SLD-Сплошная
100
AcDbCircle
 10
849.6601591844
 20
1457.0910835591
 30
0.0
 40
26.56195549653221
100
AcDbArc
 50
313.8816987744
 51
316.1183012256
  0
ARC
  5
2B6
330
1F
100
AcDbEntity
  8
1
  6
SLD-Сплошная
100
AcDbCircle
 10
850.8924041923
 20
1423.6044013417
 30
0.0
 40
23.41191191601452
100
AcDbArc
 50
40.0824770913
 51
42.9865596106
  0
SPLINE
  5
2B7
330
1F
100
AcDbEntity
  8
1
  6
SLD-Сплошная
100
AcDbSpline
210
0.0
220
0.0
230
1.0
 70
     8
 71
     3
 72
    12
 73
     8
 74
     0
 42
0.00000001
 43
0.00000001
 40
0.0
 40
0.0
 40
0.0
 40
0.0
 40
0.2187857887072017
 40
0.4375776469534837
 40
0.6562353658863882
 40
0.8748419359490935
 40
1.0
 40
1.0
 40
1.0
 40
1.0
 10
868.0185376597593
 20
1440.124361273708
 30
0.0
 10
867.9915742336872
 20
1440.089035876839
 30
0.0
 10
867.9376466335258
 20
1440.018384103106
 30
0.0
 10
867.9050507445527
 20
1439.884420874465
 30
0.0
 10
867.9143998757947
 20
1439.748878248186
 30
0.0
 10
867.9582786338765
 20
1439.639980443892
 30
0.0
 10
868.002454192163
 20
1439.586676733086
 30
0.0
 10
868.0185376597593
 20
1439.567269881452
 30
0.0
  0
ARC
  5
2B8
330
1F
100
AcDbEntity
  8
1
  6
SLD-Сплошная
100
AcDbCircle
 10
850.8924041923
 20
1456.0872298135
 30
0.0
 40
23.41191191601676
100
AcDbArc
 50
317.0134403894
 51
319.9175229087
  0
ARC
  5
2B9
330
1F
100
AcDbEntity
  8
1
  6
SLD-Сплошная
100
AcDbCircle
 10
849.660159185
 20
1422.6005475967
 30
0.0
 40
26.56195549562584
100
AcDbArc
 50
43.8816987744
 51
46.1183012256
  0
ARC
  5
2BA
330
1F
100
AcDbEntity
  8
1
  6
SLD-Сплошная
100
AcDbCircle
 10
883.1468414019
 20
1423.8327926039
 30
0.0
 40
23.41191191606644
100
AcDbArc
 50
130.0824770913
 51
132.9865596106
  0
SPLINE
  5
2BB
330
1F
100
AcDbEntity
  8
1
  6
SLD-Сплошная
100
AcDbSpline
210
0.0
220
0.0
230
1.0
 70
     8
 71
     3
 72
    12
 73
     8
 74
     0
 42
0.00000001
 43
0.00000001
 40
0.0
 40
0.0
 40
0.0
 40
0.0
 40
0.2187857887072151
 40
0.4375776469534844
 40
0.6562353658864016
 40
0.8748419359491032
 40
1.0
 40
1.0
 40
1.0
 40
1.0
 10
866.6268814698191
 20
1440.958926071392
 30
0.0
 10
866.662206866688
 20
1440.93196264532
 30
0.0
 10
866.7328586404204
 20
1440.878035045159
 30
0.0
 10
866.8668218690614
 20
1440.845439156186
 30
0.0
 10
867.0023644953415
 20
1440.854788287428
 30
0.0
 10
867.1112622996353
 20
1440.898667045509
 30
0.0
 10
867.1645660104413
 20
1440.942842603796
 30
0.0
 10
867.183972862075
 20
1440.958926071392
 30
0.0
  0
ARC
  5
2BC
330
1F
100
AcDbEntity
  8
1
  6
SLD-Сплошная
100
AcDbCircle
 10
850.66401293
 20
1423.8327926039
 30
0.0
 40
23.41191191611157
100
AcDbArc
 50
47.0134403894
 51
49.9175229087
  0
ARC
  5
2BD
330
1F
100
AcDbEntity
  8
1
  6
SLD-Сплошная
100
AcDbCircle
 10
884.1506951471
 20
1422.6005475964
 30
0.0
 40
26.56195549600617
100
AcDbArc
 50
133.8816987744
 51
136.1183012256
  0
ARC
  5
2BE
330
1F
100
AcDbEntity
  8
1
  6
SLD-Сплошная
100
AcDbCircle
 10
882.9184501399
 20
1456.0872298138
 30
0.0
 40
23.41191191649048
100
AcDbArc
 50
220.0824770913
 51
222.9865596106
  0
SPLINE
  5
2BF
330
1F
100
AcDbEntity
  8
1
  6
SLD-Сплошная
100
AcDbSpline
210
0.0
220
0.0
230
1.0
 70
     8
 71
     3
 72
    12
 73
     8
 74
     0
 42
0.00000001
 43
0.00000001
 40
0.0
 40
0.0
 40
0.0
 40
0.0
 40
0.2187857887072019
 40
0.4375776469534788
 40
0.6562353658863835
 40
0.8748419359490891
 40
1.0
 40
1.0
 40
1.0
 40
1.0
 10
865.7923166721347
 20
1439.567269881452
 30
0.0
 10
865.8192800982068
 20
1439.602595278321
 30
0.0
 10
865.8732076983684
 20
1439.673247052053
 30
0.0
 10
865.9058035873414
 20
1439.807210280694
 30
0.0
 10
865.8964544560993
 20
1439.942752906974
 30
0.0
 10
865.8525756980175
 20
1440.051650711268
 30
0.0
 10
865.808400139731
 20
1440.104954422074
 30
0.0
 10
865.7923166721347
 20
1440.124361273708
 30
0.0
  0
ARC
  5
2C0
330
1F
100
AcDbEntity
  8
1
  6
SLD-Сплошная
100
AcDbCircle
 10
882.9184501399
 20
1423.6044013413
 30
0.0
 40
23.4119119164883
100
AcDbArc
 50
137.0134403894
 51
139.9175229087
  0
CIRCLE
  5
2C1
330
1F
100
AcDbEntity
  8
1
  6
SLD-Сплошная
100
AcDbCircle
 10
866.9054271659
 20
1439.8458155776
 30
0.0
 40
3.500000000000109
  0
ELLIPSE
  5
2C2
330
1F
100
AcDbEntity
  8
1
  6
SLD-Сплошная
100
AcDbEllipse
 10
865.8360403847
 20
1439.8458155776
 30
0.0
 11
0.4122489361056978
 21
0.0
 31
0.0
210
0.0
220
0.0
230
1.0
 40
0.9702875252
 41
5.512866274278693
 42
7.053504340080086
  0
ELLIPSE
  5
2C3
330
1F
100
AcDbEntity
  8
1
  6
SLD-Сплошная
100
AcDbEllipse
 10
866.9054271659
 20
1440.9152023589
 30
0.0
 11
0.0
 21
-0.4122489361059252
 31
0.0
210
0.0
220
0.0
230
1.0
 40
0.9702875252
 41
5.512866274278609
 42
7.053504340080373
  0
ELLIPSE
  5
2C4
330
1F
100
AcDbEntity
  8
1
  6
SLD-Сплошная
100
AcDbEllipse
 10
867.9748139472
 20
1439.8458155776
 30
0.0
 11
-0.4122489361055841
 21
0.0
 31
0.0
210
0.0
220
0.0
230
1.0
 40
0.9702875252
 41
5.512866274278762
 42
7.053504340080831
  0
ELLIPSE
  5
2C5
330
1F
100
AcDbEntity
  8
1
  6
SLD-Сплошная
100
AcDbEllipse
 10
866.9054271659
 20
1438.7764287963
 30
0.0
 11
0.0
 21
0.4122489361059252
 31
0.0
210
0.0
220
0.0
230
1.0
 40
0.9702875252
 41
5.512866274278671
 42
7.053504340080719
  0
LINE
  5
2C6
330
1F
100
AcDbEntity
  8
1
  6
SLD-Сплошная
100
AcDbLine
 10
868.8052878198
 20
1441.0125417665
 30
0.0
 11
868.5671281017
 21
1441.0125417665
 31
0.0
  0
LINE
  5
2C7
330
1F
100
AcDbEntity
  8
1
  6
SLD-Сплошная
100
AcDbLine
 10
867.6789476089
 20
1440.1243612737
 30
0.0
 11
868.5671281017
 21
1441.0125417665
 31
0.0
  0
LINE
  5
2C8
330
1F
100
AcDbEntity
  8
1
  6
SLD-Сплошная
100
AcDbLine
 10
868.0721533549
 20
1441.7456762314
 30
0.0
 11
868.0721533549
 21
1441.5075165134
 31
0.0
  0
LINE
  5
2C9
330
1F
100
AcDbEntity
  8
1
  6
SLD-Сплошная
100
AcDbLine
 10
868.0721533549
 20
1441.5075165134
 30
0.0
 11
867.1839728621
 21
1440.6193360205
 31
0.0
  0
LINE
  5
2CA
330
1F
100
AcDbEntity
  8
1
  6
SLD-Сплошная
100
AcDbLine
 10
865.738700977
 20
1437.9459549238
 30
0.0
 11
865.738700977
 21
1438.1841146418
 31
0.0
  0
LINE
  5
2CB
330
1F
100
AcDbEntity
  8
1
  6
SLD-Сплошная
100
AcDbLine
 10
865.738700977
 20
1438.1841146418
 30
0.0
 11
866.6268814698
 21
1439.0722951346
 31
0.0
  0
LINE
  5
2CC
330
1F
100
AcDbEntity
  8
1
  6
SLD-Сплошная
100
AcDbLine
 10
865.738700977
 20
1441.7456762314
 30
0.0
 11
865.738700977
 21
1441.5075165134
 31
0.0
  0
LINE
  5
2CD
330
1F
100
AcDbEntity
  8
1
  6
SLD-Сплошная
100
AcDbLine
 10
866.6268814698
 20
1440.6193360205
 30
0.0
 11
865.738700977
 21
1441.5075165134
 31
0.0
  0
LINE
  5
2CE
330
1F
100
AcDbEntity
  8
1
  6
SLD-Сплошная
100
AcDbLine
 10
865.0055665121
 20
1441.0125417665
 30
0.0
 11
865.2437262302
 21
1441.0125417665
 31
0.0
  0
LINE
  5
2CF
330
1F
100
AcDbEntity
  8
1
  6
SLD-Сплошная
100
AcDbLine
 10
865.2437262302
 20
1441.0125417665
 30
0.0
 11
866.131906723
 21
1440.1243612737
 31
0.0
  0
LINE
  5
2D0
330
1F
100
AcDbEntity
  8
1
  6
SLD-Сплошная
100
AcDbLine
 10
868.8052878198
 20
1438.6790893886
 30
0.0
 11
868.5671281017
 21
1438.6790893886
 31
0.0
  0
LINE
  5
2D1
330
1F
100
AcDbEntity
  8
1
  6
SLD-Сплошная
100
AcDbLine
 10
868.5671281017
 20
1438.6790893886
 30
0.0
 11
867.6789476089
 21
1439.5672698815
 31
0.0
  0
LINE
  5
2D2
330
1F
100
AcDbEntity
  8
1
  6
SLD-Сплошная
100
AcDbLine
 10
865.0055665121
 20
1438.6790893886
 30
0.0
 11
865.2437262302
 21
1438.6790893886
 31
0.0
  0
LINE
  5
2D3
330
1F
100
AcDbEntity
  8
1
  6
SLD-Сплошная
100
AcDbLine
 10
866.131906723
 20
1439.5672698815
 30
0.0
 11
865.2437262302
 21
1438.6790893886
 31
0.0
  0
LINE
  5
2D4
330
1F
100
AcDbEntity
  8
1
  6
SLD-Сплошная
100
AcDbLine
 10
868.0721533549
 20
1437.9459549238
 30
0.0
 11
868.0721533549
 21
1438.1841146418
 31
0.0
  0
LINE
  5
2D5
330
1F
100
AcDbEntity
  8
1
  6
SLD-Сплошная
100
AcDbLine
 10
867.1839728621
 20
1439.0722951346
 30
0.0
 11
868.0721533549
 21
1438.1841146418
 31
0.0
  0
LINE
  5
2D6
330
1F
100
AcDbEntity
  8
1
  6
SLD-Сплошная
100
AcDbLine
 10
868.0721533549
 20
1438.1841146418
 30
0.0
 11
868.5671281017
 21
1438.6790893886
 31
0.0
  0
LINE
  5
2D7
330
1F
100
AcDbEntity
  8
1
  6
SLD-Сплошная
100
AcDbLine
 10
868.5671281017
 20
1441.0125417665
 30
0.0
 11
868.0721533549
 21
1441.5075165134
 31
0.0
  0
LINE
  5
2D8
330
1F
100
AcDbEntity
  8
1
  6
SLD-Сплошная
100
AcDbLine
 10
865.738700977
 20
1441.5075165134
 30
0.0
 11
865.2437262302
 21
1441.0125417665
 31
0.0
  0
LINE
  5
2D9
330
1F
100
AcDbEntity
  8
1
  6
SLD-Сплошная
100
AcDbLine
 10
865.2437262302
 20
1438.6790893886
 30
0.0
 11
865.738700977
 21
1438.1841146418
 31
0.0
  0
CIRCLE
  5
2DA
330
1F
100
AcDbEntity
  8
1
  6
SLD-Сплошная
100
AcDbCircle
 10
866.9054271659
 20
1439.8458155776
 30
0.0
 40
5.000000000000121
  0
ELLIPSE
  5
2DB
330
1F
100
AcDbEntity
  8
1
  6
SLD-Сплошная
100
AcDbEllipse
 10
791.3489837497
 20
1438.9326021236
 30
0.0
 11
0.2145091096840588
 21
0.3520440699442134
 31
0.0
210
0.0
220
0.0
230
1.0
 40
0.9702875252
 41
5.512866274278371
 42
7.053504340080336
  0
SPLINE
  5
2DC
330
1F
100
AcDbEntity
  8
1
  6
SLD-Сплошная
100
AcDbSpline
210
0.0
220
0.0
230
1.0
 70
     8
 71
     3
 72
    12
 73
     8
 74
     0
 42
0.00000001
 43
0.00000001
 40
0.0
 40
0.0
 40
0.0
 40
0.0
 40
0.218785788707199
 40
0.4375776469534809
 40
0.6562353658863849
 40
0.8748419359490969
 40
1.0
 40
1.0
 40
1.0
 40
1.0
 10
791.5640994676714
 20
1438.750325696907
 30
0.0
 10
791.5479631107697
 20
1438.791732556187
 30
0.0
 10
791.5156899493126
 20
1438.874547423453
 30
0.0
 10
791.4182516260264
 20
1438.972089269658
 30
0.0
 10
791.2976389396839
 20
1439.034633571453
 30
0.0
 10
791.1818127594811
 20
1439.05382662151
 30
0.0
 10
791.1133072704436
 20
1439.043838453142
 30
0.0
 10
791.0883657449522
 20
1439.040201953944
 30
0.0
  0
ELLIPSE
  5
2DD
330
1F
100
AcDbEntity
  8
1
  6
SLD-Сплошная
100
AcDbEllipse
 10
792.8186406199
 20
1439.2893721613
 30
0.0
 11
-0.3520440699438723
 21
0.2145091096845136
 31
0.0
210
0.0
220
0.0
230
1.0
 40
0.9702875252
 41
5.512866274279709
 42
7.05350434008138
  0
SPLINE
  5
2DE
330
1F
100
AcDbEntity
  8
1
  6
SLD-Сплошная
100
AcDbSpline
210
0.0
220
0.0
230
1.0
 70
     8
 71
     3
 72
    12
 73
     8
 74
     0
 42
0.00000001
 43
0.00000001
 40
0.0
 40
0.0
 40
0.0
 40
0.0
 40
0.2187857887072013
 40
0.4375776469534829
 40
0.6562353658863845
 40
0.8748419359490948
 40
1.0
 40
1.0
 40
1.0
 40
1.0
 10
793.0009170466197
 20
1439.504487879304
 30
0.0
 10
792.9595101873398
 20
1439.488351522403
 30
0.0
 10
792.8766953200738
 20
1439.456078360945
 30
0.0
 10
792.7791534738691
 20
1439.358640037659
 30
0.0
 10
792.7166091720735
 20
1439.238027351317
 30
0.0
 10
792.697416122017
 20
1439.122201171114
 30
0.0
 10
792.7074042903849
 20
1439.053695682077
 30
0.0
 10
792.7110407895833
 20
1439.028754156585
 30
0.0
  0
ELLIPSE
  5
2DF
330
1F
100
AcDbEntity
  8
1
  6
SLD-Сплошная
100
AcDbEllipse
 10
790.992213712
 20
1440.4022589939
 30
0.0
 11
0.352044069943986
 21
-0.2145091096842862
 31
0.0
210
0.0
220
0.0
230
1.0
 40
0.9702875252
 41
5.512866274278803
 42
7.05350434008094
  0
SPLINE
  5
2E0
330
1F
100
AcDbEntity
  8
1
  6
SLD-Сплошная
100
AcDbSpline
210
0.0
220
0.0
230
1.0
 70
     8
 71
     3
 72
    12
 73
     8
 74
     0
 42
0.00000001
 43
0.00000001
 40
0.0
 40
0.0
 40
0.0
 40
0.0
 40
0.2187857887072006
 40
0.4375776469534783
 40
0.6562353658863845
 40
0.8748419359490948
 40
1.0
 40
1.0
 40
1.0
 40
1.0
 10
790.8099372852744
 20
1440.187143275856
 30
0.0
 10
790.8513441445542
 20
1440.203279632757
 30
0.0
 10
790.9341590118202
 20
1440.235552794214
 30
0.0
 10
791.0317008580251
 20
1440.332991117501
 30
0.0
 10
791.0942451598206
 20
1440.453603803843
 30
0.0
 10
791.1134382098771
 20
1440.569429984046
 30
0.0
 10
791.1034500415091
 20
1440.637935473083
 30
0.0
 10
791.0998135423107
 20
1440.662876998575
 30
0.0
  0
ARC
  5
2E1
330
1F
100
AcDbEntity
  8
1
  6
SLD-Сплошная
100
AcDbCircle
 10
815.605576645
 20
1445.5992015508
 30
0.0
 40
26.5619554959773
100
AcDbArc
 50
192.5267196435
 51
194.7633220947
  0
ARC
  5
2E2
330
1F
100
AcDbEntity
  8
1
  6
SLD-Сплошная
100
AcDbCircle
 10
786.3681071926
 20
1461.9713331686
 30
0.0
 40
23.41191191645169
100
AcDbArc
 50
278.7274979605
 51
281.6315804797
  0
ARC
  5
2E3
330
1F
100
AcDbEntity
  8
1
  6
SLD-Сплошная
100
AcDbCircle
 10
814.1071409101
 20
1445.0692577345
 30
0.0
 40
23.41191191618098
100
AcDbArc
 50
195.6584612586
 51
198.5625437778
  0
ARC
  5
2E4
330
1F
100
AcDbEntity
  8
1
  6
SLD-Сплошная
100
AcDbCircle
 10
786.1520411925
 20
1463.5459650574
 30
0.0
 40
26.56195549678377
100
AcDbArc
 50
282.5267196436
 51
284.7633220947
  0
ARC
  5
2E5
330
1F
100
AcDbEntity
  8
1
  6
SLD-Сплошная
100
AcDbCircle
 10
769.7799095751
 20
1434.3084956043
 30
0.0
 40
23.41191191630132
100
AcDbArc
 50
8.7274979605
 51
11.6315804797
  0
ARC
  5
2E6
330
1F
100
AcDbEntity
  8
1
  6
SLD-Сплошная
100
AcDbCircle
 10
786.681985009
 20
1462.0475293217
 30
0.0
 40
23.41191191611425
100
AcDbArc
 50
285.6584612585
 51
288.5625437778
  0
ARC
  5
2E7
330
1F
100
AcDbEntity
  8
1
  6
SLD-Сплошная
100
AcDbCircle
 10
768.2052776865
 20
1434.0924296043
 30
0.0
 40
26.56195549643136
100
AcDbArc
 50
12.5267196436
 51
14.7633220947
  0
ARC
  5
2E8
330
1F
100
AcDbEntity
  8
1
  6
SLD-Сплошная
100
AcDbCircle
 10
797.4427471392
 20
1417.7202979866
 30
0.0
 40
23.4119119163932
100
AcDbArc
 50
98.7274979605
 51
101.6315804797
  0
SPLINE
  5
2E9
330
1F
100
AcDbEntity
  8
1
  6
SLD-Сплошная
100
AcDbSpline
210
0.0
220
0.0
230
1.0
 70
     8
 71
     3
 72
    12
 73
     8
 74
     0
 42
0.00000001
 43
0.00000001
 40
0.0
 40
0.0
 40
0.0
 40
0.0
 40
0.2187857887072037
 40
0.4375776469534812
 40
0.6562353658863854
 40
0.8748419359490972
 40
1.0
 40
1.0
 40
1.0
 40
1.0
 10
792.2467548642226
 20
1440.941305458253
 30
0.0
 10
792.2628912211244
 20
1440.899898598973
 30
0.0
 10
792.2951643825816
 20
1440.817083731707
 30
0.0
 10
792.3926027058676
 20
1440.719541885502
 30
0.0
 10
792.5132153922103
 20
1440.656997583706
 30
0.0
 10
792.6290415724131
 20
1440.63780453365
 30
0.0
 10
792.6975470614505
 20
1440.647792702018
 30
0.0
 10
792.7224885869418
 20
1440.651429201216
 30
0.0
  0
ARC
  5
2EA
330
1F
100
AcDbEntity
  8
1
  6
SLD-Сплошная
100
AcDbCircle
 10
769.7037134219
 20
1434.6223734207
 30
0.0
 40
23.41191191601612
100
AcDbArc
 50
15.6584612585
 51
18.5625437778
  0
ARC
  5
2EB
330
1F
100
AcDbEntity
  8
1
  6
SLD-Сплошная
100
AcDbCircle
 10
797.6588131392
 20
1416.1456660985
 30
0.0
 40
26.56195549599843
100
AcDbArc
 50
102.5267196435
 51
104.7633220947
  0
ARC
  5
2EC
330
1F
100
AcDbEntity
  8
1
  6
SLD-Сплошная
100
AcDbCircle
 10
814.0309447567
 20
1445.3831355508
 30
0.0
 40
23.41191191617314
100
AcDbArc
 50
188.7274979604
 51
191.6315804797
  0
ARC
  5
2ED
330
1F
100
AcDbEntity
  8
1
  6
SLD-Сплошная
100
AcDbCircle
 10
797.128869323
 20
1417.6441018328
 30
0.0
 40
23.41191191679161
100
AcDbArc
 50
105.6584612586
 51
108.5625437778
  0
CIRCLE
  5
2EE
330
1F
100
AcDbEntity
  8
1
  6
SLD-Сплошная
100
AcDbCircle
 10
791.9054271659
 20
1439.8458155776
 30
0.0
 40
3.499999999999991
  0
ELLIPSE
  5
2EF
330
1F
100
AcDbEntity
  8
1
  6
SLD-Сплошная
100
AcDbEllipse
 10
792.4618705822
 20
1440.7590290315
 30
0.0
 11
-0.2145091096842862
 21
-0.3520440699442133
 31
0.0
210
0.0
220
0.0
230
1.0
 40
0.9702875252
 41
5.512866274278868
 42
7.05350434008016
  0
LINE
  5
2F0
330
1F
100
AcDbEntity
  8
1
  6
SLD-Сплошная
100
AcDbLine
 10
794.1349249097
 20
1439.8535818043
 30
0.0
 11
793.9315460552
 21
1439.9775055421
 31
0.0
  0
LINE
  5
2F1
330
1F
100
AcDbEntity
  8
1
  6
SLD-Сплошная
100
AcDbLine
 10
792.7109207528
 20
1439.6811897531
 30
0.0
 11
793.9315460552
 21
1439.9775055421
 31
0.0
  0
LINE
  5
2F2
330
1F
100
AcDbEntity
  8
1
  6
SLD-Сплошная
100
AcDbLine
 10
793.8903357534
 20
1440.861127551
 30
0.0
 11
793.7664120156
 21
1440.6577486964
 31
0.0
  0
LINE
  5
2F3
330
1F
100
AcDbEntity
  8
1
  6
SLD-Сплошная
100
AcDbLine
 10
793.7664120156
 20
1440.6577486964
 30
0.0
 11
792.5457867132
 21
1440.3614329074
 31
0.0
  0
LINE
  5
2F4
330
1F
100
AcDbEntity
  8
1
  6
SLD-Сплошная
100
AcDbLine
 10
791.9131933927
 20
1437.6163178338
 30
0.0
 11
792.0371171305
 21
1437.8196966884
 31
0.0
  0
LINE
  5
2F5
330
1F
100
AcDbEntity
  8
1
  6
SLD-Сплошная
100
AcDbLine
 10
791.7408013414
 20
1439.0403219908
 30
0.0
 11
792.0371171305
 21
1437.8196966884
 31
0.0
  0
LINE
  5
2F6
330
1F
100
AcDbEntity
  8
1
  6
SLD-Сплошная
100
AcDbLine
 10
789.6759294221
 20
1439.8380493509
 30
0.0
 11
789.8793082767
 21
1439.714125613
 31
0.0
  0
LINE
  5
2F7
330
1F
100
AcDbEntity
  8
1
  6
SLD-Сплошная
100
AcDbLine
 10
791.0999335791
 20
1440.0104414021
 30
0.0
 11
789.8793082767
 21
1439.714125613
 31
0.0
  0
LINE
  5
2F8
330
1F
100
AcDbEntity
  8
1
  6
SLD-Сплошная
100
AcDbLine
 10
789.9205185785
 20
1438.8305036042
 30
0.0
 11
790.0444423163
 21
1439.0338824588
 31
0.0
  0
LINE
  5
2F9
330
1F
100
AcDbEntity
  8
1
  6
SLD-Сплошная
100
AcDbLine
 10
790.0444423163
 20
1439.0338824588
 30
0.0
 11
791.2650676187
 21
1439.3301982478
 31
0.0
  0
LINE
  5
2FA
330
1F
100
AcDbEntity
  8
1
  6
SLD-Сплошная
100
AcDbLine
 10
792.9207391394
 20
1437.8609069901
 30
0.0
 11
792.7173602848
 21
1437.984830728
 31
0.0
  0
LINE
  5
2FB
330
1F
100
AcDbEntity
  8
1
  6
SLD-Сплошная
100
AcDbLine
 10
792.7173602848
 20
1437.984830728
 30
0.0
 11
792.4210444957
 21
1439.2054560303
 31
0.0
  0
LINE
  5
2FC
330
1F
100
AcDbEntity
  8
1
  6
SLD-Сплошная
100
AcDbLine
 10
791.8976609392
 20
1442.0753133214
 30
0.0
 11
791.7737372014
 21
1441.8719344668
 31
0.0
  0
LINE
  5
2FD
330
1F
100
AcDbEntity
  8
1
  6
SLD-Сплошная
100
AcDbLine
 10
792.0700529905
 20
1440.6513091644
 30
0.0
 11
791.7737372014
 21
1441.8719344668
 31
0.0
  0
LINE
  5
2FE
330
1F
100
AcDbEntity
  8
1
  6
SLD-Сплошная
100
AcDbLine
 10
790.8901151925
 20
1441.830724165
 30
0.0
 11
791.0934940471
 21
1441.7068004272
 31
0.0
  0
LINE
  5
2FF
330
1F
100
AcDbEntity
  8
1
  6
SLD-Сплошная
100
AcDbLine
 10
791.0934940471
 20
1441.7068004272
 30
0.0
 11
791.3898098362
 21
1440.4861751248
 31
0.0
  0
LINE
  5
300
330
1F
100
AcDbEntity
  8
1
  6
SLD-Сплошная
100
AcDbLine
 10
792.0371171305
 20
1437.8196966884
 30
0.0
 11
792.7173602848
 21
1437.984830728
 31
0.0
  0
LINE
  5
301
330
1F
100
AcDbEntity
  8
1
  6
SLD-Сплошная
100
AcDbLine
 10
793.9315460552
 20
1439.9775055421
 30
0.0
 11
793.7664120156
 21
1440.6577486964
 31
0.0
  0
LINE
  5
302
330
1F
100
AcDbEntity
  8
1
  6
SLD-Сплошная
100
AcDbLine
 10
791.7737372014
 20
1441.8719344668
 30
0.0
 11
791.0934940471
 21
1441.7068004272
 31
0.0
  0
LINE
  5
303
330
1F
100
AcDbEntity
  8
1
  6
SLD-Сплошная
100
AcDbLine
 10
789.8793082767
 20
1439.714125613
 30
0.0
 11
790.0444423163
 21
1439.0338824588
 31
0.0
  0
CIRCLE
  5
304
330
1F
100
AcDbEntity
  8
1
  6
SLD-Сплошная
100
AcDbCircle
 10
791.9054271659
 20
1439.8458155776
 30
0.0
 40
4.999999999999972
  0
ELLIPSE
  5
305
330
1F
100
AcDbEntity
  8
1
  6
SLD-Сплошная
100
AcDbEllipse
 10
641.9054271659
 20
1438.7764287963
 30
0.0
 11
0.0
 21
0.4122489361056978
 31
0.0
210
0.0
220
0.0
230
1.0
 40
0.9702875252
 41
5.512866274278884
 42
7.053504340080098
  0
SPLINE
  5
306
330
1F
100
AcDbEntity
  8
1
  6
SLD-Сплошная
100
AcDbSpline
210
0.0
220
0.0
230
1.0
 70
     8
 71
     3
 72
    12
 73
     8
 74
     0
 42
0.00000001
 43
0.00000001
 40
0.0
 40
0.0
 40
0.0
 40
0.0
 40
0.2187857887072125
 40
0.4375776469534837
 40
0.6562353658864009
 40
0.874841935949103
 40
1.0
 40
1.0
 40
1.0
 40
1.0
 10
642.183972862075
 20
1438.732705083768
 30
0.0
 10
642.1486474652061
 20
1438.75966850984
 30
0.0
 10
642.0779956914737
 20
1438.813596110001
 30
0.0
 10
641.9440324628328
 20
1438.846191998974
 30
0.0
 10
641.8084898365527
 20
1438.836842867732
 30
0.0
 10
641.6995920322588
 20
1438.79296410965
 30
0.0
 10
641.6462883214529
 20
1438.748788551364
 30
0.0
 10
641.6268814698191
 20
1438.732705083768
 30
0.0
  0
ARC
  5
307
330
1F
100
AcDbEntity
  8
1
  6
SLD-Сплошная
100
AcDbCircle
 10
659.1506951472
 20
1457.0910835588
 30
0.0
 40
26.56195549608184
100
AcDbArc
 50
223.8816987744
 51
226.1183012256
  0
ARC
  5
308
330
1F
100
AcDbEntity
  8
1
  6
SLD-Сплошная
100
AcDbCircle
 10
625.6640129299
 20
1455.8588385514
 30
0.0
 40
23.41191191626306
100
AcDbArc
 50
310.0824770913
 51
312.9865596106
  0
ARC
  5
309
330
1F
100
AcDbEntity
  8
1
  6
SLD-Сплошная
100
AcDbCircle
 10
658.1468414022
 20
1455.8588385515
 30
0.0
 40
23.41191191644977
100
AcDbArc
 50
227.0134403894
 51
229.9175229087
  0
ARC
  5
30A
330
1F
100
AcDbEntity
  8
1
  6
SLD-Сплошная
100
AcDbCircle
 10
624.6601591844
 20
1457.0910835591
 30
0.0
 40
26.56195549653245
100
AcDbArc
 50
313.8816987744
 51
316.1183012256
  0
ARC
  5
30B
330
1F
100
AcDbEntity
  8
1
  6
SLD-Сплошная
100
AcDbCircle
 10
625.8924041921
 20
1423.6044013414
 30
0.0
 40
23.41191191632988
100
AcDbArc
 50
40.0824770913
 51
42.9865596106
  0
SPLINE
  5
30C
330
1F
100
AcDbEntity
  8
1
  6
SLD-Сплошная
100
AcDbSpline
210
0.0
220
0.0
230
1.0
 70
     8
 71
     3
 72
    12
 73
     8
 74
     0
 42
0.00000001
 43
0.00000001
 40
0.0
 40
0.0
 40
0.0
 40
0.0
 40
0.2187857887072109
 40
0.4375776469534843
 40
0.6562353658863843
 40
0.8748419359490952
 40
0.9999999999999999
 40
0.9999999999999999
 40
0.9999999999999999
 40
0.9999999999999999
 10
643.0185376597593
 20
1440.124361273708
 30
0.0
 10
642.9915742336873
 20
1440.089035876839
 30
0.0
 10
642.9376466335258
 20
1440.018384103106
 30
0.0
 10
642.9050507445526
 20
1439.884420874465
 30
0.0
 10
642.9143998757947
 20
1439.748878248186
 30
0.0
 10
642.9582786338766
 20
1439.639980443892
 30
0.0
 10
643.0024541921631
 20
1439.586676733086
 30
0.0
 10
643.0185376597593
 20
1439.567269881452
 30
0.0
  0
ARC
  5
30D
330
1F
100
AcDbEntity
  8
1
  6
SLD-Сплошная
100
AcDbCircle
 10
625.8924041921
 20
1456.0872298137
 30
0.0
 40
23.4119119163322
100
AcDbArc
 50
317.0134403894
 51
319.9175229087
  0
ARC
  5
30E
330
1F
100
AcDbEntity
  8
1
  6
SLD-Сплошная
100
AcDbCircle
 10
624.6601591845
 20
1422.6005475961
 30
0.0
 40
26.56195549638665
100
AcDbArc
 50
43.8816987744
 51
46.1183012256
  0
ARC
  5
30F
330
1F
100
AcDbEntity
  8
1
  6
SLD-Сплошная
100
AcDbCircle
 10
658.1468414021
 20
1423.8327926037
 30
0.0
 40
23.41191191635198
100
AcDbArc
 50
130.0824770913
 51
132.9865596106
  0
SPLINE
  5
310
330
1F
100
AcDbEntity
  8
1
  6
SLD-Сплошная
100
AcDbSpline
210
0.0
220
0.0
230
1.0
 70
     8
 71
     3
 72
    12
 73
     8
 74
     0
 42
0.00000001
 43
0.00000001
 40
0.0
 40
0.0
 40
0.0
 40
0.0
 40
0.2187857887071772
 40
0.4375776469534897
 40
0.656235365886361
 40
0.8748419359491035
 40
1.0
 40
1.0
 40
1.0
 40
1.0
 10
641.6268814698191
 20
1440.958926071392
 30
0.0
 10
641.6622068666879
 20
1440.93196264532
 30
0.0
 10
641.7328586404203
 20
1440.878035045158
 30
0.0
 10
641.8668218690614
 20
1440.845439156185
 30
0.0
 10
642.0023644953413
 20
1440.854788287428
 30
0.0
 10
642.1112622996354
 20
1440.898667045509
 30
0.0
 10
642.1645660104413
 20
1440.942842603796
 30
0.0
 10
642.183972862075
 20
1440.958926071392
 30
0.0
  0
ARC
  5
311
330
1F
100
AcDbEntity
  8
1
  6
SLD-Сплошная
100
AcDbCircle
 10
625.6640129299
 20
1423.8327926038
 30
0.0
 40
23.4119119161656
100
AcDbArc
 50
47.0134403894
 51
49.9175229087
  0
ARC
  5
312
330
1F
100
AcDbEntity
  8
1
  6
SLD-Сплошная
100
AcDbCircle
 10
659.1506951473
 20
1422.6005475963
 30
0.0
 40
26.56195549619866
100
AcDbArc
 50
133.8816987744
 51
136.1183012256
  0
ARC
  5
313
330
1F
100
AcDbEntity
  8
1
  6
SLD-Сплошная
100
AcDbCircle
 10
657.9184501397
 20
1456.0872298136
 30
0.0
 40
23.41191191621572
100
AcDbArc
 50
220.0824770913
 51
222.9865596106
  0
SPLINE
  5
314
330
1F
100
AcDbEntity
  8
1
  6
SLD-Сплошная
100
AcDbSpline
210
0.0
220
0.0
230
1.0
 70
     8
 71
     3
 72
    12
 73
     8
 74
     0
 42
0.00000001
 43
0.00000001
 40
0.0
 40
0.0
 40
0.0
 40
0.0
 40
0.218785788707198
 40
0.4375776469534773
 40
0.6562353658863889
 40
0.8748419359491113
 40
1.0
 40
1.0
 40
1.0
 40
1.0
 10
640.7923166721348
 20
1439.567269881452
 30
0.0
 10
640.8192800982068
 20
1439.602595278321
 30
0.0
 10
640.8732076983683
 20
1439.673247052053
 30
0.0
 10
640.9058035873416
 20
1439.807210280694
 30
0.0
 10
640.8964544560994
 20
1439.942752906974
 30
0.0
 10
640.8525756980174
 20
1440.051650711268
 30
0.0
 10
640.808400139731
 20
1440.104954422074
 30
0.0
 10
640.7923166721348
 20
1440.124361273708
 30
0.0
  0
ARC
  5
315
330
1F
100
AcDbEntity
  8
1
  6
SLD-Сплошная
100
AcDbCircle
 10
657.9184501396
 20
1423.6044013416
 30
0.0
 40
23.41191191604582
100
AcDbArc
 50
137.0134403894
 51
139.9175229087
  0
CIRCLE
  5
316
330
1F
100
AcDbEntity
  8
1
  6
SLD-Сплошная
100
AcDbCircle
 10
641.9054271659
 20
1439.8458155776
 30
0.0
 40
3.499999999999948
  0
ELLIPSE
  5
317
330
1F
100
AcDbEntity
  8
1
  6
SLD-Сплошная
100
AcDbEllipse
 10
641.9054271659
 20
1440.9152023589
 30
0.0
 11
0.0
 21
-0.4122489361059252
 31
0.0
210
0.0
220
0.0
230
1.0
 40
0.9702875252
 41
5.512866274278671
 42
7.053504340080719
  0
ELLIPSE
  5
318
330
1F
100
AcDbEntity
  8
1
  6
SLD-Сплошная
100
AcDbEllipse
 10
642.9748139472
 20
1439.8458155776
 30
0.0
 11
-0.4122489361056978
 21
0.0
 31
0.0
210
0.0
220
0.0
230
1.0
 40
0.9702875252
 41
5.512866274278501
 42
7.053504340080278
  0
ELLIPSE
  5
319
330
1F
100
AcDbEntity
  8
1
  6
SLD-Сплошная
100
AcDbEllipse
 10
640.8360403847
 20
1439.8458155776
 30
0.0
 11
0.4122489361056978
 21
0.0
 31
0.0
210
0.0
220
0.0
230
1.0
 40
0.9702875252
 41
5.512866274278624
 42
7.05350434008097
  0
LINE
  5
31A
330
1F
100
AcDbEntity
  8
1
  6
SLD-Сплошная
100
AcDbLine
 10
643.0721533549
 20
1441.7456762314
 30
0.0
 11
643.0721533549
 21
1441.5075165134
 31
0.0
  0
LINE
  5
31B
330
1F
100
AcDbEntity
  8
1
  6
SLD-Сплошная
100
AcDbLine
 10
643.0721533549
 20
1441.5075165134
 30
0.0
 11
642.1839728621
 21
1440.6193360205
 31
0.0
  0
LINE
  5
31C
330
1F
100
AcDbEntity
  8
1
  6
SLD-Сплошная
100
AcDbLine
 10
643.8052878198
 20
1441.0125417665
 30
0.0
 11
643.5671281017
 21
1441.0125417665
 31
0.0
  0
LINE
  5
31D
330
1F
100
AcDbEntity
  8
1
  6
SLD-Сплошная
100
AcDbLine
 10
642.6789476089
 20
1440.1243612737
 30
0.0
 11
643.5671281017
 21
1441.0125417665
 31
0.0
  0
LINE
  5
31E
330
1F
100
AcDbEntity
  8
1
  6
SLD-Сплошная
100
AcDbLine
 10
640.0055665121
 20
1441.0125417665
 30
0.0
 11
640.2437262302
 21
1441.0125417665
 31
0.0
  0
LINE
  5
31F
330
1F
100
AcDbEntity
  8
1
  6
SLD-Сплошная
100
AcDbLine
 10
640.2437262302
 20
1441.0125417665
 30
0.0
 11
641.131906723
 21
1440.1243612737
 31
0.0
  0
LINE
  5
320
330
1F
100
AcDbEntity
  8
1
  6
SLD-Сплошная
100
AcDbLine
 10
640.0055665121
 20
1438.6790893886
 30
0.0
 11
640.2437262302
 21
1438.6790893886
 31
0.0
  0
LINE
  5
321
330
1F
100
AcDbEntity
  8
1
  6
SLD-Сплошная
100
AcDbLine
 10
641.131906723
 20
1439.5672698815
 30
0.0
 11
640.2437262302
 21
1438.6790893886
 31
0.0
  0
LINE
  5
322
330
1F
100
AcDbEntity
  8
1
  6
SLD-Сплошная
100
AcDbLine
 10
643.0721533549
 20
1437.9459549238
 30
0.0
 11
643.0721533549
 21
1438.1841146418
 31
0.0
  0
LINE
  5
323
330
1F
100
AcDbEntity
  8
1
  6
SLD-Сплошная
100
AcDbLine
 10
642.1839728621
 20
1439.0722951346
 30
0.0
 11
643.0721533549
 21
1438.1841146418
 31
0.0
  0
LINE
  5
324
330
1F
100
AcDbEntity
  8
1
  6
SLD-Сплошная
100
AcDbLine
 10
643.8052878198
 20
1438.6790893886
 30
0.0
 11
643.5671281017
 21
1438.6790893886
 31
0.0
  0
LINE
  5
325
330
1F
100
AcDbEntity
  8
1
  6
SLD-Сплошная
100
AcDbLine
 10
643.5671281017
 20
1438.6790893886
 30
0.0
 11
642.6789476089
 21
1439.5672698815
 31
0.0
  0
LINE
  5
326
330
1F
100
AcDbEntity
  8
1
  6
SLD-Сплошная
100
AcDbLine
 10
640.738700977
 20
1437.9459549238
 30
0.0
 11
640.738700977
 21
1438.1841146418
 31
0.0
  0
LINE
  5
327
330
1F
100
AcDbEntity
  8
1
  6
SLD-Сплошная
100
AcDbLine
 10
640.738700977
 20
1438.1841146418
 30
0.0
 11
641.6268814698
 21
1439.0722951346
 31
0.0
  0
LINE
  5
328
330
1F
100
AcDbEntity
  8
1
  6
SLD-Сплошная
100
AcDbLine
 10
640.738700977
 20
1441.7456762314
 30
0.0
 11
640.738700977
 21
1441.5075165134
 31
0.0
  0
LINE
  5
329
330
1F
100
AcDbEntity
  8
1
  6
SLD-Сплошная
100
AcDbLine
 10
641.6268814698
 20
1440.6193360205
 30
0.0
 11
640.738700977
 21
1441.5075165134
 31
0.0
  0
LINE
  5
32A
330
1F
100
AcDbEntity
  8
1
  6
SLD-Сплошная
100
AcDbLine
 10
640.738700977
 20
1441.5075165134
 30
0.0
 11
640.2437262302
 21
1441.0125417665
 31
0.0
  0
LINE
  5
32B
330
1F
100
AcDbEntity
  8
1
  6
SLD-Сплошная
100
AcDbLine
 10
643.0721533549
 20
1438.1841146418
 30
0.0
 11
643.5671281017
 21
1438.6790893886
 31
0.0
  0
LINE
  5
32C
330
1F
100
AcDbEntity
  8
1
  6
SLD-Сплошная
100
AcDbLine
 10
643.5671281017
 20
1441.0125417665
 30
0.0
 11
643.0721533549
 21
1441.5075165134
 31
0.0
  0
LINE
  5
32D
330
1F
100
AcDbEntity
  8
1
  6
SLD-Сплошная
100
AcDbLine
 10
640.2437262302
 20
1438.6790893886
 30
0.0
 11
640.738700977
 21
1438.1841146418
 31
0.0
  0
CIRCLE
  5
32E
330
1F
100
AcDbEntity
  8
1
  6
SLD-Сплошная
100
AcDbCircle
 10
641.9054271659
 20
1439.8458155776
 30
0.0
 40
4.999999999999879
  0
ARC
  5
32F
330
1F
100
AcDbEntity
  8
1
  6
SLD-Сплошная
100
AcDbCircle
 10
976.6506951469
 20
1377.0910835586
 30
0.0
 40
26.56195549574206
100
AcDbArc
 50
223.8816987744
 51
226.1183012256
  0
ARC
  5
330
330
1F
100
AcDbEntity
  8
1
  6
SLD-Сплошная
100
AcDbCircle
 10
943.1640129296
 20
1375.8588385517
 30
0.0
 40
23.41191191671624
100
AcDbArc
 50
310.0824770913
 51
312.9865596105
  0
SPLINE
  5
331
330
1F
100
AcDbEntity
  8
1
  6
SLD-Сплошная
100
AcDbSpline
210
0.0
220
0.0
230
1.0
 70
     8
 71
     3
 72
    12
 73
     8
 74
     0
 42
0.00000001
 43
0.00000001
 40
0.0
 40
0.0
 40
0.0
 40
0.0
 40
0.2187857887072158
 40
0.437577646953487
 40
0.656235365886403
 40
0.874841935949098
 40
1.0
 40
1.0
 40
1.0
 40
1.0
 10
959.683972862075
 20
1358.732705083767
 30
0.0
 10
959.6486474652062
 20
1358.759668509839
 30
0.0
 10
959.5779956914737
 20
1358.813596110001
 30
0.0
 10
959.4440324628329
 20
1358.846191998974
 30
0.0
 10
959.3084898365527
 20
1358.836842867732
 30
0.0
 10
959.1995920322589
 20
1358.79296410965
 30
0.0
 10
959.1462883214529
 20
1358.748788551364
 30
0.0
 10
959.1268814698191
 20
1358.732705083767
 30
0.0
  0
ARC
  5
332
330
1F
100
AcDbEntity
  8
1
  6
SLD-Сплошная
100
AcDbCircle
 10
975.6468414024
 20
1375.8588385518
 30
0.0
 40
23.41191191687167
100
AcDbArc
 50
227.0134403895
 51
229.9175229086
  0
ARC
  5
333
330
1F
100
AcDbEntity
  8
1
  6
SLD-Сплошная
100
AcDbCircle
 10
942.1601591847
 20
1377.0910835588
 30
0.0
 40
26.56195549606886
100
AcDbArc
 50
313.8816987744
 51
316.1183012256
  0
ARC
  5
334
330
1F
100
AcDbEntity
  8
1
  6
SLD-Сплошная
100
AcDbCircle
 10
943.392404192
 20
1343.6044013414
 30
0.0
 40
23.41191191641095
100
AcDbArc
 50
40.0824770913
 51
42.9865596106
  0
SPLINE
  5
335
330
1F
100
AcDbEntity
  8
1
  6
SLD-Сплошная
100
AcDbSpline
210
0.0
220
0.0
230
1.0
 70
     8
 71
     3
 72
    12
 73
     8
 74
     0
 42
0.00000001
 43
0.00000001
 40
0.0
 40
0.0
 40
0.0
 40
0.0
 40
0.2187857887072255
 40
0.4375776469534884
 40
0.6562353658863777
 40
0.8748419359490994
 40
1.0
 40
1.0
 40
1.0
 40
1.0
 10
960.5185376597593
 20
1360.124361273708
 30
0.0
 10
960.4915742336873
 20
1360.089035876839
 30
0.0
 10
960.4376466335258
 20
1360.018384103106
 30
0.0
 10
960.4050507445527
 20
1359.884420874465
 30
0.0
 10
960.4143998757947
 20
1359.748878248186
 30
0.0
 10
960.4582786338767
 20
1359.639980443892
 30
0.0
 10
960.5024541921631
 20
1359.586676733086
 30
0.0
 10
960.5185376597593
 20
1359.567269881452
 30
0.0
  0
ARC
  5
336
330
1F
100
AcDbEntity
  8
1
  6
SLD-Сплошная
100
AcDbCircle
 10
943.3924041922
 20
1376.0872298136
 30
0.0
 40
23.41191191611949
100
AcDbArc
 50
317.0134403894
 51
319.9175229087
  0
ARC
  5
337
330
1F
100
AcDbEntity
  8
1
  6
SLD-Сплошная
100
AcDbCircle
 10
942.1601591853
 20
1342.6005475969
 30
0.0
 40
26.56195549531077
100
AcDbArc
 50
43.8816987744
 51
46.1183012256
  0
ARC
  5
338
330
1F
100
AcDbEntity
  8
1
  6
SLD-Сплошная
100
AcDbCircle
 10
975.6468414022
 20
1343.8327926036
 30
0.0
 40
23.41191191647734
100
AcDbArc
 50
130.0824770913
 51
132.9865596105
  0
SPLINE
  5
339
330
1F
100
AcDbEntity
  8
1
  6
SLD-Сплошная
100
AcDbSpline
210
0.0
220
0.0
230
1.0
 70
     8
 71
     3
 72
    12
 73
     8
 74
     0
 42
0.00000001
 43
0.00000001
 40
0.0
 40
0.0
 40
0.0
 40
0.0
 40
0.2187857887071779
 40
0.4375776469534922
 40
0.6562353658863623
 40
0.8748419359490983
 40
1.0
 40
1.0
 40
1.0
 40
1.0
 10
959.1268814698191
 20
1360.958926071392
 30
0.0
 10
959.162206866688
 20
1360.93196264532
 30
0.0
 10
959.2328586404204
 20
1360.878035045159
 30
0.0
 10
959.3668218690614
 20
1360.845439156185
 30
0.0
 10
959.5023644953415
 20
1360.854788287427
 30
0.0
 10
959.6112622996353
 20
1360.898667045509
 30
0.0
 10
959.6645660104413
 20
1360.942842603796
 30
0.0
 10
959.683972862075
 20
1360.958926071392
 30
0.0
  0
ARC
  5
33A
330
1F
100
AcDbEntity
  8
1
  6
SLD-Сплошная
100
AcDbCircle
 10
943.1640129299
 20
1343.8327926038
 30
0.0
 40
23.41191191624437
100
AcDbArc
 50
47.0134403894
 51
49.9175229087
  0
ARC
  5
33B
330
1F
100
AcDbEntity
  8
1
  6
SLD-Сплошная
100
AcDbCircle
 10
976.6506951466
 20
1342.6005475969
 30
0.0
 40
26.5619554952478
100
AcDbArc
 50
133.8816987744
 51
136.1183012256
  0
ARC
  5
33C
330
1F
100
AcDbEntity
  8
1
  6
SLD-Сплошная
100
AcDbCircle
 10
975.4184501396
 20
1376.0872298136
 30
0.0
 40
23.41191191608411
100
AcDbArc
 50
220.0824770913
 51
222.9865596106
  0
SPLINE
  5
33D
330
1F
100
AcDbEntity
  8
1
  6
SLD-Сплошная
100
AcDbSpline
210
0.0
220
0.0
230
1.0
 70
     8
 71
     3
 72
    12
 73
     8
 74
     0
 42
0.00000001
 43
0.00000001
 40
0.0
 40
0.0
 40
0.0
 40
0.0
 40
0.2187857887072118
 40
0.4375776469534857
 40
0.6562353658864084
 40
0.8748419359491202
 40
1.0
 40
1.0
 40
1.0
 40
1.0
 10
958.2923166721349
 20
1359.567269881452
 30
0.0
 10
958.3192800982068
 20
1359.602595278321
 30
0.0
 10
958.3732076983684
 20
1359.673247052053
 30
0.0
 10
958.4058035873416
 20
1359.807210280694
 30
0.0
 10
958.3964544560994
 20
1359.942752906974
 30
0.0
 10
958.3525756980175
 20
1360.051650711268
 30
0.0
 10
958.308400139731
 20
1360.104954422074
 30
0.0
 10
958.2923166721349
 20
1360.124361273708
 30
0.0
  0
ARC
  5
33E
330
1F
100
AcDbEntity
  8
1
  6
SLD-Сплошная
100
AcDbCircle
 10
975.4184501397
 20
1343.6044013415
 30
0.0
 40
23.4119119162079
100
AcDbArc
 50
137.0134403894
 51
139.9175229087
  0
CIRCLE
  5
33F
330
1F
100
AcDbEntity
  8
1
  6
SLD-Сплошная
100
AcDbCircle
 10
959.4054271659
 20
1359.8458155776
 30
0.0
 40
3.500000000000109
  0
ELLIPSE
  5
340
330
1F
100
AcDbEntity
  8
1
  6
SLD-Сплошная
100
AcDbEllipse
 10
959.4054271659
 20
1360.9152023589
 30
0.0
 11
0.0
 21
-0.4122489361056978
 31
0.0
210
0.0
220
0.0
230
1.0
 40
0.9702875252
 41
5.512866274278501
 42
7.053504340080481
  0
ELLIPSE
  5
341
330
1F
100
AcDbEntity
  8
1
  6
SLD-Сплошная
100
AcDbEllipse
 10
958.3360403847
 20
1359.8458155776
 30
0.0
 11
0.4122489361056978
 21
0.0
 31
0.0
210
0.0
220
0.0
230
1.0
 40
0.9702875252
 41
5.512866274278785
 42
7.053504340079994
  0
ELLIPSE
  5
342
330
1F
100
AcDbEntity
  8
1
  6
SLD-Сплошная
100
AcDbEllipse
 10
960.4748139472
 20
1359.8458155776
 30
0.0
 11
-0.4122489361055841
 21
0.0
 31
0.0
210
0.0
220
0.0
230
1.0
 40
0.9702875252
 41
5.512866274278762
 42
7.053504340080831
  0
ELLIPSE
  5
343
330
1F
100
AcDbEntity
  8
1
  6
SLD-Сплошная
100
AcDbEllipse
 10
959.4054271659
 20
1358.7764287963
 30
0.0
 11
0.0
 21
0.4122489361056978
 31
0.0
210
0.0
220
0.0
230
1.0
 40
0.9702875252
 41
5.512866274278947
 42
7.053504340080444
  0
LINE
  5
344
330
1F
100
AcDbEntity
  8
1
  6
SLD-Сплошная
100
AcDbLine
 10
961.3052878198
 20
1361.0125417665
 30
0.0
 11
961.0671281017
 21
1361.0125417665
 31
0.0
  0
LINE
  5
345
330
1F
100
AcDbEntity
  8
1
  6
SLD-Сплошная
100
AcDbLine
 10
960.1789476089
 20
1360.1243612737
 30
0.0
 11
961.0671281017
 21
1361.0125417665
 31
0.0
  0
LINE
  5
346
330
1F
100
AcDbEntity
  8
1
  6
SLD-Сплошная
100
AcDbLine
 10
960.5721533549
 20
1361.7456762314
 30
0.0
 11
960.5721533549
 21
1361.5075165134
 31
0.0
  0
LINE
  5
347
330
1F
100
AcDbEntity
  8
1
  6
SLD-Сплошная
100
AcDbLine
 10
960.5721533549
 20
1361.5075165134
 30
0.0
 11
959.6839728621
 21
1360.6193360205
 31
0.0
  0
LINE
  5
348
330
1F
100
AcDbEntity
  8
1
  6
SLD-Сплошная
100
AcDbLine
 10
958.238700977
 20
1357.9459549238
 30
0.0
 11
958.238700977
 21
1358.1841146418
 31
0.0
  0
LINE
  5
349
330
1F
100
AcDbEntity
  8
1
  6
SLD-Сплошная
100
AcDbLine
 10
958.238700977
 20
1358.1841146418
 30
0.0
 11
959.1268814698
 21
1359.0722951346
 31
0.0
  0
LINE
  5
34A
330
1F
100
AcDbEntity
  8
1
  6
SLD-Сплошная
100
AcDbLine
 10
957.5055665121
 20
1358.6790893886
 30
0.0
 11
957.7437262302
 21
1358.6790893886
 31
0.0
  0
LINE
  5
34B
330
1F
100
AcDbEntity
  8
1
  6
SLD-Сплошная
100
AcDbLine
 10
958.631906723
 20
1359.5672698815
 30
0.0
 11
957.7437262302
 21
1358.6790893886
 31
0.0
  0
LINE
  5
34C
330
1F
100
AcDbEntity
  8
1
  6
SLD-Сплошная
100
AcDbLine
 10
961.3052878198
 20
1358.6790893886
 30
0.0
 11
961.0671281017
 21
1358.6790893886
 31
0.0
  0
LINE
  5
34D
330
1F
100
AcDbEntity
  8
1
  6
SLD-Сплошная
100
AcDbLine
 10
961.0671281017
 20
1358.6790893886
 30
0.0
 11
960.1789476089
 21
1359.5672698815
 31
0.0
  0
LINE
  5
34E
330
1F
100
AcDbEntity
  8
1
  6
SLD-Сплошная
100
AcDbLine
 10
958.238700977
 20
1361.7456762314
 30
0.0
 11
958.238700977
 21
1361.5075165134
 31
0.0
  0
LINE
  5
34F
330
1F
100
AcDbEntity
  8
1
  6
SLD-Сплошная
100
AcDbLine
 10
959.1268814698
 20
1360.6193360205
 30
0.0
 11
958.238700977
 21
1361.5075165134
 31
0.0
  0
LINE
  5
350
330
1F
100
AcDbEntity
  8
1
  6
SLD-Сплошная
100
AcDbLine
 10
957.5055665121
 20
1361.0125417665
 30
0.0
 11
957.7437262302
 21
1361.0125417665
 31
0.0
  0
LINE
  5
351
330
1F
100
AcDbEntity
  8
1
  6
SLD-Сплошная
100
AcDbLine
 10
957.7437262302
 20
1361.0125417665
 30
0.0
 11
958.631906723
 21
1360.1243612737
 31
0.0
  0
LINE
  5
352
330
1F
100
AcDbEntity
  8
1
  6
SLD-Сплошная
100
AcDbLine
 10
960.5721533549
 20
1357.9459549238
 30
0.0
 11
960.5721533549
 21
1358.1841146418
 31
0.0
  0
LINE
  5
353
330
1F
100
AcDbEntity
  8
1
  6
SLD-Сплошная
100
AcDbLine
 10
959.6839728621
 20
1359.0722951346
 30
0.0
 11
960.5721533549
 21
1358.1841146418
 31
0.0
  0
LINE
  5
354
330
1F
100
AcDbEntity
  8
1
  6
SLD-Сплошная
100
AcDbLine
 10
958.238700977
 20
1361.5075165134
 30
0.0
 11
957.7437262302
 21
1361.0125417665
 31
0.0
  0
LINE
  5
355
330
1F
100
AcDbEntity
  8
1
  6
SLD-Сплошная
100
AcDbLine
 10
960.5721533549
 20
1358.1841146418
 30
0.0
 11
961.0671281017
 21
1358.6790893886
 31
0.0
  0
LINE
  5
356
330
1F
100
AcDbEntity
  8
1
  6
SLD-Сплошная
100
AcDbLine
 10
961.0671281017
 20
1361.0125417665
 30
0.0
 11
960.5721533549
 21
1361.5075165134
 31
0.0
  0
LINE
  5
357
330
1F
100
AcDbEntity
  8
1
  6
SLD-Сплошная
100
AcDbLine
 10
957.7437262302
 20
1358.6790893886
 30
0.0
 11
958.238700977
 21
1358.1841146418
 31
0.0
  0
CIRCLE
  5
358
330
1F
100
AcDbEntity
  8
1
  6
SLD-Сплошная
100
AcDbCircle
 10
959.4054271659
 20
1359.8458155776
 30
0.0
 40
5.000000000000121
  0
ELLIPSE
  5
359
330
1F
100
AcDbEntity
  8
1
  6
SLD-Сплошная
100
AcDbEllipse
 10
641.9054271659
 20
1280.9152023589
 30
0.0
 11
0.0
 21
-0.4122489361054704
 31
0.0
210
0.0
220
0.0
230
1.0
 40
0.9702875252
 41
5.512866274279222
 42
7.053504340079964
  0
SPLINE
  5
35A
330
1F
100
AcDbEntity
  8
1
  6
SLD-Сплошная
100
AcDbSpline
210
0.0
220
0.0
230
1.0
 70
     8
 71
     3
 72
    12
 73
     8
 74
     0
 42
0.00000001
 43
0.00000001
 40
0.0
 40
0.0
 40
0.0
 40
0.0
 40
0.2187857887071718
 40
0.4375776469534864
 40
0.6562353658863612
 40
0.8748419359490948
 40
1.0
 40
1.0
 40
1.0
 40
1.0
 10
641.6268814698192
 20
1280.958926071392
 30
0.0
 10
641.6622068666879
 20
1280.93196264532
 30
0.0
 10
641.7328586404204
 20
1280.878035045158
 30
0.0
 10
641.8668218690615
 20
1280.845439156185
 30
0.0
 10
642.0023644953415
 20
1280.854788287427
 30
0.0
 10
642.1112622996354
 20
1280.898667045509
 30
0.0
 10
642.1645660104414
 20
1280.942842603795
 30
0.0
 10
642.183972862075
 20
1280.958926071392
 30
0.0
  0
ELLIPSE
  5
35B
330
1F
100
AcDbEntity
  8
1
  6
SLD-Сплошная
100
AcDbEllipse
 10
642.9748139472
 20
1279.8458155776
 30
0.0
 11
-0.4122489361056978
 21
0.0
 31
0.0
210
0.0
220
0.0
230
1.0
 40
0.9702875252
 41
5.512866274279101
 42
7.053504340080494
  0
SPLINE
  5
35C
330
1F
100
AcDbEntity
  8
1
  6
SLD-Сплошная
100
AcDbSpline
210
0.0
220
0.0
230
1.0
 70
     8
 71
     3
 72
    12
 73
     8
 74
     0
 42
0.00000001
 43
0.00000001
 40
0.0
 40
0.0
 40
0.0
 40
0.0
 40
0.2187857887072258
 40
0.4375776469534892
 40
0.6562353658863563
 40
0.8748419359490992
 40
1.0
 40
1.0
 40
1.0
 40
1.0
 10
643.0185376597593
 20
1280.124361273707
 30
0.0
 10
642.9915742336874
 20
1280.089035876839
 30
0.0
 10
642.9376466335258
 20
1280.018384103106
 30
0.0
 10
642.9050507445527
 20
1279.884420874465
 30
0.0
 10
642.9143998757949
 20
1279.748878248185
 30
0.0
 10
642.9582786338767
 20
1279.639980443891
 30
0.0
 10
643.0024541921632
 20
1279.586676733085
 30
0.0
 10
643.0185376597593
 20
1279.567269881451
 30
0.0
  0
ELLIPSE
  5
35D
330
1F
100
AcDbEntity
  8
1
  6
SLD-Сплошная
100
AcDbEllipse
 10
640.8360403847
 20
1279.8458155776
 30
0.0
 11
0.4122489361056978
 21
0.0
 31
0.0
210
0.0
220
0.0
230
1.0
 40
0.9702875252
 41
5.512866274278693
 42
7.053504340080086
  0
SPLINE
  5
35E
330
1F
100
AcDbEntity
  8
1
  6
SLD-Сплошная
100
AcDbSpline
210
0.0
220
0.0
230
1.0
 70
     8
 71
     3
 72
    12
 73
     8
 74
     0
 42
0.00000001
 43
0.00000001
 40
0.0
 40
0.0
 40
0.0
 40
0.0
 40
0.2187857887072096
 40
0.4375776469534813
 40
0.6562353658864019
 40
0.8748419359490944
 40
1.0
 40
1.0
 40
1.0
 40
1.0
 10
640.7923166721348
 20
1279.567269881451
 30
0.0
 10
640.8192800982068
 20
1279.60259527832
 30
0.0
 10
640.8732076983683
 20
1279.673247052053
 30
0.0
 10
640.9058035873416
 20
1279.807210280694
 30
0.0
 10
640.8964544560994
 20
1279.942752906974
 30
0.0
 10
640.8525756980176
 20
1280.051650711268
 30
0.0
 10
640.8084001397311
 20
1280.104954422074
 30
0.0
 10
640.7923166721349
 20
1280.124361273707
 30
0.0
  0
ELLIPSE
  5
35F
330
1F
100
AcDbEntity
  8
1
  6
SLD-Сплошная
100
AcDbEllipse
 10
641.9054271659
 20
1278.7764287963
 30
0.0
 11
0.0
 21
0.4122489361056978
 31
0.0
210
0.0
220
0.0
230
1.0
 40
0.9702875252
 41
5.512866274278562
 42
7.053504340080623
  0
SPLINE
  5
360
330
1F
100
AcDbEntity
  8
1
  6
SLD-Сплошная
100
AcDbSpline
210
0.0
220
0.0
230
1.0
 70
     8
 71
     3
 72
    12
 73
     8
 74
     0
 42
0.00000001
 43
0.00000001
 40
0.0
 40
0.0
 40
0.0
 40
0.0
 40
0.218785788707225
 40
0.4375776469534876
 40
0.656235365886399
 40
0.8748419359490996
 40
1.0
 40
1.0
 40
1.0
 40
1.0
 10
642.183972862075
 20
1278.732705083767
 30
0.0
 10
642.1486474652062
 20
1278.759668509839
 30
0.0
 10
642.0779956914738
 20
1278.813596110001
 30
0.0
 10
641.9440324628328
 20
1278.846191998974
 30
0.0
 10
641.8084898365528
 20
1278.836842867732
 30
0.0
 10
641.6995920322588
 20
1278.79296410965
 30
0.0
 10
641.6462883214529
 20
1278.748788551364
 30
0.0
 10
641.6268814698192
 20
1278.732705083767
 30
0.0
  0
ARC
  5
361
330
1F
100
AcDbEntity
  8
1
  6
SLD-Сплошная
100
AcDbCircle
 10
624.6601591855
 20
1297.091083558
 30
0.0
 40
26.56195549498414
100
AcDbArc
 50
313.8816987744
 51
316.1183012256
  0
ARC
  5
362
330
1F
100
AcDbEntity
  8
1
  6
SLD-Сплошная
100
AcDbCircle
 10
625.8924041923
 20
1263.6044013416
 30
0.0
 40
23.41191191603213
100
AcDbArc
 50
40.0824770913
 51
42.9865596106
  0
ARC
  5
363
330
1F
100
AcDbEntity
  8
1
  6
SLD-Сплошная
100
AcDbCircle
 10
625.8924041921
 20
1296.0872298137
 30
0.0
 40
23.41191191632561
100
AcDbArc
 50
317.0134403894
 51
319.9175229087
  0
ARC
  5
364
330
1F
100
AcDbEntity
  8
1
  6
SLD-Сплошная
100
AcDbCircle
 10
624.6601591849
 20
1262.6005475966
 30
0.0
 40
26.56195549574222
100
AcDbArc
 50
43.8816987744
 51
46.1183012256
  0
ARC
  5
365
330
1F
100
AcDbEntity
  8
1
  6
SLD-Сплошная
100
AcDbCircle
 10
658.1468414026
 20
1263.8327926032
 30
0.0
 40
23.41191191704824
100
AcDbArc
 50
130.0824770914
 51
132.9865596105
  0
ARC
  5
366
330
1F
100
AcDbEntity
  8
1
  6
SLD-Сплошная
100
AcDbCircle
 10
625.6640129295
 20
1263.8327926033
 30
0.0
 40
23.41191191686161
100
AcDbArc
 50
47.0134403895
 51
49.9175229086
  0
ARC
  5
367
330
1F
100
AcDbEntity
  8
1
  6
SLD-Сплошная
100
AcDbCircle
 10
659.1506951467
 20
1262.6005475969
 30
0.0
 40
26.56195549536294
100
AcDbArc
 50
133.8816987744
 51
136.1183012256
  0
ARC
  5
368
330
1F
100
AcDbEntity
  8
1
  6
SLD-Сплошная
100
AcDbCircle
 10
657.9184501398
 20
1296.0872298137
 30
0.0
 40
23.41191191632561
100
AcDbArc
 50
220.0824770913
 51
222.9865596106
  0
ARC
  5
369
330
1F
100
AcDbEntity
  8
1
  6
SLD-Сплошная
100
AcDbCircle
 10
657.9184501395
 20
1263.6044013417
 30
0.0
 40
23.41191191591659
100
AcDbArc
 50
137.0134403894
 51
139.9175229087
  0
ARC
  5
36A
330
1F
100
AcDbEntity
  8
1
  6
SLD-Сплошная
100
AcDbCircle
 10
659.1506951464
 20
1297.091083558
 30
0.0
 40
26.56195549498414
100
AcDbArc
 50
223.8816987744
 51
226.1183012256
  0
ARC
  5
36B
330
1F
100
AcDbEntity
  8
1
  6
SLD-Сплошная
100
AcDbCircle
 10
625.6640129298
 20
1295.8588385515
 30
0.0
 40
23.41191191639023
100
AcDbArc
 50
310.0824770913
 51
312.9865596106
  0
ARC
  5
36C
330
1F
100
AcDbEntity
  8
1
  6
SLD-Сплошная
100
AcDbCircle
 10
658.1468414021
 20
1295.8588385515
 30
0.0
 40
23.41191191639023
100
AcDbArc
 50
227.0134403894
 51
229.9175229087
  0
CIRCLE
  5
36D
330
1F
100
AcDbEntity
  8
1
  6
SLD-Сплошная
100
AcDbCircle
 10
641.9054271659
 20
1279.8458155776
 30
0.0
 40
3.500000000000109
  0
LINE
  5
36E
330
1F
100
AcDbEntity
  8
1
  6
SLD-Сплошная
100
AcDbLine
 10
643.8052878198
 20
1278.6790893886
 30
0.0
 11
643.5671281017
 21
1278.6790893886
 31
0.0
  0
LINE
  5
36F
330
1F
100
AcDbEntity
  8
1
  6
SLD-Сплошная
100
AcDbLine
 10
643.5671281017
 20
1278.6790893886
 30
0.0
 11
642.6789476089
 21
1279.5672698815
 31
0.0
  0
LINE
  5
370
330
1F
100
AcDbEntity
  8
1
  6
SLD-Сплошная
100
AcDbLine
 10
643.0721533549
 20
1277.9459549238
 30
0.0
 11
643.0721533549
 21
1278.1841146418
 31
0.0
  0
LINE
  5
371
330
1F
100
AcDbEntity
  8
1
  6
SLD-Сплошная
100
AcDbLine
 10
642.1839728621
 20
1279.0722951346
 30
0.0
 11
643.0721533549
 21
1278.1841146418
 31
0.0
  0
LINE
  5
372
330
1F
100
AcDbEntity
  8
1
  6
SLD-Сплошная
100
AcDbLine
 10
640.738700977
 20
1281.7456762314
 30
0.0
 11
640.738700977
 21
1281.5075165134
 31
0.0
  0
LINE
  5
373
330
1F
100
AcDbEntity
  8
1
  6
SLD-Сплошная
100
AcDbLine
 10
641.6268814698
 20
1280.6193360205
 30
0.0
 11
640.738700977
 21
1281.5075165134
 31
0.0
  0
LINE
  5
374
330
1F
100
AcDbEntity
  8
1
  6
SLD-Сплошная
100
AcDbLine
 10
640.0055665121
 20
1278.6790893886
 30
0.0
 11
640.2437262302
 21
1278.6790893886
 31
0.0
  0
LINE
  5
375
330
1F
100
AcDbEntity
  8
1
  6
SLD-Сплошная
100
AcDbLine
 10
641.131906723
 20
1279.5672698815
 30
0.0
 11
640.2437262302
 21
1278.6790893886
 31
0.0
  0
LINE
  5
376
330
1F
100
AcDbEntity
  8
1
  6
SLD-Сплошная
100
AcDbLine
 10
640.0055665121
 20
1281.0125417665
 30
0.0
 11
640.2437262302
 21
1281.0125417665
 31
0.0
  0
LINE
  5
377
330
1F
100
AcDbEntity
  8
1
  6
SLD-Сплошная
100
AcDbLine
 10
640.2437262302
 20
1281.0125417665
 30
0.0
 11
641.131906723
 21
1280.1243612737
 31
0.0
  0
LINE
  5
378
330
1F
100
AcDbEntity
  8
1
  6
SLD-Сплошная
100
AcDbLine
 10
643.0721533549
 20
1281.7456762314
 30
0.0
 11
643.0721533549
 21
1281.5075165134
 31
0.0
  0
LINE
  5
379
330
1F
100
AcDbEntity
  8
1
  6
SLD-Сплошная
100
AcDbLine
 10
643.0721533549
 20
1281.5075165134
 30
0.0
 11
642.1839728621
 21
1280.6193360205
 31
0.0
  0
LINE
  5
37A
330
1F
100
AcDbEntity
  8
1
  6
SLD-Сплошная
100
AcDbLine
 10
640.738700977
 20
1277.9459549238
 30
0.0
 11
640.738700977
 21
1278.1841146418
 31
0.0
  0
LINE
  5
37B
330
1F
100
AcDbEntity
  8
1
  6
SLD-Сплошная
100
AcDbLine
 10
640.738700977
 20
1278.1841146418
 30
0.0
 11
641.6268814698
 21
1279.0722951346
 31
0.0
  0
LINE
  5
37C
330
1F
100
AcDbEntity
  8
1
  6
SLD-Сплошная
100
AcDbLine
 10
643.8052878198
 20
1281.0125417665
 30
0.0
 11
643.5671281017
 21
1281.0125417665
 31
0.0
  0
LINE
  5
37D
330
1F
100
AcDbEntity
  8
1
  6
SLD-Сплошная
100
AcDbLine
 10
642.6789476089
 20
1280.1243612737
 30
0.0
 11
643.5671281017
 21
1281.0125417665
 31
0.0
  0
LINE
  5
37E
330
1F
100
AcDbEntity
  8
1
  6
SLD-Сплошная
100
AcDbLine
 10
643.5671281017
 20
1281.0125417665
 30
0.0
 11
643.0721533549
 21
1281.5075165134
 31
0.0
  0
LINE
  5
37F
330
1F
100
AcDbEntity
  8
1
  6
SLD-Сплошная
100
AcDbLine
 10
640.2437262302
 20
1278.6790893886
 30
0.0
 11
640.738700977
 21
1278.1841146418
 31
0.0
  0
LINE
  5
380
330
1F
100
AcDbEntity
  8
1
  6
SLD-Сплошная
100
AcDbLine
 10
643.0721533549
 20
1278.1841146418
 30
0.0
 11
643.5671281017
 21
1278.6790893886
 31
0.0
  0
LINE
  5
381
330
1F
100
AcDbEntity
  8
1
  6
SLD-Сплошная
100
AcDbLine
 10
640.738700977
 20
1281.5075165134
 30
0.0
 11
640.2437262302
 21
1281.0125417665
 31
0.0
  0
CIRCLE
  5
382
330
1F
100
AcDbEntity
  8
1
  6
SLD-Сплошная
100
AcDbCircle
 10
641.9054271659
 20
1279.8458155776
 30
0.0
 40
5.000000000000121
  0
ELLIPSE
  5
383
330
1F
100
AcDbEntity
  8
1
  6
SLD-Сплошная
100
AcDbEllipse
 10
716.9054271659
 20
1440.9152023589
 30
0.0
 11
0.0
 21
-0.4122489361059252
 31
0.0
210
0.0
220
0.0
230
1.0
 40
0.9702875252
 41
5.512866274278405
 42
7.053504340080373
  0
SPLINE
  5
384
330
1F
100
AcDbEntity
  8
1
  6
SLD-Сплошная
100
AcDbSpline
210
0.0
220
0.0
230
1.0
 70
     8
 71
     3
 72
    12
 73
     8
 74
     0
 42
0.00000001
 43
0.00000001
 40
0.0
 40
0.0
 40
0.0
 40
0.0
 40
0.2187857887072151
 40
0.4375776469534844
 40
0.6562353658864016
 40
0.8748419359491032
 40
1.0
 40
1.0
 40
1.0
 40
1.0
 10
716.626881469819
 20
1440.958926071392
 30
0.0
 10
716.6622068666879
 20
1440.93196264532
 30
0.0
 10
716.7328586404203
 20
1440.878035045158
 30
0.0
 10
716.8668218690614
 20
1440.845439156186
 30
0.0
 10
717.0023644953413
 20
1440.854788287428
 30
0.0
 10
717.1112622996354
 20
1440.898667045509
 30
0.0
 10
717.1645660104413
 20
1440.942842603796
 30
0.0
 10
717.183972862075
 20
1440.958926071392
 30
0.0
  0
ELLIPSE
  5
385
330
1F
100
AcDbEntity
  8
1
  6
SLD-Сплошная
100
AcDbEllipse
 10
717.9748139472
 20
1439.8458155776
 30
0.0
 11
-0.4122489361055841
 21
0.0
 31
0.0
210
0.0
220
0.0
230
1.0
 40
0.9702875252
 41
5.512866274278831
 42
7.053504340079948
  0
SPLINE
  5
386
330
1F
100
AcDbEntity
  8
1
  6
SLD-Сплошная
100
AcDbSpline
210
0.0
220
0.0
230
1.0
 70
     8
 71
     3
 72
    12
 73
     8
 74
     0
 42
0.00000001
 43
0.00000001
 40
0.0
 40
0.0
 40
0.0
 40
0.0
 40
0.2187857887072017
 40
0.4375776469534837
 40
0.6562353658863882
 40
0.8748419359490935
 40
1.0
 40
1.0
 40
1.0
 40
1.0
 10
718.0185376597593
 20
1440.124361273708
 30
0.0
 10
717.9915742336873
 20
1440.089035876839
 30
0.0
 10
717.9376466335258
 20
1440.018384103106
 30
0.0
 10
717.9050507445527
 20
1439.884420874465
 30
0.0
 10
717.9143998757947
 20
1439.748878248186
 30
0.0
 10
717.9582786338766
 20
1439.639980443892
 30
0.0
 10
718.002454192163
 20
1439.586676733086
 30
0.0
 10
718.0185376597593
 20
1439.567269881452
 30
0.0
  0
ELLIPSE
  5
387
330
1F
100
AcDbEntity
  8
1
  6
SLD-Сплошная
100
AcDbEllipse
 10
715.8360403847
 20
1439.8458155776
 30
0.0
 11
0.4122489361056978
 21
0.0
 31
0.0
210
0.0
220
0.0
230
1.0
 40
0.9702875252
 41
5.512866274278816
 42
7.053504340080777
  0
SPLINE
  5
388
330
1F
100
AcDbEntity
  8
1
  6
SLD-Сплошная
100
AcDbSpline
210
0.0
220
0.0
230
1.0
 70
     8
 71
     3
 72
    12
 73
     8
 74
     0
 42
0.00000001
 43
0.00000001
 40
0.0
 40
0.0
 40
0.0
 40
0.0
 40
0.2187857887072019
 40
0.4375776469534788
 40
0.6562353658863835
 40
0.8748419359490891
 40
1.0
 40
1.0
 40
1.0
 40
1.0
 10
715.7923166721347
 20
1439.567269881452
 30
0.0
 10
715.8192800982068
 20
1439.602595278321
 30
0.0
 10
715.8732076983682
 20
1439.673247052053
 30
0.0
 10
715.9058035873413
 20
1439.807210280694
 30
0.0
 10
715.8964544560993
 20
1439.942752906974
 30
0.0
 10
715.8525756980175
 20
1440.051650711268
 30
0.0
 10
715.808400139731
 20
1440.104954422074
 30
0.0
 10
715.7923166721347
 20
1440.124361273708
 30
0.0
  0
ELLIPSE
  5
389
330
1F
100
AcDbEntity
  8
1
  6
SLD-Сплошная
100
AcDbEllipse
 10
716.9054271659
 20
1438.7764287963
 30
0.0
 11
0.0
 21
0.4122489361059252
 31
0.0
210
0.0
220
0.0
230
1.0
 40
0.9702875252
 41
5.512866274278529
 42
7.053504340081066
  0
SPLINE
  5
38A
330
1F
100
AcDbEntity
  8
1
  6
SLD-Сплошная
100
AcDbSpline
210
0.0
220
0.0
230
1.0
 70
     8
 71
     3
 72
    12
 73
     8
 74
     0
 42
0.00000001
 43
0.00000001
 40
0.0
 40
0.0
 40
0.0
 40
0.0
 40
0.2187857887072129
 40
0.4375776469534845
 40
0.6562353658863794
 40
0.8748419359491028
 40
1.0
 40
1.0
 40
1.0
 40
1.0
 10
717.183972862075
 20
1438.732705083768
 30
0.0
 10
717.1486474652061
 20
1438.75966850984
 30
0.0
 10
717.0779956914737
 20
1438.813596110001
 30
0.0
 10
716.9440324628326
 20
1438.846191998974
 30
0.0
 10
716.8084898365527
 20
1438.836842867732
 30
0.0
 10
716.6995920322587
 20
1438.79296410965
 30
0.0
 10
716.6462883214529
 20
1438.748788551364
 30
0.0
 10
716.626881469819
 20
1438.732705083768
 30
0.0
  0
ARC
  5
38B
330
1F
100
AcDbEntity
  8
1
  6
SLD-Сплошная
100
AcDbCircle
 10
734.1506951472
 20
1457.0910835588
 30
0.0
 40
26.56195549608184
100
AcDbArc
 50
223.8816987744
 51
226.1183012256
  0
ARC
  5
38C
330
1F
100
AcDbEntity
  8
1
  6
SLD-Сплошная
100
AcDbCircle
 10
700.6640129298
 20
1455.8588385514
 30
0.0
 40
23.41191191630408
100
AcDbArc
 50
310.0824770913
 51
312.9865596106
  0
ARC
  5
38D
330
1F
100
AcDbEntity
  8
1
  6
SLD-Сплошная
100
AcDbCircle
 10
733.1468414021
 20
1455.8588385514
 30
0.0
 40
23.41191191630415
100
AcDbArc
 50
227.0134403894
 51
229.9175229087
  0
ARC
  5
38E
330
1F
100
AcDbEntity
  8
1
  6
SLD-Сплошная
100
AcDbCircle
 10
699.6601591847
 20
1457.0910835588
 30
0.0
 40
26.5619554960906
100
AcDbArc
 50
313.8816987744
 51
316.1183012256
  0
ARC
  5
38F
330
1F
100
AcDbEntity
  8
1
  6
SLD-Сплошная
100
AcDbCircle
 10
700.8924041921
 20
1423.6044013414
 30
0.0
 40
23.41191191632997
100
AcDbArc
 50
40.0824770913
 51
42.9865596106
  0
ARC
  5
390
330
1F
100
AcDbEntity
  8
1
  6
SLD-Сплошная
100
AcDbCircle
 10
700.8924041921
 20
1456.0872298137
 30
0.0
 40
23.41191191633236
100
AcDbArc
 50
317.0134403894
 51
319.9175229087
  0
ARC
  5
391
330
1F
100
AcDbEntity
  8
1
  6
SLD-Сплошная
100
AcDbCircle
 10
699.6601591851
 20
1422.6005475967
 30
0.0
 40
26.56195549556319
100
AcDbArc
 50
43.8816987744
 51
46.1183012256
  0
ARC
  5
392
330
1F
100
AcDbEntity
  8
1
  6
SLD-Сплошная
100
AcDbCircle
 10
733.1468414019
 20
1423.8327926039
 30
0.0
 40
23.41191191606644
100
AcDbArc
 50
130.0824770913
 51
132.9865596106
  0
ARC
  5
393
330
1F
100
AcDbEntity
  8
1
  6
SLD-Сплошная
100
AcDbCircle
 10
700.6640129299
 20
1423.8327926038
 30
0.0
 40
23.41191191620654
100
AcDbArc
 50
47.0134403894
 51
49.9175229087
  0
ARC
  5
394
330
1F
100
AcDbEntity
  8
1
  6
SLD-Сплошная
100
AcDbCircle
 10
734.1506951471
 20
1422.6005475964
 30
0.0
 40
26.56195549593604
100
AcDbArc
 50
133.8816987744
 51
136.1183012256
  0
ARC
  5
395
330
1F
100
AcDbEntity
  8
1
  6
SLD-Сплошная
100
AcDbCircle
 10
732.9184501398
 20
1456.0872298137
 30
0.0
 40
23.41191191632259
100
AcDbArc
 50
220.0824770913
 51
222.9865596106
  0
ARC
  5
396
330
1F
100
AcDbEntity
  8
1
  6
SLD-Сплошная
100
AcDbCircle
 10
732.9184501398
 20
1423.6044013415
 30
0.0
 40
23.41191191632035
100
AcDbArc
 50
137.0134403894
 51
139.9175229087
  0
CIRCLE
  5
397
330
1F
100
AcDbEntity
  8
1
  6
SLD-Сплошная
100
AcDbCircle
 10
716.9054271659
 20
1439.8458155776
 30
0.0
 40
3.500000000000028
  0
LINE
  5
398
330
1F
100
AcDbEntity
  8
1
  6
SLD-Сплошная
100
AcDbLine
 10
718.0721533549
 20
1441.7456762314
 30
0.0
 11
718.0721533549
 21
1441.5075165134
 31
0.0
  0
LINE
  5
399
330
1F
100
AcDbEntity
  8
1
  6
SLD-Сплошная
100
AcDbLine
 10
718.0721533549
 20
1441.5075165134
 30
0.0
 11
717.1839728621
 21
1440.6193360205
 31
0.0
  0
LINE
  5
39A
330
1F
100
AcDbEntity
  8
1
  6
SLD-Сплошная
100
AcDbLine
 10
718.8052878198
 20
1441.0125417665
 30
0.0
 11
718.5671281017
 21
1441.0125417665
 31
0.0
  0
LINE
  5
39B
330
1F
100
AcDbEntity
  8
1
  6
SLD-Сплошная
100
AcDbLine
 10
717.6789476089
 20
1440.1243612737
 30
0.0
 11
718.5671281017
 21
1441.0125417665
 31
0.0
  0
LINE
  5
39C
330
1F
100
AcDbEntity
  8
1
  6
SLD-Сплошная
100
AcDbLine
 10
718.8052878198
 20
1438.6790893886
 30
0.0
 11
718.5671281017
 21
1438.6790893886
 31
0.0
  0
LINE
  5
39D
330
1F
100
AcDbEntity
  8
1
  6
SLD-Сплошная
100
AcDbLine
 10
718.5671281017
 20
1438.6790893886
 30
0.0
 11
717.6789476089
 21
1439.5672698815
 31
0.0
  0
LINE
  5
39E
330
1F
100
AcDbEntity
  8
1
  6
SLD-Сплошная
100
AcDbLine
 10
715.738700977
 20
1441.7456762314
 30
0.0
 11
715.738700977
 21
1441.5075165134
 31
0.0
  0
LINE
  5
39F
330
1F
100
AcDbEntity
  8
1
  6
SLD-Сплошная
100
AcDbLine
 10
716.6268814698
 20
1440.6193360205
 30
0.0
 11
715.738700977
 21
1441.5075165134
 31
0.0
  0
LINE
  5
3A0
330
1F
100
AcDbEntity
  8
1
  6
SLD-Сплошная
100
AcDbLine
 10
715.0055665121
 20
1438.6790893886
 30
0.0
 11
715.2437262302
 21
1438.6790893886
 31
0.0
  0
LINE
  5
3A1
330
1F
100
AcDbEntity
  8
1
  6
SLD-Сплошная
100
AcDbLine
 10
716.131906723
 20
1439.5672698815
 30
0.0
 11
715.2437262302
 21
1438.6790893886
 31
0.0
  0
LINE
  5
3A2
330
1F
100
AcDbEntity
  8
1
  6
SLD-Сплошная
100
AcDbLine
 10
715.738700977
 20
1437.9459549238
 30
0.0
 11
715.738700977
 21
1438.1841146418
 31
0.0
  0
LINE
  5
3A3
330
1F
100
AcDbEntity
  8
1
  6
SLD-Сплошная
100
AcDbLine
 10
715.738700977
 20
1438.1841146418
 30
0.0
 11
716.6268814698
 21
1439.0722951346
 31
0.0
  0
LINE
  5
3A4
330
1F
100
AcDbEntity
  8
1
  6
SLD-Сплошная
100
AcDbLine
 10
715.0055665121
 20
1441.0125417665
 30
0.0
 11
715.2437262302
 21
1441.0125417665
 31
0.0
  0
LINE
  5
3A5
330
1F
100
AcDbEntity
  8
1
  6
SLD-Сплошная
100
AcDbLine
 10
715.2437262302
 20
1441.0125417665
 30
0.0
 11
716.131906723
 21
1440.1243612737
 31
0.0
  0
LINE
  5
3A6
330
1F
100
AcDbEntity
  8
1
  6
SLD-Сплошная
100
AcDbLine
 10
718.0721533549
 20
1437.9459549238
 30
0.0
 11
718.0721533549
 21
1438.1841146418
 31
0.0
  0
LINE
  5
3A7
330
1F
100
AcDbEntity
  8
1
  6
SLD-Сплошная
100
AcDbLine
 10
717.1839728621
 20
1439.0722951346
 30
0.0
 11
718.0721533549
 21
1438.1841146418
 31
0.0
  0
LINE
  5
3A8
330
1F
100
AcDbEntity
  8
1
  6
SLD-Сплошная
100
AcDbLine
 10
718.0721533549
 20
1438.1841146418
 30
0.0
 11
718.5671281017
 21
1438.6790893886
 31
0.0
  0
LINE
  5
3A9
330
1F
100
AcDbEntity
  8
1
  6
SLD-Сплошная
100
AcDbLine
 10
718.5671281017
 20
1441.0125417665
 30
0.0
 11
718.0721533549
 21
1441.5075165134
 31
0.0
  0
LINE
  5
3AA
330
1F
100
AcDbEntity
  8
1
  6
SLD-Сплошная
100
AcDbLine
 10
715.738700977
 20
1441.5075165134
 30
0.0
 11
715.2437262302
 21
1441.0125417665
 31
0.0
  0
LINE
  5
3AB
330
1F
100
AcDbEntity
  8
1
  6
SLD-Сплошная
100
AcDbLine
 10
715.2437262302
 20
1438.6790893886
 30
0.0
 11
715.738700977
 21
1438.1841146418
 31
0.0
  0
CIRCLE
  5
3AC
330
1F
100
AcDbEntity
  8
1
  6
SLD-Сплошная
100
AcDbCircle
 10
716.9054271659
 20
1439.8458155776
 30
0.0
 40
4.99999999999996
  0
ELLIPSE
  5
3AD
330
1F
100
AcDbEntity
  8
1
  6
SLD-Сплошная
100
AcDbEllipse
 10
717.9748139472
 20
1279.8458155776
 30
0.0
 11
-0.4122489361056978
 21
0.0
 31
0.0
210
0.0
220
0.0
230
1.0
 40
0.9702875252
 41
5.512866274279101
 42
7.053504340080494
  0
SPLINE
  5
3AE
330
1F
100
AcDbEntity
  8
1
  6
SLD-Сплошная
100
AcDbSpline
210
0.0
220
0.0
230
1.0
 70
     8
 71
     3
 72
    12
 73
     8
 74
     0
 42
0.00000001
 43
0.00000001
 40
0.0
 40
0.0
 40
0.0
 40
0.0
 40
0.2187857887072182
 40
0.4375776469534861
 40
0.6562353658863578
 40
0.8748419359490965
 40
1.0
 40
1.0
 40
1.0
 40
1.0
 10
718.0185376597594
 20
1280.124361273707
 30
0.0
 10
717.9915742336873
 20
1280.089035876839
 30
0.0
 10
717.9376466335258
 20
1280.018384103106
 30
0.0
 10
717.9050507445528
 20
1279.884420874465
 30
0.0
 10
717.9143998757949
 20
1279.748878248185
 30
0.0
 10
717.9582786338766
 20
1279.639980443891
 30
0.0
 10
718.0024541921631
 20
1279.586676733085
 30
0.0
 10
718.0185376597594
 20
1279.567269881451
 30
0.0
  0
ELLIPSE
  5
3AF
330
1F
100
AcDbEntity
  8
1
  6
SLD-Сплошная
100
AcDbEllipse
 10
716.9054271659
 20
1278.7764287963
 30
0.0
 11
0.0
 21
0.4122489361056978
 31
0.0
210
0.0
220
0.0
230
1.0
 40
0.9702875252
 41
5.512866274278359
 42
7.053504340080828
  0
SPLINE
  5
3B0
330
1F
100
AcDbEntity
  8
1
  6
SLD-Сплошная
100
AcDbSpline
210
0.0
220
0.0
230
1.0
 70
     8
 71
     3
 72
    12
 73
     8
 74
     0
 42
0.00000001
 43
0.00000001
 40
0.0
 40
0.0
 40
0.0
 40
0.0
 40
0.2187857887072066
 40
0.4375776469534695
 40
0.6562353658863811
 40
0.8748419359490819
 40
1.0
 40
1.0
 40
1.0
 40
1.0
 10
717.1839728620752
 20
1278.732705083767
 30
0.0
 10
717.1486474652062
 20
1278.759668509839
 30
0.0
 10
717.0779956914738
 20
1278.813596110001
 30
0.0
 10
716.9440324628328
 20
1278.846191998974
 30
0.0
 10
716.8084898365528
 20
1278.836842867732
 30
0.0
 10
716.6995920322588
 20
1278.79296410965
 30
0.0
 10
716.646288321453
 20
1278.748788551364
 30
0.0
 10
716.6268814698191
 20
1278.732705083767
 30
0.0
  0
ELLIPSE
  5
3B1
330
1F
100
AcDbEntity
  8
1
  6
SLD-Сплошная
100
AcDbEllipse
 10
715.8360403847
 20
1279.8458155776
 30
0.0
 11
0.4122489361056978
 21
0.0
 31
0.0
210
0.0
220
0.0
230
1.0
 40
0.9702875252
 41
5.512866274278693
 42
7.053504340080086
  0
SPLINE
  5
3B2
330
1F
100
AcDbEntity
  8
1
  6
SLD-Сплошная
100
AcDbSpline
210
0.0
220
0.0
230
1.0
 70
     8
 71
     3
 72
    12
 73
     8
 74
     0
 42
0.00000001
 43
0.00000001
 40
0.0
 40
0.0
 40
0.0
 40
0.0
 40
0.2187857887072142
 40
0.4375776469534839
 40
0.6562353658863967
 40
0.8748419359490988
 40
1.0
 40
1.0
 40
1.0
 40
1.0
 10
715.7923166721348
 20
1279.567269881451
 30
0.0
 10
715.819280098207
 20
1279.60259527832
 30
0.0
 10
715.8732076983683
 20
1279.673247052053
 30
0.0
 10
715.9058035873414
 20
1279.807210280694
 30
0.0
 10
715.8964544560994
 20
1279.942752906974
 30
0.0
 10
715.8525756980176
 20
1280.051650711268
 30
0.0
 10
715.8084001397311
 20
1280.104954422074
 30
0.0
 10
715.7923166721348
 20
1280.124361273707
 30
0.0
  0
ELLIPSE
  5
3B3
330
1F
100
AcDbEntity
  8
1
  6
SLD-Сплошная
100
AcDbEllipse
 10
716.9054271659
 20
1280.9152023589
 30
0.0
 11
0.0
 21
-0.4122489361054704
 31
0.0
210
0.0
220
0.0
230
1.0
 40
0.9702875252
 41
5.512866274279018
 42
7.053504340080169
  0
SPLINE
  5
3B4
330
1F
100
AcDbEntity
  8
1
  6
SLD-Сплошная
100
AcDbSpline
210
0.0
220
0.0
230
1.0
 70
     8
 71
     3
 72
    12
 73
     8
 74
     0
 42
0.00000001
 43
0.00000001
 40
0.0
 40
0.0
 40
0.0
 40
0.0
 40
0.2187857887071912
 40
0.4375776469534632
 40
0.656235365886384
 40
0.8748419359490767
 40
1.0
 40
1.0
 40
1.0
 40
1.0
 10
716.6268814698191
 20
1280.958926071392
 30
0.0
 10
716.662206866688
 20
1280.93196264532
 30
0.0
 10
716.7328586404204
 20
1280.878035045158
 30
0.0
 10
716.8668218690615
 20
1280.845439156185
 30
0.0
 10
717.0023644953415
 20
1280.854788287427
 30
0.0
 10
717.1112622996354
 20
1280.898667045509
 30
0.0
 10
717.1645660104413
 20
1280.942842603795
 30
0.0
 10
717.1839728620752
 20
1280.958926071392
 30
0.0
  0
ARC
  5
3B5
330
1F
100
AcDbEntity
  8
1
  6
SLD-Сплошная
100
AcDbCircle
 10
699.6601591853
 20
1297.0910835583
 30
0.0
 40
26.56195549531069
100
AcDbArc
 50
313.8816987744
 51
316.1183012256
  0
ARC
  5
3B6
330
1F
100
AcDbEntity
  8
1
  6
SLD-Сплошная
100
AcDbCircle
 10
700.892404192
 20
1263.6044013414
 30
0.0
 40
23.41191191639715
100
AcDbArc
 50
40.0824770913
 51
42.9865596106
  0
ARC
  5
3B7
330
1F
100
AcDbEntity
  8
1
  6
SLD-Сплошная
100
AcDbCircle
 10
700.8924041918
 20
1296.087229814
 30
0.0
 40
23.41191191669057
100
AcDbArc
 50
317.0134403895
 51
319.9175229087
  0
ARC
  5
3B8
330
1F
100
AcDbEntity
  8
1
  6
SLD-Сплошная
100
AcDbCircle
 10
699.6601591847
 20
1262.6005475964
 30
0.0
 40
26.56195549606878
100
AcDbArc
 50
43.8816987744
 51
46.1183012256
  0
ARC
  5
3B9
330
1F
100
AcDbEntity
  8
1
  6
SLD-Сплошная
100
AcDbCircle
 10
733.1468414023
 20
1263.8327926035
 30
0.0
 40
23.41191191661568
100
AcDbArc
 50
130.0824770913
 51
132.9865596105
  0
ARC
  5
3BA
330
1F
100
AcDbEntity
  8
1
  6
SLD-Сплошная
100
AcDbCircle
 10
700.6640129296
 20
1263.8327926035
 30
0.0
 40
23.41191191661561
100
AcDbArc
 50
47.0134403895
 51
49.9175229087
  0
ARC
  5
3BB
330
1F
100
AcDbEntity
  8
1
  6
SLD-Сплошная
100
AcDbCircle
 10
734.1506951468
 20
1262.6005475968
 30
0.0
 40
26.56195549550142
100
AcDbArc
 50
133.8816987744
 51
136.1183012256
  0
ARC
  5
3BC
330
1F
100
AcDbEntity
  8
1
  6
SLD-Сплошная
100
AcDbCircle
 10
732.91845014
 20
1296.0872298139
 30
0.0
 40
23.41191191657116
100
AcDbArc
 50
220.0824770913
 51
222.9865596105
  0
ARC
  5
3BD
330
1F
100
AcDbEntity
  8
1
  6
SLD-Сплошная
100
AcDbCircle
 10
732.9184501398
 20
1263.6044013415
 30
0.0
 40
23.41191191627798
100
AcDbArc
 50
137.0134403894
 51
139.9175229087
  0
ARC
  5
3BE
330
1F
100
AcDbEntity
  8
1
  6
SLD-Сплошная
100
AcDbCircle
 10
734.1506951465
 20
1297.0910835581
 30
0.0
 40
26.56195549512278
100
AcDbArc
 50
223.8816987744
 51
226.1183012256
  0
ARC
  5
3BF
330
1F
100
AcDbEntity
  8
1
  6
SLD-Сплошная
100
AcDbCircle
 10
700.6640129299
 20
1295.8588385513
 30
0.0
 40
23.41191191614413
100
AcDbArc
 50
310.0824770913
 51
312.9865596106
  0
ARC
  5
3C0
330
1F
100
AcDbEntity
  8
1
  6
SLD-Сплошная
100
AcDbCircle
 10
733.146841402
 20
1295.8588385513
 30
0.0
 40
23.41191191614397
100
AcDbArc
 50
227.0134403894
 51
229.9175229087
  0
CIRCLE
  5
3C1
330
1F
100
AcDbEntity
  8
1
  6
SLD-Сплошная
100
AcDbCircle
 10
716.9054271659
 20
1279.8458155776
 30
0.0
 40
3.500000000000189
  0
LINE
  5
3C2
330
1F
100
AcDbEntity
  8
1
  6
SLD-Сплошная
100
AcDbLine
 10
718.8052878198
 20
1278.6790893886
 30
0.0
 11
718.5671281017
 21
1278.6790893886
 31
0.0
  0
LINE
  5
3C3
330
1F
100
AcDbEntity
  8
1
  6
SLD-Сплошная
100
AcDbLine
 10
718.5671281017
 20
1278.6790893886
 30
0.0
 11
717.6789476089
 21
1279.5672698815
 31
0.0
  0
LINE
  5
3C4
330
1F
100
AcDbEntity
  8
1
  6
SLD-Сплошная
100
AcDbLine
 10
718.0721533549
 20
1277.9459549238
 30
0.0
 11
718.0721533549
 21
1278.1841146418
 31
0.0
  0
LINE
  5
3C5
330
1F
100
AcDbEntity
  8
1
  6
SLD-Сплошная
100
AcDbLine
 10
717.1839728621
 20
1279.0722951346
 30
0.0
 11
718.0721533549
 21
1278.1841146418
 31
0.0
  0
LINE
  5
3C6
330
1F
100
AcDbEntity
  8
1
  6
SLD-Сплошная
100
AcDbLine
 10
718.0721533549
 20
1281.7456762314
 30
0.0
 11
718.0721533549
 21
1281.5075165134
 31
0.0
  0
LINE
  5
3C7
330
1F
100
AcDbEntity
  8
1
  6
SLD-Сплошная
100
AcDbLine
 10
718.0721533549
 20
1281.5075165134
 30
0.0
 11
717.1839728621
 21
1280.6193360205
 31
0.0
  0
LINE
  5
3C8
330
1F
100
AcDbEntity
  8
1
  6
SLD-Сплошная
100
AcDbLine
 10
718.8052878198
 20
1281.0125417665
 30
0.0
 11
718.5671281017
 21
1281.0125417665
 31
0.0
  0
LINE
  5
3C9
330
1F
100
AcDbEntity
  8
1
  6
SLD-Сплошная
100
AcDbLine
 10
717.6789476089
 20
1280.1243612737
 30
0.0
 11
718.5671281017
 21
1281.0125417665
 31
0.0
  0
LINE
  5
3CA
330
1F
100
AcDbEntity
  8
1
  6
SLD-Сплошная
100
AcDbLine
 10
715.738700977
 20
1281.7456762314
 30
0.0
 11
715.738700977
 21
1281.5075165134
 31
0.0
  0
LINE
  5
3CB
330
1F
100
AcDbEntity
  8
1
  6
SLD-Сплошная
100
AcDbLine
 10
716.6268814698
 20
1280.6193360205
 30
0.0
 11
715.738700977
 21
1281.5075165134
 31
0.0
  0
LINE
  5
3CC
330
1F
100
AcDbEntity
  8
1
  6
SLD-Сплошная
100
AcDbLine
 10
715.0055665121
 20
1281.0125417665
 30
0.0
 11
715.2437262302
 21
1281.0125417665
 31
0.0
  0
LINE
  5
3CD
330
1F
100
AcDbEntity
  8
1
  6
SLD-Сплошная
100
AcDbLine
 10
715.2437262302
 20
1281.0125417665
 30
0.0
 11
716.131906723
 21
1280.1243612737
 31
0.0
  0
LINE
  5
3CE
330
1F
100
AcDbEntity
  8
1
  6
SLD-Сплошная
100
AcDbLine
 10
715.0055665121
 20
1278.6790893886
 30
0.0
 11
715.2437262302
 21
1278.6790893886
 31
0.0
  0
LINE
  5
3CF
330
1F
100
AcDbEntity
  8
1
  6
SLD-Сплошная
100
AcDbLine
 10
716.131906723
 20
1279.5672698815
 30
0.0
 11
715.2437262302
 21
1278.6790893886
 31
0.0
  0
LINE
  5
3D0
330
1F
100
AcDbEntity
  8
1
  6
SLD-Сплошная
100
AcDbLine
 10
715.738700977
 20
1277.9459549238
 30
0.0
 11
715.738700977
 21
1278.1841146418
 31
0.0
  0
LINE
  5
3D1
330
1F
100
AcDbEntity
  8
1
  6
SLD-Сплошная
100
AcDbLine
 10
715.738700977
 20
1278.1841146418
 30
0.0
 11
716.6268814698
 21
1279.0722951346
 31
0.0
  0
LINE
  5
3D2
330
1F
100
AcDbEntity
  8
1
  6
SLD-Сплошная
100
AcDbLine
 10
718.0721533549
 20
1278.1841146418
 30
0.0
 11
718.5671281017
 21
1278.6790893886
 31
0.0
  0
LINE
  5
3D3
330
1F
100
AcDbEntity
  8
1
  6
SLD-Сплошная
100
AcDbLine
 10
718.5671281017
 20
1281.0125417665
 30
0.0
 11
718.0721533549
 21
1281.5075165134
 31
0.0
  0
LINE
  5
3D4
330
1F
100
AcDbEntity
  8
1
  6
SLD-Сплошная
100
AcDbLine
 10
715.2437262302
 20
1278.6790893886
 30
0.0
 11
715.738700977
 21
1278.1841146418
 31
0.0
  0
LINE
  5
3D5
330
1F
100
AcDbEntity
  8
1
  6
SLD-Сплошная
100
AcDbLine
 10
715.738700977
 20
1281.5075165134
 30
0.0
 11
715.2437262302
 21
1281.0125417665
 31
0.0
  0
CIRCLE
  5
3D6
330
1F
100
AcDbEntity
  8
1
  6
SLD-Сплошная
100
AcDbCircle
 10
716.9054271659
 20
1279.8458155776
 30
0.0
 40
5.000000000000121
  0
ELLIPSE
  5
3D7
330
1F
100
AcDbEntity
  8
1
  6
SLD-Сплошная
100
AcDbEllipse
 10
866.9054271659
 20
1278.7764287963
 30
0.0
 11
0.0
 21
0.4122489361054704
 31
0.0
210
0.0
220
0.0
230
1.0
 40
0.9702875252
 41
5.512866274278251
 42
7.053504340080936
  0
SPLINE
  5
3D8
330
1F
100
AcDbEntity
  8
1
  6
SLD-Сплошная
100
AcDbSpline
210
0.0
220
0.0
230
1.0
 70
     8
 71
     3
 72
    12
 73
     8
 74
     0
 42
0.00000001
 43
0.00000001
 40
0.0
 40
0.0
 40
0.0
 40
0.0
 40
0.2187857887072066
 40
0.4375776469534695
 40
0.6562353658863811
 40
0.8748419359490819
 40
1.0
 40
1.0
 40
1.0
 40
1.0
 10
867.1839728620752
 20
1278.732705083767
 30
0.0
 10
867.1486474652062
 20
1278.759668509839
 30
0.0
 10
867.0779956914738
 20
1278.813596110001
 30
0.0
 10
866.9440324628328
 20
1278.846191998974
 30
0.0
 10
866.8084898365527
 20
1278.836842867732
 30
0.0
 10
866.6995920322589
 20
1278.79296410965
 30
0.0
 10
866.646288321453
 20
1278.748788551364
 30
0.0
 10
866.6268814698191
 20
1278.732705083767
 30
0.0
  0
ARC
  5
3D9
330
1F
100
AcDbEntity
  8
1
  6
SLD-Сплошная
100
AcDbCircle
 10
849.6601591849
 20
1297.0910835586
 30
0.0
 40
26.56195549581544
100
AcDbArc
 50
313.8816987744
 51
316.1183012256
  0
ARC
  5
3DA
330
1F
100
AcDbEntity
  8
1
  6
SLD-Сплошная
100
AcDbCircle
 10
850.8924041925
 20
1263.6044013418
 30
0.0
 40
23.41191191580275
100
AcDbArc
 50
40.0824770913
 51
42.9865596106
  0
SPLINE
  5
3DB
330
1F
100
AcDbEntity
  8
1
  6
SLD-Сплошная
100
AcDbSpline
210
0.0
220
0.0
230
1.0
 70
     8
 71
     3
 72
    12
 73
     8
 74
     0
 42
0.00000001
 43
0.00000001
 40
0.0
 40
0.0
 40
0.0
 40
0.0
 40
0.2187857887071795
 40
0.4375776469534897
 40
0.65623536588636
 40
0.8748419359490974
 40
1.0
 40
1.0
 40
1.0
 40
1.0
 10
868.0185376597593
 20
1280.124361273708
 30
0.0
 10
867.9915742336873
 20
1280.089035876839
 30
0.0
 10
867.9376466335258
 20
1280.018384103106
 30
0.0
 10
867.9050507445527
 20
1279.884420874465
 30
0.0
 10
867.9143998757947
 20
1279.748878248185
 30
0.0
 10
867.9582786338766
 20
1279.639980443891
 30
0.0
 10
868.0024541921631
 20
1279.586676733085
 30
0.0
 10
868.0185376597593
 20
1279.567269881451
 30
0.0
  0
ARC
  5
3DC
330
1F
100
AcDbEntity
  8
1
  6
SLD-Сплошная
100
AcDbCircle
 10
850.8924041923
 20
1296.0872298136
 30
0.0
 40
23.41191191609399
100
AcDbArc
 50
317.0134403894
 51
319.9175229087
  0
ARC
  5
3DD
330
1F
100
AcDbEntity
  8
1
  6
SLD-Сплошная
100
AcDbCircle
 10
849.6601591843
 20
1262.6005475959
 30
0.0
 40
26.56195549672166
100
AcDbArc
 50
43.8816987744
 51
46.1183012256
  0
ARC
  5
3DE
330
1F
100
AcDbEntity
  8
1
  6
SLD-Сплошная
100
AcDbCircle
 10
883.1468414023
 20
1263.8327926035
 30
0.0
 40
23.41191191658046
100
AcDbArc
 50
130.0824770913
 51
132.9865596106
  0
SPLINE
  5
3DF
330
1F
100
AcDbEntity
  8
1
  6
SLD-Сплошная
100
AcDbSpline
210
0.0
220
0.0
230
1.0
 70
     8
 71
     3
 72
    12
 73
     8
 74
     0
 42
0.00000001
 43
0.00000001
 40
0.0
 40
0.0
 40
0.0
 40
0.0
 40
0.2187857887071912
 40
0.4375776469534632
 40
0.656235365886384
 40
0.8748419359490767
 40
1.0
 40
1.0
 40
1.0
 40
1.0
 10
866.6268814698191
 20
1280.958926071392
 30
0.0
 10
866.662206866688
 20
1280.93196264532
 30
0.0
 10
866.7328586404204
 20
1280.878035045158
 30
0.0
 10
866.8668218690614
 20
1280.845439156185
 30
0.0
 10
867.0023644953416
 20
1280.854788287427
 30
0.0
 10
867.1112622996354
 20
1280.898667045509
 30
0.0
 10
867.1645660104413
 20
1280.942842603796
 30
0.0
 10
867.1839728620752
 20
1280.958926071392
 30
0.0
  0
ARC
  5
3E0
330
1F
100
AcDbEntity
  8
1
  6
SLD-Сплошная
100
AcDbCircle
 10
850.6640129297
 20
1263.8327926036
 30
0.0
 40
23.41191191652505
100
AcDbArc
 50
47.0134403894
 51
49.9175229087
  0
ARC
  5
3E1
330
1F
100
AcDbEntity
  8
1
  6
SLD-Сплошная
100
AcDbCircle
 10
884.1506951474
 20
1262.6005475962
 30
0.0
 40
26.56195549632223
100
AcDbArc
 50
133.8816987744
 51
136.1183012256
  0
ARC
  5
3E2
330
1F
100
AcDbEntity
  8
1
  6
SLD-Сплошная
100
AcDbCircle
 10
882.9184501397
 20
1296.0872298137
 30
0.0
 40
23.41191191625257
100
AcDbArc
 50
220.0824770913
 51
222.9865596106
  0
SPLINE
  5
3E3
330
1F
100
AcDbEntity
  8
1
  6
SLD-Сплошная
100
AcDbSpline
210
0.0
220
0.0
230
1.0
 70
     8
 71
     3
 72
    12
 73
     8
 74
     0
 42
0.00000001
 43
0.00000001
 40
0.0
 40
0.0
 40
0.0
 40
0.0
 40
0.2187857887072142
 40
0.4375776469534839
 40
0.6562353658863967
 40
0.8748419359490988
 40
1.0
 40
1.0
 40
1.0
 40
1.0
 10
865.7923166721348
 20
1279.567269881451
 30
0.0
 10
865.8192800982068
 20
1279.60259527832
 30
0.0
 10
865.8732076983684
 20
1279.673247052053
 30
0.0
 10
865.9058035873414
 20
1279.807210280694
 30
0.0
 10
865.8964544560994
 20
1279.942752906974
 30
0.0
 10
865.8525756980175
 20
1280.051650711268
 30
0.0
 10
865.808400139731
 20
1280.104954422074
 30
0.0
 10
865.7923166721348
 20
1280.124361273708
 30
0.0
  0
ARC
  5
3E4
330
1F
100
AcDbEntity
  8
1
  6
SLD-Сплошная
100
AcDbCircle
 10
882.9184501395
 20
1263.6044013417
 30
0.0
 40
23.41191191596134
100
AcDbArc
 50
137.0134403894
 51
139.9175229087
  0
ARC
  5
3E5
330
1F
100
AcDbEntity
  8
1
  6
SLD-Сплошная
100
AcDbCircle
 10
884.1506951472
 20
1297.0910835588
 30
0.0
 40
26.56195549606921
100
AcDbArc
 50
223.8816987744
 51
226.1183012256
  0
ARC
  5
3E6
330
1F
100
AcDbEntity
  8
1
  6
SLD-Сплошная
100
AcDbCircle
 10
850.6640129302
 20
1295.858838551
 30
0.0
 40
23.41191191577867
100
AcDbArc
 50
310.0824770913
 51
312.9865596106
  0
ARC
  5
3E7
330
1F
100
AcDbEntity
  8
1
  6
SLD-Сплошная
100
AcDbCircle
 10
883.1468414017
 20
1295.858838551
 30
0.0
 40
23.41191191573371
100
AcDbArc
 50
227.0134403894
 51
229.9175229087
  0
CIRCLE
  5
3E8
330
1F
100
AcDbEntity
  8
1
  6
SLD-Сплошная
100
AcDbCircle
 10
866.9054271659
 20
1279.8458155776
 30
0.0
 40
3.499999999999948
  0
ELLIPSE
  5
3E9
330
1F
100
AcDbEntity
  8
1
  6
SLD-Сплошная
100
AcDbEllipse
 10
866.9054271659
 20
1280.9152023589
 30
0.0
 11
0.0
 21
-0.4122489361054704
 31
0.0
210
0.0
220
0.0
230
1.0
 40
0.9702875252
 41
5.512866274278634
 42
7.053504340080551
  0
ELLIPSE
  5
3EA
330
1F
100
AcDbEntity
  8
1
  6
SLD-Сплошная
100
AcDbEllipse
 10
867.9748139472
 20
1279.8458155776
 30
0.0
 11
-0.4122489361055841
 21
0.0
 31
0.0
210
0.0
220
0.0
230
1.0
 40
0.9702875252
 41
5.512866274278446
 42
7.05350434008074
  0
ELLIPSE
  5
3EB
330
1F
100
AcDbEntity
  8
1
  6
SLD-Сплошная
100
AcDbEllipse
 10
865.8360403847
 20
1279.8458155776
 30
0.0
 11
0.4122489361055841
 21
0.0
 31
0.0
210
0.0
220
0.0
230
1.0
 40
0.9702875252
 41
5.512866274278355
 42
7.053504340080831
  0
LINE
  5
3EC
330
1F
100
AcDbEntity
  8
1
  6
SLD-Сплошная
100
AcDbLine
 10
868.0721533549
 20
1277.9459549238
 30
0.0
 11
868.0721533549
 21
1278.1841146418
 31
0.0
  0
LINE
  5
3ED
330
1F
100
AcDbEntity
  8
1
  6
SLD-Сплошная
100
AcDbLine
 10
867.1839728621
 20
1279.0722951346
 30
0.0
 11
868.0721533549
 21
1278.1841146418
 31
0.0
  0
LINE
  5
3EE
330
1F
100
AcDbEntity
  8
1
  6
SLD-Сплошная
100
AcDbLine
 10
868.8052878198
 20
1278.6790893886
 30
0.0
 11
868.5671281017
 21
1278.6790893886
 31
0.0
  0
LINE
  5
3EF
330
1F
100
AcDbEntity
  8
1
  6
SLD-Сплошная
100
AcDbLine
 10
868.5671281017
 20
1278.6790893886
 30
0.0
 11
867.6789476089
 21
1279.5672698815
 31
0.0
  0
LINE
  5
3F0
330
1F
100
AcDbEntity
  8
1
  6
SLD-Сплошная
100
AcDbLine
 10
865.738700977
 20
1277.9459549238
 30
0.0
 11
865.738700977
 21
1278.1841146418
 31
0.0
  0
LINE
  5
3F1
330
1F
100
AcDbEntity
  8
1
  6
SLD-Сплошная
100
AcDbLine
 10
865.738700977
 20
1278.1841146418
 30
0.0
 11
866.6268814698
 21
1279.0722951346
 31
0.0
  0
LINE
  5
3F2
330
1F
100
AcDbEntity
  8
1
  6
SLD-Сплошная
100
AcDbLine
 10
868.8052878198
 20
1281.0125417665
 30
0.0
 11
868.5671281017
 21
1281.0125417665
 31
0.0
  0
LINE
  5
3F3
330
1F
100
AcDbEntity
  8
1
  6
SLD-Сплошная
100
AcDbLine
 10
867.6789476089
 20
1280.1243612737
 30
0.0
 11
868.5671281017
 21
1281.0125417665
 31
0.0
  0
LINE
  5
3F4
330
1F
100
AcDbEntity
  8
1
  6
SLD-Сплошная
100
AcDbLine
 10
865.0055665121
 20
1278.6790893886
 30
0.0
 11
865.2437262302
 21
1278.6790893886
 31
0.0
  0
LINE
  5
3F5
330
1F
100
AcDbEntity
  8
1
  6
SLD-Сплошная
100
AcDbLine
 10
866.131906723
 20
1279.5672698815
 30
0.0
 11
865.2437262302
 21
1278.6790893886
 31
0.0
  0
LINE
  5
3F6
330
1F
100
AcDbEntity
  8
1
  6
SLD-Сплошная
100
AcDbLine
 10
865.0055665121
 20
1281.0125417665
 30
0.0
 11
865.2437262302
 21
1281.0125417665
 31
0.0
  0
LINE
  5
3F7
330
1F
100
AcDbEntity
  8
1
  6
SLD-Сплошная
100
AcDbLine
 10
865.2437262302
 20
1281.0125417665
 30
0.0
 11
866.131906723
 21
1280.1243612737
 31
0.0
  0
LINE
  5
3F8
330
1F
100
AcDbEntity
  8
1
  6
SLD-Сплошная
100
AcDbLine
 10
865.738700977
 20
1281.7456762314
 30
0.0
 11
865.738700977
 21
1281.5075165134
 31
0.0
  0
LINE
  5
3F9
330
1F
100
AcDbEntity
  8
1
  6
SLD-Сплошная
100
AcDbLine
 10
866.6268814698
 20
1280.6193360205
 30
0.0
 11
865.738700977
 21
1281.5075165134
 31
0.0
  0
LINE
  5
3FA
330
1F
100
AcDbEntity
  8
1
  6
SLD-Сплошная
100
AcDbLine
 10
868.0721533549
 20
1281.7456762314
 30
0.0
 11
868.0721533549
 21
1281.5075165134
 31
0.0
  0
LINE
  5
3FB
330
1F
100
AcDbEntity
  8
1
  6
SLD-Сплошная
100
AcDbLine
 10
868.0721533549
 20
1281.5075165134
 30
0.0
 11
867.1839728621
 21
1280.6193360205
 31
0.0
  0
LINE
  5
3FC
330
1F
100
AcDbEntity
  8
1
  6
SLD-Сплошная
100
AcDbLine
 10
865.2437262302
 20
1278.6790893886
 30
0.0
 11
865.738700977
 21
1278.1841146418
 31
0.0
  0
LINE
  5
3FD
330
1F
100
AcDbEntity
  8
1
  6
SLD-Сплошная
100
AcDbLine
 10
868.0721533549
 20
1278.1841146418
 30
0.0
 11
868.5671281017
 21
1278.6790893886
 31
0.0
  0
LINE
  5
3FE
330
1F
100
AcDbEntity
  8
1
  6
SLD-Сплошная
100
AcDbLine
 10
868.5671281017
 20
1281.0125417665
 30
0.0
 11
868.0721533549
 21
1281.5075165134
 31
0.0
  0
LINE
  5
3FF
330
1F
100
AcDbEntity
  8
1
  6
SLD-Сплошная
100
AcDbLine
 10
865.738700977
 20
1281.5075165134
 30
0.0
 11
865.2437262302
 21
1281.0125417665
 31
0.0
  0
CIRCLE
  5
400
330
1F
100
AcDbEntity
  8
1
  6
SLD-Сплошная
100
AcDbCircle
 10
866.9054271659
 20
1279.8458155776
 30
0.0
 40
4.99999999999996
  0
ARC
  5
401
330
1F
100
AcDbEntity
  8
1
  6
SLD-Сплошная
100
AcDbCircle
 10
942.1601591852
 20
1314.5910835584
 30
0.0
 40
26.56195549542607
100
AcDbArc
 50
313.8816987744
 51
316.1183012256
  0
ARC
  5
402
330
1F
100
AcDbEntity
  8
1
  6
SLD-Сплошная
100
AcDbCircle
 10
943.3924041922
 20
1281.1044013415
 30
0.0
 40
23.41191191624612
100
AcDbArc
 50
40.0824770913
 51
42.9865596106
  0
SPLINE
  5
403
330
1F
100
AcDbEntity
  8
1
  6
SLD-Сплошная
100
AcDbSpline
210
0.0
220
0.0
230
1.0
 70
     8
 71
     3
 72
    12
 73
     8
 74
     0
 42
0.00000001
 43
0.00000001
 40
0.0
 40
0.0
 40
0.0
 40
0.0
 40
0.2187857887072258
 40
0.4375776469534892
 40
0.6562353658863563
 40
0.8748419359490992
 40
1.0
 40
1.0
 40
1.0
 40
1.0
 10
960.5185376597593
 20
1297.624361273708
 30
0.0
 10
960.4915742336873
 20
1297.589035876839
 30
0.0
 10
960.4376466335257
 20
1297.518384103106
 30
0.0
 10
960.4050507445527
 20
1297.384420874465
 30
0.0
 10
960.4143998757947
 20
1297.248878248185
 30
0.0
 10
960.4582786338766
 20
1297.139980443891
 30
0.0
 10
960.5024541921631
 20
1297.086676733085
 30
0.0
 10
960.5185376597593
 20
1297.067269881452
 30
0.0
  0
ARC
  5
404
330
1F
100
AcDbEntity
  8
1
  6
SLD-Сплошная
100
AcDbCircle
 10
943.3924041924
 20
1313.5872298135
 30
0.0
 40
23.41191191595273
100
AcDbArc
 50
317.0134403894
 51
319.9175229087
  0
ARC
  5
405
330
1F
100
AcDbEntity
  8
1
  6
SLD-Сплошная
100
AcDbCircle
 10
942.1601591852
 20
1280.1005475968
 30
0.0
 40
26.56195549542607
100
AcDbArc
 50
43.8816987744
 51
46.1183012256
  0
ARC
  5
406
330
1F
100
AcDbEntity
  8
1
  6
SLD-Сплошная
100
AcDbCircle
 10
975.6468414022
 20
1281.3327926036
 30
0.0
 40
23.41191191652718
100
AcDbArc
 50
130.0824770913
 51
132.9865596105
  0
SPLINE
  5
407
330
1F
100
AcDbEntity
  8
1
  6
SLD-Сплошная
100
AcDbSpline
210
0.0
220
0.0
230
1.0
 70
     8
 71
     3
 72
    12
 73
     8
 74
     0
 42
0.00000001
 43
0.00000001
 40
0.0
 40
0.0
 40
0.0
 40
0.0
 40
0.2187857887071718
 40
0.4375776469534864
 40
0.6562353658863612
 40
0.8748419359490948
 40
1.0
 40
1.0
 40
1.0
 40
1.0
 10
959.1268814698191
 20
1298.458926071392
 30
0.0
 10
959.162206866688
 20
1298.43196264532
 30
0.0
 10
959.2328586404204
 20
1298.378035045158
 30
0.0
 10
959.3668218690614
 20
1298.345439156185
 30
0.0
 10
959.5023644953415
 20
1298.354788287427
 30
0.0
 10
959.6112622996353
 20
1298.398667045509
 30
0.0
 10
959.6645660104413
 20
1298.442842603796
 30
0.0
 10
959.683972862075
 20
1298.458926071392
 30
0.0
  0
ARC
  5
408
330
1F
100
AcDbEntity
  8
1
  6
SLD-Сплошная
100
AcDbCircle
 10
943.1640129297
 20
1281.3327926036
 30
0.0
 40
23.41191191648083
100
AcDbArc
 50
47.0134403894
 51
49.9175229087
  0
ARC
  5
409
330
1F
100
AcDbEntity
  8
1
  6
SLD-Сплошная
100
AcDbCircle
 10
976.6506951466
 20
1280.1005475969
 30
0.0
 40
26.56195549524764
100
AcDbArc
 50
133.8816987744
 51
136.1183012256
  0
ARC
  5
40A
330
1F
100
AcDbEntity
  8
1
  6
SLD-Сплошная
100
AcDbCircle
 10
975.4184501397
 20
1313.5872298137
 30
0.0
 40
23.41191191624162
100
AcDbArc
 50
220.0824770913
 51
222.9865596106
  0
SPLINE
  5
40B
330
1F
100
AcDbEntity
  8
1
  6
SLD-Сплошная
100
AcDbSpline
210
0.0
220
0.0
230
1.0
 70
     8
 71
     3
 72
    12
 73
     8
 74
     0
 42
0.00000001
 43
0.00000001
 40
0.0
 40
0.0
 40
0.0
 40
0.0
 40
0.2187857887072096
 40
0.4375776469534813
 40
0.6562353658864019
 40
0.8748419359490944
 40
1.0
 40
1.0
 40
1.0
 40
1.0
 10
958.2923166721349
 20
1297.067269881452
 30
0.0
 10
958.3192800982068
 20
1297.10259527832
 30
0.0
 10
958.3732076983684
 20
1297.173247052053
 30
0.0
 10
958.4058035873416
 20
1297.307210280694
 30
0.0
 10
958.3964544560994
 20
1297.442752906974
 30
0.0
 10
958.3525756980175
 20
1297.551650711268
 30
0.0
 10
958.308400139731
 20
1297.604954422074
 30
0.0
 10
958.2923166721348
 20
1297.624361273708
 30
0.0
  0
ARC
  5
40C
330
1F
100
AcDbEntity
  8
1
  6
SLD-Сплошная
100
AcDbCircle
 10
975.41845014
 20
1281.1044013413
 30
0.0
 40
23.41191191653534
100
AcDbArc
 50
137.0134403894
 51
139.9175229087
  0
ARC
  5
40D
330
1F
100
AcDbEntity
  8
1
  6
SLD-Сплошная
100
AcDbCircle
 10
976.6506951466
 20
1314.5910835583
 30
0.0
 40
26.56195549529651
100
AcDbArc
 50
223.8816987744
 51
226.1183012256
  0
ARC
  5
40E
330
1F
100
AcDbEntity
  8
1
  6
SLD-Сплошная
100
AcDbCircle
 10
943.1640129297
 20
1313.3588385515
 30
0.0
 40
23.4119119164797
100
AcDbArc
 50
310.0824770913
 51
312.9865596106
  0
SPLINE
  5
40F
330
1F
100
AcDbEntity
  8
1
  6
SLD-Сплошная
100
AcDbSpline
210
0.0
220
0.0
230
1.0
 70
     8
 71
     3
 72
    12
 73
     8
 74
     0
 42
0.00000001
 43
0.00000001
 40
0.0
 40
0.0
 40
0.0
 40
0.0
 40
0.218785788707225
 40
0.4375776469534876
 40
0.656235365886399
 40
0.8748419359490996
 40
1.0
 40
1.0
 40
1.0
 40
1.0
 10
959.683972862075
 20
1296.232705083767
 30
0.0
 10
959.6486474652062
 20
1296.259668509839
 30
0.0
 10
959.5779956914737
 20
1296.313596110001
 30
0.0
 10
959.4440324628328
 20
1296.346191998974
 30
0.0
 10
959.3084898365527
 20
1296.336842867732
 30
0.0
 10
959.1995920322588
 20
1296.29296410965
 30
0.0
 10
959.1462883214529
 20
1296.248788551364
 30
0.0
 10
959.1268814698191
 20
1296.232705083767
 30
0.0
  0
ARC
  5
410
330
1F
100
AcDbEntity
  8
1
  6
SLD-Сплошная
100
AcDbCircle
 10
975.6468414022
 20
1313.3588385516
 30
0.0
 40
23.41191191652605
100
AcDbArc
 50
227.0134403895
 51
229.9175229087
  0
CIRCLE
  5
411
330
1F
100
AcDbEntity
  8
1
  6
SLD-Сплошная
100
AcDbCircle
 10
959.4054271659
 20
1297.3458155776
 30
0.0
 40
3.500000000000109
  0
ELLIPSE
  5
412
330
1F
100
AcDbEntity
  8
1
  6
SLD-Сплошная
100
AcDbEllipse
 10
958.3360403847
 20
1297.3458155776
 30
0.0
 11
0.4122489361056978
 21
0.0
 31
0.0
210
0.0
220
0.0
230
1.0
 40
0.9702875252
 41
5.512866274278785
 42
7.053504340079994
  0
ELLIPSE
  5
413
330
1F
100
AcDbEntity
  8
1
  6
SLD-Сплошная
100
AcDbEllipse
 10
960.4748139472
 20
1297.3458155776
 30
0.0
 11
-0.4122489361055841
 21
0.0
 31
0.0
210
0.0
220
0.0
230
1.0
 40
0.9702875252
 41
5.512866274278762
 42
7.053504340080831
  0
ELLIPSE
  5
414
330
1F
100
AcDbEntity
  8
1
  6
SLD-Сплошная
100
AcDbEllipse
 10
959.4054271659
 20
1298.4152023589
 30
0.0
 11
0.0
 21
-0.4122489361054704
 31
0.0
210
0.0
220
0.0
230
1.0
 40
0.9702875252
 41
5.512866274278776
 42
7.053504340080206
  0
ELLIPSE
  5
415
330
1F
100
AcDbEntity
  8
1
  6
SLD-Сплошная
100
AcDbEllipse
 10
959.4054271659
 20
1296.2764287963
 30
0.0
 11
0.0
 21
0.4122489361056978
 31
0.0
210
0.0
220
0.0
230
1.0
 40
0.9702875252
 41
5.512866274278947
 42
7.053504340080444
  0
LINE
  5
416
330
1F
100
AcDbEntity
  8
1
  6
SLD-Сплошная
100
AcDbLine
 10
960.5721533549
 20
1295.4459549238
 30
0.0
 11
960.5721533549
 21
1295.6841146418
 31
0.0
  0
LINE
  5
417
330
1F
100
AcDbEntity
  8
1
  6
SLD-Сплошная
100
AcDbLine
 10
959.6839728621
 20
1296.5722951346
 30
0.0
 11
960.5721533549
 21
1295.6841146418
 31
0.0
  0
LINE
  5
418
330
1F
100
AcDbEntity
  8
1
  6
SLD-Сплошная
100
AcDbLine
 10
961.3052878198
 20
1296.1790893886
 30
0.0
 11
961.0671281017
 21
1296.1790893886
 31
0.0
  0
LINE
  5
419
330
1F
100
AcDbEntity
  8
1
  6
SLD-Сплошная
100
AcDbLine
 10
961.0671281017
 20
1296.1790893886
 30
0.0
 11
960.1789476089
 21
1297.0672698815
 31
0.0
  0
LINE
  5
41A
330
1F
100
AcDbEntity
  8
1
  6
SLD-Сплошная
100
AcDbLine
 10
958.238700977
 20
1299.2456762314
 30
0.0
 11
958.238700977
 21
1299.0075165134
 31
0.0
  0
LINE
  5
41B
330
1F
100
AcDbEntity
  8
1
  6
SLD-Сплошная
100
AcDbLine
 10
959.1268814698
 20
1298.1193360205
 30
0.0
 11
958.238700977
 21
1299.0075165134
 31
0.0
  0
LINE
  5
41C
330
1F
100
AcDbEntity
  8
1
  6
SLD-Сплошная
100
AcDbLine
 10
961.3052878198
 20
1298.5125417665
 30
0.0
 11
961.0671281017
 21
1298.5125417665
 31
0.0
  0
LINE
  5
41D
330
1F
100
AcDbEntity
  8
1
  6
SLD-Сплошная
100
AcDbLine
 10
960.1789476089
 20
1297.6243612737
 30
0.0
 11
961.0671281017
 21
1298.5125417665
 31
0.0
  0
LINE
  5
41E
330
1F
100
AcDbEntity
  8
1
  6
SLD-Сплошная
100
AcDbLine
 10
960.5721533549
 20
1299.2456762314
 30
0.0
 11
960.5721533549
 21
1299.0075165134
 31
0.0
  0
LINE
  5
41F
330
1F
100
AcDbEntity
  8
1
  6
SLD-Сплошная
100
AcDbLine
 10
960.5721533549
 20
1299.0075165134
 30
0.0
 11
959.6839728621
 21
1298.1193360205
 31
0.0
  0
LINE
  5
420
330
1F
100
AcDbEntity
  8
1
  6
SLD-Сплошная
100
AcDbLine
 10
957.5055665121
 20
1298.5125417665
 30
0.0
 11
957.7437262302
 21
1298.5125417665
 31
0.0
  0
LINE
  5
421
330
1F
100
AcDbEntity
  8
1
  6
SLD-Сплошная
100
AcDbLine
 10
957.7437262302
 20
1298.5125417665
 30
0.0
 11
958.631906723
 21
1297.6243612737
 31
0.0
  0
LINE
  5
422
330
1F
100
AcDbEntity
  8
1
  6
SLD-Сплошная
100
AcDbLine
 10
957.5055665121
 20
1296.1790893886
 30
0.0
 11
957.7437262302
 21
1296.1790893886
 31
0.0
  0
LINE
  5
423
330
1F
100
AcDbEntity
  8
1
  6
SLD-Сплошная
100
AcDbLine
 10
958.631906723
 20
1297.0672698815
 30
0.0
 11
957.7437262302
 21
1296.1790893886
 31
0.0
  0
LINE
  5
424
330
1F
100
AcDbEntity
  8
1
  6
SLD-Сплошная
100
AcDbLine
 10
958.238700977
 20
1295.4459549238
 30
0.0
 11
958.238700977
 21
1295.6841146418
 31
0.0
  0
LINE
  5
425
330
1F
100
AcDbEntity
  8
1
  6
SLD-Сплошная
100
AcDbLine
 10
958.238700977
 20
1295.6841146418
 30
0.0
 11
959.1268814698
 21
1296.5722951346
 31
0.0
  0
LINE
  5
426
330
1F
100
AcDbEntity
  8
1
  6
SLD-Сплошная
100
AcDbLine
 10
957.7437262302
 20
1296.1790893886
 30
0.0
 11
958.238700977
 21
1295.6841146418
 31
0.0
  0
LINE
  5
427
330
1F
100
AcDbEntity
  8
1
  6
SLD-Сплошная
100
AcDbLine
 10
960.5721533549
 20
1295.6841146418
 30
0.0
 11
961.0671281017
 21
1296.1790893886
 31
0.0
  0
LINE
  5
428
330
1F
100
AcDbEntity
  8
1
  6
SLD-Сплошная
100
AcDbLine
 10
961.0671281017
 20
1298.5125417665
 30
0.0
 11
960.5721533549
 21
1299.0075165134
 31
0.0
  0
LINE
  5
429
330
1F
100
AcDbEntity
  8
1
  6
SLD-Сплошная
100
AcDbLine
 10
958.238700977
 20
1299.0075165134
 30
0.0
 11
957.7437262302
 21
1298.5125417665
 31
0.0
  0
CIRCLE
  5
42A
330
1F
100
AcDbEntity
  8
1
  6
SLD-Сплошная
100
AcDbCircle
 10
959.4054271659
 20
1297.3458155776
 30
0.0
 40
5.000000000000041
  0
ELLIPSE
  5
42B
330
1F
100
AcDbEntity
  8
1
  6
SLD-Сплошная
100
AcDbEllipse
 10
625.4748139472
 20
1297.3458155776
 30
0.0
 11
-0.4122489361055841
 21
0.0
 31
0.0
210
0.0
220
0.0
230
1.0
 40
0.9702875252
 41
5.512866274278355
 42
7.053504340080831
  0
SPLINE
  5
42C
330
1F
100
AcDbEntity
  8
1
  6
SLD-Сплошная
100
AcDbSpline
210
0.0
220
0.0
230
1.0
 70
     8
 71
     3
 72
    12
 73
     8
 74
     0
 42
0.00000001
 43
0.00000001
 40
0.0
 40
0.0
 40
0.0
 40
0.0
 40
0.2187857887071872
 40
0.4375776469534928
 40
0.6562353658863584
 40
0.8748419359491
 40
1.0
 40
1.0
 40
1.0
 40
1.0
 10
625.5185376597594
 20
1297.624361273708
 30
0.0
 10
625.4915742336874
 20
1297.589035876839
 30
0.0
 10
625.4376466335259
 20
1297.518384103106
 30
0.0
 10
625.4050507445527
 20
1297.384420874465
 30
0.0
 10
625.414399875795
 20
1297.248878248185
 30
0.0
 10
625.4582786338766
 20
1297.139980443891
 30
0.0
 10
625.5024541921632
 20
1297.086676733085
 30
0.0
 10
625.5185376597594
 20
1297.067269881451
 30
0.0
  0
ELLIPSE
  5
42D
330
1F
100
AcDbEntity
  8
1
  6
SLD-Сплошная
100
AcDbEllipse
 10
624.4054271659
 20
1296.2764287963
 30
0.0
 11
0.0
 21
0.4122489361054704
 31
0.0
210
0.0
220
0.0
230
1.0
 40
0.9702875252
 41
5.512866274278634
 42
7.053504340080551
  0
SPLINE
  5
42E
330
1F
100
AcDbEntity
  8
1
  6
SLD-Сплошная
100
AcDbSpline
210
0.0
220
0.0
230
1.0
 70
     8
 71
     3
 72
    12
 73
     8
 74
     0
 42
0.00000001
 43
0.00000001
 40
0.0
 40
0.0
 40
0.0
 40
0.0
 40
0.218785788707225
 40
0.4375776469534876
 40
0.656235365886399
 40
0.8748419359490996
 40
1.0
 40
1.0
 40
1.0
 40
1.0
 10
624.6839728620752
 20
1296.232705083767
 30
0.0
 10
624.6486474652062
 20
1296.259668509839
 30
0.0
 10
624.5779956914739
 20
1296.313596110001
 30
0.0
 10
624.4440324628328
 20
1296.346191998974
 30
0.0
 10
624.3084898365528
 20
1296.336842867732
 30
0.0
 10
624.1995920322588
 20
1296.29296410965
 30
0.0
 10
624.146288321453
 20
1296.248788551363
 30
0.0
 10
624.1268814698191
 20
1296.232705083767
 30
0.0
  0
ARC
  5
42F
330
1F
100
AcDbEntity
  8
1
  6
SLD-Сплошная
100
AcDbCircle
 10
607.1601591846
 20
1314.5910835589
 30
0.0
 40
26.56195549625978
100
AcDbArc
 50
313.8816987744
 51
316.1183012256
  0
ARC
  5
430
330
1F
100
AcDbEntity
  8
1
  6
SLD-Сплошная
100
AcDbCircle
 10
608.3924041921
 20
1281.1044013415
 30
0.0
 40
23.41191191625249
100
AcDbArc
 50
40.0824770913
 51
42.9865596106
  0
ARC
  5
431
330
1F
100
AcDbEntity
  8
1
  6
SLD-Сплошная
100
AcDbCircle
 10
608.3924041924
 20
1313.5872298135
 30
0.0
 40
23.41191191596119
100
AcDbArc
 50
317.0134403894
 51
319.9175229087
  0
ARC
  5
432
330
1F
100
AcDbEntity
  8
1
  6
SLD-Сплошная
100
AcDbCircle
 10
607.1601591846
 20
1280.1005475962
 30
0.0
 40
26.56195549626919
100
AcDbArc
 50
43.8816987744
 51
46.1183012256
  0
ARC
  5
433
330
1F
100
AcDbEntity
  8
1
  6
SLD-Сплошная
100
AcDbCircle
 10
640.646841402
 20
1281.3327926038
 30
0.0
 40
23.41191191621419
100
AcDbArc
 50
130.0824770913
 51
132.9865596106
  0
SPLINE
  5
434
330
1F
100
AcDbEntity
  8
1
  6
SLD-Сплошная
100
AcDbSpline
210
0.0
220
0.0
230
1.0
 70
     8
 71
     3
 72
    12
 73
     8
 74
     0
 42
0.00000001
 43
0.00000001
 40
0.0
 40
0.0
 40
0.0
 40
0.0
 40
0.2187857887071718
 40
0.4375776469534864
 40
0.6562353658863612
 40
0.8748419359490948
 40
1.0
 40
1.0
 40
1.0
 40
1.0
 10
624.1268814698191
 20
1298.458926071392
 30
0.0
 10
624.162206866688
 20
1298.43196264532
 30
0.0
 10
624.2328586404204
 20
1298.378035045158
 30
0.0
 10
624.3668218690615
 20
1298.345439156185
 30
0.0
 10
624.5023644953415
 20
1298.354788287427
 30
0.0
 10
624.6112622996354
 20
1298.398667045509
 30
0.0
 10
624.6645660104414
 20
1298.442842603795
 30
0.0
 10
624.6839728620752
 20
1298.458926071392
 30
0.0
  0
ARC
  5
435
330
1F
100
AcDbEntity
  8
1
  6
SLD-Сплошная
100
AcDbCircle
 10
608.16401293
 20
1281.3327926039
 30
0.0
 40
23.41191191606754
100
AcDbArc
 50
47.0134403894
 51
49.9175229087
  0
ARC
  5
436
330
1F
100
AcDbEntity
  8
1
  6
SLD-Сплошная
100
AcDbCircle
 10
641.6506951473
 20
1280.1005475962
 30
0.0
 40
26.5619554962456
100
AcDbArc
 50
133.8816987744
 51
136.1183012256
  0
ARC
  5
437
330
1F
100
AcDbEntity
  8
1
  6
SLD-Сплошная
100
AcDbCircle
 10
640.4184501398
 20
1313.5872298137
 30
0.0
 40
23.4119119163272
100
AcDbArc
 50
220.0824770913
 51
222.9865596106
  0
SPLINE
  5
438
330
1F
100
AcDbEntity
  8
1
  6
SLD-Сплошная
100
AcDbSpline
210
0.0
220
0.0
230
1.0
 70
     8
 71
     3
 72
    12
 73
     8
 74
     0
 42
0.00000001
 43
0.00000001
 40
0.0
 40
0.0
 40
0.0
 40
0.0
 40
0.2187857887072096
 40
0.4375776469534813
 40
0.6562353658864019
 40
0.8748419359490944
 40
1.0
 40
1.0
 40
1.0
 40
1.0
 10
623.2923166721349
 20
1297.067269881451
 30
0.0
 10
623.319280098207
 20
1297.10259527832
 30
0.0
 10
623.3732076983684
 20
1297.173247052053
 30
0.0
 10
623.4058035873416
 20
1297.307210280694
 30
0.0
 10
623.3964544560995
 20
1297.442752906974
 30
0.0
 10
623.3525756980176
 20
1297.551650711268
 30
0.0
 10
623.3084001397311
 20
1297.604954422074
 30
0.0
 10
623.2923166721349
 20
1297.624361273708
 30
0.0
  0
ARC
  5
439
330
1F
100
AcDbEntity
  8
1
  6
SLD-Сплошная
100
AcDbCircle
 10
640.4184501399
 20
1281.1044013414
 30
0.0
 40
23.41191191641763
100
AcDbArc
 50
137.0134403894
 51
139.9175229087
  0
ARC
  5
43A
330
1F
100
AcDbEntity
  8
1
  6
SLD-Сплошная
100
AcDbCircle
 10
641.6506951473
 20
1314.5910835589
 30
0.0
 40
26.56195549619432
100
AcDbArc
 50
223.8816987744
 51
226.1183012256
  0
ARC
  5
43B
330
1F
100
AcDbEntity
  8
1
  6
SLD-Сплошная
100
AcDbCircle
 10
608.1640129299
 20
1313.3588385513
 30
0.0
 40
23.41191191614413
100
AcDbArc
 50
310.0824770913
 51
312.9865596106
  0
ARC
  5
43C
330
1F
100
AcDbEntity
  8
1
  6
SLD-Сплошная
100
AcDbCircle
 10
640.646841402
 20
1313.3588385513
 30
0.0
 40
23.41191191618912
100
AcDbArc
 50
227.0134403894
 51
229.9175229087
  0
CIRCLE
  5
43D
330
1F
100
AcDbEntity
  8
1
  6
SLD-Сплошная
100
AcDbCircle
 10
624.4054271659
 20
1297.3458155776
 30
0.0
 40
3.499999999999948
  0
ELLIPSE
  5
43E
330
1F
100
AcDbEntity
  8
1
  6
SLD-Сплошная
100
AcDbEllipse
 10
623.3360403847
 20
1297.3458155776
 30
0.0
 11
0.4122489361055841
 21
0.0
 31
0.0
210
0.0
220
0.0
230
1.0
 40
0.9702875252
 41
5.512866274278639
 42
7.053504340080548
  0
ELLIPSE
  5
43F
330
1F
100
AcDbEntity
  8
1
  6
SLD-Сплошная
100
AcDbEllipse
 10
624.4054271659
 20
1298.4152023589
 30
0.0
 11
0.0
 21
-0.4122489361054704
 31
0.0
210
0.0
220
0.0
230
1.0
 40
0.9702875252
 41
5.512866274278108
 42
7.053504340081078
  0
LINE
  5
440
330
1F
100
AcDbEntity
  8
1
  6
SLD-Сплошная
100
AcDbLine
 10
626.3052878198
 20
1296.1790893886
 30
0.0
 11
626.0671281017
 21
1296.1790893886
 31
0.0
  0
LINE
  5
441
330
1F
100
AcDbEntity
  8
1
  6
SLD-Сплошная
100
AcDbLine
 10
626.0671281017
 20
1296.1790893886
 30
0.0
 11
625.1789476089
 21
1297.0672698815
 31
0.0
  0
LINE
  5
442
330
1F
100
AcDbEntity
  8
1
  6
SLD-Сплошная
100
AcDbLine
 10
625.5721533549
 20
1295.4459549238
 30
0.0
 11
625.5721533549
 21
1295.6841146418
 31
0.0
  0
LINE
  5
443
330
1F
100
AcDbEntity
  8
1
  6
SLD-Сплошная
100
AcDbLine
 10
624.6839728621
 20
1296.5722951346
 30
0.0
 11
625.5721533549
 21
1295.6841146418
 31
0.0
  0
LINE
  5
444
330
1F
100
AcDbEntity
  8
1
  6
SLD-Сплошная
100
AcDbLine
 10
622.5055665121
 20
1298.5125417665
 30
0.0
 11
622.7437262302
 21
1298.5125417665
 31
0.0
  0
LINE
  5
445
330
1F
100
AcDbEntity
  8
1
  6
SLD-Сплошная
100
AcDbLine
 10
622.7437262302
 20
1298.5125417665
 30
0.0
 11
623.631906723
 21
1297.6243612737
 31
0.0
  0
LINE
  5
446
330
1F
100
AcDbEntity
  8
1
  6
SLD-Сплошная
100
AcDbLine
 10
625.5721533549
 20
1299.2456762314
 30
0.0
 11
625.5721533549
 21
1299.0075165134
 31
0.0
  0
LINE
  5
447
330
1F
100
AcDbEntity
  8
1
  6
SLD-Сплошная
100
AcDbLine
 10
625.5721533549
 20
1299.0075165134
 30
0.0
 11
624.6839728621
 21
1298.1193360205
 31
0.0
  0
LINE
  5
448
330
1F
100
AcDbEntity
  8
1
  6
SLD-Сплошная
100
AcDbLine
 10
622.5055665121
 20
1296.1790893886
 30
0.0
 11
622.7437262302
 21
1296.1790893886
 31
0.0
  0
LINE
  5
449
330
1F
100
AcDbEntity
  8
1
  6
SLD-Сплошная
100
AcDbLine
 10
623.631906723
 20
1297.0672698815
 30
0.0
 11
622.7437262302
 21
1296.1790893886
 31
0.0
  0
LINE
  5
44A
330
1F
100
AcDbEntity
  8
1
  6
SLD-Сплошная
100
AcDbLine
 10
626.3052878198
 20
1298.5125417665
 30
0.0
 11
626.0671281017
 21
1298.5125417665
 31
0.0
  0
LINE
  5
44B
330
1F
100
AcDbEntity
  8
1
  6
SLD-Сплошная
100
AcDbLine
 10
625.1789476089
 20
1297.6243612737
 30
0.0
 11
626.0671281017
 21
1298.5125417665
 31
0.0
  0
LINE
  5
44C
330
1F
100
AcDbEntity
  8
1
  6
SLD-Сплошная
100
AcDbLine
 10
623.238700977
 20
1299.2456762314
 30
0.0
 11
623.238700977
 21
1299.0075165134
 31
0.0
  0
LINE
  5
44D
330
1F
100
AcDbEntity
  8
1
  6
SLD-Сплошная
100
AcDbLine
 10
624.1268814698
 20
1298.1193360205
 30
0.0
 11
623.238700977
 21
1299.0075165134
 31
0.0
  0
LINE
  5
44E
330
1F
100
AcDbEntity
  8
1
  6
SLD-Сплошная
100
AcDbLine
 10
623.238700977
 20
1295.4459549238
 30
0.0
 11
623.238700977
 21
1295.6841146418
 31
0.0
  0
LINE
  5
44F
330
1F
100
AcDbEntity
  8
1
  6
SLD-Сплошная
100
AcDbLine
 10
623.238700977
 20
1295.6841146418
 30
0.0
 11
624.1268814698
 21
1296.5722951346
 31
0.0
  0
LINE
  5
450
330
1F
100
AcDbEntity
  8
1
  6
SLD-Сплошная
100
AcDbLine
 10
626.0671281017
 20
1298.5125417665
 30
0.0
 11
625.5721533549
 21
1299.0075165134
 31
0.0
  0
LINE
  5
451
330
1F
100
AcDbEntity
  8
1
  6
SLD-Сплошная
100
AcDbLine
 10
622.7437262302
 20
1296.1790893886
 30
0.0
 11
623.238700977
 21
1295.6841146418
 31
0.0
  0
LINE
  5
452
330
1F
100
AcDbEntity
  8
1
  6
SLD-Сплошная
100
AcDbLine
 10
625.5721533549
 20
1295.6841146418
 30
0.0
 11
626.0671281017
 21
1296.1790893886
 31
0.0
  0
LINE
  5
453
330
1F
100
AcDbEntity
  8
1
  6
SLD-Сплошная
100
AcDbLine
 10
623.238700977
 20
1299.0075165134
 30
0.0
 11
622.7437262302
 21
1298.5125417665
 31
0.0
  0
CIRCLE
  5
454
330
1F
100
AcDbEntity
  8
1
  6
SLD-Сплошная
100
AcDbCircle
 10
624.4054271659
 20
1297.3458155776
 30
0.0
 40
4.99999999999996
  0
ARC
  5
455
330
1F
100
AcDbEntity
  8
1
  6
SLD-Сплошная
100
AcDbCircle
 10
959.1506951483
 20
1457.0910835599
 30
0.0
 40
26.56195549763851
100
AcDbArc
 50
223.8816987745
 51
226.1183012255
  0
ARC
  5
456
330
1F
100
AcDbEntity
  8
1
  6
SLD-Сплошная
100
AcDbCircle
 10
925.6640129298
 20
1455.8588385515
 30
0.0
 40
23.41191191640451
100
AcDbArc
 50
310.0824770913
 51
312.9865596106
  0
SPLINE
  5
457
330
1F
100
AcDbEntity
  8
1
  6
SLD-Сплошная
100
AcDbSpline
210
0.0
220
0.0
230
1.0
 70
     8
 71
     3
 72
    12
 73
     8
 74
     0
 42
0.00000001
 43
0.00000001
 40
0.0
 40
0.0
 40
0.0
 40
0.0
 40
0.2187857887072125
 40
0.4375776469534837
 40
0.6562353658864009
 40
0.874841935949103
 40
1.0
 40
1.0
 40
1.0
 40
1.0
 10
942.183972862075
 20
1438.732705083768
 30
0.0
 10
942.1486474652061
 20
1438.75966850984
 30
0.0
 10
942.0779956914737
 20
1438.813596110001
 30
0.0
 10
941.9440324628326
 20
1438.846191998974
 30
0.0
 10
941.8084898365527
 20
1438.836842867732
 30
0.0
 10
941.6995920322587
 20
1438.79296410965
 30
0.0
 10
941.6462883214529
 20
1438.748788551364
 30
0.0
 10
941.626881469819
 20
1438.732705083768
 30
0.0
  0
ARC
  5
458
330
1F
100
AcDbEntity
  8
1
  6
SLD-Сплошная
100
AcDbCircle
 10
958.1468414021
 20
1455.8588385515
 30
0.0
 40
23.4119119164045
100
AcDbArc
 50
227.0134403894
 51
229.9175229087
  0
ARC
  5
459
330
1F
100
AcDbEntity
  8
1
  6
SLD-Сплошная
100
AcDbCircle
 10
924.6601591841
 20
1457.0910835594
 30
0.0
 40
26.5619554969231
100
AcDbArc
 50
313.8816987745
 51
316.1183012256
  0
ARC
  5
45A
330
1F
100
AcDbEntity
  8
1
  6
SLD-Сплошная
100
AcDbCircle
 10
925.8924041923
 20
1423.6044013417
 30
0.0
 40
23.41191191600232
100
AcDbArc
 50
40.0824770913
 51
42.9865596106
  0
SPLINE
  5
45B
330
1F
100
AcDbEntity
  8
1
  6
SLD-Сплошная
100
AcDbSpline
210
0.0
220
0.0
230
1.0
 70
     8
 71
     3
 72
    12
 73
     8
 74
     0
 42
0.00000001
 43
0.00000001
 40
0.0
 40
0.0
 40
0.0
 40
0.0
 40
0.2187857887072109
 40
0.4375776469534843
 40
0.6562353658863843
 40
0.8748419359490952
 40
0.9999999999999999
 40
0.9999999999999999
 40
0.9999999999999999
 40
0.9999999999999999
 10
943.0185376597593
 20
1440.124361273708
 30
0.0
 10
942.9915742336872
 20
1440.089035876839
 30
0.0
 10
942.9376466335257
 20
1440.018384103107
 30
0.0
 10
942.9050507445527
 20
1439.884420874466
 30
0.0
 10
942.9143998757947
 20
1439.748878248186
 30
0.0
 10
942.9582786338765
 20
1439.639980443892
 30
0.0
 10
943.002454192163
 20
1439.586676733086
 30
0.0
 10
943.0185376597593
 20
1439.567269881452
 30
0.0
  0
ARC
  5
45C
330
1F
100
AcDbEntity
  8
1
  6
SLD-Сплошная
100
AcDbCircle
 10
925.8924041922
 20
1456.0872298136
 30
0.0
 40
23.4119119161218
100
AcDbArc
 50
317.0134403894
 51
319.9175229087
  0
ARC
  5
45D
330
1F
100
AcDbEntity
  8
1
  6
SLD-Сплошная
100
AcDbCircle
 10
924.6601591845
 20
1422.6005475961
 30
0.0
 40
26.56195549639288
100
AcDbArc
 50
43.8816987744
 51
46.1183012256
  0
ARC
  5
45E
330
1F
100
AcDbEntity
  8
1
  6
SLD-Сплошная
100
AcDbCircle
 10
958.1468414019
 20
1423.8327926039
 30
0.0
 40
23.41191191606875
100
AcDbArc
 50
130.0824770913
 51
132.9865596106
  0
SPLINE
  5
45F
330
1F
100
AcDbEntity
  8
1
  6
SLD-Сплошная
100
AcDbSpline
210
0.0
220
0.0
230
1.0
 70
     8
 71
     3
 72
    12
 73
     8
 74
     0
 42
0.00000001
 43
0.00000001
 40
0.0
 40
0.0
 40
0.0
 40
0.0
 40
0.2187857887071772
 40
0.4375776469534897
 40
0.656235365886361
 40
0.8748419359491035
 40
1.0
 40
1.0
 40
1.0
 40
1.0
 10
941.626881469819
 20
1440.958926071392
 30
0.0
 10
941.6622068666879
 20
1440.93196264532
 30
0.0
 10
941.7328586404203
 20
1440.878035045159
 30
0.0
 10
941.8668218690614
 20
1440.845439156186
 30
0.0
 10
942.0023644953413
 20
1440.854788287428
 30
0.0
 10
942.1112622996353
 20
1440.898667045509
 30
0.0
 10
942.1645660104411
 20
1440.942842603796
 30
0.0
 10
942.183972862075
 20
1440.958926071392
 30
0.0
  0
ARC
  5
460
330
1F
100
AcDbEntity
  8
1
  6
SLD-Сплошная
100
AcDbCircle
 10
925.66401293
 20
1423.8327926039
 30
0.0
 40
23.41191191606875
100
AcDbArc
 50
47.0134403894
 51
49.9175229087
  0
ARC
  5
461
330
1F
100
AcDbEntity
  8
1
  6
SLD-Сплошная
100
AcDbCircle
 10
959.1506951479
 20
1422.6005475956
 30
0.0
 40
26.56195549710853
100
AcDbArc
 50
133.8816987744
 51
136.1183012255
  0
ARC
  5
462
330
1F
100
AcDbEntity
  8
1
  6
SLD-Сплошная
100
AcDbCircle
 10
957.9184501399
 20
1456.0872298138
 30
0.0
 40
23.41191191645652
100
AcDbArc
 50
220.0824770913
 51
222.9865596106
  0
SPLINE
  5
463
330
1F
100
AcDbEntity
  8
1
  6
SLD-Сплошная
100
AcDbSpline
210
0.0
220
0.0
230
1.0
 70
     8
 71
     3
 72
    12
 73
     8
 74
     0
 42
0.00000001
 43
0.00000001
 40
0.0
 40
0.0
 40
0.0
 40
0.0
 40
0.218785788707198
 40
0.4375776469534773
 40
0.6562353658863889
 40
0.8748419359491113
 40
1.0
 40
1.0
 40
1.0
 40
1.0
 10
940.7923166721347
 20
1439.567269881452
 30
0.0
 10
940.8192800982068
 20
1439.602595278321
 30
0.0
 10
940.8732076983683
 20
1439.673247052053
 30
0.0
 10
940.9058035873413
 20
1439.807210280694
 30
0.0
 10
940.8964544560993
 20
1439.942752906974
 30
0.0
 10
940.8525756980175
 20
1440.051650711268
 30
0.0
 10
940.808400139731
 20
1440.104954422074
 30
0.0
 10
940.7923166721347
 20
1440.124361273708
 30
0.0
  0
ARC
  5
464
330
1F
100
AcDbEntity
  8
1
  6
SLD-Сплошная
100
AcDbCircle
 10
957.9184501399
 20
1423.6044013414
 30
0.0
 40
23.41191191645636
100
AcDbArc
 50
137.0134403894
 51
139.9175229087
  0
CIRCLE
  5
465
330
1F
100
AcDbEntity
  8
1
  6
SLD-Сплошная
100
AcDbCircle
 10
941.9054271659
 20
1439.8458155776
 30
0.0
 40
3.500000000000028
  0
ELLIPSE
  5
466
330
1F
100
AcDbEntity
  8
1
  6
SLD-Сплошная
100
AcDbEllipse
 10
941.9054271659
 20
1438.7764287963
 30
0.0
 11
0.0
 21
0.4122489361056978
 31
0.0
210
0.0
220
0.0
230
1.0
 40
0.9702875252
 41
5.512866274278359
 42
7.053504340080828
  0
ELLIPSE
  5
467
330
1F
100
AcDbEntity
  8
1
  6
SLD-Сплошная
100
AcDbEllipse
 10
942.9748139472
 20
1439.8458155776
 30
0.0
 11
-0.4122489361055841
 21
0.0
 31
0.0
210
0.0
220
0.0
230
1.0
 40
0.9702875252
 41
5.512866274278546
 42
7.053504340080639
  0
ELLIPSE
  5
468
330
1F
100
AcDbEntity
  8
1
  6
SLD-Сплошная
100
AcDbEllipse
 10
940.8360403847
 20
1439.8458155776
 30
0.0
 11
0.4122489361056978
 21
0.0
 31
0.0
210
0.0
220
0.0
230
1.0
 40
0.9702875252
 41
5.512866274278409
 42
7.053504340080777
  0
ELLIPSE
  5
469
330
1F
100
AcDbEntity
  8
1
  6
SLD-Сплошная
100
AcDbEllipse
 10
941.9054271659
 20
1440.9152023589
 30
0.0
 11
0.0
 21
-0.4122489361056978
 31
0.0
210
0.0
220
0.0
230
1.0
 40
0.9702875252
 41
5.512866274278359
 42
7.053504340080828
  0
LINE
  5
46A
330
1F
100
AcDbEntity
  8
1
  6
SLD-Сплошная
100
AcDbLine
 10
943.8052878198
 20
1441.0125417665
 30
0.0
 11
943.5671281017
 21
1441.0125417665
 31
0.0
  0
LINE
  5
46B
330
1F
100
AcDbEntity
  8
1
  6
SLD-Сплошная
100
AcDbLine
 10
942.6789476089
 20
1440.1243612737
 30
0.0
 11
943.5671281017
 21
1441.0125417665
 31
0.0
  0
LINE
  5
46C
330
1F
100
AcDbEntity
  8
1
  6
SLD-Сплошная
100
AcDbLine
 10
943.0721533549
 20
1441.7456762314
 30
0.0
 11
943.0721533549
 21
1441.5075165134
 31
0.0
  0
LINE
  5
46D
330
1F
100
AcDbEntity
  8
1
  6
SLD-Сплошная
100
AcDbLine
 10
943.0721533549
 20
1441.5075165134
 30
0.0
 11
942.1839728621
 21
1440.6193360205
 31
0.0
  0
LINE
  5
46E
330
1F
100
AcDbEntity
  8
1
  6
SLD-Сплошная
100
AcDbLine
 10
940.738700977
 20
1441.7456762314
 30
0.0
 11
940.738700977
 21
1441.5075165134
 31
0.0
  0
LINE
  5
46F
330
1F
100
AcDbEntity
  8
1
  6
SLD-Сплошная
100
AcDbLine
 10
941.6268814698
 20
1440.6193360205
 30
0.0
 11
940.738700977
 21
1441.5075165134
 31
0.0
  0
LINE
  5
470
330
1F
100
AcDbEntity
  8
1
  6
SLD-Сплошная
100
AcDbLine
 10
943.0721533549
 20
1437.9459549238
 30
0.0
 11
943.0721533549
 21
1438.1841146418
 31
0.0
  0
LINE
  5
471
330
1F
100
AcDbEntity
  8
1
  6
SLD-Сплошная
100
AcDbLine
 10
942.1839728621
 20
1439.0722951346
 30
0.0
 11
943.0721533549
 21
1438.1841146418
 31
0.0
  0
LINE
  5
472
330
1F
100
AcDbEntity
  8
1
  6
SLD-Сплошная
100
AcDbLine
 10
943.8052878198
 20
1438.6790893886
 30
0.0
 11
943.5671281017
 21
1438.6790893886
 31
0.0
  0
LINE
  5
473
330
1F
100
AcDbEntity
  8
1
  6
SLD-Сплошная
100
AcDbLine
 10
943.5671281017
 20
1438.6790893886
 30
0.0
 11
942.6789476089
 21
1439.5672698815
 31
0.0
  0
LINE
  5
474
330
1F
100
AcDbEntity
  8
1
  6
SLD-Сплошная
100
AcDbLine
 10
940.0055665121
 20
1438.6790893886
 30
0.0
 11
940.2437262302
 21
1438.6790893886
 31
0.0
  0
LINE
  5
475
330
1F
100
AcDbEntity
  8
1
  6
SLD-Сплошная
100
AcDbLine
 10
941.131906723
 20
1439.5672698815
 30
0.0
 11
940.2437262302
 21
1438.6790893886
 31
0.0
  0
LINE
  5
476
330
1F
100
AcDbEntity
  8
1
  6
SLD-Сплошная
100
AcDbLine
 10
940.0055665121
 20
1441.0125417665
 30
0.0
 11
940.2437262302
 21
1441.0125417665
 31
0.0
  0
LINE
  5
477
330
1F
100
AcDbEntity
  8
1
  6
SLD-Сплошная
100
AcDbLine
 10
940.2437262302
 20
1441.0125417665
 30
0.0
 11
941.131906723
 21
1440.1243612737
 31
0.0
  0
LINE
  5
478
330
1F
100
AcDbEntity
  8
1
  6
SLD-Сплошная
100
AcDbLine
 10
940.738700977
 20
1437.9459549238
 30
0.0
 11
940.738700977
 21
1438.1841146418
 31
0.0
  0
LINE
  5
479
330
1F
100
AcDbEntity
  8
1
  6
SLD-Сплошная
100
AcDbLine
 10
940.738700977
 20
1438.1841146418
 30
0.0
 11
941.6268814698
 21
1439.0722951346
 31
0.0
  0
LINE
  5
47A
330
1F
100
AcDbEntity
  8
1
  6
SLD-Сплошная
100
AcDbLine
 10
943.0721533549
 20
1438.1841146418
 30
0.0
 11
943.5671281017
 21
1438.6790893886
 31
0.0
  0
LINE
  5
47B
330
1F
100
AcDbEntity
  8
1
  6
SLD-Сплошная
100
AcDbLine
 10
943.5671281017
 20
1441.0125417665
 30
0.0
 11
943.0721533549
 21
1441.5075165134
 31
0.0
  0
LINE
  5
47C
330
1F
100
AcDbEntity
  8
1
  6
SLD-Сплошная
100
AcDbLine
 10
940.738700977
 20
1441.5075165134
 30
0.0
 11
940.2437262302
 21
1441.0125417665
 31
0.0
  0
LINE
  5
47D
330
1F
100
AcDbEntity
  8
1
  6
SLD-Сплошная
100
AcDbLine
 10
940.2437262302
 20
1438.6790893886
 30
0.0
 11
940.738700977
 21
1438.1841146418
 31
0.0
  0
CIRCLE
  5
47E
330
1F
100
AcDbEntity
  8
1
  6
SLD-Сплошная
100
AcDbCircle
 10
941.9054271659
 20
1439.8458155776
 30
0.0
 40
4.999999999999879
  0
ELLIPSE
  5
47F
330
1F
100
AcDbEntity
  8
1
  6
SLD-Сплошная
100
AcDbEllipse
 10
941.9054271659
 20
1278.7764287963
 30
0.0
 11
0.0
 21
0.4122489361054704
 31
0.0
210
0.0
220
0.0
230
1.0
 40
0.9702875252
 41
5.512866274278046
 42
7.053504340080936
  0
SPLINE
  5
480
330
1F
100
AcDbEntity
  8
1
  6
SLD-Сплошная
100
AcDbSpline
210
0.0
220
0.0
230
1.0
 70
     8
 71
     3
 72
    12
 73
     8
 74
     0
 42
0.00000001
 43
0.00000001
 40
0.0
 40
0.0
 40
0.0
 40
0.0
 40
0.218785788707225
 40
0.4375776469534876
 40
0.656235365886399
 40
0.8748419359490996
 40
1.0
 40
1.0
 40
1.0
 40
1.0
 10
942.1839728620752
 20
1278.732705083767
 30
0.0
 10
942.1486474652061
 20
1278.759668509839
 30
0.0
 10
942.0779956914738
 20
1278.813596110001
 30
0.0
 10
941.9440324628326
 20
1278.846191998974
 30
0.0
 10
941.8084898365528
 20
1278.836842867732
 30
0.0
 10
941.6995920322588
 20
1278.79296410965
 30
0.0
 10
941.646288321453
 20
1278.748788551364
 30
0.0
 10
941.626881469819
 20
1278.732705083767
 30
0.0
  0
ELLIPSE
  5
481
330
1F
100
AcDbEntity
  8
1
  6
SLD-Сплошная
100
AcDbEllipse
 10
942.9748139472
 20
1279.8458155776
 30
0.0
 11
-0.4122489361055841
 21
0.0
 31
0.0
210
0.0
220
0.0
230
1.0
 40
0.9702875252
 41
5.512866274278639
 42
7.053504340080548
  0
SPLINE
  5
482
330
1F
100
AcDbEntity
  8
1
  6
SLD-Сплошная
100
AcDbSpline
210
0.0
220
0.0
230
1.0
 70
     8
 71
     3
 72
    12
 73
     8
 74
     0
 42
0.00000001
 43
0.00000001
 40
0.0
 40
0.0
 40
0.0
 40
0.0
 40
0.2187857887071872
 40
0.4375776469534928
 40
0.6562353658863584
 40
0.8748419359491
 40
1.0
 40
1.0
 40
1.0
 40
1.0
 10
943.0185376597593
 20
1280.124361273708
 30
0.0
 10
942.9915742336872
 20
1280.089035876839
 30
0.0
 10
942.9376466335258
 20
1280.018384103106
 30
0.0
 10
942.9050507445527
 20
1279.884420874465
 30
0.0
 10
942.9143998757947
 20
1279.748878248185
 30
0.0
 10
942.9582786338766
 20
1279.639980443891
 30
0.0
 10
943.0024541921631
 20
1279.586676733085
 30
0.0
 10
943.0185376597593
 20
1279.567269881451
 30
0.0
  0
ELLIPSE
  5
483
330
1F
100
AcDbEntity
  8
1
  6
SLD-Сплошная
100
AcDbEllipse
 10
940.8360403847
 20
1279.8458155776
 30
0.0
 11
0.4122489361055841
 21
0.0
 31
0.0
210
0.0
220
0.0
230
1.0
 40
0.9702875252
 41
5.512866274278355
 42
7.053504340080831
  0
SPLINE
  5
484
330
1F
100
AcDbEntity
  8
1
  6
SLD-Сплошная
100
AcDbSpline
210
0.0
220
0.0
230
1.0
 70
     8
 71
     3
 72
    12
 73
     8
 74
     0
 42
0.00000001
 43
0.00000001
 40
0.0
 40
0.0
 40
0.0
 40
0.0
 40
0.2187857887072096
 40
0.4375776469534813
 40
0.6562353658864019
 40
0.8748419359490944
 40
1.0
 40
1.0
 40
1.0
 40
1.0
 10
940.7923166721348
 20
1279.567269881451
 30
0.0
 10
940.8192800982068
 20
1279.60259527832
 30
0.0
 10
940.8732076983683
 20
1279.673247052053
 30
0.0
 10
940.9058035873414
 20
1279.807210280694
 30
0.0
 10
940.8964544560993
 20
1279.942752906974
 30
0.0
 10
940.8525756980175
 20
1280.051650711268
 30
0.0
 10
940.808400139731
 20
1280.104954422074
 30
0.0
 10
940.7923166721348
 20
1280.124361273708
 30
0.0
  0
ELLIPSE
  5
485
330
1F
100
AcDbEntity
  8
1
  6
SLD-Сплошная
100
AcDbEllipse
 10
941.9054271659
 20
1280.9152023589
 30
0.0
 11
0.0
 21
-0.4122489361054704
 31
0.0
210
0.0
220
0.0
230
1.0
 40
0.9702875252
 41
5.512866274278492
 42
7.053504340080899
  0
SPLINE
  5
486
330
1F
100
AcDbEntity
  8
1
  6
SLD-Сплошная
100
AcDbSpline
210
0.0
220
0.0
230
1.0
 70
     8
 71
     3
 72
    12
 73
     8
 74
     0
 42
0.00000001
 43
0.00000001
 40
0.0
 40
0.0
 40
0.0
 40
0.0
 40
0.2187857887071718
 40
0.4375776469534864
 40
0.6562353658863612
 40
0.8748419359490948
 40
1.0
 40
1.0
 40
1.0
 40
1.0
 10
941.626881469819
 20
1280.958926071392
 30
0.0
 10
941.662206866688
 20
1280.93196264532
 30
0.0
 10
941.7328586404203
 20
1280.878035045158
 30
0.0
 10
941.8668218690614
 20
1280.845439156185
 30
0.0
 10
942.0023644953415
 20
1280.854788287427
 30
0.0
 10
942.1112622996353
 20
1280.898667045509
 30
0.0
 10
942.1645660104411
 20
1280.942842603796
 30
0.0
 10
942.1839728620752
 20
1280.958926071392
 30
0.0
  0
ARC
  5
487
330
1F
100
AcDbEntity
  8
1
  6
SLD-Сплошная
100
AcDbCircle
 10
924.6601591847
 20
1297.0910835588
 30
0.0
 40
26.56195549612411
100
AcDbArc
 50
313.8816987744
 51
316.1183012256
  0
ARC
  5
488
330
1F
100
AcDbEntity
  8
1
  6
SLD-Сплошная
100
AcDbCircle
 10
925.8924041924
 20
1263.6044013417
 30
0.0
 40
23.41191191596029
100
AcDbArc
 50
40.0824770913
 51
42.9865596106
  0
ARC
  5
489
330
1F
100
AcDbEntity
  8
1
  6
SLD-Сплошная
100
AcDbCircle
 10
925.8924041921
 20
1296.0872298137
 30
0.0
 40
23.41191191625153
100
AcDbArc
 50
317.0134403894
 51
319.9175229087
  0
ARC
  5
48A
330
1F
100
AcDbEntity
  8
1
  6
SLD-Сплошная
100
AcDbCircle
 10
924.6601591847
 20
1262.6005475963
 30
0.0
 40
26.56195549611479
100
AcDbArc
 50
43.8816987744
 51
46.1183012256
  0
ARC
  5
48B
330
1F
100
AcDbEntity
  8
1
  6
SLD-Сплошная
100
AcDbCircle
 10
958.146841402
 20
1263.8327926039
 30
0.0
 40
23.41191191614406
100
AcDbArc
 50
130.0824770913
 51
132.9865596106
  0
ARC
  5
48C
330
1F
100
AcDbEntity
  8
1
  6
SLD-Сплошная
100
AcDbCircle
 10
925.6640129299
 20
1263.8327926039
 30
0.0
 40
23.41191191614494
100
AcDbArc
 50
47.0134403894
 51
49.9175229087
  0
ARC
  5
48D
330
1F
100
AcDbEntity
  8
1
  6
SLD-Сплошная
100
AcDbCircle
 10
959.1506951474
 20
1262.6005475961
 30
0.0
 40
26.56195549638272
100
AcDbArc
 50
133.8816987744
 51
136.1183012256
  0
ARC
  5
48E
330
1F
100
AcDbEntity
  8
1
  6
SLD-Сплошная
100
AcDbCircle
 10
957.9184501399
 20
1296.0872298138
 30
0.0
 40
23.41191191642128
100
AcDbArc
 50
220.0824770913
 51
222.9865596106
  0
ARC
  5
48F
330
1F
100
AcDbEntity
  8
1
  6
SLD-Сплошная
100
AcDbCircle
 10
957.9184501397
 20
1263.6044013416
 30
0.0
 40
23.41191191613019
100
AcDbArc
 50
137.0134403894
 51
139.9175229087
  0
ARC
  5
490
330
1F
100
AcDbEntity
  8
1
  6
SLD-Сплошная
100
AcDbCircle
 10
959.1506951472
 20
1297.0910835588
 30
0.0
 40
26.56195549606258
100
AcDbArc
 50
223.8816987744
 51
226.1183012256
  0
ARC
  5
491
330
1F
100
AcDbEntity
  8
1
  6
SLD-Сплошная
100
AcDbCircle
 10
925.66401293
 20
1295.8588385512
 30
0.0
 40
23.41191191606875
100
AcDbArc
 50
310.0824770913
 51
312.9865596106
  0
ARC
  5
492
330
1F
100
AcDbEntity
  8
1
  6
SLD-Сплошная
100
AcDbCircle
 10
958.1468414018
 20
1295.8588385512
 30
0.0
 40
23.4119119159681
100
AcDbArc
 50
227.0134403894
 51
229.9175229087
  0
CIRCLE
  5
493
330
1F
100
AcDbEntity
  8
1
  6
SLD-Сплошная
100
AcDbCircle
 10
941.9054271659
 20
1279.8458155776
 30
0.0
 40
3.500000000000028
  0
LINE
  5
494
330
1F
100
AcDbEntity
  8
1
  6
SLD-Сплошная
100
AcDbLine
 10
943.8052878198
 20
1278.6790893886
 30
0.0
 11
943.5671281017
 21
1278.6790893886
 31
0.0
  0
LINE
  5
495
330
1F
100
AcDbEntity
  8
1
  6
SLD-Сплошная
100
AcDbLine
 10
943.5671281017
 20
1278.6790893886
 30
0.0
 11
942.6789476089
 21
1279.5672698815
 31
0.0
  0
LINE
  5
496
330
1F
100
AcDbEntity
  8
1
  6
SLD-Сплошная
100
AcDbLine
 10
943.0721533549
 20
1277.9459549238
 30
0.0
 11
943.0721533549
 21
1278.1841146418
 31
0.0
  0
LINE
  5
497
330
1F
100
AcDbEntity
  8
1
  6
SLD-Сплошная
100
AcDbLine
 10
942.1839728621
 20
1279.0722951346
 30
0.0
 11
943.0721533549
 21
1278.1841146418
 31
0.0
  0
LINE
  5
498
330
1F
100
AcDbEntity
  8
1
  6
SLD-Сплошная
100
AcDbLine
 10
940.738700977
 20
1281.7456762314
 30
0.0
 11
940.738700977
 21
1281.5075165134
 31
0.0
  0
LINE
  5
499
330
1F
100
AcDbEntity
  8
1
  6
SLD-Сплошная
100
AcDbLine
 10
941.6268814698
 20
1280.6193360205
 30
0.0
 11
940.738700977
 21
1281.5075165134
 31
0.0
  0
LINE
  5
49A
330
1F
100
AcDbEntity
  8
1
  6
SLD-Сплошная
100
AcDbLine
 10
943.0721533549
 20
1281.7456762314
 30
0.0
 11
943.0721533549
 21
1281.5075165134
 31
0.0
  0
LINE
  5
49B
330
1F
100
AcDbEntity
  8
1
  6
SLD-Сплошная
100
AcDbLine
 10
943.0721533549
 20
1281.5075165134
 30
0.0
 11
942.1839728621
 21
1280.6193360205
 31
0.0
  0
LINE
  5
49C
330
1F
100
AcDbEntity
  8
1
  6
SLD-Сплошная
100
AcDbLine
 10
940.738700977
 20
1277.9459549238
 30
0.0
 11
940.738700977
 21
1278.1841146418
 31
0.0
  0
LINE
  5
49D
330
1F
100
AcDbEntity
  8
1
  6
SLD-Сплошная
100
AcDbLine
 10
940.738700977
 20
1278.1841146418
 30
0.0
 11
941.6268814698
 21
1279.0722951346
 31
0.0
  0
LINE
  5
49E
330
1F
100
AcDbEntity
  8
1
  6
SLD-Сплошная
100
AcDbLine
 10
940.0055665121
 20
1281.0125417665
 30
0.0
 11
940.2437262302
 21
1281.0125417665
 31
0.0
  0
LINE
  5
49F
330
1F
100
AcDbEntity
  8
1
  6
SLD-Сплошная
100
AcDbLine
 10
940.2437262302
 20
1281.0125417665
 30
0.0
 11
941.131906723
 21
1280.1243612737
 31
0.0
  0
LINE
  5
4A0
330
1F
100
AcDbEntity
  8
1
  6
SLD-Сплошная
100
AcDbLine
 10
940.0055665121
 20
1278.6790893886
 30
0.0
 11
940.2437262302
 21
1278.6790893886
 31
0.0
  0
LINE
  5
4A1
330
1F
100
AcDbEntity
  8
1
  6
SLD-Сплошная
100
AcDbLine
 10
941.131906723
 20
1279.5672698815
 30
0.0
 11
940.2437262302
 21
1278.6790893886
 31
0.0
  0
LINE
  5
4A2
330
1F
100
AcDbEntity
  8
1
  6
SLD-Сплошная
100
AcDbLine
 10
943.8052878198
 20
1281.0125417665
 30
0.0
 11
943.5671281017
 21
1281.0125417665
 31
0.0
  0
LINE
  5
4A3
330
1F
100
AcDbEntity
  8
1
  6
SLD-Сплошная
100
AcDbLine
 10
942.6789476089
 20
1280.1243612737
 30
0.0
 11
943.5671281017
 21
1281.0125417665
 31
0.0
  0
LINE
  5
4A4
330
1F
100
AcDbEntity
  8
1
  6
SLD-Сплошная
100
AcDbLine
 10
943.0721533549
 20
1278.1841146418
 30
0.0
 11
943.5671281017
 21
1278.6790893886
 31
0.0
  0
LINE
  5
4A5
330
1F
100
AcDbEntity
  8
1
  6
SLD-Сплошная
100
AcDbLine
 10
943.5671281017
 20
1281.0125417665
 30
0.0
 11
943.0721533549
 21
1281.5075165134
 31
0.0
  0
LINE
  5
4A6
330
1F
100
AcDbEntity
  8
1
  6
SLD-Сплошная
100
AcDbLine
 10
940.2437262302
 20
1278.6790893886
 30
0.0
 11
940.738700977
 21
1278.1841146418
 31
0.0
  0
LINE
  5
4A7
330
1F
100
AcDbEntity
  8
1
  6
SLD-Сплошная
100
AcDbLine
 10
940.738700977
 20
1281.5075165134
 30
0.0
 11
940.2437262302
 21
1281.0125417665
 31
0.0
  0
CIRCLE
  5
4A8
330
1F
100
AcDbEntity
  8
1
  6
SLD-Сплошная
100
AcDbCircle
 10
941.9054271659
 20
1279.8458155776
 30
0.0
 40
5.000000000000121
  0
CIRCLE
  5
4A9
330
1F
100
AcDbEntity
  8
1
  6
SLD-Сплошная
100
AcDbCircle
 10
976.9054271659
 20
1457.0958155776
 30
0.0
 40
8.299999999999955
  0
LINE
  5
4AA
330
1F
100
AcDbEntity
  8
1
  6
SLD-Сплошная
100
AcDbLine
 10
663.1054271659
 20
1499.1958155776
 30
0.0
 11
635.1054271659
 21
1499.1958155776
 31
0.0
  0
LINE
  5
4AB
330
1F
100
AcDbEntity
  8
1
  6
SLD-Сплошная
100
AcDbLine
 10
660.1054271659
 20
1502.1958155776
 30
0.0
 11
638.1054271659
 21
1502.1958155776
 31
0.0
  0
LINE
  5
4AC
330
1F
100
AcDbEntity
  8
1
  6
SLD-Сплошная
100
AcDbLine
 10
987.9054271659
 20
1473.0958155776
 30
0.0
 11
987.9054271659
 21
1472.0958155776
 31
0.0
  0
LINE
  5
4AD
330
1F
100
AcDbEntity
  8
1
  6
SLD-Сплошная
100
AcDbLine
 10
985.9054271659
 20
1474.0958155776
 30
0.0
 11
986.9054271659
 21
1474.0958155776
 31
0.0
  0
SPLINE
  5
4AE
330
1F
100
AcDbEntity
  8
1
  6
SLD-Сплошная
100
AcDbSpline
210
0.0
220
0.0
230
1.0
 70
     8
 71
     3
 72
    12
 73
     8
 74
     0
 42
0.00000001
 43
0.00000001
 40
0.0
 40
0.0
 40
0.0
 40
0.0
 40
0.2178231110882048
 40
0.4765675029999344
 40
0.8410160589292623
 40
0.9961871477580917
 40
1.0
 40
1.0
 40
1.0
 40
1.0
 10
986.9054271659273
 20
1474.09581557758
 30
0.0
 10
987.046563735961
 20
1474.076462384169
 30
0.0
 10
987.3553514602148
 20
1474.034120214815
 30
0.0
 10
987.7131615885755
 20
1473.739972459946
 30
0.0
 10
987.8794118545976
 20
1473.405981965346
 30
0.0
 10
987.905300759417
 20
1473.169309778955
 30
0.0
 10
987.9054242053694
 20
1473.097536880099
 30
0.0
 10
987.9054271659274
 20
1473.09581557758
 30
0.0
  0
LINE
  5
4AF
330
1F
100
AcDbEntity
  8
1
  6
SLD-Сплошная
100
AcDbLine
 10
975.4054271659
 20
1474.0958155776
 30
0.0
 11
985.9054271659
 21
1474.0958155776
 31
0.0
  0
ARC
  5
4B0
330
1F
100
AcDbEntity
  8
1
  6
SLD-Сплошная
100
AcDbCircle
 10
975.4054271659
 20
1475.0958155776
 30
0.0
 40
1.000000000000227
100
AcDbArc
 50
180.0
 51
270.0
  0
ARC
  5
4B1
330
1F
100
AcDbEntity
  8
1
  6
SLD-Сплошная
100
AcDbCircle
 10
975.4054271659
 20
1475.0958155776
 30
0.0
 40
3.000000000000227
100
AcDbArc
 50
180.0
 51
270.0
  0
LINE
  5
4B2
330
1F
100
AcDbEntity
  8
1
  6
SLD-Сплошная
100
AcDbLine
 10
972.4054271659
 20
1479.1958155776
 30
0.0
 11
972.4054271659
 21
1475.0958155776
 31
0.0
  0
LINE
  5
4B3
330
1F
100
AcDbEntity
  8
1
  6
SLD-Сплошная
100
AcDbLine
 10
974.4054271659
 20
1479.1958155776
 30
0.0
 11
974.4054271659
 21
1475.0958155776
 31
0.0
  0
LINE
  5
4B4
330
1F
100
AcDbEntity
  8
1
  6
SLD-Сплошная
100
AcDbLine
 10
984.1581183594
 20
1474.1958155776
 30
0.0
 11
985.5054271659
 21
1474.1958155776
 31
0.0
  0
LINE
  5
4B5
330
1F
100
AcDbEntity
  8
1
  6
SLD-Сплошная
100
AcDbLine
 10
976.3054271659
 20
1474.1958155776
 30
0.0
 11
984.1581183594
 21
1474.1958155776
 31
0.0
  0
LINE
  5
4B6
330
1F
100
AcDbEntity
  8
1
  6
SLD-Сплошная
100
AcDbLine
 10
984.1581183594
 20
1474.5958155776
 30
0.0
 11
985.5054271659
 21
1474.5958155776
 31
0.0
  0
LINE
  5
4B7
330
1F
100
AcDbEntity
  8
1
  6
SLD-Сплошная
100
AcDbLine
 10
976.3054271659
 20
1474.5958155776
 30
0.0
 11
984.1581183594
 21
1474.5958155776
 31
0.0
  0
ARC
  5
4B8
330
1F
100
AcDbEntity
  8
1
  6
SLD-Сплошная
100
AcDbCircle
 10
974.9054271659
 20
1474.5958155776
 30
0.0
 40
2.500000000000227
100
AcDbArc
 50
180.0
 51
270.0
  0
LINE
  5
4B9
330
1F
100
AcDbEntity
  8
1
  6
SLD-Сплошная
100
AcDbLine
 10
972.4054271659
 20
1475.0958155776
 30
0.0
 11
972.4054271659
 21
1474.5958155776
 31
0.0
  0
LINE
  5
4BA
330
1F
100
AcDbEntity
  8
1
  6
SLD-Сплошная
100
AcDbLine
 10
1637.4568051668
 20
965.448911213
 30
0.0
 11
1637.4568051668
 21
371.009546638
 31
0.0
  0
LINE
  5
4BB
330
1F
100
AcDbEntity
  8
1
  6
SLD-Сплошная
100
AcDbLine
 10
1630.3568051667
 20
453.1792289255
 30
0.0
 11
1631.5221812055
 21
453.1792289255
 31
0.0
  0
LINE
  5
4BC
330
1F
100
AcDbEntity
  8
1
  6
SLD-Сплошная
100
AcDbLine
 10
1631.5221812055
 20
463.2792289255
 30
0.0
 11
1630.3568051667
 21
463.2792289255
 31
0.0
  0
ARC
  5
4BD
330
1F
100
AcDbEntity
  8
1
  6
SLD-Сплошная
100
AcDbCircle
 10
1631.5221812055
 20
453.3792289255
 30
0.0
 40
0.1999999999999886
100
AcDbArc
 50
270.0
 51
338.1849373759
  0
ARC
  5
4BE
330
1F
100
AcDbEntity
  8
1
  6
SLD-Сплошная
100
AcDbCircle
 10
1631.5221812055
 20
463.0792289255
 30
0.0
 40
0.1999999999999886
100
AcDbArc
 50
21.8150626241
 51
90.0
  0
ARC
  5
4BF
330
1F
100
AcDbEntity
  8
1
  6
SLD-Сплошная
100
AcDbCircle
 10
1619.4055551667
 20
458.2292289255
 30
0.0
 40
13.25125000000003
100
AcDbArc
 50
338.1849373759
 51
0.0
  0
ARC
  5
4C0
330
1F
100
AcDbEntity
  8
1
  6
SLD-Сплошная
100
AcDbCircle
 10
1619.4055551667
 20
458.2292289255
 30
0.0
 40
13.25125000000003
100
AcDbArc
 50
0.0
 51
21.8150626241
  0
LINE
  5
4C1
330
1F
100
AcDbEntity
  8
1
  6
SLD-Сплошная
100
AcDbLine
 10
1630.3568051667
 20
873.1792289255
 30
0.0
 11
1631.5221812055
 21
873.1792289255
 31
0.0
  0
LINE
  5
4C2
330
1F
100
AcDbEntity
  8
1
  6
SLD-Сплошная
100
AcDbLine
 10
1631.5221812055
 20
883.2792289255
 30
0.0
 11
1630.3568051667
 21
883.2792289255
 31
0.0
  0
ARC
  5
4C3
330
1F
100
AcDbEntity
  8
1
  6
SLD-Сплошная
100
AcDbCircle
 10
1631.5221812055
 20
873.3792289255
 30
0.0
 40
0.2000000000000455
100
AcDbArc
 50
270.0
 51
338.1849373759
  0
ARC
  5
4C4
330
1F
100
AcDbEntity
  8
1
  6
SLD-Сплошная
100
AcDbCircle
 10
1631.5221812055
 20
883.0792289255
 30
0.0
 40
0.1999999999999318
100
AcDbArc
 50
21.8150626241
 51
90.0
  0
ARC
  5
4C5
330
1F
100
AcDbEntity
  8
1
  6
SLD-Сплошная
100
AcDbCircle
 10
1619.4055551667
 20
878.2292289255
 30
0.0
 40
13.25124999999994
100
AcDbArc
 50
338.1849373759
 51
0.0
  0
ARC
  5
4C6
330
1F
100
AcDbEntity
  8
1
  6
SLD-Сплошная
100
AcDbCircle
 10
1619.4055551667
 20
878.2292289255
 30
0.0
 40
13.2512499999999
100
AcDbArc
 50
0.0
 51
21.8150626241
  0
LINE
  5
4C7
330
1F
100
AcDbEntity
  8
1
  6
SLD-Сплошная
100
AcDbLine
 10
1607.0568051668
 20
368.2292289255
 30
0.0
 11
1607.0568051668
 21
367.0234668679
 31
0.0
  0
LINE
  5
4C8
330
1F
100
AcDbEntity
  8
1
  6
SLD-Сплошная
100
AcDbLine
 10
1623.6568051668
 20
367.0234668679
 30
0.0
 11
1623.6568051668
 21
368.2292289255
 31
0.0
  0
ARC
  5
4C9
330
1F
100
AcDbEntity
  8
1
  6
SLD-Сплошная
100
AcDbCircle
 10
1608.0568051668
 20
367.0234668679
 30
0.0
 40
1.000000000000227
100
AcDbArc
 50
180.0
 51
257.5813184942
  0
ARC
  5
4CA
330
1F
100
AcDbEntity
  8
1
  6
SLD-Сплошная
100
AcDbCircle
 10
1622.6568051668
 20
367.0234668679
 30
0.0
 40
1.000000000000227
100
AcDbArc
 50
282.4186815058
 51
0.0
  0
ARC
  5
4CB
330
1F
100
AcDbEntity
  8
1
  6
SLD-Сплошная
100
AcDbCircle
 10
1615.3568051668
 20
400.1742289255
 30
0.0
 40
34.94500000000006
100
AcDbArc
 50
270.0104111827
 51
282.4186815058
  0
ARC
  5
4CC
330
1F
100
AcDbEntity
  8
1
  6
SLD-Сплошная
100
AcDbCircle
 10
1615.3568051668
 20
400.1742289255
 30
0.0
 40
34.94499999999996
100
AcDbArc
 50
257.5813184942
 51
270.0104111827
  0
LINE
  5
4CD
330
1F
100
AcDbEntity
  8
1
  6
SLD-Сплошная
100
AcDbLine
 10
1656.4568051668
 20
654.2292289255
 30
0.0
 11
1657.4568051668
 21
654.2292289255
 31
0.0
  0
LINE
  5
4CE
330
1F
100
AcDbEntity
  8
1
  6
SLD-Сплошная
100
AcDbLine
 10
1657.4568051668
 20
682.2292289255
 30
0.0
 11
1656.4568051668
 21
682.2292289255
 31
0.0
  0
LINE
  5
4CF
330
1F
100
AcDbEntity
  8
1
  6
SLD-Сплошная
100
AcDbLine
 10
1657.4568051668
 20
654.2292289255
 30
0.0
 11
1660.4568051668
 21
657.2292289255
 31
0.0
  0
LINE
  5
4D0
330
1F
100
AcDbEntity
  8
1
  6
SLD-Сплошная
100
AcDbLine
 10
1660.4568051668
 20
679.2292289255
 30
0.0
 11
1657.4568051668
 21
682.2292289255
 31
0.0
  0
LINE
  5
4D1
330
1F
100
AcDbEntity
  8
1
  6
SLD-Сплошная
100
AcDbLine
 10
1458.6068051668
 20
367.7292289255
 30
0.0
 11
1448.1151312788
 21
367.7292289255
 31
0.0
  0
ARC
  5
4D2
330
1F
100
AcDbEntity
  8
1
  6
SLD-Сплошная
100
AcDbCircle
 10
1448.1151312788
 20
370.1292289255
 30
0.0
 40
2.400000000000034
100
AcDbArc
 50
232.3415379933
 51
270.0
  0
LINE
  5
4D3
330
1F
100
AcDbEntity
  8
1
  6
SLD-Сплошная
100
AcDbLine
 10
1577.6068051668
 20
367.7292289255
 30
0.0
 11
1458.6068051668
 21
367.7292289255
 31
0.0
  0
LINE
  5
4D4
330
1F
100
AcDbEntity
  8
1
  6
SLD-Сплошная
100
AcDbLine
 10
1588.0984790547
 20
367.7292289255
 30
0.0
 11
1577.6068051668
 21
367.7292289255
 31
0.0
  0
ARC
  5
4D5
330
1F
100
AcDbEntity
  8
1
  6
SLD-Сплошная
100
AcDbCircle
 10
1588.0984790547
 20
370.1292289255
 30
0.0
 40
2.400000000000034
100
AcDbArc
 50
270.0
 51
307.6584620066
  0
LINE
  5
4D6
330
1F
100
AcDbEntity
  8
1
  6
SLD-Сплошная
100
AcDbLine
 10
1408.8568051668
 20
370.2292289255
 30
0.0
 11
1628.3568051668
 21
370.2292289255
 31
0.0
  0
CIRCLE
  5
4D7
330
1F
100
AcDbEntity
  8
1
  6
SLD-Сплошная
100
AcDbCircle
 10
1590.3568051668
 20
418.2292289255
 30
0.0
 40
0.5
  0
CIRCLE
  5
4D8
330
1F
100
AcDbEntity
  8
1
  6
SLD-Сплошная
100
AcDbCircle
 10
1590.3568051668
 20
918.2292289255
 30
0.0
 40
0.5
  0
CIRCLE
  5
4D9
330
1F
100
AcDbEntity
  8
1
  6
SLD-Сплошная
100
AcDbCircle
 10
1540.3568051668
 20
928.2292289255
 30
0.0
 40
0.5
  0
ELLIPSE
  5
4DA
330
1F
100
AcDbEntity
  8
1
  6
SLD-Сплошная
100
AcDbEllipse
 10
1408.8568051668
 20
965.6585182474
 30
0.0
 11
2.5
 21
0.0
 31
0.0
210
0.0
220
0.0
230
1.0
 40
0.6
 41
2.751284095285956
 42
3.141592653589892
  0
LINE
  5
4DB
330
1F
100
AcDbEntity
  8
1
  6
SLD-Сплошная
100
AcDbLine
 10
1406.5448259029
 20
370.2292289255
 30
0.0
 11
1408.8568051668
 21
370.2292289255
 31
0.0
  0
ELLIPSE
  5
4DC
330
1F
100
AcDbEntity
  8
1
  6
SLD-Сплошная
100
AcDbEllipse
 10
1408.8568051668
 20
370.7999396036
 30
0.0
 11
2.5
 21
0.0
 31
0.0
210
0.0
220
0.0
230
1.0
 40
0.6
 41
3.141592653589755
 42
3.531901211893819
  0
LINE
  5
4DD
330
1F
100
AcDbEntity
  8
1
  6
SLD-Сплошная
100
AcDbLine
 10
1406.3568051668
 20
370.7999396036
 30
0.0
 11
1406.3568051668
 21
965.6585182474
 31
0.0
  0
LINE
  5
4DE
330
1F
100
AcDbEntity
  8
1
  6
SLD-Сплошная
100
AcDbLine
 10
1406.5448259029
 20
966.2292289255
 30
0.0
 11
1408.8568051668
 21
966.2292289255
 31
0.0
  0
LINE
  5
4DF
330
1F
100
AcDbEntity
  8
1
  6
SLD-Сплошная
100
AcDbLine
 10
1408.8568051668
 20
968.2292289255
 30
0.0
 11
1628.3568051668
 21
968.2292289255
 31
0.0
  0
LINE
  5
4E0
330
1F
100
AcDbEntity
  8
1
  6
SLD-Сплошная
100
AcDbLine
 10
1628.3568051668
 20
966.2292289255
 30
0.0
 11
1628.3568051668
 21
968.2292289255
 31
0.0
  0
LINE
  5
4E1
330
1F
100
AcDbEntity
  8
1
  6
SLD-Сплошная
100
AcDbLine
 10
1408.8568051668
 20
966.2292289255
 30
0.0
 11
1408.8568051668
 21
968.2292289255
 31
0.0
  0
LINE
  5
4E2
330
1F
100
AcDbEntity
  8
1
  6
SLD-Сплошная
100
AcDbLine
 10
1630.3568051668
 20
370.2999396036
 30
0.0
 11
1628.3568051668
 21
370.2292289255
 31
0.0
  0
LINE
  5
4E3
330
1F
100
AcDbEntity
  8
1
  6
SLD-Сплошная
100
AcDbLine
 10
1630.3568051668
 20
966.1585182474
 30
0.0
 11
1628.3568051668
 21
966.2292289255
 31
0.0
  0
LINE
  5
4E4
330
1F
100
AcDbEntity
  8
1
  6
SLD-Сплошная
100
AcDbLine
 10
1630.3568051668
 20
966.1585182474
 30
0.0
 11
1630.3568051668
 21
370.2999396036
 31
0.0
  0
LINE
  5
4E5
330
1F
100
AcDbEntity
  8
1
  6
SLD-Сплошная
100
AcDbLine
 10
1408.8568051668
 20
368.5588996167
 30
0.0
 11
1408.8568051668
 21
370.2292289255
 31
0.0
  0
LINE
  5
4E6
330
1F
100
AcDbEntity
  8
1
  6
SLD-Сплошная
100
AcDbLine
 10
1628.3568051668
 20
370.2292289255
 30
0.0
 11
1628.3568051668
 21
368.5588996167
 31
0.0
  0
LINE
  5
4E7
330
1F
100
AcDbEntity
  8
1
  6
SLD-Сплошная
100
AcDbLine
 10
1628.3568051668
 20
368.2292289255
 30
0.0
 11
1408.8568051668
 21
368.2292289255
 31
0.0
  0
LINE
  5
4E8
330
1F
100
AcDbEntity
  8
1
  6
SLD-Сплошная
100
AcDbLine
 10
1406.5448259029
 20
966.6804133889
 30
0.0
 11
1407.4696176084
 21
966.2999396035
 31
0.0
  0
ARC
  5
4E9
330
1F
100
AcDbEntity
  8
1
  6
SLD-Сплошная
100
AcDbCircle
 10
1408.8568051668
 20
965.7292289255
 30
0.0
 40
1.5
100
AcDbArc
 50
90.0
 51
157.6369669039
  0
ARC
  5
4EA
330
1F
100
AcDbEntity
  8
1
  6
SLD-Сплошная
100
AcDbCircle
 10
1408.8568051668
 20
965.7292289255
 30
0.0
 40
2.500000000000093
100
AcDbArc
 50
90.0
 51
157.6369669039
  0
LINE
  5
4EB
330
1F
100
AcDbEntity
  8
1
  6
SLD-Сплошная
100
AcDbLine
 10
1408.8568051668
 20
368.5588996167
 30
0.0
 11
1408.8568051668
 21
368.2292289255
 31
0.0
  0
LINE
  5
4EC
330
1F
100
AcDbEntity
  8
1
  6
SLD-Сплошная
100
AcDbLine
 10
1406.5448259029
 20
369.7780444621
 30
0.0
 11
1407.4696176084
 21
370.1585182475
 31
0.0
  0
ARC
  5
4ED
330
1F
100
AcDbEntity
  8
1
  6
SLD-Сплошная
100
AcDbCircle
 10
1408.8568051668
 20
370.7292289255
 30
0.0
 40
1.5
100
AcDbArc
 50
202.3630330961
 51
270.0
  0
ARC
  5
4EE
330
1F
100
AcDbEntity
  8
1
  6
SLD-Сплошная
100
AcDbCircle
 10
1408.8568051668
 20
370.7292289255
 30
0.0
 40
2.500000000000093
100
AcDbArc
 50
202.3630330961
 51
270.0
  0
LINE
  5
4EF
330
1F
100
AcDbEntity
  8
1
  6
SLD-Сплошная
100
AcDbLine
 10
1406.3568051668
 20
965.7292289255
 30
0.0
 11
1406.3595844895
 21
965.7292289255
 31
0.0
  0
ARC
  5
4F0
330
1F
100
AcDbEntity
  8
1
  6
SLD-Сплошная
100
AcDbCircle
 10
1408.8568051668
 20
965.7292289255
 30
0.0
 40
2.500000000000093
100
AcDbArc
 50
157.6369669039
 51
180.0
  0
LINE
  5
4F1
330
1F
100
AcDbEntity
  8
1
  6
SLD-Сплошная
100
AcDbLine
 10
1406.3568051668
 20
370.7292289255
 30
0.0
 11
1406.3595844895
 21
370.7292289255
 31
0.0
  0
ARC
  5
4F2
330
1F
100
AcDbEntity
  8
1
  6
SLD-Сплошная
100
AcDbCircle
 10
1408.8568051668
 20
370.7292289255
 30
0.0
 40
2.500000000000093
100
AcDbArc
 50
180.0
 51
202.3630330961
  0
ARC
  5
4F3
330
1F
100
AcDbEntity
  8
1
  6
SLD-Сплошная
100
AcDbCircle
 10
1628.3568051668
 20
370.2292289255
 30
0.0
 40
2.0
100
AcDbArc
 50
270.0
 51
360.0
  0
LINE
  5
4F4
330
1F
100
AcDbEntity
  8
1
  6
SLD-Сплошная
100
AcDbLine
 10
1628.3568051668
 20
368.2292289255
 30
0.0
 11
1628.3568051668
 21
368.5588996167
 31
0.0
  0
LINE
  5
4F5
330
1F
100
AcDbEntity
  8
1
  6
SLD-Сплошная
100
AcDbLine
 10
1629.3568051668
 20
370.2292289255
 30
0.0
 11
1630.3568051668
 21
370.2292289255
 31
0.0
  0
ARC
  5
4F6
330
1F
100
AcDbEntity
  8
1
  6
SLD-Сплошная
100
AcDbCircle
 10
1628.3568051668
 20
370.2292289255
 30
0.0
 40
1.0
100
AcDbArc
 50
270.0
 51
360.0
  0
ARC
  5
4F7
330
1F
100
AcDbEntity
  8
1
  6
SLD-Сплошная
100
AcDbCircle
 10
1628.3568051668
 20
966.2292289255
 30
0.0
 40
2.0
100
AcDbArc
 50
0.0
 51
90.0
  0
LINE
  5
4F8
330
1F
100
AcDbEntity
  8
1
  6
SLD-Сплошная
100
AcDbLine
 10
1629.3568051668
 20
966.2292289255
 30
0.0
 11
1630.3568051668
 21
966.2292289255
 31
0.0
  0
ARC
  5
4F9
330
1F
100
AcDbEntity
  8
1
  6
SLD-Сплошная
100
AcDbCircle
 10
1628.3568051668
 20
966.2292289255
 30
0.0
 40
1.0
100
AcDbArc
 50
0.0
 51
90.0
  0
LINE
  5
4FA
330
1F
100
AcDbEntity
  8
1
  6
SLD-Сплошная
100
AcDbLine
 10
1629.3568051668
 20
966.2292289255
 30
0.0
 11
1629.3568051668
 21
966.1938735865
 31
0.0
  0
LINE
  5
4FB
330
1F
100
AcDbEntity
  8
1
  6
SLD-Сплошная
100
AcDbLine
 10
1630.3568051668
 20
966.2292289255
 30
0.0
 11
1630.3568051668
 21
966.1585182474
 31
0.0
  0
LINE
  5
4FC
330
1F
100
AcDbEntity
  8
1
  6
SLD-Сплошная
100
AcDbLine
 10
1630.3568051668
 20
370.2292289255
 30
0.0
 11
1630.3568051668
 21
370.2999396036
 31
0.0
  0
LINE
  5
4FD
330
1F
100
AcDbEntity
  8
1
  6
SLD-Сплошная
100
AcDbLine
 10
1629.3568051668
 20
370.2292289255
 30
0.0
 11
1629.3568051668
 21
370.2645842646
 31
0.0
  0
LINE
  5
4FE
330
1F
100
AcDbEntity
  8
1
  6
SLD-Сплошная
100
AcDbLine
 10
1406.3568051668
 20
965.7292289255
 30
0.0
 11
1406.3568051668
 21
965.6585182474
 31
0.0
  0
LINE
  5
4FF
330
1F
100
AcDbEntity
  8
1
  6
SLD-Сплошная
100
AcDbLine
 10
1406.3568051668
 20
370.7292289255
 30
0.0
 11
1406.3568051668
 21
370.7999396036
 31
0.0
  0
ELLIPSE
  5
500
330
1F
100
AcDbEntity
  8
1
  6
SLD-Сплошная
100
AcDbEllipse
 10
1631.3568051668
 20
949.1585182474
 30
0.0
 11
0.0
 21
2.0
 31
0.0
210
0.0
220
0.0
230
1.0
 40
0.5
 41
1.570796326794897
 42
3.141592653589793
  0
ELLIPSE
  5
501
330
1F
100
AcDbEntity
  8
1
  6
SLD-Сплошная
100
AcDbEllipse
 10
1631.3568051668
 20
387.2999396036
 30
0.0
 11
0.0
 21
1.999999999999943
 31
0.0
210
0.0
220
0.0
230
1.0
 40
0.5
 41
0.0
 42
1.570796326794897
  0
ARC
  5
502
330
1F
100
AcDbEntity
  8
1
  6
SLD-Сплошная
100
AcDbCircle
 10
1631.3568051668
 20
387.2292289255
 30
0.0
 40
1.0
100
AcDbArc
 50
90.0
 51
180.0
  0
ARC
  5
503
330
1F
100
AcDbEntity
  8
1
  6
SLD-Сплошная
100
AcDbCircle
 10
1631.3568051668
 20
387.2292289255
 30
0.0
 40
2.0
100
AcDbArc
 50
90.0
 51
98.7004774943
  0
ARC
  5
504
330
1F
100
AcDbEntity
  8
1
  6
SLD-Сплошная
100
AcDbCircle
 10
1631.3568051668
 20
949.2292289255
 30
0.0
 40
1.0
100
AcDbArc
 50
180.0
 51
270.0
  0
ARC
  5
505
330
1F
100
AcDbEntity
  8
1
  6
SLD-Сплошная
100
AcDbCircle
 10
1631.3568051668
 20
949.2292289255
 30
0.0
 40
2.000000000000018
100
AcDbArc
 50
261.2995225057
 51
270.0
  0
LINE
  5
506
330
1F
100
AcDbEntity
  8
1
  6
SLD-Сплошная
100
AcDbLine
 10
1631.3568051668
 20
947.1585182475
 30
0.0
 11
1637.4568051667
 21
947.1585182475
 31
0.0
  0
LINE
  5
507
330
1F
100
AcDbEntity
  8
1
  6
SLD-Сплошная
100
AcDbLine
 10
1631.3568051668
 20
389.2999396036
 30
0.0
 11
1637.4568051667
 21
389.2999396036
 31
0.0
  0
LINE
  5
508
330
1F
100
AcDbEntity
  8
1
  6
SLD-Сплошная
100
AcDbLine
 10
1637.4568051667
 20
388.2292289255
 30
0.0
 11
1631.3568051668
 21
388.2292289255
 31
0.0
  0
LINE
  5
509
330
1F
100
AcDbEntity
  8
1
  6
SLD-Сплошная
100
AcDbLine
 10
1637.4568051667
 20
389.2292289255
 30
0.0
 11
1631.3568051668
 21
389.2292289255
 31
0.0
  0
LINE
  5
50A
330
1F
100
AcDbEntity
  8
1
  6
SLD-Сплошная
100
AcDbLine
 10
1637.4568051667
 20
947.2292289255
 30
0.0
 11
1631.3568051668
 21
947.2292289255
 31
0.0
  0
LINE
  5
50B
330
1F
100
AcDbEntity
  8
1
  6
SLD-Сплошная
100
AcDbLine
 10
1637.4568051667
 20
948.2292289255
 30
0.0
 11
1631.3568051668
 21
948.2292289255
 31
0.0
  0
SPLINE
  5
50C
330
1F
100
AcDbEntity
  8
1
  6
SLD-Сплошная
100
AcDbSpline
210
0.0
220
0.0
230
1.0
 70
     8
 71
     3
 72
    11
 73
     7
 74
     0
 42
0.00000001
 43
0.00000001
 40
0.0
 40
0.0
 40
0.0
 40
0.0
 40
0.2499999999999992
 40
0.5000000000000061
 40
0.7500000000000067
 40
1.0
 40
1.0
 40
1.0
 40
1.0
 10
1638.50680516675
 20
965.4463862130351
 30
0.0
 10
1638.369216270754
 20
965.4422195463685
 30
0.0
 10
1638.09403847876
 20
965.4338862130353
 30
0.0
 10
1637.746966294809
 20
965.4213862130352
 30
0.0
 10
1637.50415462103
 20
965.4088862130354
 30
0.0
 10
1637.472588318177
 20
965.4005528797022
 30
0.0
 10
1637.45680516675
 20
965.3963862130355
 30
0.0
  0
SPLINE
  5
50D
330
1F
100
AcDbEntity
  8
1
  6
SLD-Сплошная
100
AcDbSpline
210
0.0
220
0.0
230
1.0
 70
     8
 71
     3
 72
    11
 73
     7
 74
     0
 42
0.00000001
 43
0.00000001
 40
0.0
 40
0.0
 40
0.0
 40
0.0
 40
0.2499999999999967
 40
0.5000000000000075
 40
0.7500000000000032
 40
1.0
 40
1.0
 40
1.0
 40
1.0
 10
1637.45680516675
 20
371.0620716379806
 30
0.0
 10
1637.472588318176
 20
371.057904971314
 30
0.0
 10
1637.504154621028
 20
371.0495716379807
 30
0.0
 10
1637.746966294806
 20
371.0370716379809
 30
0.0
 10
1638.094038478759
 20
371.0245716379807
 30
0.0
 10
1638.369216270753
 20
371.0162383046476
 30
0.0
 10
1638.50680516675
 20
371.012071637981
 30
0.0
  0
LINE
  5
50E
330
1F
100
AcDbEntity
  8
1
  6
SLD-Сплошная
100
AcDbLine
 10
1638.5068051668
 20
371.012071638
 30
0.0
 11
1653.7568051668
 21
371.012071638
 31
0.0
  0
LINE
  5
50F
330
1F
100
AcDbEntity
  8
1
  6
SLD-Сплошная
100
AcDbLine
 10
1638.5068051668
 20
965.446386213
 30
0.0
 11
1653.7568051668
 21
965.446386213
 31
0.0
  0
ELLIPSE
  5
510
330
1F
100
AcDbEntity
  8
1
  6
SLD-Сплошная
100
AcDbEllipse
 10
1653.7568051668
 20
964.0292289255
 30
0.0
 11
2.700000000000045
 21
0.0
 31
0.0
210
0.0
220
0.0
230
1.0
 40
0.5248730695
 41
0.0
 42
1.570796326794812
  0
LINE
  5
511
330
1F
100
AcDbEntity
  8
1
  6
SLD-Сплошная
100
AcDbLine
 10
1656.4568051668
 20
964.0292289255
 30
0.0
 11
1656.4568051668
 21
372.4292289255
 31
0.0
  0
ELLIPSE
  5
512
330
1F
100
AcDbEntity
  8
1
  6
SLD-Сплошная
100
AcDbEllipse
 10
1653.7568051668
 20
372.4292289255
 30
0.0
 11
2.700000000000045
 21
0.0
 31
0.0
210
0.0
220
0.0
230
1.0
 40
0.5248730695
 41
4.712388980384697
 42
6.283185307179586
  0
LINE
  5
513
330
1F
100
AcDbEntity
  8
1
  6
SLD-Сплошная
100
AcDbLine
 10
1638.4568051668
 20
965.6792289255
 30
0.0
 11
1637.4568051668
 21
965.6792289255
 31
0.0
  0
SPLINE
  5
514
330
1F
100
AcDbEntity
  8
1
  6
SLD-Сплошная
100
AcDbSpline
210
0.0
220
0.0
230
1.0
 70
     8
 71
     3
 72
    11
 73
     7
 74
     0
 42
0.00000001
 43
0.00000001
 40
0.0
 40
0.0
 40
0.0
 40
0.0
 40
0.2500000000000131
 40
0.5000000000000026
 40
0.750000000000002
 40
1.0
 40
1.0
 40
1.0
 40
1.0
 10
1637.45680516675
 20
965.679228925508
 30
0.0
 10
1637.472588318177
 20
965.8168178215047
 30
0.0
 10
1637.50415462103
 20
966.0919956134978
 30
0.0
 10
1637.746966294809
 20
966.4390677974496
 30
0.0
 10
1638.09403847876
 20
966.6818794712281
 30
0.0
 10
1638.369216270754
 20
966.7134457740815
 30
0.0
 10
1638.50680516675
 20
966.7292289255082
 30
0.0
  0
LINE
  5
515
330
1F
100
AcDbEntity
  8
1
  6
SLD-Сплошная
100
AcDbLine
 10
1638.5068051668
 20
966.7292289255
 30
0.0
 11
1638.5068051668
 21
965.7292289255
 31
0.0
  0
SPLINE
  5
516
330
1F
100
AcDbEntity
  8
1
  6
SLD-Сплошная
100
AcDbSpline
210
0.0
220
0.0
230
1.0
 70
     8
 71
     3
 72
    11
 73
     7
 74
     0
 42
0.00000001
 43
0.00000001
 40
0.0
 40
0.0
 40
0.0
 40
0.0
 40
0.2499999999998786
 40
0.5000000000000098
 40
0.7499999999999487
 40
1.0
 40
1.0
 40
1.0
 40
1.0
 10
1638.45680516675
 20
965.6792289255081
 30
0.0
 10
1638.45755674539
 20
965.6857807776984
 30
0.0
 10
1638.459059902668
 20
965.698884482079
 30
0.0
 10
1638.470622363325
 20
965.715411728934
 30
0.0
 10
1638.487149610179
 20
965.7269741895902
 30
0.0
 10
1638.50025331456
 20
965.7284773468689
 30
0.0
 10
1638.50680516675
 20
965.7292289255082
 30
0.0
  0
LINE
  5
517
330
1F
100
AcDbEntity
  8
1
  6
SLD-Сплошная
100
AcDbLine
 10
1653.7568051668
 20
966.7292289255
 30
0.0
 11
1638.5068051668
 21
966.7292289255
 31
0.0
  0
LINE
  5
518
330
1F
100
AcDbEntity
  8
1
  6
SLD-Сплошная
100
AcDbLine
 10
1653.7568051668
 20
965.7292289255
 30
0.0
 11
1638.5068051668
 21
965.7292289255
 31
0.0
  0
LINE
  5
519
330
1F
100
AcDbEntity
  8
1
  6
SLD-Сплошная
100
AcDbLine
 10
1638.5068051668
 20
369.7292289255
 30
0.0
 11
1638.5068051668
 21
370.7292289255
 31
0.0
  0
SPLINE
  5
51A
330
1F
100
AcDbEntity
  8
1
  6
SLD-Сплошная
100
AcDbSpline
210
0.0
220
0.0
230
1.0
 70
     8
 71
     3
 72
    11
 73
     7
 74
     0
 42
0.00000001
 43
0.00000001
 40
0.0
 40
0.0
 40
0.0
 40
0.0
 40
0.2500000000000059
 40
0.5000000000000103
 40
0.7500000000000094
 40
0.9999999999999999
 40
0.9999999999999999
 40
0.9999999999999999
 40
0.9999999999999999
 10
1638.50680516675
 20
369.7292289255082
 30
0.0
 10
1638.369216270754
 20
369.7450120769349
 30
0.0
 10
1638.09403847876
 20
369.7765783797884
 30
0.0
 10
1637.746966294809
 20
370.0193900535669
 30
0.0
 10
1637.50415462103
 20
370.3664622375185
 30
0.0
 10
1637.472588318177
 20
370.6416400295117
 30
0.0
 10
1637.45680516675
 20
370.7792289255082
 30
0.0
  0
LINE
  5
51B
330
1F
100
AcDbEntity
  8
1
  6
SLD-Сплошная
100
AcDbLine
 10
1638.4568051668
 20
370.7792289255
 30
0.0
 11
1637.4568051668
 21
370.7792289255
 31
0.0
  0
SPLINE
  5
51C
330
1F
100
AcDbEntity
  8
1
  6
SLD-Сплошная
100
AcDbSpline
210
0.0
220
0.0
230
1.0
 70
     8
 71
     3
 72
    11
 73
     7
 74
     0
 42
0.00000001
 43
0.00000001
 40
0.0
 40
0.0
 40
0.0
 40
0.0
 40
0.2500000000000216
 40
0.499999999999988
 40
0.7500000000001203
 40
1.0
 40
1.0
 40
1.0
 40
1.0
 10
1638.50680516675
 20
370.7292289255082
 30
0.0
 10
1638.50025331456
 20
370.7299805041476
 30
0.0
 10
1638.487149610179
 20
370.7314836614264
 30
0.0
 10
1638.470622363324
 20
370.7430461220824
 30
0.0
 10
1638.459059902668
 20
370.7595733689374
 30
0.0
 10
1638.45755674539
 20
370.7726770733179
 30
0.0
 10
1638.45680516675
 20
370.7792289255082
 30
0.0
  0
LINE
  5
51D
330
1F
100
AcDbEntity
  8
1
  6
SLD-Сплошная
100
AcDbLine
 10
1653.7568051668
 20
370.7292289255
 30
0.0
 11
1638.5068051668
 21
370.7292289255
 31
0.0
  0
LINE
  5
51E
330
1F
100
AcDbEntity
  8
1
  6
SLD-Сплошная
100
AcDbLine
 10
1653.7568051668
 20
369.7292289255
 30
0.0
 11
1638.5068051668
 21
369.7292289255
 31
0.0
  0
ARC
  5
51F
330
1F
100
AcDbEntity
  8
1
  6
SLD-Сплошная
100
AcDbCircle
 10
1653.7568051668
 20
964.0292289255
 30
0.0
 40
2.700000000000045
100
AcDbArc
 50
0.0000000002
 51
90.0
  0
ARC
  5
520
330
1F
100
AcDbEntity
  8
1
  6
SLD-Сплошная
100
AcDbCircle
 10
1653.7568051668
 20
964.0292289255
 30
0.0
 40
1.699999999999873
100
AcDbArc
 50
49.5408896312
 51
90.0
  0
ARC
  5
521
330
1F
100
AcDbEntity
  8
1
  6
SLD-Сплошная
100
AcDbCircle
 10
1653.7568051668
 20
372.4292289255
 30
0.0
 40
1.700000000000045
100
AcDbArc
 50
270.0
 51
310.4591103684
  0
ARC
  5
522
330
1F
100
AcDbEntity
  8
1
  6
SLD-Сплошная
100
AcDbCircle
 10
1653.7568051668
 20
372.4292289255
 30
0.0
 40
2.700000000000045
100
AcDbArc
 50
270.0
 51
359.9999999997
  0
LINE
  5
523
330
1F
100
AcDbEntity
  8
1
  6
SLD-Сплошная
100
AcDbLine
 10
1638.5068051668
 20
965.446386213
 30
0.0
 11
1638.5068051668
 21
965.6292289255
 31
0.0
  0
LINE
  5
524
330
1F
100
AcDbEntity
  8
1
  6
SLD-Сплошная
100
AcDbLine
 10
1637.5162905234
 20
965.3963862131
 30
0.0
 11
1637.4568051668
 21
965.6792289255
 31
0.0
  0
SPLINE
  5
525
330
1F
100
AcDbEntity
  8
1
  6
SLD-Сплошная
100
AcDbSpline
210
0.0
220
0.0
230
1.0
 70
     8
 71
     3
 72
    10
 73
     6
 74
     0
 42
0.00000001
 43
0.00000001
 40
0.0
 40
0.0
 40
0.0
 40
0.0
 40
0.3585486610968257
 40
0.5969690048085556
 40
1.0
 40
1.0
 40
1.0
 40
1.0
 10
1638.50680516675
 20
965.6292289255082
 30
0.0
 10
1638.49137897422
 20
965.6351459685005
 30
0.0
 10
1638.465694988189
 20
965.6449976055299
 30
0.0
 10
1638.459803414307
 20
965.661897627737
 30
0.0
 10
1638.457962090766
 20
965.672541354105
 30
0.0
 10
1638.45680516675
 20
965.6792289255081
 30
0.0
  0
LINE
  5
526
330
1F
100
AcDbEntity
  8
1
  6
SLD-Сплошная
100
AcDbLine
 10
1638.5068051668
 20
371.012071638
 30
0.0
 11
1638.5068051668
 21
370.8292289255
 31
0.0
  0
SPLINE
  5
527
330
1F
100
AcDbEntity
  8
1
  6
SLD-Сплошная
100
AcDbSpline
210
0.0
220
0.0
230
1.0
 70
     8
 71
     3
 72
    10
 73
     6
 74
     0
 42
0.00000001
 43
0.00000001
 40
0.0
 40
0.0
 40
0.0
 40
0.0
 40
0.4215647020007497
 40
0.6406677011955033
 40
1.0
 40
1.0
 40
1.0
 40
1.0
 10
1638.45680516675
 20
370.7792289255082
 30
0.0
 10
1638.458145206677
 20
370.7864836745175
 30
0.0
 10
1638.460181715653
 20
370.7975089888961
 30
0.0
 10
1638.466303720685
 20
370.813598806521
 30
0.0
 10
1638.491285886953
 20
370.8232398013315
 30
0.0
 10
1638.50680516675
 20
370.8292289255083
 30
0.0
  0
LINE
  5
528
330
1F
100
AcDbEntity
  8
1
  6
SLD-Сплошная
100
AcDbLine
 10
1637.4568051668
 20
370.7792289255
 30
0.0
 11
1637.51367078
 21
371.0314702876
 31
0.0
  0
LINE
  5
529
330
1F
100
AcDbEntity
  8
1
  6
SLD-Сплошная
100
AcDbLine
 10
1653.3468051668
 20
965.6292289255
 30
0.0
 11
1638.5068051668
 21
965.6292289255
 31
0.0
  0
LINE
  5
52A
330
1F
100
AcDbEntity
  8
1
  6
SLD-Сплошная
100
AcDbLine
 10
1653.3468051668
 20
965.446386213
 30
0.0
 11
1653.3468051668
 21
965.6292289255
 31
0.0
  0
LINE
  5
52B
330
1F
100
AcDbEntity
  8
1
  6
SLD-Сплошная
100
AcDbLine
 10
1653.3468051668
 20
370.8292289255
 30
0.0
 11
1638.5068051668
 21
370.8292289255
 31
0.0
  0
LINE
  5
52C
330
1F
100
AcDbEntity
  8
1
  6
SLD-Сплошная
100
AcDbLine
 10
1653.3468051668
 20
371.012071638
 30
0.0
 11
1653.3468051668
 21
370.8292289255
 31
0.0
  0
ARC
  5
52D
330
1F
100
AcDbEntity
  8
1
  6
SLD-Сплошная
100
AcDbCircle
 10
1653.3468051668
 20
963.6192289255
 30
0.0
 40
2.010000000000116
100
AcDbArc
 50
63.906948719
 51
90.0
  0
ARC
  5
52E
330
1F
100
AcDbEntity
  8
1
  6
SLD-Сплошная
100
AcDbCircle
 10
1653.3468051668
 20
372.8392289255
 30
0.0
 40
2.010000000000112
100
AcDbArc
 50
270.0
 51
296.0930512848
  0
LINE
  5
52F
330
1F
100
AcDbEntity
  8
1
  6
SLD-Сплошная
100
AcDbLine
 10
1657.4568051668
 20
654.2292289255
 30
0.0
 11
1657.4568051668
 21
682.2292289255
 31
0.0
  0
LINE
  5
530
330
1F
100
AcDbEntity
  8
1
  6
SLD-Сплошная
100
AcDbLine
 10
1660.4568051668
 20
657.2292289255
 30
0.0
 11
1660.4568051668
 21
679.2292289255
 31
0.0
  0
ENDSEC
  0
SECTION
  2
OBJECTS
  0
DICTIONARY
  5
C
330
0
100
AcDbDictionary
281
     1
  3
ACAD_GROUP
350
D
  3
ACAD_LAYOUT
350
1A
  3
ACAD_MLINESTYLE
350
17
  3
ACAD_PLOTSETTINGS
350
19
  3
ACAD_PLOTSTYLENAME
350
E
  3
ACAD_SCALELIST
350
47
  3
DWGPROPS
350
531
  0
DICTIONARY
  5
D
102
{ACAD_REACTORS
330
C
102
}
330
C
100
AcDbDictionary
281
     1
  0
DICTIONARY
  5
1A
102
{ACAD_REACTORS
330
C
102
}
330
C
100
AcDbDictionary
281
     1
  3
Layout1
350
1E
  3
Layout2
350
26
  3
Model
350
22
  0
DICTIONARY
  5
17
102
{ACAD_REACTORS
330
C
102
}
330
C
100
AcDbDictionary
281
     1
  3
Standard
350
18
  0
DICTIONARY
  5
19
102
{ACAD_REACTORS
330
C
102
}
330
C
100
AcDbDictionary
281
     1
  0
ACDBDICTIONARYWDFLT
  5
E
102
{ACAD_REACTORS
330
C
102
}
330
C
100
AcDbDictionary
281
     1
  3
Normal
350
F
100
AcDbDictionaryWithDefault
340
F
  0
DICTIONARY
  5
47
102
{ACAD_REACTORS
330
C
102
}
330
C
100
AcDbDictionary
281
     1
  3
A0
350
48
  3
A1
350
49
  3
A2
350
4A
  3
A3
350
4B
  3
A4
350
4C
  3
A5
350
4D
  3
A6
350
4E
  3
A7
350
4F
  3
A8
350
50
  3
A9
350
51
  3
B0
350
52
  3
B1
350
53
  3
B2
350
54
  3
B3
350
55
  3
B4
350
56
  3
B5
350
57
  3
B6
350
58
  0
XRECORD
  5
531
102
{ACAD_REACTORS
330
C
102
}
330
C
100
AcDbXrecord
280
     1
  1
DWGPROPS COOKIE
  2

  3

  4

  6

  7

  8
ignatieved
  9

300
=
301
=
302
=
303
=
304
=
305
=
306
=
307
=
308
=
309
=
 40
0.0
 41
2460213.505006875
 42
2460213.505007511
  1

 90
        0
  0
LAYOUT
  5
1E
102
{ACAD_REACTORS
330
1A
102
}
330
1A
100
AcDbPlotSettings
  1

  2
none_device
  4

  6

 40
0.0
 41
0.0
 42
0.0
 43
0.0
 44
0.0
 45
0.0
 46
0.0
 47
0.0
 48
0.0
 49
0.0
140
0.0
141
0.0
142
1.0
143
1.0
 70
   688
 72
     1
 73
     0
 74
     5
  7

 75
    16
147
1.0
148
0.0
149
0.0
100
AcDbLayout
  1
Layout1
 70
     1
 71
     1
 10
0.0
 20
0.0
 11
420.0
 21
297.0
 12
0.0
 22
0.0
 32
0.0
 14
1.0000000000E+20
 24
1.0000000000E+20
 34
1.0000000000E+20
 15
-1.0000000000E+20
 25
-1.0000000000E+20
 35
-1.0000000000E+20
146
0.0
 13
0.0
 23
0.0
 33
0.0
 16
1.0
 26
0.0
 36
0.0
 17
0.0
 27
1.0
 37
0.0
 76
     0
330
1B
  0
LAYOUT
  5
26
102
{ACAD_REACTORS
330
1A
102
}
330
1A
100
AcDbPlotSettings
  1

  2
none_device
  4

  6

 40
0.0
 41
0.0
 42
0.0
 43
0.0
 44
0.0
 45
0.0
 46
0.0
 47
0.0
 48
0.0
 49
0.0
140
0.0
141
0.0
142
1.0
143
1.0
 70
   688
 72
     1
 73
     0
 74
     5
  7

 75
    16
147
1.0
148
0.0
149
0.0
100
AcDbLayout
  1
Layout2
 70
     1
 71
     2
 10
0.0
 20
0.0
 11
0.0
 21
0.0
 12
0.0
 22
0.0
 32
0.0
 14
0.0
 24
0.0
 34
0.0
 15
0.0
 25
0.0
 35
0.0
146
0.0
 13
0.0
 23
0.0
 33
0.0
 16
1.0
 26
0.0
 36
0.0
 17
0.0
 27
1.0
 37
0.0
 76
     0
330
23
  0
LAYOUT
  5
22
102
{ACAD_REACTORS
330
1A
102
}
330
1A
100
AcDbPlotSettings
  1

  2
none_device
  4
Letter_(8.50_x_11.00_Inches)
  6

 40
6.35
 41
6.35
 42
6.35000508
 43
6.35000508
 44
215.9
 45
279.4
 46
0.0
 47
0.0
 48
0.0
 49
0.0
140
0.0
141
0.0
142
1.0
143
1.0
 70
  1712
 72
     1
 73
     0
 74
     0
  7

 75
     0
147
1.0
148
0.0
149
0.0
100
AcDbLayout
  1
Model
 70
     1
 71
     0
 10
0.0
 20
0.0
 11
2000.0
 21
2000.0
 12
0.0
 22
0.0
 32
0.0
 14
0.0
 24
0.0
 34
0.0
 15
2000.0
 25
2000.0
 35
0.0
146
0.0
 13
0.0
 23
0.0
 33
0.0
 16
1.0
 26
0.0
 36
0.0
 17
0.0
 27
1.0
 37
0.0
 76
     0
330
1F
331
29
  0
MLINESTYLE
  5
18
102
{ACAD_REACTORS
330
17
102
}
330
17
100
AcDbMlineStyle
  2
Standard
 70
     0
  3

 62
   256
 51
90.0
 52
90.0
 71
     2
 49
0.5
 62
   256
  6
BYLAYER
 49
-0.5
 62
   256
  6
BYLAYER
  0
ACDBPLACEHOLDER
  5
F
102
{ACAD_REACTORS
330
E
102
}
330
E
  0
SCALE
  5
48
102
{ACAD_REACTORS
330
47
102
}
330
47
100
AcDbScale
 70
     0
300
1:1
140
1.0
141
1.0
290
     1
  0
SCALE
  5
49
102
{ACAD_REACTORS
330
47
102
}
330
47
100
AcDbScale
 70
     0
300
1:2
140
1.0
141
2.0
290
     0
  0
SCALE
  5
4A
102
{ACAD_REACTORS
330
47
102
}
330
47
100
AcDbScale
 70
     0
300
1:4
140
1.0
141
4.0
290
     0
  0
SCALE
  5
4B
102
{ACAD_REACTORS
330
47
102
}
330
47
100
AcDbScale
 70
     0
300
1:5
140
1.0
141
5.0
290
     0
  0
SCALE
  5
4C
102
{ACAD_REACTORS
330
47
102
}
330
47
100
AcDbScale
 70
     0
300
1:8
140
1.0
141
8.0
290
     0
  0
SCALE
  5
4D
102
{ACAD_REACTORS
330
47
102
}
330
47
100
AcDbScale
 70
     0
300
1:10
140
1.0
141
10.0
290
     0
  0
SCALE
  5
4E
102
{ACAD_REACTORS
330
47
102
}
330
47
100
AcDbScale
 70
     0
300
1:16
140
1.0
141
16.0
290
     0
  0
SCALE
  5
4F
102
{ACAD_REACTORS
330
47
102
}
330
47
100
AcDbScale
 70
     0
300
1:20
140
1.0
141
20.0
290
     0
  0
SCALE
  5
50
102
{ACAD_REACTORS
330
47
102
}
330
47
100
AcDbScale
 70
     0
300
1:30
140
1.0
141
30.0
290
     0
  0
SCALE
  5
51
102
{ACAD_REACTORS
330
47
102
}
330
47
100
AcDbScale
 70
     0
300
1:40
140
1.0
141
40.0
290
     0
  0
SCALE
  5
52
102
{ACAD_REACTORS
330
47
102
}
330
47
100
AcDbScale
 70
     0
300
1:50
140
1.0
141
50.0
290
     0
  0
SCALE
  5
53
102
{ACAD_REACTORS
330
47
102
}
330
47
100
AcDbScale
 70
     0
300
1:100
140
1.0
141
100.0
290
     0
  0
SCALE
  5
54
102
{ACAD_REACTORS
330
47
102
}
330
47
100
AcDbScale
 70
     0
300
2:1
140
2.0
141
1.0
290
     0
  0
SCALE
  5
55
102
{ACAD_REACTORS
330
47
102
}
330
47
100
AcDbScale
 70
     0
300
4:1
140
4.0
141
1.0
290
     0
  0
SCALE
  5
56
102
{ACAD_REACTORS
330
47
102
}
330
47
100
AcDbScale
 70
     0
300
8:1
140
8.0
141
1.0
290
     0
  0
SCALE
  5
57
102
{ACAD_REACTORS
330
47
102
}
330
47
100
AcDbScale
 70
     0
300
10:1
140
10.0
141
1.0
290
     0
  0
SCALE
  5
58
102
{ACAD_REACTORS
330
47
102
}
330
47
100
AcDbScale
 70
     0
300
100:1
140
100.0
141
1.0
290
     0
  0
ENDSEC
  0
EOF
