ISO-10303-21;
HEADER;
FILE_DESCRIPTION (( 'STEP AP203' ),
    '1' );
FILE_NAME ('CLP1M-SHU-6 Øàéáà ïëîñêàÿ óñèëåííàÿ M6.STEP',
    '2016-02-12T08:26:21',
    ( '' ),
    ( '' ),
    'SwSTEP 2.0',
    'SolidWorks 2014',
    '' );
FILE_SCHEMA (( 'CONFIG_CONTROL_DESIGN' ));
ENDSEC;

DATA;
#1 = DIRECTION ( 'NONE',  ( 0.0000000000000000000, 0.0000000000000000000, 1.000000000000000000 ) ) ;
#2 = ORIENTED_EDGE ( 'NONE', *, *, #105, .T. ) ;
#3 = LOCAL_TIME ( 11, 26, 21.00000000000000000, #127 ) ;
#4 = PRODUCT ( 'CLP1M-SHU-6 Øàéáà ïëîñêàÿ óñèëåííàÿ M6', 'CLP1M-SHU-6 Øàéáà ïëîñêàÿ óñèëåííàÿ M6', '', ( #53 ) ) ;
#5 = PERSON_AND_ORGANIZATION_ROLE ( 'creator' ) ;
#6 = APPROVAL_STATUS ( 'not_yet_approved' ) ;
#7 = ORGANIZATION ( 'UNSPECIFIED', 'UNSPECIFIED', '' ) ;
#8 = CALENDAR_DATE ( 2016, 12, 2 ) ;
#9 = AXIS2_PLACEMENT_3D ( 'NONE', #101, #21, #144 ) ;
#10 = ADVANCED_FACE ( 'NONE', ( #74, #143 ), #18, .F. ) ;
#11 = DATE_AND_TIME ( #124, #66 ) ;
#12 = CARTESIAN_POINT ( 'NONE',  ( 0.0000000000000000000, 0.0000000000000000000, 0.0000000000000000000 ) ) ;
#13 = DIRECTION ( 'NONE',  ( -0.0000000000000000000, -0.0000000000000000000, -1.000000000000000000 ) ) ;
#14 = MANIFOLD_SOLID_BREP ( 'Âûòÿíóòü1', #87 ) ;
#15 = APPROVAL_ROLE ( '' ) ;
#16 = CALENDAR_DATE ( 2016, 12, 2 ) ;
#17 = PERSON_AND_ORGANIZATION_ROLE ( 'classification_officer' ) ;
#18 = CYLINDRICAL_SURFACE ( 'NONE', #63, 3.200000000000000200 ) ;
#19 = CC_DESIGN_PERSON_AND_ORGANIZATION_ASSIGNMENT ( #141, #17, ( #69 ) ) ;
#20 = LOCAL_TIME ( 11, 26, 21.00000000000000000, #160 ) ;
#21 = DIRECTION ( 'NONE',  ( 0.0000000000000000000, 0.0000000000000000000, 1.000000000000000000 ) ) ;
#22 = EDGE_LOOP ( 'NONE', ( #78 ) ) ;
#23 = ADVANCED_FACE ( 'NONE', ( #47, #57 ), #118, .T. ) ;
#24 = APPLICATION_CONTEXT ( 'configuration controlled 3d designs of mechanical parts and assemblies' ) ;
#25 = DIRECTION ( 'NONE',  ( 0.0000000000000000000, 0.0000000000000000000, 1.000000000000000000 ) ) ;
#26 = ADVANCED_BREP_SHAPE_REPRESENTATION ( 'CLP1M-SHU-6 +ðùñð ÿûþ¸úð  º¸øûõýýð  M6', ( #14, #95 ), #56 ) ;
#27 = ORIENTED_EDGE ( 'NONE', *, *, #28, .F. ) ;
#28 = EDGE_CURVE ( 'NONE', #62, #62, #163, .T. ) ;
#29 = DATE_TIME_ROLE ( 'creation_date' ) ;
#30 = DIRECTION ( 'NONE',  ( 1.000000000000000000, 0.0000000000000000000, 0.0000000000000000000 ) ) ;
#31 = APPROVAL_ROLE ( '' ) ;
#32 = PERSON_AND_ORGANIZATION_ROLE ( 'design_supplier' ) ;
#33 = EDGE_CURVE ( 'NONE', #102, #102, #88, .T. ) ;
#34 = ORIENTED_EDGE ( 'NONE', *, *, #149, .T. ) ;
#35 = APPROVAL_DATE_TIME ( #39, #77 ) ;
#36 = CARTESIAN_POINT ( 'NONE',  ( 0.0000000000000000000, 0.0000000000000000000, 1.600000000000000100 ) ) ;
#37 = COORDINATED_UNIVERSAL_TIME_OFFSET ( 3, 0, .AHEAD. ) ;
#38 = APPLICATION_PROTOCOL_DEFINITION ( 'international standard', 'config_control_design', 1994, #82 ) ;
#39 = DATE_AND_TIME ( #16, #3 ) ;
#40 = COORDINATED_UNIVERSAL_TIME_OFFSET ( 3, 0, .AHEAD. ) ;
#41 = CC_DESIGN_PERSON_AND_ORGANIZATION_ASSIGNMENT ( #75, #44, ( #4 ) ) ;
#42 = DIRECTION ( 'NONE',  ( -0.0000000000000000000, -0.0000000000000000000, -1.000000000000000000 ) ) ;
#43 = LOCAL_TIME ( 11, 26, 21.00000000000000000, #37 ) ;
#44 = PERSON_AND_ORGANIZATION_ROLE ( 'design_owner' ) ;
#45 = EDGE_LOOP ( 'NONE', ( #27 ) ) ;
#46 = CARTESIAN_POINT ( 'NONE',  ( 0.0000000000000000000, 0.0000000000000000000, 1.600000000000000100 ) ) ;
#47 = FACE_OUTER_BOUND ( 'NONE', #161, .T. ) ;
#48 = CC_DESIGN_DATE_AND_TIME_ASSIGNMENT ( #52, #29, ( #96 ) ) ;
#49 = FACE_OUTER_BOUND ( 'NONE', #165, .T. ) ;
#50 = VERTEX_POINT ( 'NONE', #54 ) ;
#51 = PERSON_AND_ORGANIZATION ( #120, #7 ) ;
#52 = DATE_AND_TIME ( #8, #168 ) ;
#53 = MECHANICAL_CONTEXT ( 'NONE', #82, 'mechanical' ) ;
#54 = CARTESIAN_POINT ( 'NONE',  ( 9.000000000000000000, 0.0000000000000000000, 1.600000000000000100 ) ) ;
#55 = EDGE_LOOP ( 'NONE', ( #153 ) ) ;
#56 =( GEOMETRIC_REPRESENTATION_CONTEXT ( 3 ) GLOBAL_UNCERTAINTY_ASSIGNED_CONTEXT ( ( #76 ) ) GLOBAL_UNIT_ASSIGNED_CONTEXT ( ( #146, #106, #80 ) ) REPRESENTATION_CONTEXT ( 'NONE', 'WORKASPACE' ) );
#57 = FACE_OUTER_BOUND ( 'NONE', #91, .T. ) ;
#58 = DIRECTION ( 'NONE',  ( -1.000000000000000000, 0.0000000000000000000, 0.0000000000000000000 ) ) ;
#59 = APPROVAL_PERSON_ORGANIZATION ( #150, #77, #31 ) ;
#60 = PRODUCT_RELATED_PRODUCT_CATEGORY ( 'detail', '', ( #4 ) ) ;
#61 = FACE_OUTER_BOUND ( 'NONE', #114, .T. ) ;
#62 = VERTEX_POINT ( 'NONE', #108 ) ;
#63 = AXIS2_PLACEMENT_3D ( 'NONE', #46, #13, #85 ) ;
#64 = CARTESIAN_POINT ( 'NONE',  ( 0.0000000000000000000, 0.0000000000000000000, 1.600000000000000100 ) ) ;
#65 = EDGE_LOOP ( 'NONE', ( #79 ) ) ;
#66 = LOCAL_TIME ( 11, 26, 21.00000000000000000, #40 ) ;
#67 = DESIGN_CONTEXT ( 'detailed design', #24, 'design' ) ;
#68 = CC_DESIGN_PERSON_AND_ORGANIZATION_ASSIGNMENT ( #125, #104, ( #96 ) ) ;
#69 = SECURITY_CLASSIFICATION ( '', '', #109 ) ;
#70 = APPROVAL_STATUS ( 'not_yet_approved' ) ;
#71 = DIRECTION ( 'NONE',  ( 1.000000000000000000, 0.0000000000000000000, -0.0000000000000000000 ) ) ;
#72 = ORIENTED_EDGE ( 'NONE', *, *, #149, .F. ) ;
#73 = DIRECTION ( 'NONE',  ( 0.0000000000000000000, 0.0000000000000000000, 1.000000000000000000 ) ) ;
#74 = FACE_OUTER_BOUND ( 'NONE', #65, .T. ) ;
#75 = PERSON_AND_ORGANIZATION ( #120, #7 ) ;
#76 = UNCERTAINTY_MEASURE_WITH_UNIT (LENGTH_MEASURE( 1.000000000000000100E-005 ), #146, 'distance_accuracy_value', 'NONE');
#77 = APPROVAL ( #70, 'UNSPECIFIED' ) ;
#78 = ORIENTED_EDGE ( 'NONE', *, *, #33, .T. ) ;
#79 = ORIENTED_EDGE ( 'NONE', *, *, #28, .T. ) ;
#80 =( NAMED_UNIT ( * ) SI_UNIT ( $, .STERADIAN. ) SOLID_ANGLE_UNIT ( ) );
#81 = CC_DESIGN_DATE_AND_TIME_ASSIGNMENT ( #99, #93, ( #69 ) ) ;
#82 = APPLICATION_CONTEXT ( 'configuration controlled 3d designs of mechanical parts and assemblies' ) ;
#83 = APPROVAL_ROLE ( '' ) ;
#84 = APPROVAL ( #119, 'UNSPECIFIED' ) ;
#85 = DIRECTION ( 'NONE',  ( -1.000000000000000000, 0.0000000000000000000, 0.0000000000000000000 ) ) ;
#86 = PRODUCT_DEFINITION_SHAPE ( 'NONE', 'NONE',  #96 ) ;
#87 = CLOSED_SHELL ( 'NONE', ( #107, #134, #23, #10 ) ) ;
#88 = CIRCLE ( 'NONE', #131, 3.200000000000000200 ) ;
#89 = CARTESIAN_POINT ( 'NONE',  ( 0.0000000000000000000, 0.0000000000000000000, 0.0000000000000000000 ) ) ;
#90 = PERSON_AND_ORGANIZATION ( #120, #7 ) ;
#91 = EDGE_LOOP ( 'NONE', ( #2 ) ) ;
#92 = DIRECTION ( 'NONE',  ( 0.0000000000000000000, 0.0000000000000000000, 1.000000000000000000 ) ) ;
#93 = DATE_TIME_ROLE ( 'classification_date' ) ;
#94 = AXIS2_PLACEMENT_3D ( 'NONE', #142, #92, #71 ) ;
#95 = AXIS2_PLACEMENT_3D ( 'NONE', #12, #147, #123 ) ;
#96 = PRODUCT_DEFINITION ( 'UNKNOWN', '', #164, #67 ) ;
#97 = FACE_BOUND ( 'NONE', #45, .T. ) ;
#98 = APPROVAL ( #6, 'UNSPECIFIED' ) ;
#99 = DATE_AND_TIME ( #121, #20 ) ;
#100 = DIRECTION ( 'NONE',  ( 0.0000000000000000000, 0.0000000000000000000, 1.000000000000000000 ) ) ;
#101 = CARTESIAN_POINT ( 'NONE',  ( 0.0000000000000000000, 0.0000000000000000000, 0.0000000000000000000 ) ) ;
#102 = VERTEX_POINT ( 'NONE', #116 ) ;
#103 = PERSON_AND_ORGANIZATION ( #120, #7 ) ;
#104 = PERSON_AND_ORGANIZATION_ROLE ( 'creator' ) ;
#105 = EDGE_CURVE ( 'NONE', #159, #159, #156, .T. ) ;
#106 =( NAMED_UNIT ( * ) PLANE_ANGLE_UNIT ( ) SI_UNIT ( $, .RADIAN. ) );
#107 = ADVANCED_FACE ( 'NONE', ( #49, #97 ), #132, .T. ) ;
#108 = CARTESIAN_POINT ( 'NONE',  ( 3.200000000000000200, 0.0000000000000000000, 1.600000000000000100 ) ) ;
#109 = SECURITY_CLASSIFICATION_LEVEL ( 'unclassified' ) ;
#110 = CC_DESIGN_APPROVAL ( #84, ( #164 ) ) ;
#111 = AXIS2_PLACEMENT_3D ( 'NONE', #167, #42, #58 ) ;
#112 = PERSON_AND_ORGANIZATION ( #120, #7 ) ;
#113 = PLANE ( 'NONE',  #169 ) ;
#114 = EDGE_LOOP ( 'NONE', ( #166 ) ) ;
#115 = CIRCLE ( 'NONE', #154, 9.000000000000000000 ) ;
#116 = CARTESIAN_POINT ( 'NONE',  ( 3.200000000000000200, 0.0000000000000000000, 0.0000000000000000000 ) ) ;
#117 = APPLICATION_PROTOCOL_DEFINITION ( 'international standard', 'config_control_design', 1994, #24 ) ;
#118 = CYLINDRICAL_SURFACE ( 'NONE', #111, 9.000000000000000000 ) ;
#119 = APPROVAL_STATUS ( 'not_yet_approved' ) ;
#120 = PERSON ( 'UNSPECIFIED', 'UNSPECIFIED', 'UNSPECIFIED', ('UNSPECIFIED'), ('UNSPECIFIED'), ('UNSPECIFIED') ) ;
#121 = CALENDAR_DATE ( 2016, 12, 2 ) ;
#122 = DIRECTION ( 'NONE',  ( 1.000000000000000000, 0.0000000000000000000, -0.0000000000000000000 ) ) ;
#123 = DIRECTION ( 'NONE',  ( 1.000000000000000000, 0.0000000000000000000, 0.0000000000000000000 ) ) ;
#124 = CALENDAR_DATE ( 2016, 12, 2 ) ;
#125 = PERSON_AND_ORGANIZATION ( #120, #7 ) ;
#126 = CC_DESIGN_PERSON_AND_ORGANIZATION_ASSIGNMENT ( #112, #32, ( #164 ) ) ;
#127 = COORDINATED_UNIVERSAL_TIME_OFFSET ( 3, 0, .AHEAD. ) ;
#128 = CC_DESIGN_APPROVAL ( #77, ( #96 ) ) ;
#129 = DIRECTION ( 'NONE',  ( 1.000000000000000000, 0.0000000000000000000, 0.0000000000000000000 ) ) ;
#130 = CALENDAR_DATE ( 2016, 12, 2 ) ;
#131 = AXIS2_PLACEMENT_3D ( 'NONE', #133, #100, #162 ) ;
#132 = PLANE ( 'NONE',  #94 ) ;
#133 = CARTESIAN_POINT ( 'NONE',  ( 0.0000000000000000000, 0.0000000000000000000, 0.0000000000000000000 ) ) ;
#134 = ADVANCED_FACE ( 'NONE', ( #61, #145 ), #113, .F. ) ;
#135 = APPROVAL_PERSON_ORGANIZATION ( #90, #84, #15 ) ;
#136 = CC_DESIGN_APPROVAL ( #98, ( #69 ) ) ;
#137 = APPROVAL_DATE_TIME ( #11, #84 ) ;
#138 = AXIS2_PLACEMENT_3D ( 'NONE', #36, #73, #129 ) ;
#139 = SHAPE_DEFINITION_REPRESENTATION ( #86, #26 ) ;
#140 = COORDINATED_UNIVERSAL_TIME_OFFSET ( 3, 0, .AHEAD. ) ;
#141 = PERSON_AND_ORGANIZATION ( #120, #7 ) ;
#142 = CARTESIAN_POINT ( 'NONE',  ( 0.0000000000000000000, 0.0000000000000000000, 1.600000000000000100 ) ) ;
#143 = FACE_OUTER_BOUND ( 'NONE', #55, .T. ) ;
#144 = DIRECTION ( 'NONE',  ( 1.000000000000000000, 0.0000000000000000000, 0.0000000000000000000 ) ) ;
#145 = FACE_BOUND ( 'NONE', #22, .T. ) ;
#146 =( LENGTH_UNIT ( ) NAMED_UNIT ( * ) SI_UNIT ( .MILLI., .METRE. ) );
#147 = DIRECTION ( 'NONE',  ( 0.0000000000000000000, 0.0000000000000000000, 1.000000000000000000 ) ) ;
#148 = APPROVAL_PERSON_ORGANIZATION ( #51, #98, #83 ) ;
#149 = EDGE_CURVE ( 'NONE', #50, #50, #115, .T. ) ;
#150 = PERSON_AND_ORGANIZATION ( #120, #7 ) ;
#151 = CARTESIAN_POINT ( 'NONE',  ( 9.000000000000000000, 0.0000000000000000000, 0.0000000000000000000 ) ) ;
#152 = CC_DESIGN_SECURITY_CLASSIFICATION ( #69, ( #164 ) ) ;
#153 = ORIENTED_EDGE ( 'NONE', *, *, #33, .F. ) ;
#154 = AXIS2_PLACEMENT_3D ( 'NONE', #64, #25, #30 ) ;
#155 = CC_DESIGN_PERSON_AND_ORGANIZATION_ASSIGNMENT ( #103, #5, ( #164 ) ) ;
#156 = CIRCLE ( 'NONE', #9, 9.000000000000000000 ) ;
#157 = APPROVAL_DATE_TIME ( #158, #98 ) ;
#158 = DATE_AND_TIME ( #130, #43 ) ;
#159 = VERTEX_POINT ( 'NONE', #151 ) ;
#160 = COORDINATED_UNIVERSAL_TIME_OFFSET ( 3, 0, .AHEAD. ) ;
#161 = EDGE_LOOP ( 'NONE', ( #72 ) ) ;
#162 = DIRECTION ( 'NONE',  ( 1.000000000000000000, 0.0000000000000000000, 0.0000000000000000000 ) ) ;
#163 = CIRCLE ( 'NONE', #138, 3.200000000000000200 ) ;
#164 = PRODUCT_DEFINITION_FORMATION_WITH_SPECIFIED_SOURCE ( 'ANY', '', #4, .NOT_KNOWN. ) ;
#165 = EDGE_LOOP ( 'NONE', ( #34 ) ) ;
#166 = ORIENTED_EDGE ( 'NONE', *, *, #105, .F. ) ;
#167 = CARTESIAN_POINT ( 'NONE',  ( 0.0000000000000000000, 0.0000000000000000000, 1.600000000000000100 ) ) ;
#168 = LOCAL_TIME ( 11, 26, 21.00000000000000000, #140 ) ;
#169 = AXIS2_PLACEMENT_3D ( 'NONE', #89, #1, #122 ) ;
ENDSEC;
END-ISO-10303-21;
