ISO-10303-21;
HEADER;
FILE_DESCRIPTION (( 'STEP AP214' ),
    '1' );
FILE_NAME ('FO-00D-WD-M16-020 FORMAT Øàéáà Ì16 òàðåëü÷àòàÿ ïðóæèí. DIN6796 (20øò_óïàê) IEK.STEP',
    '2024-07-03T11:26:18',
    ( '' ),
    ( '' ),
    'SwSTEP 2.0',
    'SolidWorks 2022',
    '' );
FILE_SCHEMA (( 'AUTOMOTIVE_DESIGN' ));
ENDSEC;

DATA;
#1 = CONICAL_SURFACE ( 'NONE', #55, 19.50000000000000000, 1.457645345204412246 ) ;
#2 = CARTESIAN_POINT ( 'NONE',  ( 0.000000000000000000, 1.224256395366449590, -8.500000000000000000 ) ) ;
#3 = APPLICATION_CONTEXT ( 'automotive_design' ) ;
#4 = STYLED_ITEM ( 'NONE', ( #269 ), #22 ) ;
#5 = DIRECTION ( 'NONE',  ( -0.000000000000000000, -1.000000000000000000, -0.000000000000000000 ) ) ;
#6 = CARTESIAN_POINT ( 'NONE',  ( 0.000000000000000000, 1.224256395366449590, 0.000000000000000000 ) ) ;
#7 = CARTESIAN_POINT ( 'NONE',  ( 1.040949779275250140E-15, 1.224256395366449590, 8.500000000000000000 ) ) ;
#8 = VECTOR ( 'NONE', #211, 1000.000000000000000 ) ;
#9 = FACE_OUTER_BOUND ( 'NONE', #205, .T. ) ;
#10 = ORIENTED_EDGE ( 'NONE', *, *, #13, .T. ) ;
#11 = VECTOR ( 'NONE', #201, 1000.000000000000114 ) ;
#12 = DIRECTION ( 'NONE',  ( 0.000000000000000000, 0.000000000000000000, -1.000000000000000000 ) ) ;
#13 = EDGE_CURVE ( 'NONE', #54, #139, #183, .T. ) ;
#14 = CARTESIAN_POINT ( 'NONE',  ( 0.000000000000000000, 4.000000000000000000, 0.000000000000000000 ) ) ;
#15 = VERTEX_POINT ( 'NONE', #263 ) ;
#16 = PRESENTATION_LAYER_ASSIGNMENT (  '', '', ( #223 ) ) ;
#17 = EDGE_LOOP ( 'NONE', ( #72, #137, #121, #52 ) ) ;
#18 = DIRECTION ( 'NONE',  ( -0.000000000000000000, -1.000000000000000000, -0.000000000000000000 ) ) ;
#19 = APPLICATION_CONTEXT ( 'automotive_design' ) ;
#20 = ADVANCED_FACE ( 'NONE', ( #147 ), #60, .F. ) ;
#21 = COLOUR_RGB ( '',0.7529411764705882248, 0.7529411764705882248, 0.7529411764705882248 ) ;
#22 = ADVANCED_BREP_SHAPE_REPRESENTATION ( 'FO-00D-WD-M16-020 FORMAT \X2\04280430043904310430\X0\ \X2\041c\X0\16 \X2\0442043004400435043b044c0447043004420430044f\X0\ \X2\043f0440044304360438043d\X0\. DIN6796 (20\X2\04480442\X0\_\X2\0443043f0430043a\X0\) IEK', ( #244, #198 ), #213 ) ;
#23 = UNCERTAINTY_MEASURE_WITH_UNIT (LENGTH_MEASURE( 1.000000000000000082E-05 ), #170, 'distance_accuracy_value', 'NONE');
#24 = SURFACE_SIDE_STYLE ('',( #174 ) ) ;
#25 = LINE ( 'NONE', #91, #152 ) ;
#26 = ORIENTED_EDGE ( 'NONE', *, *, #188, .F. ) ;
#27 = LINE ( 'NONE', #202, #11 ) ;
#28 = ORIENTED_EDGE ( 'NONE', *, *, #130, .T. ) ;
#29 = ORIENTED_EDGE ( 'NONE', *, *, #83, .T. ) ;
#30 = DIRECTION ( 'NONE',  ( -0.000000000000000000, -1.000000000000000000, -0.000000000000000000 ) ) ;
#31 = VECTOR ( 'NONE', #110, 1000.000000000000000 ) ;
#32 = LINE ( 'NONE', #93, #44 ) ;
#33 = FILL_AREA_STYLE_COLOUR ( '', #21 ) ;
#34 =( NAMED_UNIT ( * ) PLANE_ANGLE_UNIT ( ) SI_UNIT ( $, .RADIAN. ) );
#35 = PRESENTATION_LAYER_ASSIGNMENT (  '', '', ( #4 ) ) ;
#36 = CARTESIAN_POINT ( 'NONE',  ( 0.000000000000000000, 1.224256395366449590, 0.000000000000000000 ) ) ;
#37 = DIRECTION ( 'NONE',  ( 0.000000000000000000, 0.000000000000000000, -1.000000000000000000 ) ) ;
#38 = CARTESIAN_POINT ( 'NONE',  ( 0.000000000000000000, 1.224256395366449590, -8.500000000000000000 ) ) ;
#39 = CARTESIAN_POINT ( 'NONE',  ( 0.000000000000000000, 0.000000000000000000, 0.000000000000000000 ) ) ;
#40 = PLANE ( 'NONE',  #88 ) ;
#41 = DIRECTION ( 'NONE',  ( -0.000000000000000000, -1.000000000000000000, -0.000000000000000000 ) ) ;
#42 = SURFACE_STYLE_USAGE ( .BOTH. , #24 ) ;
#43 = DIRECTION ( 'NONE',  ( 1.000000000000000000, 0.000000000000000000, 0.000000000000000000 ) ) ;
#44 = VECTOR ( 'NONE', #179, 1000.000000000000000 ) ;
#45 = CYLINDRICAL_SURFACE ( 'NONE', #82, 19.50000000000000000 ) ;
#46 = CYLINDRICAL_SURFACE ( 'NONE', #252, 19.50000000000000000 ) ;
#47 = PRODUCT_DEFINITION ( 'UNKNOWN', '', #56, #194 ) ;
#48 =( NAMED_UNIT ( * ) SI_UNIT ( $, .STERADIAN. ) SOLID_ANGLE_UNIT ( ) );
#49 = CARTESIAN_POINT ( 'NONE',  ( 1.040949779275250140E-15, 1.224256395366449590, 8.500000000000000000 ) ) ;
#50 = VERTEX_POINT ( 'NONE', #79 ) ;
#51 = CARTESIAN_POINT ( 'NONE',  ( 0.000000000000000000, 0.000000000000000000, 0.000000000000000000 ) ) ;
#52 = ORIENTED_EDGE ( 'NONE', *, *, #130, .F. ) ;
#53 = EDGE_CURVE ( 'NONE', #253, #279, #65, .T. ) ;
#54 = VERTEX_POINT ( 'NONE', #2 ) ;
#55 = AXIS2_PLACEMENT_3D ( 'NONE', #181, #157, #12 ) ;
#56 = PRODUCT_DEFINITION_FORMATION_WITH_SPECIFIED_SOURCE ( 'ANY', '', #242, .NOT_KNOWN. ) ;
#57 = PRESENTATION_STYLE_ASSIGNMENT (( #233 ) ) ;
#58 = ORIENTED_EDGE ( 'NONE', *, *, #197, .F. ) ;
#59 = FILL_AREA_STYLE ('',( #33 ) ) ;
#60 = CONICAL_SURFACE ( 'NONE', #222, 8.500000000000000000, 1.457645345204412246 ) ;
#61 =( NAMED_UNIT ( * ) SI_UNIT ( $, .STERADIAN. ) SOLID_ANGLE_UNIT ( ) );
#62 = ORIENTED_EDGE ( 'NONE', *, *, #164, .F. ) ;
#63 = FACE_OUTER_BOUND ( 'NONE', #17, .T. ) ;
#64 = CARTESIAN_POINT ( 'NONE',  ( 0.000000000000000000, 4.000000000000000000, 0.000000000000000000 ) ) ;
#65 = CIRCLE ( 'NONE', #76, 19.27345627922477078 ) ;
#66 = LINE ( 'NONE', #138, #31 ) ;
#67 = DIRECTION ( 'NONE',  ( 0.000000000000000000, 0.000000000000000000, -1.000000000000000000 ) ) ;
#68 = FACE_OUTER_BOUND ( 'NONE', #227, .T. ) ;
#69 = ADVANCED_FACE ( 'NONE', ( #63 ), #241, .F. ) ;
#70 = FACE_OUTER_BOUND ( 'NONE', #232, .T. ) ;
#71 = PRODUCT_DEFINITION_SHAPE ( 'NONE', 'NONE',  #47 ) ;
#72 = ORIENTED_EDGE ( 'NONE', *, *, #271, .F. ) ;
#73 = CYLINDRICAL_SURFACE ( 'NONE', #161, 8.500000000000000000 ) ;
#74 = CARTESIAN_POINT ( 'NONE',  ( 2.388061258337338939E-15, 0.000000000000000000, 19.50000000000000000 ) ) ;
#75 = EDGE_LOOP ( 'NONE', ( #182, #111, #158, #234 ) ) ;
#76 = AXIS2_PLACEMENT_3D ( 'NONE', #236, #258, #101 ) ;
#77 =( GEOMETRIC_REPRESENTATION_CONTEXT ( 3 ) GLOBAL_UNCERTAINTY_ASSIGNED_CONTEXT ( ( #23 ) ) GLOBAL_UNIT_ASSIGNED_CONTEXT ( ( #170, #133, #48 ) ) REPRESENTATION_CONTEXT ( 'NONE', 'WORKASPACE' ) );
#78 = DIRECTION ( 'NONE',  ( -0.000000000000000000, -1.000000000000000000, -0.000000000000000000 ) ) ;
#79 = CARTESIAN_POINT ( 'NONE',  ( 0.000000000000000000, 0.000000000000000000, -19.50000000000000000 ) ) ;
#80 = CARTESIAN_POINT ( 'NONE',  ( 0.000000000000000000, 1.224256395366449590, 0.000000000000000000 ) ) ;
#81 = ORIENTED_EDGE ( 'NONE', *, *, #239, .F. ) ;
#82 = AXIS2_PLACEMENT_3D ( 'NONE', #224, #107, #151 ) ;
#83 = EDGE_CURVE ( 'NONE', #50, #259, #235, .T. ) ;
#84 = ORIENTED_EDGE ( 'NONE', *, *, #159, .T. ) ;
#85 = DIRECTION ( 'NONE',  ( 0.000000000000000000, 0.000000000000000000, -1.000000000000000000 ) ) ;
#86 = EDGE_CURVE ( 'NONE', #15, #139, #270, .T. ) ;
#87 = CIRCLE ( 'NONE', #251, 19.50000000000000000 ) ;
#88 = AXIS2_PLACEMENT_3D ( 'NONE', #264, #126, #249 ) ;
#89 = CARTESIAN_POINT ( 'NONE',  ( 0.000000000000000000, 0.000000000000000000, 0.000000000000000000 ) ) ;
#90 = FILL_AREA_STYLE ('',( #274 ) ) ;
#91 = CARTESIAN_POINT ( 'NONE',  ( 2.388061258337338939E-15, 4.000000000000000000, 19.50000000000000000 ) ) ;
#92 = DIRECTION ( 'NONE',  ( 0.000000000000000000, 0.000000000000000000, 1.000000000000000000 ) ) ;
#93 = CARTESIAN_POINT ( 'NONE',  ( 0.000000000000000000, 0.000000000000000000, -19.50000000000000000 ) ) ;
#94 = DIRECTION ( 'NONE',  ( 0.000000000000000000, 0.000000000000000000, -1.000000000000000000 ) ) ;
#95 = AXIS2_PLACEMENT_3D ( 'NONE', #220, #5, #128 ) ;
#96 = ORIENTED_EDGE ( 'NONE', *, *, #197, .T. ) ;
#97 = CARTESIAN_POINT ( 'NONE',  ( 0.000000000000000000, 5.249999999999998224, -8.500000000000000000 ) ) ;
#98 = ORIENTED_EDGE ( 'NONE', *, *, #13, .F. ) ;
#99 = EDGE_CURVE ( 'NONE', #139, #54, #266, .T. ) ;
#100 = CARTESIAN_POINT ( 'NONE',  ( 0.000000000000000000, 0.000000000000000000, 0.000000000000000000 ) ) ;
#101 = DIRECTION ( 'NONE',  ( 0.000000000000000000, 0.000000000000000000, -1.000000000000000000 ) ) ;
#102 = ORIENTED_EDGE ( 'NONE', *, *, #271, .T. ) ;
#103 = CARTESIAN_POINT ( 'NONE',  ( 0.000000000000000000, 5.249999999999998224, 0.000000000000000000 ) ) ;
#104 =( NAMED_UNIT ( * ) SI_UNIT ( $, .STERADIAN. ) SOLID_ANGLE_UNIT ( ) );
#105 = CARTESIAN_POINT ( 'NONE',  ( 2.360317654085907122E-15, 0.000000000000000000, 19.27345627922477078 ) ) ;
#106 = ADVANCED_FACE ( 'NONE', ( #68 ), #45, .T. ) ;
#107 = DIRECTION ( 'NONE',  ( -0.000000000000000000, -1.000000000000000000, -0.000000000000000000 ) ) ;
#108 = CONICAL_SURFACE ( 'NONE', #273, 8.500000000000000000, 1.457645345204412246 ) ;
#109 = MECHANICAL_DESIGN_GEOMETRIC_PRESENTATION_REPRESENTATION (  '', ( #4 ), #77 ) ;
#110 = DIRECTION ( 'NONE',  ( -0.000000000000000000, -1.000000000000000000, -0.000000000000000000 ) ) ;
#111 = ORIENTED_EDGE ( 'NONE', *, *, #115, .T. ) ;
#112 = ORIENTED_EDGE ( 'NONE', *, *, #199, .F. ) ;
#113 = VERTEX_POINT ( 'NONE', #131 ) ;
#114 = ORIENTED_EDGE ( 'NONE', *, *, #254, .T. ) ;
#115 = EDGE_CURVE ( 'NONE', #15, #229, #25, .T. ) ;
#116 = EDGE_LOOP ( 'NONE', ( #187, #118, #214, #81 ) ) ;
#117 = DIRECTION ( 'NONE',  ( 0.000000000000000000, 0.000000000000000000, -1.000000000000000000 ) ) ;
#118 = ORIENTED_EDGE ( 'NONE', *, *, #164, .T. ) ;
#119 = AXIS2_PLACEMENT_3D ( 'NONE', #51, #30, #136 ) ;
#120 = ADVANCED_FACE ( 'NONE', ( #70 ), #108, .F. ) ;
#121 = ORIENTED_EDGE ( 'NONE', *, *, #99, .T. ) ;
#122 =( LENGTH_UNIT ( ) NAMED_UNIT ( * ) SI_UNIT ( .MILLI., .METRE. ) );
#123 = ORIENTED_EDGE ( 'NONE', *, *, #217, .T. ) ;
#124 = EDGE_CURVE ( 'NONE', #279, #253, #260, .T. ) ;
#125 = PRODUCT_CONTEXT ( 'NONE', #3, 'mechanical' ) ;
#126 = DIRECTION ( 'NONE',  ( 0.000000000000000000, -1.000000000000000000, -0.000000000000000000 ) ) ;
#127 = SHAPE_DEFINITION_REPRESENTATION ( #71, #22 ) ;
#128 = DIRECTION ( 'NONE',  ( 0.000000000000000000, 0.000000000000000000, -1.000000000000000000 ) ) ;
#129 = CARTESIAN_POINT ( 'NONE',  ( 0.000000000000000000, 0.000000000000000000, 0.000000000000000000 ) ) ;
#130 = EDGE_CURVE ( 'NONE', #203, #54, #66, .T. ) ;
#131 = CARTESIAN_POINT ( 'NONE',  ( 0.000000000000000000, 4.000000000000000000, -19.50000000000000000 ) ) ;
#132 = DIRECTION ( 'NONE',  ( -0.000000000000000000, -1.000000000000000000, -0.000000000000000000 ) ) ;
#133 =( NAMED_UNIT ( * ) PLANE_ANGLE_UNIT ( ) SI_UNIT ( $, .RADIAN. ) );
#134 = AXIS2_PLACEMENT_3D ( 'NONE', #6, #246, #67 ) ;
#135 = EDGE_LOOP ( 'NONE', ( #29, #96 ) ) ;
#136 = DIRECTION ( 'NONE',  ( 0.000000000000000000, 0.000000000000000000, -1.000000000000000000 ) ) ;
#137 = ORIENTED_EDGE ( 'NONE', *, *, #86, .T. ) ;
#138 = CARTESIAN_POINT ( 'NONE',  ( 0.000000000000000000, 0.000000000000000000, -8.500000000000000000 ) ) ;
#139 = VERTEX_POINT ( 'NONE', #7 ) ;
#140 = DIRECTION ( 'NONE',  ( -0.000000000000000000, -1.000000000000000000, -0.000000000000000000 ) ) ;
#141 = VECTOR ( 'NONE', #178, 1000.000000000000114 ) ;
#142 =( GEOMETRIC_REPRESENTATION_CONTEXT ( 3 ) GLOBAL_UNCERTAINTY_ASSIGNED_CONTEXT ( ( #284 ) ) GLOBAL_UNIT_ASSIGNED_CONTEXT ( ( #210, #34, #104 ) ) REPRESENTATION_CONTEXT ( 'NONE', 'WORKASPACE' ) );
#143 = ORIENTED_EDGE ( 'NONE', *, *, #53, .F. ) ;
#144 = ORIENTED_EDGE ( 'NONE', *, *, #217, .F. ) ;
#145 = DIRECTION ( 'NONE',  ( 0.000000000000000000, 0.000000000000000000, -1.000000000000000000 ) ) ;
#146 = DIRECTION ( 'NONE',  ( -0.000000000000000000, -1.000000000000000000, -0.000000000000000000 ) ) ;
#147 = FACE_OUTER_BOUND ( 'NONE', #116, .T. ) ;
#148 = LINE ( 'NONE', #38, #200 ) ;
#149 = DIRECTION ( 'NONE',  ( -0.000000000000000000, -1.000000000000000000, -0.000000000000000000 ) ) ;
#150 = CARTESIAN_POINT ( 'NONE',  ( 2.388061258337338939E-15, 0.000000000000000000, 19.50000000000000000 ) ) ;
#151 = DIRECTION ( 'NONE',  ( 0.000000000000000000, 0.000000000000000000, -1.000000000000000000 ) ) ;
#152 = VECTOR ( 'NONE', #272, 1000.000000000000114 ) ;
#153 = AXIS2_PLACEMENT_3D ( 'NONE', #103, #193, #85 ) ;
#154 = CARTESIAN_POINT ( 'NONE',  ( 0.000000000000000000, 0.000000000000000000, 0.000000000000000000 ) ) ;
#155 = ORIENTED_EDGE ( 'NONE', *, *, #172, .T. ) ;
#156 = COLOUR_RGB ( '',0.7529411764705882248, 0.7529411764705882248, 0.7529411764705882248 ) ;
#157 = DIRECTION ( 'NONE',  ( -0.000000000000000000, -1.000000000000000000, -0.000000000000000000 ) ) ;
#158 = ORIENTED_EDGE ( 'NONE', *, *, #159, .F. ) ;
#159 = EDGE_CURVE ( 'NONE', #113, #229, #87, .T. ) ;
#160 = SURFACE_SIDE_STYLE ('',( #277 ) ) ;
#161 = AXIS2_PLACEMENT_3D ( 'NONE', #100, #208, #186 ) ;
#162 = EDGE_LOOP ( 'NONE', ( #144, #114, #165, #58 ) ) ;
#163 = ORIENTED_EDGE ( 'NONE', *, *, #239, .T. ) ;
#164 = EDGE_CURVE ( 'NONE', #139, #279, #250, .T. ) ;
#165 = ORIENTED_EDGE ( 'NONE', *, *, #188, .T. ) ;
#166 = FACE_BOUND ( 'NONE', #216, .T. ) ;
#167 = FACE_OUTER_BOUND ( 'NONE', #75, .T. ) ;
#168 = DIRECTION ( 'NONE',  ( -0.000000000000000000, -1.000000000000000000, -0.000000000000000000 ) ) ;
#169 = AXIS2_PLACEMENT_3D ( 'NONE', #39, #168, #267 ) ;
#170 =( LENGTH_UNIT ( ) NAMED_UNIT ( * ) SI_UNIT ( .MILLI., .METRE. ) );
#171 = DIRECTION ( 'NONE',  ( -0.000000000000000000, -1.000000000000000000, -0.000000000000000000 ) ) ;
#172 = EDGE_CURVE ( 'NONE', #203, #113, #27, .T. ) ;
#173 = DIRECTION ( 'NONE',  ( 0.000000000000000000, 0.000000000000000000, -1.000000000000000000 ) ) ;
#174 = SURFACE_STYLE_FILL_AREA ( #90 ) ;
#175 = FACE_OUTER_BOUND ( 'NONE', #162, .T. ) ;
#176 = APPLICATION_PROTOCOL_DEFINITION ( 'draft international standard', 'automotive_design', 1998, #19 ) ;
#177 = CLOSED_SHELL ( 'NONE', ( #106, #20, #69, #245, #192, #204, #120, #276, #280 ) ) ;
#178 = DIRECTION ( 'NONE',  ( 1.216815494894219612E-16, -0.1129096880442860690, 0.9936052547897187281 ) ) ;
#179 = DIRECTION ( 'NONE',  ( -0.000000000000000000, -1.000000000000000000, -0.000000000000000000 ) ) ;
#180 = ORIENTED_EDGE ( 'NONE', *, *, #115, .F. ) ;
#181 = CARTESIAN_POINT ( 'NONE',  ( 0.000000000000000000, 4.000000000000000000, 0.000000000000000000 ) ) ;
#182 = ORIENTED_EDGE ( 'NONE', *, *, #199, .T. ) ;
#183 = CIRCLE ( 'NONE', #230, 8.500000000000000000 ) ;
#184 = FACE_OUTER_BOUND ( 'NONE', #185, .T. ) ;
#185 = EDGE_LOOP ( 'NONE', ( #275, #112, #28, #10 ) ) ;
#186 = DIRECTION ( 'NONE',  ( 0.000000000000000000, 0.000000000000000000, -1.000000000000000000 ) ) ;
#187 = ORIENTED_EDGE ( 'NONE', *, *, #99, .F. ) ;
#188 = EDGE_CURVE ( 'NONE', #113, #50, #32, .T. ) ;
#189 = LINE ( 'NONE', #74, #8 ) ;
#190 = ORIENTED_EDGE ( 'NONE', *, *, #124, .F. ) ;
#191 = CONICAL_SURFACE ( 'NONE', #261, 19.50000000000000000, 1.457645345204412246 ) ;
#192 = ADVANCED_FACE ( 'NONE', ( #9 ), #1, .T. ) ;
#193 = DIRECTION ( 'NONE',  ( -0.000000000000000000, -1.000000000000000000, -0.000000000000000000 ) ) ;
#194 = PRODUCT_DEFINITION_CONTEXT ( 'detailed design', #19, 'design' ) ;
#195 = CARTESIAN_POINT ( 'NONE',  ( 0.000000000000000000, 1.224256395366449590, 0.000000000000000000 ) ) ;
#196 = CARTESIAN_POINT ( 'NONE',  ( 2.388061258337338939E-15, 4.000000000000000000, 19.50000000000000000 ) ) ;
#197 = EDGE_CURVE ( 'NONE', #259, #50, #243, .T. ) ;
#198 = AXIS2_PLACEMENT_3D ( 'NONE', #154, #92, #43 ) ;
#199 = EDGE_CURVE ( 'NONE', #203, #15, #218, .T. ) ;
#200 = VECTOR ( 'NONE', #278, 1000.000000000000114 ) ;
#201 = DIRECTION ( 'NONE',  ( 0.000000000000000000, -0.1129096880442860690, -0.9936052547897187281 ) ) ;
#202 = CARTESIAN_POINT ( 'NONE',  ( 0.000000000000000000, 4.000000000000000000, -19.50000000000000000 ) ) ;
#203 = VERTEX_POINT ( 'NONE', #97 ) ;
#204 = ADVANCED_FACE ( 'NONE', ( #184 ), #73, .F. ) ;
#205 = EDGE_LOOP ( 'NONE', ( #180, #102, #155, #207 ) ) ;
#206 = DIRECTION ( 'NONE',  ( 0.000000000000000000, 0.000000000000000000, -1.000000000000000000 ) ) ;
#207 = ORIENTED_EDGE ( 'NONE', *, *, #254, .F. ) ;
#208 = DIRECTION ( 'NONE',  ( -0.000000000000000000, -1.000000000000000000, -0.000000000000000000 ) ) ;
#209 = ORIENTED_EDGE ( 'NONE', *, *, #83, .F. ) ;
#210 =( LENGTH_UNIT ( ) NAMED_UNIT ( * ) SI_UNIT ( .MILLI., .METRE. ) );
#211 = DIRECTION ( 'NONE',  ( -0.000000000000000000, -1.000000000000000000, -0.000000000000000000 ) ) ;
#212 = AXIS2_PLACEMENT_3D ( 'NONE', #89, #171, #173 ) ;
#213 =( GEOMETRIC_REPRESENTATION_CONTEXT ( 3 ) GLOBAL_UNCERTAINTY_ASSIGNED_CONTEXT ( ( #237 ) ) GLOBAL_UNIT_ASSIGNED_CONTEXT ( ( #122, #262, #61 ) ) REPRESENTATION_CONTEXT ( 'NONE', 'WORKASPACE' ) );
#214 = ORIENTED_EDGE ( 'NONE', *, *, #124, .T. ) ;
#215 = APPLICATION_PROTOCOL_DEFINITION ( 'draft international standard', 'automotive_design', 1998, #3 ) ;
#216 = EDGE_LOOP ( 'NONE', ( #143, #190 ) ) ;
#217 = EDGE_CURVE ( 'NONE', #229, #259, #189, .T. ) ;
#218 = CIRCLE ( 'NONE', #281, 8.500000000000000000 ) ;
#219 = MECHANICAL_DESIGN_GEOMETRIC_PRESENTATION_REPRESENTATION (  '', ( #223 ), #142 ) ;
#220 = CARTESIAN_POINT ( 'NONE',  ( 0.000000000000000000, 0.000000000000000000, 0.000000000000000000 ) ) ;
#221 = CARTESIAN_POINT ( 'NONE',  ( 1.040949779275250140E-15, 0.000000000000000000, 8.500000000000000000 ) ) ;
#222 = AXIS2_PLACEMENT_3D ( 'NONE', #36, #18, #37 ) ;
#223 = STYLED_ITEM ( 'NONE', ( #57 ), #244 ) ;
#224 = CARTESIAN_POINT ( 'NONE',  ( 0.000000000000000000, 0.000000000000000000, 0.000000000000000000 ) ) ;
#225 = DIRECTION ( 'NONE',  ( 0.000000000000000000, 0.000000000000000000, -1.000000000000000000 ) ) ;
#226 = DIRECTION ( 'NONE',  ( -0.000000000000000000, -1.000000000000000000, -0.000000000000000000 ) ) ;
#227 = EDGE_LOOP ( 'NONE', ( #84, #123, #209, #26 ) ) ;
#228 = CARTESIAN_POINT ( 'NONE',  ( 0.000000000000000000, 4.000000000000000000, 0.000000000000000000 ) ) ;
#229 = VERTEX_POINT ( 'NONE', #196 ) ;
#230 = AXIS2_PLACEMENT_3D ( 'NONE', #80, #146, #145 ) ;
#231 = PRODUCT_RELATED_PRODUCT_CATEGORY ( 'part', '', ( #242 ) ) ;
#232 = EDGE_LOOP ( 'NONE', ( #62, #98, #163, #248 ) ) ;
#233 = SURFACE_STYLE_USAGE ( .BOTH. , #160 ) ;
#234 = ORIENTED_EDGE ( 'NONE', *, *, #172, .F. ) ;
#235 = CIRCLE ( 'NONE', #212, 19.50000000000000000 ) ;
#236 = CARTESIAN_POINT ( 'NONE',  ( 0.000000000000000000, 0.000000000000000000, 0.000000000000000000 ) ) ;
#237 = UNCERTAINTY_MEASURE_WITH_UNIT (LENGTH_MEASURE( 1.000000000000000082E-05 ), #122, 'distance_accuracy_value', 'NONE');
#238 = DIRECTION ( 'NONE',  ( 0.000000000000000000, 0.000000000000000000, -1.000000000000000000 ) ) ;
#239 = EDGE_CURVE ( 'NONE', #54, #253, #148, .T. ) ;
#240 = FACE_OUTER_BOUND ( 'NONE', #135, .T. ) ;
#241 = CYLINDRICAL_SURFACE ( 'NONE', #95, 8.500000000000000000 ) ;
#242 = PRODUCT ( 'FO-00D-WD-M16-020 FORMAT \X2\04280430043904310430\X0\ \X2\041c\X0\16 \X2\0442043004400435043b044c0447043004420430044f\X0\ \X2\043f0440044304360438043d\X0\. DIN6796 (20\X2\04480442\X0\_\X2\0443043f0430043a\X0\) IEK', 'FO-00D-WD-M16-020 FORMAT \X2\04280430043904310430\X0\ \X2\041c\X0\16 \X2\0442043004400435043b044c0447043004420430044f\X0\ \X2\043f0440044304360438043d\X0\. DIN6796 (20\X2\04480442\X0\_\X2\0443043f0430043a\X0\) IEK', '', ( #125 ) ) ;
#243 = CIRCLE ( 'NONE', #119, 19.50000000000000000 ) ;
#244 = MANIFOLD_SOLID_BREP ( 'Ïîâåðíóòü1', #177 ) ;
#245 = ADVANCED_FACE ( 'NONE', ( #167 ), #191, .T. ) ;
#246 = DIRECTION ( 'NONE',  ( -0.000000000000000000, -1.000000000000000000, -0.000000000000000000 ) ) ;
#247 = CARTESIAN_POINT ( 'NONE',  ( 0.000000000000000000, 5.249999999999998224, 0.000000000000000000 ) ) ;
#248 = ORIENTED_EDGE ( 'NONE', *, *, #53, .T. ) ;
#249 = DIRECTION ( 'NONE',  ( 0.000000000000000000, 0.000000000000000000, -1.000000000000000000 ) ) ;
#250 = LINE ( 'NONE', #49, #141 ) ;
#251 = AXIS2_PLACEMENT_3D ( 'NONE', #228, #140, #94 ) ;
#252 = AXIS2_PLACEMENT_3D ( 'NONE', #129, #132, #225 ) ;
#253 = VERTEX_POINT ( 'NONE', #283 ) ;
#254 = EDGE_CURVE ( 'NONE', #229, #113, #256, .T. ) ;
#255 = VECTOR ( 'NONE', #41, 1000.000000000000000 ) ;
#256 = CIRCLE ( 'NONE', #282, 19.50000000000000000 ) ;
#257 = DIRECTION ( 'NONE',  ( -0.000000000000000000, -1.000000000000000000, -0.000000000000000000 ) ) ;
#258 = DIRECTION ( 'NONE',  ( -0.000000000000000000, -1.000000000000000000, -0.000000000000000000 ) ) ;
#259 = VERTEX_POINT ( 'NONE', #150 ) ;
#260 = CIRCLE ( 'NONE', #169, 19.27345627922477078 ) ;
#261 = AXIS2_PLACEMENT_3D ( 'NONE', #14, #257, #265 ) ;
#262 =( NAMED_UNIT ( * ) PLANE_ANGLE_UNIT ( ) SI_UNIT ( $, .RADIAN. ) );
#263 = CARTESIAN_POINT ( 'NONE',  ( 1.714505518806294638E-15, 5.249999999999998224, 8.500000000000000000 ) ) ;
#264 = CARTESIAN_POINT ( 'NONE',  ( 19.27345627922477078, 0.000000000000000000, 0.000000000000000000 ) ) ;
#265 = DIRECTION ( 'NONE',  ( 0.000000000000000000, 0.000000000000000000, -1.000000000000000000 ) ) ;
#266 = CIRCLE ( 'NONE', #134, 8.500000000000000000 ) ;
#267 = DIRECTION ( 'NONE',  ( 0.000000000000000000, 0.000000000000000000, -1.000000000000000000 ) ) ;
#268 = CIRCLE ( 'NONE', #153, 8.500000000000000000 ) ;
#269 = PRESENTATION_STYLE_ASSIGNMENT (( #42 ) ) ;
#270 = LINE ( 'NONE', #221, #255 ) ;
#271 = EDGE_CURVE ( 'NONE', #15, #203, #268, .T. ) ;
#272 = DIRECTION ( 'NONE',  ( 1.216815494894219612E-16, -0.1129096880442860690, 0.9936052547897187281 ) ) ;
#273 = AXIS2_PLACEMENT_3D ( 'NONE', #195, #149, #238 ) ;
#274 = FILL_AREA_STYLE_COLOUR ( '', #156 ) ;
#275 = ORIENTED_EDGE ( 'NONE', *, *, #86, .F. ) ;
#276 = ADVANCED_FACE ( 'NONE', ( #240, #166 ), #40, .T. ) ;
#277 = SURFACE_STYLE_FILL_AREA ( #59 ) ;
#278 = DIRECTION ( 'NONE',  ( 0.000000000000000000, -0.1129096880442860690, -0.9936052547897187281 ) ) ;
#279 = VERTEX_POINT ( 'NONE', #105 ) ;
#280 = ADVANCED_FACE ( 'NONE', ( #175 ), #46, .T. ) ;
#281 = AXIS2_PLACEMENT_3D ( 'NONE', #247, #226, #206 ) ;
#282 = AXIS2_PLACEMENT_3D ( 'NONE', #64, #78, #117 ) ;
#283 = CARTESIAN_POINT ( 'NONE',  ( 0.000000000000000000, 0.000000000000000000, -19.27345627922477078 ) ) ;
#284 = UNCERTAINTY_MEASURE_WITH_UNIT (LENGTH_MEASURE( 1.000000000000000082E-05 ), #210, 'distance_accuracy_value', 'NONE');
ENDSEC;
END-ISO-10303-21;
