ISO-10303-21;
HEADER;
FILE_DESCRIPTION (( 'STEP AP214' ),
    '1' );
FILE_NAME ('FO-00D-WD-M8-020 FORMAT Øàéáà Ì8 òàðåëü÷àòàÿ ïðóæèí. DIN6796 (20øò_óïàê) IEK.STEP',
    '2024-07-03T11:24:47',
    ( '' ),
    ( '' ),
    'SwSTEP 2.0',
    'SolidWorks 2022',
    '' );
FILE_SCHEMA (( 'AUTOMOTIVE_DESIGN' ));
ENDSEC;

DATA;
#1 = DIRECTION ( 'NONE',  ( 0.000000000000000000, 0.000000000000000000, -1.000000000000000000 ) ) ;
#2 = ORIENTED_EDGE ( 'NONE', *, *, #198, .T. ) ;
#3 = DIRECTION ( 'NONE',  ( -0.000000000000000000, -1.000000000000000000, -0.000000000000000000 ) ) ;
#4 = EDGE_LOOP ( 'NONE', ( #92, #224, #118, #96 ) ) ;
#5 = CONICAL_SURFACE ( 'NONE', #280, 9.000000000000000000, 1.446441332248135092 ) ;
#6 = CLOSED_SHELL ( 'NONE', ( #179, #229, #231, #144, #168, #255, #217, #253, #7 ) ) ;
#7 = ADVANCED_FACE ( 'NONE', ( #211 ), #100, .T. ) ;
#8 = CARTESIAN_POINT ( 'NONE',  ( 0.000000000000000000, 2.000000000000000000, 0.000000000000000000 ) ) ;
#9 = CIRCLE ( 'NONE', #194, 8.875484503402901737 ) ;
#10 = EDGE_LOOP ( 'NONE', ( #171, #2, #250, #43 ) ) ;
#11 = VECTOR ( 'NONE', #239, 1000.000000000000000 ) ;
#12 = LINE ( 'NONE', #98, #236 ) ;
#13 = PRESENTATION_STYLE_ASSIGNMENT (( #234 ) ) ;
#14 = UNCERTAINTY_MEASURE_WITH_UNIT (LENGTH_MEASURE( 1.000000000000000082E-05 ), #46, 'distance_accuracy_value', 'NONE');
#15 = EDGE_CURVE ( 'NONE', #204, #183, #258, .T. ) ;
#16 = DIRECTION ( 'NONE',  ( 0.000000000000000000, 0.000000000000000000, -1.000000000000000000 ) ) ;
#17 = CARTESIAN_POINT ( 'NONE',  ( 0.000000000000000000, 2.000000000000000000, -9.000000000000000000 ) ) ;
#18 = UNCERTAINTY_MEASURE_WITH_UNIT (LENGTH_MEASURE( 1.000000000000000082E-05 ), #225, 'distance_accuracy_value', 'NONE');
#19 = CIRCLE ( 'NONE', #87, 4.200000000000000178 ) ;
#20 = DIRECTION ( 'NONE',  ( 0.000000000000000000, 0.000000000000000000, -1.000000000000000000 ) ) ;
#21 = EDGE_CURVE ( 'NONE', #260, #159, #81, .T. ) ;
#22 = FACE_OUTER_BOUND ( 'NONE', #268, .T. ) ;
#23 = DIRECTION ( 'NONE',  ( 0.000000000000000000, 0.000000000000000000, -1.000000000000000000 ) ) ;
#24 = AXIS2_PLACEMENT_3D ( 'NONE', #8, #31, #34 ) ;
#25 = ORIENTED_EDGE ( 'NONE', *, *, #139, .T. ) ;
#26 = CARTESIAN_POINT ( 'NONE',  ( 0.000000000000000000, 0.000000000000000000, 0.000000000000000000 ) ) ;
#27 = EDGE_CURVE ( 'NONE', #183, #159, #116, .T. ) ;
#28 = ORIENTED_EDGE ( 'NONE', *, *, #207, .F. ) ;
#29 = AXIS2_PLACEMENT_3D ( 'NONE', #193, #170, #60 ) ;
#30 =( NAMED_UNIT ( * ) PLANE_ANGLE_UNIT ( ) SI_UNIT ( $, .RADIAN. ) );
#31 = DIRECTION ( 'NONE',  ( -0.000000000000000000, -1.000000000000000000, -0.000000000000000000 ) ) ;
#32 =( NAMED_UNIT ( * ) PLANE_ANGLE_UNIT ( ) SI_UNIT ( $, .RADIAN. ) );
#33 = AXIS2_PLACEMENT_3D ( 'NONE', #55, #56, #121 ) ;
#34 = DIRECTION ( 'NONE',  ( 0.000000000000000000, 0.000000000000000000, -1.000000000000000000 ) ) ;
#35 = VECTOR ( 'NONE', #64, 1000.000000000000227 ) ;
#36 = CARTESIAN_POINT ( 'NONE',  ( 5.143516556418883914E-16, 0.5844355629253615847, 4.200000000000000178 ) ) ;
#37 = DIRECTION ( 'NONE',  ( -0.000000000000000000, -1.000000000000000000, -0.000000000000000000 ) ) ;
#38 = CARTESIAN_POINT ( 'NONE',  ( 0.000000000000000000, 0.000000000000000000, 0.000000000000000000 ) ) ;
#39 = ORIENTED_EDGE ( 'NONE', *, *, #123, .T. ) ;
#40 = FACE_OUTER_BOUND ( 'NONE', #10, .T. ) ;
#41 = AXIS2_PLACEMENT_3D ( 'NONE', #130, #199, #65 ) ;
#42 = EDGE_CURVE ( 'NONE', #159, #183, #54, .T. ) ;
#43 = ORIENTED_EDGE ( 'NONE', *, *, #27, .F. ) ;
#44 = LINE ( 'NONE', #161, #101 ) ;
#45 = ORIENTED_EDGE ( 'NONE', *, *, #278, .T. ) ;
#46 =( LENGTH_UNIT ( ) NAMED_UNIT ( * ) SI_UNIT ( .MILLI., .METRE. ) );
#47 = VERTEX_POINT ( 'NONE', #276 ) ;
#48 = EDGE_CURVE ( 'NONE', #159, #128, #12, .T. ) ;
#49 = ORIENTED_EDGE ( 'NONE', *, *, #48, .F. ) ;
#50 = AXIS2_PLACEMENT_3D ( 'NONE', #262, #281, #23 ) ;
#51 = MANIFOLD_SOLID_BREP ( 'Ïîâåðíóòü1', #6 ) ;
#52 = CARTESIAN_POINT ( 'NONE',  ( 0.000000000000000000, 0.000000000000000000, 0.000000000000000000 ) ) ;
#53 = ADVANCED_BREP_SHAPE_REPRESENTATION ( 'FO-00D-WD-M8-020 FORMAT \X2\04280430043904310430\X0\ \X2\041c\X0\8 \X2\0442043004400435043b044c0447043004420430044f\X0\ \X2\043f0440044304360438043d\X0\. DIN6796 (20\X2\04480442\X0\_\X2\0443043f0430043a\X0\) IEK', ( #51, #155 ), #134 ) ;
#54 = CIRCLE ( 'NONE', #254, 9.000000000000000000 ) ;
#55 = CARTESIAN_POINT ( 'NONE',  ( 0.000000000000000000, 0.000000000000000000, 0.000000000000000000 ) ) ;
#56 = DIRECTION ( 'NONE',  ( -0.000000000000000000, -1.000000000000000000, -0.000000000000000000 ) ) ;
#57 = EDGE_CURVE ( 'NONE', #264, #177, #83, .T. ) ;
#58 = DIRECTION ( 'NONE',  ( -0.000000000000000000, -1.000000000000000000, -0.000000000000000000 ) ) ;
#59 = CIRCLE ( 'NONE', #33, 9.000000000000000000 ) ;
#60 = DIRECTION ( 'NONE',  ( 0.000000000000000000, 0.000000000000000000, -1.000000000000000000 ) ) ;
#61 = CARTESIAN_POINT ( 'NONE',  ( 0.000000000000000000, 0.000000000000000000, 0.000000000000000000 ) ) ;
#62 = DIRECTION ( 'NONE',  ( -0.000000000000000000, -1.000000000000000000, -0.000000000000000000 ) ) ;
#63 = AXIS2_PLACEMENT_3D ( 'NONE', #238, #122, #16 ) ;
#64 = DIRECTION ( 'NONE',  ( 0.000000000000000000, -0.1240347345892083286, -0.9922778767136676281 ) ) ;
#65 = DIRECTION ( 'NONE',  ( 0.000000000000000000, 0.000000000000000000, -1.000000000000000000 ) ) ;
#66 = DIRECTION ( 'NONE',  ( -0.000000000000000000, -1.000000000000000000, -0.000000000000000000 ) ) ;
#67 = EDGE_CURVE ( 'NONE', #128, #284, #59, .T. ) ;
#68 = EDGE_LOOP ( 'NONE', ( #28, #162, #39, #72 ) ) ;
#69 = CARTESIAN_POINT ( 'NONE',  ( 8.082668874372530033E-16, 2.600000000000000089, 4.200000000000000178 ) ) ;
#70 = VECTOR ( 'NONE', #277, 1000.000000000000000 ) ;
#71 = MECHANICAL_DESIGN_GEOMETRIC_PRESENTATION_REPRESENTATION (  '', ( #117 ), #106 ) ;
#72 = ORIENTED_EDGE ( 'NONE', *, *, #169, .T. ) ;
#73 = SURFACE_STYLE_FILL_AREA ( #274 ) ;
#74 = EDGE_LOOP ( 'NONE', ( #266, #208 ) ) ;
#75 = DIRECTION ( 'NONE',  ( 1.000000000000000000, 0.000000000000000000, 0.000000000000000000 ) ) ;
#76 = ORIENTED_EDGE ( 'NONE', *, *, #42, .F. ) ;
#77 = ORIENTED_EDGE ( 'NONE', *, *, #169, .F. ) ;
#78 = VECTOR ( 'NONE', #265, 1000.000000000000000 ) ;
#79 = PRODUCT_CONTEXT ( 'NONE', #156, 'mechanical' ) ;
#80 = EDGE_CURVE ( 'NONE', #177, #47, #214, .T. ) ;
#81 = LINE ( 'NONE', #189, #11 ) ;
#82 = SURFACE_SIDE_STYLE ('',( #215 ) ) ;
#83 = LINE ( 'NONE', #192, #206 ) ;
#84 = LINE ( 'NONE', #203, #129 ) ;
#85 = DIRECTION ( 'NONE',  ( -0.000000000000000000, -1.000000000000000000, -0.000000000000000000 ) ) ;
#86 = FACE_BOUND ( 'NONE', #74, .T. ) ;
#87 = AXIS2_PLACEMENT_3D ( 'NONE', #131, #223, #133 ) ;
#88 = DIRECTION ( 'NONE',  ( 0.000000000000000000, 0.000000000000000000, -1.000000000000000000 ) ) ;
#89 = ORIENTED_EDGE ( 'NONE', *, *, #80, .T. ) ;
#90 = EDGE_CURVE ( 'NONE', #284, #128, #221, .T. ) ;
#91 = PLANE ( 'NONE',  #50 ) ;
#92 = ORIENTED_EDGE ( 'NONE', *, *, #273, .F. ) ;
#93 = CARTESIAN_POINT ( 'NONE',  ( 0.000000000000000000, 2.000000000000000000, 0.000000000000000000 ) ) ;
#94 = EDGE_LOOP ( 'NONE', ( #235, #113, #45, #247 ) ) ;
#95 = ORIENTED_EDGE ( 'NONE', *, *, #273, .T. ) ;
#96 = ORIENTED_EDGE ( 'NONE', *, *, #90, .F. ) ;
#97 = FILL_AREA_STYLE_COLOUR ( '', #259 ) ;
#98 = CARTESIAN_POINT ( 'NONE',  ( 0.000000000000000000, 0.000000000000000000, -9.000000000000000000 ) ) ;
#99 = AXIS2_PLACEMENT_3D ( 'NONE', #148, #242, #107 ) ;
#100 = CYLINDRICAL_SURFACE ( 'NONE', #147, 9.000000000000000000 ) ;
#101 = VECTOR ( 'NONE', #228, 1000.000000000000000 ) ;
#102 = VERTEX_POINT ( 'NONE', #279 ) ;
#103 = DIRECTION ( 'NONE',  ( 0.000000000000000000, 0.000000000000000000, -1.000000000000000000 ) ) ;
#104 = DIRECTION ( 'NONE',  ( -0.000000000000000000, -1.000000000000000000, -0.000000000000000000 ) ) ;
#105 = MECHANICAL_DESIGN_GEOMETRIC_PRESENTATION_REPRESENTATION (  '', ( #210 ), #241 ) ;
#106 =( GEOMETRIC_REPRESENTATION_CONTEXT ( 3 ) GLOBAL_UNCERTAINTY_ASSIGNED_CONTEXT ( ( #14 ) ) GLOBAL_UNIT_ASSIGNED_CONTEXT ( ( #46, #115, #205 ) ) REPRESENTATION_CONTEXT ( 'NONE', 'WORKASPACE' ) );
#107 = DIRECTION ( 'NONE',  ( 0.000000000000000000, 0.000000000000000000, -1.000000000000000000 ) ) ;
#108 = CYLINDRICAL_SURFACE ( 'NONE', #41, 9.000000000000000000 ) ;
#109 = PRODUCT_DEFINITION ( 'UNKNOWN', '', #237, #213 ) ;
#110 = FACE_OUTER_BOUND ( 'NONE', #142, .T. ) ;
#111 = CIRCLE ( 'NONE', #251, 4.200000000000000178 ) ;
#112 = DIRECTION ( 'NONE',  ( 0.000000000000000000, 0.000000000000000000, -1.000000000000000000 ) ) ;
#113 = ORIENTED_EDGE ( 'NONE', *, *, #207, .T. ) ;
#114 = DIRECTION ( 'NONE',  ( 0.000000000000000000, 0.000000000000000000, -1.000000000000000000 ) ) ;
#115 =( NAMED_UNIT ( * ) PLANE_ANGLE_UNIT ( ) SI_UNIT ( $, .RADIAN. ) );
#116 = CIRCLE ( 'NONE', #24, 9.000000000000000000 ) ;
#117 = STYLED_ITEM ( 'NONE', ( #227 ), #53 ) ;
#118 = ORIENTED_EDGE ( 'NONE', *, *, #48, .T. ) ;
#119 = DIRECTION ( 'NONE',  ( 1.215189925582124961E-16, -0.1240347345892083286, 0.9922778767136676281 ) ) ;
#120 = ORIENTED_EDGE ( 'NONE', *, *, #21, .F. ) ;
#121 = DIRECTION ( 'NONE',  ( 0.000000000000000000, 0.000000000000000000, -1.000000000000000000 ) ) ;
#122 = DIRECTION ( 'NONE',  ( -0.000000000000000000, -1.000000000000000000, -0.000000000000000000 ) ) ;
#123 = EDGE_CURVE ( 'NONE', #260, #102, #84, .T. ) ;
#124 = CARTESIAN_POINT ( 'NONE',  ( 0.000000000000000000, 0.5844355629253615847, 0.000000000000000000 ) ) ;
#125 = CARTESIAN_POINT ( 'NONE',  ( 0.000000000000000000, 0.000000000000000000, -9.000000000000000000 ) ) ;
#126 = FACE_OUTER_BOUND ( 'NONE', #256, .T. ) ;
#127 = DIRECTION ( 'NONE',  ( -0.000000000000000000, -1.000000000000000000, -0.000000000000000000 ) ) ;
#128 = VERTEX_POINT ( 'NONE', #125 ) ;
#129 = VECTOR ( 'NONE', #3, 1000.000000000000000 ) ;
#130 = CARTESIAN_POINT ( 'NONE',  ( 0.000000000000000000, 0.000000000000000000, 0.000000000000000000 ) ) ;
#131 = CARTESIAN_POINT ( 'NONE',  ( 0.000000000000000000, 0.5844355629253615847, 0.000000000000000000 ) ) ;
#132 = EDGE_LOOP ( 'NONE', ( #138, #157 ) ) ;
#133 = DIRECTION ( 'NONE',  ( 0.000000000000000000, 0.000000000000000000, -1.000000000000000000 ) ) ;
#134 =( GEOMETRIC_REPRESENTATION_CONTEXT ( 3 ) GLOBAL_UNCERTAINTY_ASSIGNED_CONTEXT ( ( #18 ) ) GLOBAL_UNIT_ASSIGNED_CONTEXT ( ( #225, #30, #209 ) ) REPRESENTATION_CONTEXT ( 'NONE', 'WORKASPACE' ) );
#135 = ORIENTED_EDGE ( 'NONE', *, *, #42, .T. ) ;
#136 = DIRECTION ( 'NONE',  ( 0.000000000000000000, 0.000000000000000000, 1.000000000000000000 ) ) ;
#137 = AXIS2_PLACEMENT_3D ( 'NONE', #175, #62, #243 ) ;
#138 = ORIENTED_EDGE ( 'NONE', *, *, #67, .T. ) ;
#139 = EDGE_CURVE ( 'NONE', #260, #204, #164, .T. ) ;
#140 = DIRECTION ( 'NONE',  ( -0.000000000000000000, -1.000000000000000000, -0.000000000000000000 ) ) ;
#141 = ORIENTED_EDGE ( 'NONE', *, *, #57, .F. ) ;
#142 = EDGE_LOOP ( 'NONE', ( #180, #245, #89, #152 ) ) ;
#143 = UNCERTAINTY_MEASURE_WITH_UNIT (LENGTH_MEASURE( 1.000000000000000082E-05 ), #212, 'distance_accuracy_value', 'NONE');
#144 = ADVANCED_FACE ( 'NONE', ( #22 ), #167, .T. ) ;
#145 = CARTESIAN_POINT ( 'NONE',  ( 1.102182119232617714E-15, 2.000000000000000000, 9.000000000000000000 ) ) ;
#146 = DIRECTION ( 'NONE',  ( -0.000000000000000000, -1.000000000000000000, -0.000000000000000000 ) ) ;
#147 = AXIS2_PLACEMENT_3D ( 'NONE', #61, #104, #232 ) ;
#148 = CARTESIAN_POINT ( 'NONE',  ( 0.000000000000000000, 2.600000000000000089, 0.000000000000000000 ) ) ;
#149 = LINE ( 'NONE', #283, #78 ) ;
#150 = ORIENTED_EDGE ( 'NONE', *, *, #202, .T. ) ;
#151 = FACE_OUTER_BOUND ( 'NONE', #94, .T. ) ;
#152 = ORIENTED_EDGE ( 'NONE', *, *, #233, .F. ) ;
#153 = CIRCLE ( 'NONE', #99, 4.200000000000000178 ) ;
#154 = DIRECTION ( 'NONE',  ( -0.000000000000000000, -1.000000000000000000, -0.000000000000000000 ) ) ;
#155 = AXIS2_PLACEMENT_3D ( 'NONE', #52, #136, #75 ) ;
#156 = APPLICATION_CONTEXT ( 'automotive_design' ) ;
#157 = ORIENTED_EDGE ( 'NONE', *, *, #90, .T. ) ;
#158 = PRODUCT ( 'FO-00D-WD-M8-020 FORMAT \X2\04280430043904310430\X0\ \X2\041c\X0\8 \X2\0442043004400435043b044c0447043004420430044f\X0\ \X2\043f0440044304360438043d\X0\. DIN6796 (20\X2\04480442\X0\_\X2\0443043f0430043a\X0\) IEK', 'FO-00D-WD-M8-020 FORMAT \X2\04280430043904310430\X0\ \X2\041c\X0\8 \X2\0442043004400435043b044c0447043004420430044f\X0\ \X2\043f0440044304360438043d\X0\. DIN6796 (20\X2\04480442\X0\_\X2\0443043f0430043a\X0\) IEK', '', ( #79 ) ) ;
#159 = VERTEX_POINT ( 'NONE', #17 ) ;
#160 = PRODUCT_RELATED_PRODUCT_CATEGORY ( 'part', '', ( #158 ) ) ;
#161 = CARTESIAN_POINT ( 'NONE',  ( 1.102182119232617714E-15, 0.000000000000000000, 9.000000000000000000 ) ) ;
#162 = ORIENTED_EDGE ( 'NONE', *, *, #139, .F. ) ;
#163 = APPLICATION_PROTOCOL_DEFINITION ( 'draft international standard', 'automotive_design', 1998, #156 ) ;
#164 = CIRCLE ( 'NONE', #200, 4.200000000000000178 ) ;
#165 =( NAMED_UNIT ( * ) SI_UNIT ( $, .STERADIAN. ) SOLID_ANGLE_UNIT ( ) );
#166 = AXIS2_PLACEMENT_3D ( 'NONE', #218, #201, #1 ) ;
#167 = CONICAL_SURFACE ( 'NONE', #187, 9.000000000000000000, 1.446441332248135092 ) ;
#168 = ADVANCED_FACE ( 'NONE', ( #40 ), #5, .T. ) ;
#169 = EDGE_CURVE ( 'NONE', #102, #264, #111, .T. ) ;
#170 = DIRECTION ( 'NONE',  ( -0.000000000000000000, -1.000000000000000000, -0.000000000000000000 ) ) ;
#171 = ORIENTED_EDGE ( 'NONE', *, *, #15, .F. ) ;
#172 = CYLINDRICAL_SURFACE ( 'NONE', #275, 4.200000000000000178 ) ;
#173 = DIRECTION ( 'NONE',  ( -0.000000000000000000, -1.000000000000000000, -0.000000000000000000 ) ) ;
#174 = AXIS2_PLACEMENT_3D ( 'NONE', #38, #127, #20 ) ;
#175 = CARTESIAN_POINT ( 'NONE',  ( 0.000000000000000000, 0.5844355629253615847, 0.000000000000000000 ) ) ;
#176 = FACE_OUTER_BOUND ( 'NONE', #68, .T. ) ;
#177 = VERTEX_POINT ( 'NONE', #263 ) ;
#178 = FACE_OUTER_BOUND ( 'NONE', #270, .T. ) ;
#179 = ADVANCED_FACE ( 'NONE', ( #178 ), #108, .T. ) ;
#180 = ORIENTED_EDGE ( 'NONE', *, *, #278, .F. ) ;
#181 = COLOUR_RGB ( '',0.7529411764705882248, 0.7529411764705882248, 0.7529411764705882248 ) ;
#182 = CARTESIAN_POINT ( 'NONE',  ( 1.102182119232617714E-15, 0.000000000000000000, 9.000000000000000000 ) ) ;
#183 = VERTEX_POINT ( 'NONE', #220 ) ;
#184 = SURFACE_SIDE_STYLE ('',( #73 ) ) ;
#185 = FILL_AREA_STYLE ('',( #191 ) ) ;
#186 = PRODUCT_DEFINITION_SHAPE ( 'NONE', 'NONE',  #109 ) ;
#187 = AXIS2_PLACEMENT_3D ( 'NONE', #216, #85, #88 ) ;
#188 = SHAPE_DEFINITION_REPRESENTATION ( #186, #53 ) ;
#189 = CARTESIAN_POINT ( 'NONE',  ( 0.000000000000000000, 2.000000000000000000, -9.000000000000000000 ) ) ;
#190 = PRESENTATION_LAYER_ASSIGNMENT (  '', '', ( #210 ) ) ;
#191 = FILL_AREA_STYLE_COLOUR ( '', #181 ) ;
#192 = CARTESIAN_POINT ( 'NONE',  ( 5.143516556418883914E-16, 0.5844355629253615847, 4.200000000000000178 ) ) ;
#193 = CARTESIAN_POINT ( 'NONE',  ( 0.000000000000000000, -6.776263578034402713E-18, 0.000000000000000000 ) ) ;
#194 = AXIS2_PLACEMENT_3D ( 'NONE', #267, #66, #219 ) ;
#195 = PRESENTATION_LAYER_ASSIGNMENT (  '', '', ( #117 ) ) ;
#196 = CARTESIAN_POINT ( 'NONE',  ( 0.000000000000000000, 2.600000000000000089, 0.000000000000000000 ) ) ;
#197 = CARTESIAN_POINT ( 'NONE',  ( 0.000000000000000000, 0.5844355629253615847, -4.200000000000000178 ) ) ;
#198 = EDGE_CURVE ( 'NONE', #204, #260, #153, .T. ) ;
#199 = DIRECTION ( 'NONE',  ( -0.000000000000000000, -1.000000000000000000, -0.000000000000000000 ) ) ;
#200 = AXIS2_PLACEMENT_3D ( 'NONE', #196, #146, #261 ) ;
#201 = DIRECTION ( 'NONE',  ( -0.000000000000000000, -1.000000000000000000, -0.000000000000000000 ) ) ;
#202 = EDGE_CURVE ( 'NONE', #47, #177, #9, .T. ) ;
#203 = CARTESIAN_POINT ( 'NONE',  ( 0.000000000000000000, 0.000000000000000000, -4.200000000000000178 ) ) ;
#204 = VERTEX_POINT ( 'NONE', #69 ) ;
#205 =( NAMED_UNIT ( * ) SI_UNIT ( $, .STERADIAN. ) SOLID_ANGLE_UNIT ( ) );
#206 = VECTOR ( 'NONE', #119, 1000.000000000000227 ) ;
#207 = EDGE_CURVE ( 'NONE', #204, #264, #149, .T. ) ;
#208 = ORIENTED_EDGE ( 'NONE', *, *, #80, .F. ) ;
#209 =( NAMED_UNIT ( * ) SI_UNIT ( $, .STERADIAN. ) SOLID_ANGLE_UNIT ( ) );
#210 = STYLED_ITEM ( 'NONE', ( #13 ), #51 ) ;
#211 = FACE_OUTER_BOUND ( 'NONE', #4, .T. ) ;
#212 =( LENGTH_UNIT ( ) NAMED_UNIT ( * ) SI_UNIT ( .MILLI., .METRE. ) );
#213 = PRODUCT_DEFINITION_CONTEXT ( 'detailed design', #244, 'design' ) ;
#214 = CIRCLE ( 'NONE', #29, 8.875484503402901737 ) ;
#215 = SURFACE_STYLE_FILL_AREA ( #185 ) ;
#216 = CARTESIAN_POINT ( 'NONE',  ( 0.000000000000000000, 2.000000000000000000, 0.000000000000000000 ) ) ;
#217 = ADVANCED_FACE ( 'NONE', ( #126 ), #230, .F. ) ;
#218 = CARTESIAN_POINT ( 'NONE',  ( 0.000000000000000000, 0.5844355629253615847, 0.000000000000000000 ) ) ;
#219 = DIRECTION ( 'NONE',  ( 0.000000000000000000, 0.000000000000000000, -1.000000000000000000 ) ) ;
#220 = CARTESIAN_POINT ( 'NONE',  ( 1.102182119232617714E-15, 2.000000000000000000, 9.000000000000000000 ) ) ;
#221 = CIRCLE ( 'NONE', #63, 9.000000000000000000 ) ;
#222 = LINE ( 'NONE', #197, #35 ) ;
#223 = DIRECTION ( 'NONE',  ( -0.000000000000000000, -1.000000000000000000, -0.000000000000000000 ) ) ;
#224 = ORIENTED_EDGE ( 'NONE', *, *, #27, .T. ) ;
#225 =( LENGTH_UNIT ( ) NAMED_UNIT ( * ) SI_UNIT ( .MILLI., .METRE. ) );
#226 = ORIENTED_EDGE ( 'NONE', *, *, #233, .T. ) ;
#227 = PRESENTATION_STYLE_ASSIGNMENT (( #271 ) ) ;
#228 = DIRECTION ( 'NONE',  ( -0.000000000000000000, -1.000000000000000000, -0.000000000000000000 ) ) ;
#229 = ADVANCED_FACE ( 'NONE', ( #110 ), #269, .F. ) ;
#230 = CONICAL_SURFACE ( 'NONE', #166, 4.200000000000000178, 1.446441332248135314 ) ;
#231 = ADVANCED_FACE ( 'NONE', ( #151 ), #240, .F. ) ;
#232 = DIRECTION ( 'NONE',  ( 0.000000000000000000, 0.000000000000000000, -1.000000000000000000 ) ) ;
#233 = EDGE_CURVE ( 'NONE', #102, #47, #222, .T. ) ;
#234 = SURFACE_STYLE_USAGE ( .BOTH. , #82 ) ;
#235 = ORIENTED_EDGE ( 'NONE', *, *, #198, .F. ) ;
#236 = VECTOR ( 'NONE', #140, 1000.000000000000000 ) ;
#237 = PRODUCT_DEFINITION_FORMATION_WITH_SPECIFIED_SOURCE ( 'ANY', '', #158, .NOT_KNOWN. ) ;
#238 = CARTESIAN_POINT ( 'NONE',  ( 0.000000000000000000, 0.000000000000000000, 0.000000000000000000 ) ) ;
#239 = DIRECTION ( 'NONE',  ( 0.000000000000000000, -0.1240347345892085507, -0.9922778767136676281 ) ) ;
#240 = CYLINDRICAL_SURFACE ( 'NONE', #174, 4.200000000000000178 ) ;
#241 =( GEOMETRIC_REPRESENTATION_CONTEXT ( 3 ) GLOBAL_UNCERTAINTY_ASSIGNED_CONTEXT ( ( #143 ) ) GLOBAL_UNIT_ASSIGNED_CONTEXT ( ( #212, #32, #165 ) ) REPRESENTATION_CONTEXT ( 'NONE', 'WORKASPACE' ) );
#242 = DIRECTION ( 'NONE',  ( -0.000000000000000000, -1.000000000000000000, -0.000000000000000000 ) ) ;
#243 = DIRECTION ( 'NONE',  ( 0.000000000000000000, 0.000000000000000000, -1.000000000000000000 ) ) ;
#244 = APPLICATION_CONTEXT ( 'automotive_design' ) ;
#245 = ORIENTED_EDGE ( 'NONE', *, *, #57, .T. ) ;
#246 = DIRECTION ( 'NONE',  ( 0.000000000000000000, 0.000000000000000000, -1.000000000000000000 ) ) ;
#247 = ORIENTED_EDGE ( 'NONE', *, *, #123, .F. ) ;
#248 = CARTESIAN_POINT ( 'NONE',  ( 0.000000000000000000, 2.600000000000000089, -4.200000000000000178 ) ) ;
#249 = ORIENTED_EDGE ( 'NONE', *, *, #67, .F. ) ;
#250 = ORIENTED_EDGE ( 'NONE', *, *, #21, .T. ) ;
#251 = AXIS2_PLACEMENT_3D ( 'NONE', #124, #173, #112 ) ;
#252 = APPLICATION_PROTOCOL_DEFINITION ( 'draft international standard', 'automotive_design', 1998, #244 ) ;
#253 = ADVANCED_FACE ( 'NONE', ( #282, #86 ), #91, .T. ) ;
#254 = AXIS2_PLACEMENT_3D ( 'NONE', #257, #58, #103 ) ;
#255 = ADVANCED_FACE ( 'NONE', ( #176 ), #172, .F. ) ;
#256 = EDGE_LOOP ( 'NONE', ( #141, #77, #226, #150 ) ) ;
#257 = CARTESIAN_POINT ( 'NONE',  ( 0.000000000000000000, 2.000000000000000000, 0.000000000000000000 ) ) ;
#258 = LINE ( 'NONE', #145, #70 ) ;
#259 = COLOUR_RGB ( '',0.7529411764705882248, 0.7529411764705882248, 0.7529411764705882248 ) ;
#260 = VERTEX_POINT ( 'NONE', #248 ) ;
#261 = DIRECTION ( 'NONE',  ( 0.000000000000000000, 0.000000000000000000, -1.000000000000000000 ) ) ;
#262 = CARTESIAN_POINT ( 'NONE',  ( 8.875484503402901737, -3.388131789017201356E-18, 0.000000000000000000 ) ) ;
#263 = CARTESIAN_POINT ( 'NONE',  ( 1.086933368797429353E-15, -6.776263578034402713E-18, 8.875484503402898184 ) ) ;
#264 = VERTEX_POINT ( 'NONE', #36 ) ;
#265 = DIRECTION ( 'NONE',  ( -0.000000000000000000, -1.000000000000000000, -0.000000000000000000 ) ) ;
#266 = ORIENTED_EDGE ( 'NONE', *, *, #202, .F. ) ;
#267 = CARTESIAN_POINT ( 'NONE',  ( 0.000000000000000000, -6.776263578034402713E-18, 0.000000000000000000 ) ) ;
#268 = EDGE_LOOP ( 'NONE', ( #25, #272, #76, #120 ) ) ;
#269 = CONICAL_SURFACE ( 'NONE', #137, 4.200000000000000178, 1.446441332248135314 ) ;
#270 = EDGE_LOOP ( 'NONE', ( #135, #95, #249, #49 ) ) ;
#271 = SURFACE_STYLE_USAGE ( .BOTH. , #184 ) ;
#272 = ORIENTED_EDGE ( 'NONE', *, *, #15, .T. ) ;
#273 = EDGE_CURVE ( 'NONE', #183, #284, #44, .T. ) ;
#274 = FILL_AREA_STYLE ('',( #97 ) ) ;
#275 = AXIS2_PLACEMENT_3D ( 'NONE', #26, #154, #114 ) ;
#276 = CARTESIAN_POINT ( 'NONE',  ( 0.000000000000000000, -6.776263578034402713E-18, -8.875484503402898184 ) ) ;
#277 = DIRECTION ( 'NONE',  ( 1.215189925582124961E-16, -0.1240347345892085507, 0.9922778767136676281 ) ) ;
#278 = EDGE_CURVE ( 'NONE', #264, #102, #19, .T. ) ;
#279 = CARTESIAN_POINT ( 'NONE',  ( 0.000000000000000000, 0.5844355629253615847, -4.200000000000000178 ) ) ;
#280 = AXIS2_PLACEMENT_3D ( 'NONE', #93, #37, #246 ) ;
#281 = DIRECTION ( 'NONE',  ( 0.000000000000000000, -1.000000000000000000, -0.000000000000000000 ) ) ;
#282 = FACE_OUTER_BOUND ( 'NONE', #132, .T. ) ;
#283 = CARTESIAN_POINT ( 'NONE',  ( 5.143516556418883914E-16, 0.000000000000000000, 4.200000000000000178 ) ) ;
#284 = VERTEX_POINT ( 'NONE', #182 ) ;
ENDSEC;
END-ISO-10303-21;
