ISO-10303-21;
HEADER;
FILE_DESCRIPTION (( 'STEP AP214' ),
    '1' );
FILE_NAME ('FO-00D-WD-M6-020 FORMAT Øàéáà Ì6 òàðåëü÷àòàÿ ïðóæèí. DIN6796 (20øò_óïàê) IEK.STEP',
    '2024-07-03T11:24:16',
    ( '' ),
    ( '' ),
    'SwSTEP 2.0',
    'SolidWorks 2022',
    '' );
FILE_SCHEMA (( 'AUTOMOTIVE_DESIGN' ));
ENDSEC;

DATA;
#1 = DIRECTION ( 'NONE',  ( 0.000000000000000000, -0.1304545125713873210, -0.9914542955425437176 ) ) ;
#2 = SURFACE_STYLE_FILL_AREA ( #18 ) ;
#3 = ORIENTED_EDGE ( 'NONE', *, *, #21, .F. ) ;
#4 = ORIENTED_EDGE ( 'NONE', *, *, #162, .F. ) ;
#5 =( LENGTH_UNIT ( ) NAMED_UNIT ( * ) SI_UNIT ( .MILLI., .METRE. ) );
#6 = ORIENTED_EDGE ( 'NONE', *, *, #118, .T. ) ;
#7 = COLOUR_RGB ( '',0.7529411764705882248, 0.7529411764705882248, 0.7529411764705882248 ) ;
#8 = CARTESIAN_POINT ( 'NONE',  ( 8.572527594031473190E-16, 1.500000000000000000, 7.000000000000000000 ) ) ;
#9 = LINE ( 'NONE', #201, #103 ) ;
#10 = FACE_OUTER_BOUND ( 'NONE', #196, .T. ) ;
#11 = CIRCLE ( 'NONE', #155, 3.199999999999999734 ) ;
#12 = CARTESIAN_POINT ( 'NONE',  ( 3.918869757271529967E-16, 0.000000000000000000, 3.199999999999999734 ) ) ;
#13 = ORIENTED_EDGE ( 'NONE', *, *, #81, .T. ) ;
#14 = CARTESIAN_POINT ( 'NONE',  ( 0.000000000000000000, 0.000000000000000000, -3.199999999999999734 ) ) ;
#15 = FACE_OUTER_BOUND ( 'NONE', #144, .T. ) ;
#16 = VECTOR ( 'NONE', #157, 1000.000000000000114 ) ;
#17 = DIRECTION ( 'NONE',  ( 1.000000000000000000, 0.000000000000000000, 0.000000000000000000 ) ) ;
#18 = FILL_AREA_STYLE ('',( #283 ) ) ;
#19 = AXIS2_PLACEMENT_3D ( 'NONE', #104, #153, #76 ) ;
#20 = ORIENTED_EDGE ( 'NONE', *, *, #170, .T. ) ;
#21 = EDGE_CURVE ( 'NONE', #61, #215, #58, .T. ) ;
#22 = ORIENTED_EDGE ( 'NONE', *, *, #101, .T. ) ;
#23 = ORIENTED_EDGE ( 'NONE', *, *, #72, .T. ) ;
#24 = DIRECTION ( 'NONE',  ( 0.000000000000000000, -0.1304545125713870990, -0.9914542955425437176 ) ) ;
#25 = CIRCLE ( 'NONE', #110, 7.000000000000000000 ) ;
#26 = DIRECTION ( 'NONE',  ( 0.000000000000000000, 0.000000000000000000, -1.000000000000000000 ) ) ;
#27 = LINE ( 'NONE', #12, #242 ) ;
#28 = CARTESIAN_POINT ( 'NONE',  ( 0.000000000000000000, 2.000000000000000000, 0.000000000000000000 ) ) ;
#29 = CIRCLE ( 'NONE', #126, 6.901739261957924754 ) ;
#30 = PRODUCT_DEFINITION_FORMATION_WITH_SPECIFIED_SOURCE ( 'ANY', '', #237, .NOT_KNOWN. ) ;
#31 = DIRECTION ( 'NONE',  ( 0.000000000000000000, 0.000000000000000000, -1.000000000000000000 ) ) ;
#32 = CARTESIAN_POINT ( 'NONE',  ( 0.000000000000000000, 2.541098841762901017E-18, 0.000000000000000000 ) ) ;
#33 = ORIENTED_EDGE ( 'NONE', *, *, #245, .T. ) ;
#34 = SURFACE_STYLE_USAGE ( .BOTH. , #231 ) ;
#35 = CONICAL_SURFACE ( 'NONE', #121, 7.000000000000000000, 1.439968930720839646 ) ;
#36 = DIRECTION ( 'NONE',  ( -0.000000000000000000, -1.000000000000000000, -0.000000000000000000 ) ) ;
#37 = FACE_OUTER_BOUND ( 'NONE', #39, .T. ) ;
#38 = CARTESIAN_POINT ( 'NONE',  ( 0.000000000000000000, 2.000000000000000000, 0.000000000000000000 ) ) ;
#39 = EDGE_LOOP ( 'NONE', ( #209, #49, #13, #254 ) ) ;
#40 = AXIS2_PLACEMENT_3D ( 'NONE', #193, #269, #75 ) ;
#41 = PRESENTATION_LAYER_ASSIGNMENT (  '', '', ( #64 ) ) ;
#42 = ORIENTED_EDGE ( 'NONE', *, *, #146, .T. ) ;
#43 = CARTESIAN_POINT ( 'NONE',  ( 0.000000000000000000, 0.4870709555207790586, 0.000000000000000000 ) ) ;
#44 = EDGE_CURVE ( 'NONE', #94, #266, #71, .T. ) ;
#45 = ADVANCED_BREP_SHAPE_REPRESENTATION ( 'FO-00D-WD-M6-020 FORMAT \X2\04280430043904310430\X0\ \X2\041c\X0\6 \X2\0442043004400435043b044c0447043004420430044f\X0\ \X2\043f0440044304360438043d\X0\. DIN6796 (20\X2\04480442\X0\_\X2\0443043f0430043a\X0\) IEK', ( #284, #183 ), #85 ) ;
#46 = VERTEX_POINT ( 'NONE', #92 ) ;
#47 = SHAPE_DEFINITION_REPRESENTATION ( #102, #45 ) ;
#48 = AXIS2_PLACEMENT_3D ( 'NONE', #180, #159, #222 ) ;
#49 = ORIENTED_EDGE ( 'NONE', *, *, #245, .F. ) ;
#50 = DIRECTION ( 'NONE',  ( -0.000000000000000000, -1.000000000000000000, -0.000000000000000000 ) ) ;
#51 = DIRECTION ( 'NONE',  ( 0.000000000000000000, 0.000000000000000000, -1.000000000000000000 ) ) ;
#52 = LINE ( 'NONE', #8, #16 ) ;
#53 = AXIS2_PLACEMENT_3D ( 'NONE', #80, #181, #250 ) ;
#54 = MECHANICAL_DESIGN_GEOMETRIC_PRESENTATION_REPRESENTATION (  '', ( #64 ), #163 ) ;
#55 = CARTESIAN_POINT ( 'NONE',  ( 6.901739261957924754, 1.270549420881450509E-18, 0.000000000000000000 ) ) ;
#56 = CARTESIAN_POINT ( 'NONE',  ( 8.452192895706390684E-16, 2.541098841762901017E-18, 6.901739261957927418 ) ) ;
#57 = LINE ( 'NONE', #247, #63 ) ;
#58 = CIRCLE ( 'NONE', #40, 7.000000000000000000 ) ;
#59 = LINE ( 'NONE', #14, #113 ) ;
#60 = FACE_OUTER_BOUND ( 'NONE', #173, .T. ) ;
#61 = VERTEX_POINT ( 'NONE', #148 ) ;
#62 = CARTESIAN_POINT ( 'NONE',  ( 8.572527594031473190E-16, 0.000000000000000000, 7.000000000000000000 ) ) ;
#63 = VECTOR ( 'NONE', #78, 1000.000000000000114 ) ;
#64 = STYLED_ITEM ( 'NONE', ( #235 ), #45 ) ;
#65 = ORIENTED_EDGE ( 'NONE', *, *, #220, .T. ) ;
#66 = EDGE_CURVE ( 'NONE', #197, #171, #108, .T. ) ;
#67 = EDGE_LOOP ( 'NONE', ( #22, #23, #4, #218 ) ) ;
#68 = SURFACE_STYLE_USAGE ( .BOTH. , #268 ) ;
#69 = ADVANCED_FACE ( 'NONE', ( #83, #156 ), #272, .T. ) ;
#70 = CIRCLE ( 'NONE', #129, 6.901739261957924754 ) ;
#71 = LINE ( 'NONE', #236, #282 ) ;
#72 = EDGE_CURVE ( 'NONE', #46, #265, #52, .T. ) ;
#73 = ORIENTED_EDGE ( 'NONE', *, *, #81, .F. ) ;
#74 = EDGE_LOOP ( 'NONE', ( #217, #169 ) ) ;
#75 = DIRECTION ( 'NONE',  ( 0.000000000000000000, 0.000000000000000000, -1.000000000000000000 ) ) ;
#76 = DIRECTION ( 'NONE',  ( 0.000000000000000000, 0.000000000000000000, -1.000000000000000000 ) ) ;
#77 = ADVANCED_FACE ( 'NONE', ( #10 ), #133, .F. ) ;
#78 = DIRECTION ( 'NONE',  ( 1.214181329537070139E-16, -0.1304545125713870990, 0.9914542955425437176 ) ) ;
#79 =( GEOMETRIC_REPRESENTATION_CONTEXT ( 3 ) GLOBAL_UNCERTAINTY_ASSIGNED_CONTEXT ( ( #189 ) ) GLOBAL_UNIT_ASSIGNED_CONTEXT ( ( #127, #280, #258 ) ) REPRESENTATION_CONTEXT ( 'NONE', 'WORKASPACE' ) );
#80 = CARTESIAN_POINT ( 'NONE',  ( 0.000000000000000000, 1.500000000000000000, 0.000000000000000000 ) ) ;
#81 = EDGE_CURVE ( 'NONE', #171, #145, #246, .T. ) ;
#82 = CYLINDRICAL_SURFACE ( 'NONE', #212, 7.000000000000000000 ) ;
#83 = FACE_OUTER_BOUND ( 'NONE', #74, .T. ) ;
#84 = CIRCLE ( 'NONE', #116, 3.199999999999999734 ) ;
#85 =( GEOMETRIC_REPRESENTATION_CONTEXT ( 3 ) GLOBAL_UNCERTAINTY_ASSIGNED_CONTEXT ( ( #259 ) ) GLOBAL_UNIT_ASSIGNED_CONTEXT ( ( #192, #161, #143 ) ) REPRESENTATION_CONTEXT ( 'NONE', 'WORKASPACE' ) );
#86 = CARTESIAN_POINT ( 'NONE',  ( 0.000000000000000000, 0.4870709555207790586, 0.000000000000000000 ) ) ;
#87 = CARTESIAN_POINT ( 'NONE',  ( 8.572527594031473190E-16, 1.500000000000000000, 7.000000000000000000 ) ) ;
#88 = CARTESIAN_POINT ( 'NONE',  ( 0.000000000000000000, 0.000000000000000000, 0.000000000000000000 ) ) ;
#89 = ORIENTED_EDGE ( 'NONE', *, *, #101, .F. ) ;
#90 = AXIS2_PLACEMENT_3D ( 'NONE', #168, #187, #106 ) ;
#91 = ORIENTED_EDGE ( 'NONE', *, *, #176, .T. ) ;
#92 = CARTESIAN_POINT ( 'NONE',  ( 6.245698675651501825E-16, 2.000000000000000000, 3.199999999999999734 ) ) ;
#93 =( NAMED_UNIT ( * ) PLANE_ANGLE_UNIT ( ) SI_UNIT ( $, .RADIAN. ) );
#94 = VERTEX_POINT ( 'NONE', #248 ) ;
#95 = ORIENTED_EDGE ( 'NONE', *, *, #279, .F. ) ;
#96 = ORIENTED_EDGE ( 'NONE', *, *, #281, .F. ) ;
#97 = AXIS2_PLACEMENT_3D ( 'NONE', #43, #50, #131 ) ;
#98 = LINE ( 'NONE', #179, #206 ) ;
#99 = DIRECTION ( 'NONE',  ( 0.000000000000000000, 0.000000000000000000, -1.000000000000000000 ) ) ;
#100 = DIRECTION ( 'NONE',  ( -0.000000000000000000, -1.000000000000000000, -0.000000000000000000 ) ) ;
#101 = EDGE_CURVE ( 'NONE', #94, #46, #84, .T. ) ;
#102 = PRODUCT_DEFINITION_SHAPE ( 'NONE', 'NONE',  #172 ) ;
#103 = VECTOR ( 'NONE', #184, 1000.000000000000000 ) ;
#104 = CARTESIAN_POINT ( 'NONE',  ( 0.000000000000000000, 0.4870709555207790586, 0.000000000000000000 ) ) ;
#105 = DIRECTION ( 'NONE',  ( -0.000000000000000000, -1.000000000000000000, -0.000000000000000000 ) ) ;
#106 = DIRECTION ( 'NONE',  ( 0.000000000000000000, 0.000000000000000000, -1.000000000000000000 ) ) ;
#107 = DIRECTION ( 'NONE',  ( 0.000000000000000000, 0.000000000000000000, -1.000000000000000000 ) ) ;
#108 = CIRCLE ( 'NONE', #97, 3.199999999999999734 ) ;
#109 = DIRECTION ( 'NONE',  ( 0.000000000000000000, 0.000000000000000000, -1.000000000000000000 ) ) ;
#110 = AXIS2_PLACEMENT_3D ( 'NONE', #164, #261, #253 ) ;
#111 = APPLICATION_PROTOCOL_DEFINITION ( 'draft international standard', 'automotive_design', 1998, #182 ) ;
#112 = EDGE_LOOP ( 'NONE', ( #194, #91, #241, #152 ) ) ;
#113 = VECTOR ( 'NONE', #139, 1000.000000000000000 ) ;
#114 = ORIENTED_EDGE ( 'NONE', *, *, #146, .F. ) ;
#115 = VERTEX_POINT ( 'NONE', #56 ) ;
#116 = AXIS2_PLACEMENT_3D ( 'NONE', #28, #122, #51 ) ;
#117 = CARTESIAN_POINT ( 'NONE',  ( 0.000000000000000000, 1.500000000000000000, 0.000000000000000000 ) ) ;
#118 = EDGE_CURVE ( 'NONE', #115, #145, #70, .T. ) ;
#119 = CYLINDRICAL_SURFACE ( 'NONE', #147, 7.000000000000000000 ) ;
#120 = FACE_OUTER_BOUND ( 'NONE', #216, .T. ) ;
#121 = AXIS2_PLACEMENT_3D ( 'NONE', #255, #36, #125 ) ;
#122 = DIRECTION ( 'NONE',  ( -0.000000000000000000, -1.000000000000000000, -0.000000000000000000 ) ) ;
#123 = CARTESIAN_POINT ( 'NONE',  ( 0.000000000000000000, 0.000000000000000000, 0.000000000000000000 ) ) ;
#124 = ADVANCED_FACE ( 'NONE', ( #135 ), #204, .F. ) ;
#125 = DIRECTION ( 'NONE',  ( 0.000000000000000000, 0.000000000000000000, -1.000000000000000000 ) ) ;
#126 = AXIS2_PLACEMENT_3D ( 'NONE', #32, #232, #109 ) ;
#127 =( LENGTH_UNIT ( ) NAMED_UNIT ( * ) SI_UNIT ( .MILLI., .METRE. ) );
#128 = DIRECTION ( 'NONE',  ( -0.000000000000000000, -1.000000000000000000, -0.000000000000000000 ) ) ;
#129 = AXIS2_PLACEMENT_3D ( 'NONE', #134, #100, #99 ) ;
#130 = EDGE_LOOP ( 'NONE', ( #262, #42, #213, #96 ) ) ;
#131 = DIRECTION ( 'NONE',  ( 0.000000000000000000, 0.000000000000000000, -1.000000000000000000 ) ) ;
#132 = DIRECTION ( 'NONE',  ( 0.000000000000000000, 0.000000000000000000, -1.000000000000000000 ) ) ;
#133 = CONICAL_SURFACE ( 'NONE', #19, 3.199999999999999734, 1.439968930720839868 ) ;
#134 = CARTESIAN_POINT ( 'NONE',  ( 0.000000000000000000, 2.541098841762901017E-18, 0.000000000000000000 ) ) ;
#135 = FACE_OUTER_BOUND ( 'NONE', #130, .T. ) ;
#136 = CARTESIAN_POINT ( 'NONE',  ( 0.000000000000000000, 0.000000000000000000, 0.000000000000000000 ) ) ;
#137 = DIRECTION ( 'NONE',  ( 0.000000000000000000, 0.000000000000000000, -1.000000000000000000 ) ) ;
#138 = PRODUCT_DEFINITION_CONTEXT ( 'detailed design', #182, 'design' ) ;
#139 = DIRECTION ( 'NONE',  ( -0.000000000000000000, -1.000000000000000000, -0.000000000000000000 ) ) ;
#140 = DIRECTION ( 'NONE',  ( -0.000000000000000000, -1.000000000000000000, -0.000000000000000000 ) ) ;
#141 = DIRECTION ( 'NONE',  ( 0.000000000000000000, 0.000000000000000000, -1.000000000000000000 ) ) ;
#142 = AXIS2_PLACEMENT_3D ( 'NONE', #117, #185, #26 ) ;
#143 =( NAMED_UNIT ( * ) SI_UNIT ( $, .STERADIAN. ) SOLID_ANGLE_UNIT ( ) );
#144 = EDGE_LOOP ( 'NONE', ( #219, #65, #230, #177 ) ) ;
#145 = VERTEX_POINT ( 'NONE', #273 ) ;
#146 = EDGE_CURVE ( 'NONE', #46, #197, #27, .T. ) ;
#147 = AXIS2_PLACEMENT_3D ( 'NONE', #136, #105, #137 ) ;
#148 = CARTESIAN_POINT ( 'NONE',  ( 0.000000000000000000, 0.000000000000000000, -7.000000000000000000 ) ) ;
#149 = ORIENTED_EDGE ( 'NONE', *, *, #162, .T. ) ;
#150 = ADVANCED_FACE ( 'NONE', ( #228 ), #174, .T. ) ;
#151 = AXIS2_PLACEMENT_3D ( 'NONE', #86, #140, #107 ) ;
#152 = ORIENTED_EDGE ( 'NONE', *, *, #260, .F. ) ;
#153 = DIRECTION ( 'NONE',  ( -0.000000000000000000, -1.000000000000000000, -0.000000000000000000 ) ) ;
#154 = CARTESIAN_POINT ( 'NONE',  ( 3.918869757271529967E-16, 0.4870709555207790586, 3.199999999999999734 ) ) ;
#155 = AXIS2_PLACEMENT_3D ( 'NONE', #38, #128, #190 ) ;
#156 = FACE_BOUND ( 'NONE', #263, .T. ) ;
#157 = DIRECTION ( 'NONE',  ( 1.214181329537070139E-16, -0.1304545125713873210, 0.9914542955425437176 ) ) ;
#158 = UNCERTAINTY_MEASURE_WITH_UNIT (LENGTH_MEASURE( 1.000000000000000082E-05 ), #5, 'distance_accuracy_value', 'NONE');
#159 = DIRECTION ( 'NONE',  ( -0.000000000000000000, -1.000000000000000000, -0.000000000000000000 ) ) ;
#160 = PRESENTATION_LAYER_ASSIGNMENT (  '', '', ( #188 ) ) ;
#161 =( NAMED_UNIT ( * ) PLANE_ANGLE_UNIT ( ) SI_UNIT ( $, .RADIAN. ) );
#162 = EDGE_CURVE ( 'NONE', #266, #265, #227, .T. ) ;
#163 =( GEOMETRIC_REPRESENTATION_CONTEXT ( 3 ) GLOBAL_UNCERTAINTY_ASSIGNED_CONTEXT ( ( #158 ) ) GLOBAL_UNIT_ASSIGNED_CONTEXT ( ( #5, #93, #264 ) ) REPRESENTATION_CONTEXT ( 'NONE', 'WORKASPACE' ) );
#164 = CARTESIAN_POINT ( 'NONE',  ( 0.000000000000000000, 0.000000000000000000, 0.000000000000000000 ) ) ;
#165 = DIRECTION ( 'NONE',  ( -0.000000000000000000, -1.000000000000000000, -0.000000000000000000 ) ) ;
#166 = CARTESIAN_POINT ( 'NONE',  ( 0.000000000000000000, 1.500000000000000000, -7.000000000000000000 ) ) ;
#167 = CONICAL_SURFACE ( 'NONE', #90, 3.199999999999999734, 1.439968930720839868 ) ;
#168 = CARTESIAN_POINT ( 'NONE',  ( 0.000000000000000000, 0.4870709555207790586, 0.000000000000000000 ) ) ;
#169 = ORIENTED_EDGE ( 'NONE', *, *, #260, .T. ) ;
#170 = EDGE_CURVE ( 'NONE', #197, #115, #57, .T. ) ;
#171 = VERTEX_POINT ( 'NONE', #199 ) ;
#172 = PRODUCT_DEFINITION ( 'UNKNOWN', '', #30, #138 ) ;
#173 = EDGE_LOOP ( 'NONE', ( #114, #89, #175, #33 ) ) ;
#174 = CONICAL_SURFACE ( 'NONE', #142, 7.000000000000000000, 1.439968930720839646 ) ;
#175 = ORIENTED_EDGE ( 'NONE', *, *, #281, .T. ) ;
#176 = EDGE_CURVE ( 'NONE', #265, #266, #256, .T. ) ;
#177 = ORIENTED_EDGE ( 'NONE', *, *, #176, .F. ) ;
#178 = COLOUR_RGB ( '',0.7529411764705882248, 0.7529411764705882248, 0.7529411764705882248 ) ;
#179 = CARTESIAN_POINT ( 'NONE',  ( 0.000000000000000000, 0.000000000000000000, -7.000000000000000000 ) ) ;
#180 = CARTESIAN_POINT ( 'NONE',  ( 0.000000000000000000, 1.500000000000000000, 0.000000000000000000 ) ) ;
#181 = DIRECTION ( 'NONE',  ( -0.000000000000000000, -1.000000000000000000, -0.000000000000000000 ) ) ;
#182 = APPLICATION_CONTEXT ( 'automotive_design' ) ;
#183 = AXIS2_PLACEMENT_3D ( 'NONE', #243, #211, #17 ) ;
#184 = DIRECTION ( 'NONE',  ( -0.000000000000000000, -1.000000000000000000, -0.000000000000000000 ) ) ;
#185 = DIRECTION ( 'NONE',  ( -0.000000000000000000, -1.000000000000000000, -0.000000000000000000 ) ) ;
#186 = ADVANCED_FACE ( 'NONE', ( #120 ), #119, .T. ) ;
#187 = DIRECTION ( 'NONE',  ( -0.000000000000000000, -1.000000000000000000, -0.000000000000000000 ) ) ;
#188 = STYLED_ITEM ( 'NONE', ( #207 ), #284 ) ;
#189 = UNCERTAINTY_MEASURE_WITH_UNIT (LENGTH_MEASURE( 1.000000000000000082E-05 ), #127, 'distance_accuracy_value', 'NONE');
#190 = DIRECTION ( 'NONE',  ( 0.000000000000000000, 0.000000000000000000, -1.000000000000000000 ) ) ;
#191 = FILL_AREA_STYLE_COLOUR ( '', #7 ) ;
#192 =( LENGTH_UNIT ( ) NAMED_UNIT ( * ) SI_UNIT ( .MILLI., .METRE. ) );
#193 = CARTESIAN_POINT ( 'NONE',  ( 0.000000000000000000, 0.000000000000000000, 0.000000000000000000 ) ) ;
#194 = ORIENTED_EDGE ( 'NONE', *, *, #195, .F. ) ;
#195 = EDGE_CURVE ( 'NONE', #265, #215, #9, .T. ) ;
#196 = EDGE_LOOP ( 'NONE', ( #244, #20, #6, #73 ) ) ;
#197 = VERTEX_POINT ( 'NONE', #154 ) ;
#198 = VECTOR ( 'NONE', #24, 1000.000000000000114 ) ;
#199 = CARTESIAN_POINT ( 'NONE',  ( 0.000000000000000000, 0.4870709555207790586, -3.199999999999999734 ) ) ;
#200 = DIRECTION ( 'NONE',  ( -0.000000000000000000, -1.000000000000000000, -0.000000000000000000 ) ) ;
#201 = CARTESIAN_POINT ( 'NONE',  ( 8.572527594031473190E-16, 0.000000000000000000, 7.000000000000000000 ) ) ;
#202 = ADVANCED_FACE ( 'NONE', ( #275 ), #82, .T. ) ;
#203 = CIRCLE ( 'NONE', #151, 3.199999999999999734 ) ;
#204 = CYLINDRICAL_SURFACE ( 'NONE', #233, 3.199999999999999734 ) ;
#205 = DIRECTION ( 'NONE',  ( 0.000000000000000000, 0.000000000000000000, -1.000000000000000000 ) ) ;
#206 = VECTOR ( 'NONE', #271, 1000.000000000000000 ) ;
#207 = PRESENTATION_STYLE_ASSIGNMENT (( #34 ) ) ;
#208 = SURFACE_STYLE_FILL_AREA ( #277 ) ;
#209 = ORIENTED_EDGE ( 'NONE', *, *, #170, .F. ) ;
#210 = EDGE_CURVE ( 'NONE', #266, #61, #98, .T. ) ;
#211 = DIRECTION ( 'NONE',  ( 0.000000000000000000, 0.000000000000000000, 1.000000000000000000 ) ) ;
#212 = AXIS2_PLACEMENT_3D ( 'NONE', #123, #225, #205 ) ;
#213 = ORIENTED_EDGE ( 'NONE', *, *, #66, .T. ) ;
#214 = PRODUCT_RELATED_PRODUCT_CATEGORY ( 'part', '', ( #237 ) ) ;
#215 = VERTEX_POINT ( 'NONE', #62 ) ;
#216 = EDGE_LOOP ( 'NONE', ( #149, #252, #3, #239 ) ) ;
#217 = ORIENTED_EDGE ( 'NONE', *, *, #21, .T. ) ;
#218 = ORIENTED_EDGE ( 'NONE', *, *, #44, .F. ) ;
#219 = ORIENTED_EDGE ( 'NONE', *, *, #72, .F. ) ;
#220 = EDGE_CURVE ( 'NONE', #46, #94, #11, .T. ) ;
#221 = DIRECTION ( 'NONE',  ( -0.000000000000000000, -1.000000000000000000, -0.000000000000000000 ) ) ;
#222 = DIRECTION ( 'NONE',  ( 0.000000000000000000, 0.000000000000000000, -1.000000000000000000 ) ) ;
#223 = ADVANCED_FACE ( 'NONE', ( #37 ), #167, .F. ) ;
#224 = CARTESIAN_POINT ( 'NONE',  ( 0.000000000000000000, 0.000000000000000000, 0.000000000000000000 ) ) ;
#225 = DIRECTION ( 'NONE',  ( -0.000000000000000000, -1.000000000000000000, -0.000000000000000000 ) ) ;
#226 = ADVANCED_FACE ( 'NONE', ( #15 ), #35, .T. ) ;
#227 = CIRCLE ( 'NONE', #48, 7.000000000000000000 ) ;
#228 = FACE_OUTER_BOUND ( 'NONE', #67, .T. ) ;
#229 = CYLINDRICAL_SURFACE ( 'NONE', #251, 3.199999999999999734 ) ;
#230 = ORIENTED_EDGE ( 'NONE', *, *, #44, .T. ) ;
#231 = SURFACE_SIDE_STYLE ('',( #208 ) ) ;
#232 = DIRECTION ( 'NONE',  ( -0.000000000000000000, -1.000000000000000000, -0.000000000000000000 ) ) ;
#233 = AXIS2_PLACEMENT_3D ( 'NONE', #224, #221, #132 ) ;
#234 = ORIENTED_EDGE ( 'NONE', *, *, #118, .F. ) ;
#235 = PRESENTATION_STYLE_ASSIGNMENT (( #68 ) ) ;
#236 = CARTESIAN_POINT ( 'NONE',  ( 0.000000000000000000, 1.500000000000000000, -7.000000000000000000 ) ) ;
#237 = PRODUCT ( 'FO-00D-WD-M6-020 FORMAT \X2\04280430043904310430\X0\ \X2\041c\X0\6 \X2\0442043004400435043b044c0447043004420430044f\X0\ \X2\043f0440044304360438043d\X0\. DIN6796 (20\X2\04480442\X0\_\X2\0443043f0430043a\X0\) IEK', 'FO-00D-WD-M6-020 FORMAT \X2\04280430043904310430\X0\ \X2\041c\X0\6 \X2\0442043004400435043b044c0447043004420430044f\X0\ \X2\043f0440044304360438043d\X0\. DIN6796 (20\X2\04480442\X0\_\X2\0443043f0430043a\X0\) IEK', '', ( #238 ) ) ;
#238 = PRODUCT_CONTEXT ( 'NONE', #257, 'mechanical' ) ;
#239 = ORIENTED_EDGE ( 'NONE', *, *, #210, .F. ) ;
#240 = APPLICATION_PROTOCOL_DEFINITION ( 'draft international standard', 'automotive_design', 1998, #257 ) ;
#241 = ORIENTED_EDGE ( 'NONE', *, *, #210, .T. ) ;
#242 = VECTOR ( 'NONE', #200, 1000.000000000000000 ) ;
#243 = CARTESIAN_POINT ( 'NONE',  ( 0.000000000000000000, 0.000000000000000000, 0.000000000000000000 ) ) ;
#244 = ORIENTED_EDGE ( 'NONE', *, *, #66, .F. ) ;
#245 = EDGE_CURVE ( 'NONE', #171, #197, #203, .T. ) ;
#246 = LINE ( 'NONE', #249, #198 ) ;
#247 = CARTESIAN_POINT ( 'NONE',  ( 3.918869757271529967E-16, 0.4870709555207790586, 3.199999999999999734 ) ) ;
#248 = CARTESIAN_POINT ( 'NONE',  ( 0.000000000000000000, 2.000000000000000000, -3.199999999999999734 ) ) ;
#249 = CARTESIAN_POINT ( 'NONE',  ( 0.000000000000000000, 0.4870709555207790586, -3.199999999999999734 ) ) ;
#250 = DIRECTION ( 'NONE',  ( 0.000000000000000000, 0.000000000000000000, -1.000000000000000000 ) ) ;
#251 = AXIS2_PLACEMENT_3D ( 'NONE', #88, #165, #141 ) ;
#252 = ORIENTED_EDGE ( 'NONE', *, *, #195, .T. ) ;
#253 = DIRECTION ( 'NONE',  ( 0.000000000000000000, 0.000000000000000000, -1.000000000000000000 ) ) ;
#254 = ORIENTED_EDGE ( 'NONE', *, *, #279, .T. ) ;
#255 = CARTESIAN_POINT ( 'NONE',  ( 0.000000000000000000, 1.500000000000000000, 0.000000000000000000 ) ) ;
#256 = CIRCLE ( 'NONE', #53, 7.000000000000000000 ) ;
#257 = APPLICATION_CONTEXT ( 'automotive_design' ) ;
#258 =( NAMED_UNIT ( * ) SI_UNIT ( $, .STERADIAN. ) SOLID_ANGLE_UNIT ( ) );
#259 = UNCERTAINTY_MEASURE_WITH_UNIT (LENGTH_MEASURE( 1.000000000000000082E-05 ), #192, 'distance_accuracy_value', 'NONE');
#260 = EDGE_CURVE ( 'NONE', #215, #61, #25, .T. ) ;
#261 = DIRECTION ( 'NONE',  ( -0.000000000000000000, -1.000000000000000000, -0.000000000000000000 ) ) ;
#262 = ORIENTED_EDGE ( 'NONE', *, *, #220, .F. ) ;
#263 = EDGE_LOOP ( 'NONE', ( #95, #234 ) ) ;
#264 =( NAMED_UNIT ( * ) SI_UNIT ( $, .STERADIAN. ) SOLID_ANGLE_UNIT ( ) );
#265 = VERTEX_POINT ( 'NONE', #87 ) ;
#266 = VERTEX_POINT ( 'NONE', #166 ) ;
#267 = ADVANCED_FACE ( 'NONE', ( #60 ), #229, .F. ) ;
#268 = SURFACE_SIDE_STYLE ('',( #2 ) ) ;
#269 = DIRECTION ( 'NONE',  ( -0.000000000000000000, -1.000000000000000000, -0.000000000000000000 ) ) ;
#270 = CLOSED_SHELL ( 'NONE', ( #186, #77, #124, #150, #226, #267, #223, #69, #202 ) ) ;
#271 = DIRECTION ( 'NONE',  ( -0.000000000000000000, -1.000000000000000000, -0.000000000000000000 ) ) ;
#272 = PLANE ( 'NONE',  #278 ) ;
#273 = CARTESIAN_POINT ( 'NONE',  ( 0.000000000000000000, 2.541098841762901017E-18, -6.901739261957927418 ) ) ;
#274 = MECHANICAL_DESIGN_GEOMETRIC_PRESENTATION_REPRESENTATION (  '', ( #188 ), #79 ) ;
#275 = FACE_OUTER_BOUND ( 'NONE', #112, .T. ) ;
#276 = DIRECTION ( 'NONE',  ( 0.000000000000000000, -1.000000000000000000, -0.000000000000000000 ) ) ;
#277 = FILL_AREA_STYLE ('',( #191 ) ) ;
#278 = AXIS2_PLACEMENT_3D ( 'NONE', #55, #276, #31 ) ;
#279 = EDGE_CURVE ( 'NONE', #145, #115, #29, .T. ) ;
#280 =( NAMED_UNIT ( * ) PLANE_ANGLE_UNIT ( ) SI_UNIT ( $, .RADIAN. ) );
#281 = EDGE_CURVE ( 'NONE', #94, #171, #59, .T. ) ;
#282 = VECTOR ( 'NONE', #1, 1000.000000000000114 ) ;
#283 = FILL_AREA_STYLE_COLOUR ( '', #178 ) ;
#284 = MANIFOLD_SOLID_BREP ( 'Ïîâåðíóòü1', #270 ) ;
ENDSEC;
END-ISO-10303-21;
