ISO-10303-21;
HEADER;
FILE_DESCRIPTION (( 'STEP AP214' ),
    '1' );
FILE_NAME ('FO-00D-WD-M12-020 FORMAT Øàéáà Ì12 òàðåëü÷àòàÿ ïðóæèí. DIN6796 (20øò_óïàê) IEK.STEP',
    '2024-07-03T11:25:50',
    ( '' ),
    ( '' ),
    'SwSTEP 2.0',
    'SolidWorks 2022',
    '' );
FILE_SCHEMA (( 'AUTOMOTIVE_DESIGN' ));
ENDSEC;

DATA;
#1 = DIRECTION ( 'NONE',  ( 0.000000000000000000, 0.000000000000000000, -1.000000000000000000 ) ) ;
#2 = FACE_OUTER_BOUND ( 'NONE', #9, .T. ) ;
#3 = CARTESIAN_POINT ( 'NONE',  ( 0.000000000000000000, 2.899999999999999911, 0.000000000000000000 ) ) ;
#4 = APPLICATION_CONTEXT ( 'automotive_design' ) ;
#5 = FACE_OUTER_BOUND ( 'NONE', #57, .T. ) ;
#6 = EDGE_CURVE ( 'NONE', #209, #278, #217, .T. ) ;
#7 = EDGE_CURVE ( 'NONE', #234, #79, #56, .T. ) ;
#8 = AXIS2_PLACEMENT_3D ( 'NONE', #88, #267, #266 ) ;
#9 = EDGE_LOOP ( 'NONE', ( #231, #77, #173, #76 ) ) ;
#10 = CARTESIAN_POINT ( 'NONE',  ( 0.000000000000000000, 0.000000000000000000, 0.000000000000000000 ) ) ;
#11 = AXIS2_PLACEMENT_3D ( 'NONE', #3, #238, #62 ) ;
#12 = STYLED_ITEM ( 'NONE', ( #161 ), #205 ) ;
#13 = ORIENTED_EDGE ( 'NONE', *, *, #172, .T. ) ;
#14 = ORIENTED_EDGE ( 'NONE', *, *, #43, .F. ) ;
#15 = DIRECTION ( 'NONE',  ( 0.000000000000000000, 0.000000000000000000, -1.000000000000000000 ) ) ;
#16 = ORIENTED_EDGE ( 'NONE', *, *, #7, .F. ) ;
#17 = EDGE_LOOP ( 'NONE', ( #59, #122, #103, #13 ) ) ;
#18 = CARTESIAN_POINT ( 'NONE',  ( 0.000000000000000000, 2.899999999999999911, -14.50000000000000000 ) ) ;
#19 = EDGE_CURVE ( 'NONE', #125, #105, #136, .T. ) ;
#20 = CARTESIAN_POINT ( 'NONE',  ( 0.000000000000000000, 3.950000000000000178, 0.000000000000000000 ) ) ;
#21 = CONICAL_SURFACE ( 'NONE', #230, 6.499999999999999112, 1.440292293684508396 ) ;
#22 = FILL_AREA_STYLE ('',( #49 ) ) ;
#23 = PRODUCT_DEFINITION_CONTEXT ( 'detailed design', #4, 'design' ) ;
#24 = CARTESIAN_POINT ( 'NONE',  ( 7.960204194457794491E-16, 0.9242704908567919153, 6.499999999999999112 ) ) ;
#25 = CARTESIAN_POINT ( 'NONE',  ( 0.000000000000000000, 0.000000000000000000, 0.000000000000000000 ) ) ;
#26 = STYLED_ITEM ( 'NONE', ( #91 ), #92 ) ;
#27 = COLOUR_RGB ( '',0.7529411764705882248, 0.7529411764705882248, 0.7529411764705882248 ) ;
#28 = CARTESIAN_POINT ( 'NONE',  ( 0.000000000000000000, 0.9242704908567919153, -6.499999999999999112 ) ) ;
#29 = SURFACE_STYLE_USAGE ( .BOTH. , #268 ) ;
#30 = CARTESIAN_POINT ( 'NONE',  ( 0.000000000000000000, 0.9242704908567919153, 0.000000000000000000 ) ) ;
#31 = CIRCLE ( 'NONE', #178, 13.54206088271841502 ) ;
#32 = PRODUCT_DEFINITION_SHAPE ( 'NONE', 'NONE',  #78 ) ;
#33 = ORIENTED_EDGE ( 'NONE', *, *, #119, .T. ) ;
#34 = ADVANCED_FACE ( 'NONE', ( #67 ), #264, .T. ) ;
#35 = CARTESIAN_POINT ( 'NONE',  ( 0.000000000000000000, 3.950000000000000178, -6.499999999999999112 ) ) ;
#36 = ORIENTED_EDGE ( 'NONE', *, *, #138, .F. ) ;
#37 = ORIENTED_EDGE ( 'NONE', *, *, #138, .T. ) ;
#38 = VERTEX_POINT ( 'NONE', #198 ) ;
#39 = PRODUCT ( 'FO-00D-WD-M12-020 FORMAT \X2\04280430043904310430\X0\ \X2\041c\X0\12 \X2\0442043004400435043b044c0447043004420430044f\X0\ \X2\043f0440044304360438043d\X0\. DIN6796 (20\X2\04480442\X0\_\X2\0443043f0430043a\X0\) IEK', 'FO-00D-WD-M12-020 FORMAT \X2\04280430043904310430\X0\ \X2\041c\X0\12 \X2\0442043004400435043b044c0447043004420430044f\X0\ \X2\043f0440044304360438043d\X0\. DIN6796 (20\X2\04480442\X0\_\X2\0443043f0430043a\X0\) IEK', '', ( #250 ) ) ;
#40 = SURFACE_STYLE_USAGE ( .BOTH. , #137 ) ;
#41 = FILL_AREA_STYLE_COLOUR ( '', #50 ) ;
#42 =( NAMED_UNIT ( * ) SI_UNIT ( $, .STERADIAN. ) SOLID_ANGLE_UNIT ( ) );
#43 = EDGE_CURVE ( 'NONE', #237, #234, #253, .T. ) ;
#44 = FILL_AREA_STYLE ('',( #41 ) ) ;
#45 = MECHANICAL_DESIGN_GEOMETRIC_PRESENTATION_REPRESENTATION (  '', ( #26 ), #112 ) ;
#46 = DIRECTION ( 'NONE',  ( -0.000000000000000000, -1.000000000000000000, -0.000000000000000000 ) ) ;
#47 = DIRECTION ( 'NONE',  ( -0.000000000000000000, -1.000000000000000000, -0.000000000000000000 ) ) ;
#48 = DIRECTION ( 'NONE',  ( -0.000000000000000000, -1.000000000000000000, -0.000000000000000000 ) ) ;
#49 = FILL_AREA_STYLE_COLOUR ( '', #27 ) ;
#50 = COLOUR_RGB ( '',0.7529411764705882248, 0.7529411764705882248, 0.7529411764705882248 ) ;
#51 = DIRECTION ( 'NONE',  ( 0.000000000000000000, 0.000000000000000000, -1.000000000000000000 ) ) ;
#52 = EDGE_CURVE ( 'NONE', #234, #237, #64, .T. ) ;
#53 = CARTESIAN_POINT ( 'NONE',  ( 0.000000000000000000, 2.899999999999999911, 0.000000000000000000 ) ) ;
#54 = CLOSED_SHELL ( 'NONE', ( #34, #143, #123, #170, #236, #197, #156, #148, #232 ) ) ;
#55 = AXIS2_PLACEMENT_3D ( 'NONE', #201, #218, #15 ) ;
#56 = LINE ( 'NONE', #177, #142 ) ;
#57 = EDGE_LOOP ( 'NONE', ( #169, #98, #259, #16 ) ) ;
#58 = CARTESIAN_POINT ( 'NONE',  ( 7.960204194457794491E-16, 0.9242704908567919153, 6.499999999999999112 ) ) ;
#59 = ORIENTED_EDGE ( 'NONE', *, *, #87, .F. ) ;
#60 = ORIENTED_EDGE ( 'NONE', *, *, #119, .F. ) ;
#61 = UNCERTAINTY_MEASURE_WITH_UNIT (LENGTH_MEASURE( 1.000000000000000082E-05 ), #86, 'distance_accuracy_value', 'NONE');
#62 = DIRECTION ( 'NONE',  ( 0.000000000000000000, 0.000000000000000000, -1.000000000000000000 ) ) ;
#63 = DIRECTION ( 'NONE',  ( 0.000000000000000000, 0.000000000000000000, -1.000000000000000000 ) ) ;
#64 = CIRCLE ( 'NONE', #129, 6.499999999999999112 ) ;
#65 = SURFACE_STYLE_FILL_AREA ( #44 ) ;
#66 = DIRECTION ( 'NONE',  ( 1.214232926750416604E-16, -0.1301339061572286959, 0.9914964278645997942 ) ) ;
#67 = FACE_OUTER_BOUND ( 'NONE', #193, .T. ) ;
#68 = AXIS2_PLACEMENT_3D ( 'NONE', #182, #271, #69 ) ;
#69 = DIRECTION ( 'NONE',  ( 0.000000000000000000, 0.000000000000000000, -1.000000000000000000 ) ) ;
#70 = DIRECTION ( 'NONE',  ( 0.000000000000000000, 0.000000000000000000, -1.000000000000000000 ) ) ;
#71 = DIRECTION ( 'NONE',  ( -0.000000000000000000, -1.000000000000000000, -0.000000000000000000 ) ) ;
#72 = VECTOR ( 'NONE', #200, 1000.000000000000000 ) ;
#73 = AXIS2_PLACEMENT_3D ( 'NONE', #226, #187, #229 ) ;
#74 = FACE_OUTER_BOUND ( 'NONE', #188, .T. ) ;
#75 = ORIENTED_EDGE ( 'NONE', *, *, #19, .F. ) ;
#76 = ORIENTED_EDGE ( 'NONE', *, *, #159, .F. ) ;
#77 = ORIENTED_EDGE ( 'NONE', *, *, #43, .T. ) ;
#78 = PRODUCT_DEFINITION ( 'UNKNOWN', '', #109, #23 ) ;
#79 = VERTEX_POINT ( 'NONE', #18 ) ;
#80 = APPLICATION_CONTEXT ( 'automotive_design' ) ;
#81 = VECTOR ( 'NONE', #275, 1000.000000000000000 ) ;
#82 = ORIENTED_EDGE ( 'NONE', *, *, #247, .F. ) ;
#83 = EDGE_CURVE ( 'NONE', #105, #125, #265, .T. ) ;
#84 = DIRECTION ( 'NONE',  ( 0.000000000000000000, 0.000000000000000000, -1.000000000000000000 ) ) ;
#85 = LINE ( 'NONE', #24, #245 ) ;
#86 =( LENGTH_UNIT ( ) NAMED_UNIT ( * ) SI_UNIT ( .MILLI., .METRE. ) );
#87 = EDGE_CURVE ( 'NONE', #237, #233, #222, .T. ) ;
#88 = CARTESIAN_POINT ( 'NONE',  ( 0.000000000000000000, 0.000000000000000000, 0.000000000000000000 ) ) ;
#89 = VECTOR ( 'NONE', #48, 1000.000000000000000 ) ;
#90 = CARTESIAN_POINT ( 'NONE',  ( 0.000000000000000000, 0.000000000000000000, 0.000000000000000000 ) ) ;
#91 = PRESENTATION_STYLE_ASSIGNMENT (( #40 ) ) ;
#92 = MANIFOLD_SOLID_BREP ( 'Ïîâåðíóòü1', #54 ) ;
#93 = FACE_OUTER_BOUND ( 'NONE', #166, .T. ) ;
#94 = DIRECTION ( 'NONE',  ( 0.000000000000000000, 0.000000000000000000, -1.000000000000000000 ) ) ;
#95 = SURFACE_STYLE_FILL_AREA ( #22 ) ;
#96 = AXIS2_PLACEMENT_3D ( 'NONE', #10, #279, #258 ) ;
#97 = CARTESIAN_POINT ( 'NONE',  ( 0.000000000000000000, 0.000000000000000000, -14.50000000000000000 ) ) ;
#98 = ORIENTED_EDGE ( 'NONE', *, *, #228, .T. ) ;
#99 = CIRCLE ( 'NONE', #11, 14.50000000000000000 ) ;
#100 = EDGE_LOOP ( 'NONE', ( #82, #36 ) ) ;
#101 = ORIENTED_EDGE ( 'NONE', *, *, #19, .T. ) ;
#102 = EDGE_CURVE ( 'NONE', #234, #209, #131, .T. ) ;
#103 = ORIENTED_EDGE ( 'NONE', *, *, #102, .T. ) ;
#104 = CIRCLE ( 'NONE', #55, 13.54206088271841502 ) ;
#105 = VERTEX_POINT ( 'NONE', #155 ) ;
#106 = DIRECTION ( 'NONE',  ( 0.000000000000000000, 0.000000000000000000, -1.000000000000000000 ) ) ;
#107 = DIRECTION ( 'NONE',  ( 0.000000000000000000, 0.000000000000000000, -1.000000000000000000 ) ) ;
#108 = DIRECTION ( 'NONE',  ( -0.000000000000000000, -1.000000000000000000, -0.000000000000000000 ) ) ;
#109 = PRODUCT_DEFINITION_FORMATION_WITH_SPECIFIED_SOURCE ( 'ANY', '', #39, .NOT_KNOWN. ) ;
#110 =( LENGTH_UNIT ( ) NAMED_UNIT ( * ) SI_UNIT ( .MILLI., .METRE. ) );
#111 = DIRECTION ( 'NONE',  ( 0.000000000000000000, 0.000000000000000000, -1.000000000000000000 ) ) ;
#112 =( GEOMETRIC_REPRESENTATION_CONTEXT ( 3 ) GLOBAL_UNCERTAINTY_ASSIGNED_CONTEXT ( ( #127 ) ) GLOBAL_UNIT_ASSIGNED_CONTEXT ( ( #110, #152, #269 ) ) REPRESENTATION_CONTEXT ( 'NONE', 'WORKASPACE' ) );
#113 = CONICAL_SURFACE ( 'NONE', #220, 14.50000000000000000, 1.440292293684508396 ) ;
#114 = DIRECTION ( 'NONE',  ( -0.000000000000000000, -1.000000000000000000, -0.000000000000000000 ) ) ;
#115 = DIRECTION ( 'NONE',  ( 1.000000000000000000, 0.000000000000000000, 0.000000000000000000 ) ) ;
#116 = DIRECTION ( 'NONE',  ( 0.000000000000000000, 0.000000000000000000, 1.000000000000000000 ) ) ;
#117 = ORIENTED_EDGE ( 'NONE', *, *, #191, .T. ) ;
#118 = SHAPE_DEFINITION_REPRESENTATION ( #32, #205 ) ;
#119 = EDGE_CURVE ( 'NONE', #233, #281, #85, .T. ) ;
#120 = PRESENTATION_LAYER_ASSIGNMENT (  '', '', ( #26 ) ) ;
#121 = MECHANICAL_DESIGN_GEOMETRIC_PRESENTATION_REPRESENTATION (  '', ( #12 ), #167 ) ;
#122 = ORIENTED_EDGE ( 'NONE', *, *, #52, .F. ) ;
#123 = ADVANCED_FACE ( 'NONE', ( #243 ), #196, .F. ) ;
#124 = ORIENTED_EDGE ( 'NONE', *, *, #180, .T. ) ;
#125 = VERTEX_POINT ( 'NONE', #139 ) ;
#126 = CARTESIAN_POINT ( 'NONE',  ( 1.285879139104720633E-15, 3.950000000000000178, 6.499999999999999112 ) ) ;
#127 = UNCERTAINTY_MEASURE_WITH_UNIT (LENGTH_MEASURE( 1.000000000000000082E-05 ), #110, 'distance_accuracy_value', 'NONE');
#128 = AXIS2_PLACEMENT_3D ( 'NONE', #273, #272, #70 ) ;
#129 = AXIS2_PLACEMENT_3D ( 'NONE', #20, #179, #158 ) ;
#130 = CARTESIAN_POINT ( 'NONE',  ( 0.000000000000000000, 0.9242704908567919153, 0.000000000000000000 ) ) ;
#131 = LINE ( 'NONE', #284, #72 ) ;
#132 = EDGE_CURVE ( 'NONE', #79, #38, #99, .T. ) ;
#133 = CARTESIAN_POINT ( 'NONE',  ( 1.658424151387968695E-15, 0.000000000000000000, 13.54206088271841324 ) ) ;
#134 = CARTESIAN_POINT ( 'NONE',  ( 0.000000000000000000, 3.950000000000000178, 0.000000000000000000 ) ) ;
#135 =( LENGTH_UNIT ( ) NAMED_UNIT ( * ) SI_UNIT ( .MILLI., .METRE. ) );
#136 = CIRCLE ( 'NONE', #8, 14.50000000000000000 ) ;
#137 = SURFACE_SIDE_STYLE ('',( #65 ) ) ;
#138 = EDGE_CURVE ( 'NONE', #281, #278, #31, .T. ) ;
#139 = CARTESIAN_POINT ( 'NONE',  ( 1.775737858763662015E-15, 0.000000000000000000, 14.50000000000000000 ) ) ;
#140 = DIRECTION ( 'NONE',  ( 0.000000000000000000, 0.000000000000000000, -1.000000000000000000 ) ) ;
#141 = FACE_OUTER_BOUND ( 'NONE', #17, .T. ) ;
#142 = VECTOR ( 'NONE', #181, 1000.000000000000000 ) ;
#143 = ADVANCED_FACE ( 'NONE', ( #262 ), #277, .F. ) ;
#144 = CARTESIAN_POINT ( 'NONE',  ( 0.000000000000000000, 0.9242704908567919153, 0.000000000000000000 ) ) ;
#145 = CARTESIAN_POINT ( 'NONE',  ( 1.775737858763662015E-15, 0.000000000000000000, 14.50000000000000000 ) ) ;
#146 = ORIENTED_EDGE ( 'NONE', *, *, #83, .F. ) ;
#147 = ORIENTED_EDGE ( 'NONE', *, *, #159, .T. ) ;
#148 = ADVANCED_FACE ( 'NONE', ( #93, #207 ), #183, .T. ) ;
#149 = CIRCLE ( 'NONE', #270, 14.50000000000000000 ) ;
#150 = ORIENTED_EDGE ( 'NONE', *, *, #180, .F. ) ;
#151 = ORIENTED_EDGE ( 'NONE', *, *, #83, .T. ) ;
#152 =( NAMED_UNIT ( * ) PLANE_ANGLE_UNIT ( ) SI_UNIT ( $, .RADIAN. ) );
#153 = VECTOR ( 'NONE', #162, 1000.000000000000000 ) ;
#154 = AXIS2_PLACEMENT_3D ( 'NONE', #25, #116, #115 ) ;
#155 = CARTESIAN_POINT ( 'NONE',  ( 0.000000000000000000, 0.000000000000000000, -14.50000000000000000 ) ) ;
#156 = ADVANCED_FACE ( 'NONE', ( #185 ), #21, .F. ) ;
#157 = CARTESIAN_POINT ( 'NONE',  ( 7.960204194457794491E-16, 0.000000000000000000, 6.499999999999999112 ) ) ;
#158 = DIRECTION ( 'NONE',  ( 0.000000000000000000, 0.000000000000000000, -1.000000000000000000 ) ) ;
#159 = EDGE_CURVE ( 'NONE', #38, #79, #149, .T. ) ;
#160 = DIRECTION ( 'NONE',  ( -0.000000000000000000, -1.000000000000000000, -0.000000000000000000 ) ) ;
#161 = PRESENTATION_STYLE_ASSIGNMENT (( #29 ) ) ;
#162 = DIRECTION ( 'NONE',  ( -0.000000000000000000, -1.000000000000000000, -0.000000000000000000 ) ) ;
#163 = DIRECTION ( 'NONE',  ( -0.000000000000000000, -1.000000000000000000, -0.000000000000000000 ) ) ;
#164 = APPLICATION_PROTOCOL_DEFINITION ( 'draft international standard', 'automotive_design', 1998, #4 ) ;
#165 = CARTESIAN_POINT ( 'NONE',  ( 0.000000000000000000, 0.9242704908567919153, 0.000000000000000000 ) ) ;
#166 = EDGE_LOOP ( 'NONE', ( #151, #101 ) ) ;
#167 =( GEOMETRIC_REPRESENTATION_CONTEXT ( 3 ) GLOBAL_UNCERTAINTY_ASSIGNED_CONTEXT ( ( #251 ) ) GLOBAL_UNIT_ASSIGNED_CONTEXT ( ( #135, #203, #184 ) ) REPRESENTATION_CONTEXT ( 'NONE', 'WORKASPACE' ) );
#168 =( GEOMETRIC_REPRESENTATION_CONTEXT ( 3 ) GLOBAL_UNCERTAINTY_ASSIGNED_CONTEXT ( ( #61 ) ) GLOBAL_UNIT_ASSIGNED_CONTEXT ( ( #86, #240, #42 ) ) REPRESENTATION_CONTEXT ( 'NONE', 'WORKASPACE' ) );
#169 = ORIENTED_EDGE ( 'NONE', *, *, #52, .T. ) ;
#170 = ADVANCED_FACE ( 'NONE', ( #5 ), #254, .T. ) ;
#171 = EDGE_LOOP ( 'NONE', ( #60, #282, #235, #214 ) ) ;
#172 = EDGE_CURVE ( 'NONE', #209, #233, #189, .T. ) ;
#173 = ORIENTED_EDGE ( 'NONE', *, *, #7, .T. ) ;
#174 = AXIS2_PLACEMENT_3D ( 'NONE', #134, #223, #107 ) ;
#175 = ORIENTED_EDGE ( 'NONE', *, *, #213, .F. ) ;
#176 = DIRECTION ( 'NONE',  ( 0.000000000000000000, 0.000000000000000000, -1.000000000000000000 ) ) ;
#177 = CARTESIAN_POINT ( 'NONE',  ( 0.000000000000000000, 2.899999999999999911, -14.50000000000000000 ) ) ;
#178 = AXIS2_PLACEMENT_3D ( 'NONE', #224, #283, #106 ) ;
#179 = DIRECTION ( 'NONE',  ( -0.000000000000000000, -1.000000000000000000, -0.000000000000000000 ) ) ;
#180 = EDGE_CURVE ( 'NONE', #38, #125, #208, .T. ) ;
#181 = DIRECTION ( 'NONE',  ( 0.000000000000000000, -0.1301339061572286959, -0.9914964278645997942 ) ) ;
#182 = CARTESIAN_POINT ( 'NONE',  ( 13.54206088271841502, 0.000000000000000000, 0.000000000000000000 ) ) ;
#183 = PLANE ( 'NONE',  #68 ) ;
#184 =( NAMED_UNIT ( * ) SI_UNIT ( $, .STERADIAN. ) SOLID_ANGLE_UNIT ( ) );
#185 = FACE_OUTER_BOUND ( 'NONE', #171, .T. ) ;
#186 = CARTESIAN_POINT ( 'NONE',  ( 1.775737858763662015E-15, 2.899999999999999911, 14.50000000000000000 ) ) ;
#187 = DIRECTION ( 'NONE',  ( -0.000000000000000000, -1.000000000000000000, -0.000000000000000000 ) ) ;
#188 = EDGE_LOOP ( 'NONE', ( #150, #147, #117, #75 ) ) ;
#189 = CIRCLE ( 'NONE', #219, 6.499999999999999112 ) ;
#190 = AXIS2_PLACEMENT_3D ( 'NONE', #30, #163, #51 ) ;
#191 = EDGE_CURVE ( 'NONE', #79, #105, #248, .T. ) ;
#192 = ORIENTED_EDGE ( 'NONE', *, *, #213, .T. ) ;
#193 = EDGE_LOOP ( 'NONE', ( #256, #124, #146, #257 ) ) ;
#194 = ORIENTED_EDGE ( 'NONE', *, *, #6, .F. ) ;
#195 = AXIS2_PLACEMENT_3D ( 'NONE', #130, #221, #111 ) ;
#196 = CYLINDRICAL_SURFACE ( 'NONE', #274, 6.499999999999999112 ) ;
#197 = ADVANCED_FACE ( 'NONE', ( #141 ), #249, .F. ) ;
#198 = CARTESIAN_POINT ( 'NONE',  ( 1.775737858763662015E-15, 2.899999999999999911, 14.50000000000000000 ) ) ;
#199 = CARTESIAN_POINT ( 'NONE',  ( 0.000000000000000000, 0.000000000000000000, -13.54206088271841324 ) ) ;
#200 = DIRECTION ( 'NONE',  ( -0.000000000000000000, -1.000000000000000000, -0.000000000000000000 ) ) ;
#201 = CARTESIAN_POINT ( 'NONE',  ( 0.000000000000000000, 0.000000000000000000, 0.000000000000000000 ) ) ;
#202 = PRESENTATION_LAYER_ASSIGNMENT (  '', '', ( #12 ) ) ;
#203 =( NAMED_UNIT ( * ) PLANE_ANGLE_UNIT ( ) SI_UNIT ( $, .RADIAN. ) );
#204 = PRODUCT_RELATED_PRODUCT_CATEGORY ( 'part', '', ( #39 ) ) ;
#205 = ADVANCED_BREP_SHAPE_REPRESENTATION ( 'FO-00D-WD-M12-020 FORMAT \X2\04280430043904310430\X0\ \X2\041c\X0\12 \X2\0442043004400435043b044c0447043004420430044f\X0\ \X2\043f0440044304360438043d\X0\. DIN6796 (20\X2\04480442\X0\_\X2\0443043f0430043a\X0\) IEK', ( #92, #154 ), #168 ) ;
#206 = AXIS2_PLACEMENT_3D ( 'NONE', #90, #160, #84 ) ;
#207 = FACE_BOUND ( 'NONE', #100, .T. ) ;
#208 = LINE ( 'NONE', #145, #153 ) ;
#209 = VERTEX_POINT ( 'NONE', #28 ) ;
#210 = CYLINDRICAL_SURFACE ( 'NONE', #96, 14.50000000000000000 ) ;
#211 = EDGE_LOOP ( 'NONE', ( #175, #33, #37, #194 ) ) ;
#212 = VECTOR ( 'NONE', #108, 1000.000000000000000 ) ;
#213 = EDGE_CURVE ( 'NONE', #233, #209, #241, .T. ) ;
#214 = ORIENTED_EDGE ( 'NONE', *, *, #247, .T. ) ;
#215 = CARTESIAN_POINT ( 'NONE',  ( 0.000000000000000000, 2.899999999999999911, 0.000000000000000000 ) ) ;
#216 = ORIENTED_EDGE ( 'NONE', *, *, #87, .T. ) ;
#217 = LINE ( 'NONE', #276, #260 ) ;
#218 = DIRECTION ( 'NONE',  ( -0.000000000000000000, -1.000000000000000000, -0.000000000000000000 ) ) ;
#219 = AXIS2_PLACEMENT_3D ( 'NONE', #144, #71, #252 ) ;
#220 = AXIS2_PLACEMENT_3D ( 'NONE', #215, #263, #63 ) ;
#221 = DIRECTION ( 'NONE',  ( -0.000000000000000000, -1.000000000000000000, -0.000000000000000000 ) ) ;
#222 = LINE ( 'NONE', #157, #212 ) ;
#223 = DIRECTION ( 'NONE',  ( -0.000000000000000000, -1.000000000000000000, -0.000000000000000000 ) ) ;
#224 = CARTESIAN_POINT ( 'NONE',  ( 0.000000000000000000, 0.000000000000000000, 0.000000000000000000 ) ) ;
#225 = APPLICATION_PROTOCOL_DEFINITION ( 'draft international standard', 'automotive_design', 1998, #80 ) ;
#226 = CARTESIAN_POINT ( 'NONE',  ( 0.000000000000000000, 0.000000000000000000, 0.000000000000000000 ) ) ;
#227 = LINE ( 'NONE', #186, #81 ) ;
#228 = EDGE_CURVE ( 'NONE', #237, #38, #227, .T. ) ;
#229 = DIRECTION ( 'NONE',  ( 0.000000000000000000, 0.000000000000000000, -1.000000000000000000 ) ) ;
#230 = AXIS2_PLACEMENT_3D ( 'NONE', #165, #114, #94 ) ;
#231 = ORIENTED_EDGE ( 'NONE', *, *, #228, .F. ) ;
#232 = ADVANCED_FACE ( 'NONE', ( #74 ), #210, .T. ) ;
#233 = VERTEX_POINT ( 'NONE', #58 ) ;
#234 = VERTEX_POINT ( 'NONE', #35 ) ;
#235 = ORIENTED_EDGE ( 'NONE', *, *, #6, .T. ) ;
#236 = ADVANCED_FACE ( 'NONE', ( #2 ), #113, .T. ) ;
#237 = VERTEX_POINT ( 'NONE', #126 ) ;
#238 = DIRECTION ( 'NONE',  ( -0.000000000000000000, -1.000000000000000000, -0.000000000000000000 ) ) ;
#239 = AXIS2_PLACEMENT_3D ( 'NONE', #244, #246, #176 ) ;
#240 =( NAMED_UNIT ( * ) PLANE_ANGLE_UNIT ( ) SI_UNIT ( $, .RADIAN. ) );
#241 = CIRCLE ( 'NONE', #190, 6.499999999999999112 ) ;
#242 = CARTESIAN_POINT ( 'NONE',  ( 0.000000000000000000, 0.000000000000000000, 0.000000000000000000 ) ) ;
#243 = FACE_OUTER_BOUND ( 'NONE', #261, .T. ) ;
#244 = CARTESIAN_POINT ( 'NONE',  ( 0.000000000000000000, 0.000000000000000000, 0.000000000000000000 ) ) ;
#245 = VECTOR ( 'NONE', #66, 1000.000000000000000 ) ;
#246 = DIRECTION ( 'NONE',  ( -0.000000000000000000, -1.000000000000000000, -0.000000000000000000 ) ) ;
#247 = EDGE_CURVE ( 'NONE', #278, #281, #104, .T. ) ;
#248 = LINE ( 'NONE', #97, #89 ) ;
#249 = CYLINDRICAL_SURFACE ( 'NONE', #73, 6.499999999999999112 ) ;
#250 = PRODUCT_CONTEXT ( 'NONE', #80, 'mechanical' ) ;
#251 = UNCERTAINTY_MEASURE_WITH_UNIT (LENGTH_MEASURE( 1.000000000000000082E-05 ), #135, 'distance_accuracy_value', 'NONE');
#252 = DIRECTION ( 'NONE',  ( 0.000000000000000000, 0.000000000000000000, -1.000000000000000000 ) ) ;
#253 = CIRCLE ( 'NONE', #174, 6.499999999999999112 ) ;
#254 = CONICAL_SURFACE ( 'NONE', #128, 14.50000000000000000, 1.440292293684508396 ) ;
#255 = DIRECTION ( 'NONE',  ( 0.000000000000000000, -0.1301339061572286959, -0.9914964278645997942 ) ) ;
#256 = ORIENTED_EDGE ( 'NONE', *, *, #132, .T. ) ;
#257 = ORIENTED_EDGE ( 'NONE', *, *, #191, .F. ) ;
#258 = DIRECTION ( 'NONE',  ( 0.000000000000000000, 0.000000000000000000, -1.000000000000000000 ) ) ;
#259 = ORIENTED_EDGE ( 'NONE', *, *, #132, .F. ) ;
#260 = VECTOR ( 'NONE', #255, 1000.000000000000000 ) ;
#261 = EDGE_LOOP ( 'NONE', ( #14, #216, #192, #280 ) ) ;
#262 = FACE_OUTER_BOUND ( 'NONE', #211, .T. ) ;
#263 = DIRECTION ( 'NONE',  ( -0.000000000000000000, -1.000000000000000000, -0.000000000000000000 ) ) ;
#264 = CYLINDRICAL_SURFACE ( 'NONE', #206, 14.50000000000000000 ) ;
#265 = CIRCLE ( 'NONE', #239, 14.50000000000000000 ) ;
#266 = DIRECTION ( 'NONE',  ( 0.000000000000000000, 0.000000000000000000, -1.000000000000000000 ) ) ;
#267 = DIRECTION ( 'NONE',  ( -0.000000000000000000, -1.000000000000000000, -0.000000000000000000 ) ) ;
#268 = SURFACE_SIDE_STYLE ('',( #95 ) ) ;
#269 =( NAMED_UNIT ( * ) SI_UNIT ( $, .STERADIAN. ) SOLID_ANGLE_UNIT ( ) );
#270 = AXIS2_PLACEMENT_3D ( 'NONE', #53, #47, #140 ) ;
#271 = DIRECTION ( 'NONE',  ( 0.000000000000000000, -1.000000000000000000, -0.000000000000000000 ) ) ;
#272 = DIRECTION ( 'NONE',  ( -0.000000000000000000, -1.000000000000000000, -0.000000000000000000 ) ) ;
#273 = CARTESIAN_POINT ( 'NONE',  ( 0.000000000000000000, 2.899999999999999911, 0.000000000000000000 ) ) ;
#274 = AXIS2_PLACEMENT_3D ( 'NONE', #242, #46, #1 ) ;
#275 = DIRECTION ( 'NONE',  ( 1.214232926750416604E-16, -0.1301339061572286959, 0.9914964278645997942 ) ) ;
#276 = CARTESIAN_POINT ( 'NONE',  ( 0.000000000000000000, 0.9242704908567919153, -6.499999999999999112 ) ) ;
#277 = CONICAL_SURFACE ( 'NONE', #195, 6.499999999999999112, 1.440292293684508396 ) ;
#278 = VERTEX_POINT ( 'NONE', #199 ) ;
#279 = DIRECTION ( 'NONE',  ( -0.000000000000000000, -1.000000000000000000, -0.000000000000000000 ) ) ;
#280 = ORIENTED_EDGE ( 'NONE', *, *, #102, .F. ) ;
#281 = VERTEX_POINT ( 'NONE', #133 ) ;
#282 = ORIENTED_EDGE ( 'NONE', *, *, #172, .F. ) ;
#283 = DIRECTION ( 'NONE',  ( -0.000000000000000000, -1.000000000000000000, -0.000000000000000000 ) ) ;
#284 = CARTESIAN_POINT ( 'NONE',  ( 0.000000000000000000, 0.000000000000000000, -6.499999999999999112 ) ) ;
ENDSEC;
END-ISO-10303-21;
