  0
SECTION
  2
HEADER
  9
$ACADVER
  1
AC1015
  9
$ACADMAINTVER
 70
     6
  9
$DWGCODEPAGE
  3
ANSI_1251
  9
$INSBASE
 10
0.0
 20
0.0
 30
0.0
  9
$EXTMIN
 10
0.0
 20
0.0
 30
0.0
  9
$EXTMAX
 10
420.0
 20
297.0
 30
0.0
  9
$LIMMIN
 10
0.0
 20
0.0
  9
$LIMMAX
 10
420.0
 20
297.0
  9
$ORTHOMODE
 70
     0
  9
$REGENMODE
 70
     1
  9
$FILLMODE
 70
     1
  9
$QTEXTMODE
 70
     0
  9
$MIRRTEXT
 70
     1
  9
$LTSCALE
 40
1.0
  9
$ATTMODE
 70
     1
  9
$TEXTSIZE
 40
5.0
  9
$TRACEWID
 40
1.0
  9
$TEXTSTYLE
  7
Standard
  9
$CLAYER
  8
0
  9
$CELTYPE
  6
ByLayer
  9
$CECOLOR
 62
   256
  9
$CELTSCALE
 40
1.0
  9
$DISPSILH
 70
     0
  9
$DIMSCALE
 40
1.0
  9
$DIMASZ
 40
5.0
  9
$DIMEXO
 40
0.0
  9
$DIMDLI
 40
3.75
  9
$DIMRND
 40
0.0
  9
$DIMDLE
 40
0.0
  9
$DIMEXE
 40
1.0
  9
$DIMTP
 40
0.0
  9
$DIMTM
 40
0.0
  9
$DIMTXT
 40
3.5
  9
$DIMCEN
 40
2.5
  9
$DIMTSZ
 40
0.0
  9
$DIMTOL
 70
     0
  9
$DIMLIM
 70
     0
  9
$DIMTIH
 70
     1
  9
$DIMTOH
 70
     1
  9
$DIMSE1
 70
     0
  9
$DIMSE2
 70
     0
  9
$DIMTAD
 70
     1
  9
$DIMZIN
 70
     0
  9
$DIMBLK
  1

  9
$DIMASO
 70
     1
  9
$DIMSHO
 70
     1
  9
$DIMPOST
  1

  9
$DIMAPOST
  1

  9
$DIMALT
 70
     0
  9
$DIMALTD
 70
     3
  9
$DIMALTF
 40
0.0393700787
  9
$DIMLFAC
 40
1.0
  9
$DIMTOFL
 70
     1
  9
$DIMTVP
 40
0.0
  9
$DIMTIX
 70
     0
  9
$DIMSOXD
 70
     0
  9
$DIMSAH
 70
     0
  9
$DIMBLK1
  1

  9
$DIMBLK2
  1

  9
$DIMSTYLE
  2
ISO-25
  9
$DIMCLRD
 70
     0
  9
$DIMCLRE
 70
     0
  9
$DIMCLRT
 70
     0
  9
$DIMTFAC
 40
1.0
  9
$DIMGAP
 40
1.5
  9
$DIMJUST
 70
     0
  9
$DIMSD1
 70
     0
  9
$DIMSD2
 70
     0
  9
$DIMTOLJ
 70
     0
  9
$DIMTZIN
 70
     0
  9
$DIMALTZ
 70
     0
  9
$DIMALTTZ
 70
     0
  9
$DIMUPT
 70
     0
  9
$DIMDEC
 70
     1
  9
$DIMTDEC
 70
     1
  9
$DIMALTU
 70
     2
  9
$DIMALTTD
 70
     3
  9
$DIMTXSTY
  7
Standard
  9
$DIMAUNIT
 70
     0
  9
$DIMADEC
 70
     2
  9
$DIMALTRND
 40
0.0
  9
$DIMAZIN
 70
     0
  9
$DIMDSEP
 70
    44
  9
$DIMATFIT
 70
     3
  9
$DIMFRAC
 70
     0
  9
$DIMLDRBLK
  1

  9
$DIMLUNIT
 70
     2
  9
$DIMLWD
 70
    -2
  9
$DIMLWE
 70
    -2
  9
$DIMTMOVE
 70
     0
  9
$LUNITS
 70
     2
  9
$LUPREC
 70
     1
  9
$SKETCHINC
 40
1.0
  9
$FILLETRAD
 40
0.0
  9
$AUNITS
 70
     0
  9
$AUPREC
 70
     2
  9
$MENU
  1
.
  9
$ELEVATION
 40
0.0
  9
$PELEVATION
 40
0.0
  9
$THICKNESS
 40
0.0
  9
$LIMCHECK
 70
     0
  9
$CHAMFERA
 40
0.0
  9
$CHAMFERB
 40
0.0
  9
$CHAMFERC
 40
0.0
  9
$CHAMFERD
 40
0.0
  9
$SKPOLY
 70
     0
  9
$TDCREATE
 40
2460697.669643275
  9
$TDUCREATE
 40
2460697.544643275
  9
$TDUPDATE
 40
2460697.669643797
  9
$TDUUPDATE
 40
2460697.544643797
  9
$TDINDWG
 40
0.0000000116
  9
$TDUSRTIMER
 40
0.0000000116
  9
$USRTIMER
 70
     1
  9
$ANGBASE
 50
0.0
  9
$ANGDIR
 70
     0
  9
$PDMODE
 70
     0
  9
$PDSIZE
 40
-1.0
  9
$PLINEWID
 40
0.0
  9
$SPLFRAME
 70
     0
  9
$SPLINETYPE
 70
     6
  9
$SPLINESEGS
 70
     8
  9
$HANDSEED
  5
668
  9
$SURFTAB1
 70
     6
  9
$SURFTAB2
 70
     6
  9
$SURFTYPE
 70
     6
  9
$SURFU
 70
     6
  9
$SURFV
 70
     6
  9
$UCSBASE
  2

  9
$UCSNAME
  2

  9
$UCSORG
 10
0.0
 20
0.0
 30
0.0
  9
$UCSXDIR
 10
1.0
 20
0.0
 30
0.0
  9
$UCSYDIR
 10
0.0
 20
1.0
 30
0.0
  9
$UCSORTHOREF
  2

  9
$UCSORTHOVIEW
 70
     0
  9
$UCSORGTOP
 10
0.0
 20
0.0
 30
0.0
  9
$UCSORGBOTTOM
 10
0.0
 20
0.0
 30
0.0
  9
$UCSORGLEFT
 10
0.0
 20
0.0
 30
0.0
  9
$UCSORGRIGHT
 10
0.0
 20
0.0
 30
0.0
  9
$UCSORGFRONT
 10
0.0
 20
0.0
 30
0.0
  9
$UCSORGBACK
 10
0.0
 20
0.0
 30
0.0
  9
$PUCSBASE
  2

  9
$PUCSNAME
  2

  9
$PUCSORG
 10
0.0
 20
0.0
 30
0.0
  9
$PUCSXDIR
 10
1.0
 20
0.0
 30
0.0
  9
$PUCSYDIR
 10
0.0
 20
1.0
 30
0.0
  9
$PUCSORTHOREF
  2

  9
$PUCSORTHOVIEW
 70
     0
  9
$PUCSORGTOP
 10
0.0
 20
0.0
 30
0.0
  9
$PUCSORGBOTTOM
 10
0.0
 20
0.0
 30
0.0
  9
$PUCSORGLEFT
 10
0.0
 20
0.0
 30
0.0
  9
$PUCSORGRIGHT
 10
0.0
 20
0.0
 30
0.0
  9
$PUCSORGFRONT
 10
0.0
 20
0.0
 30
0.0
  9
$PUCSORGBACK
 10
0.0
 20
0.0
 30
0.0
  9
$USERI1
 70
     0
  9
$USERI2
 70
     0
  9
$USERI3
 70
     0
  9
$USERI4
 70
     0
  9
$USERI5
 70
     0
  9
$USERR1
 40
0.0
  9
$USERR2
 40
0.0
  9
$USERR3
 40
0.0
  9
$USERR4
 40
0.0
  9
$USERR5
 40
0.0
  9
$WORLDVIEW
 70
     1
  9
$SHADEDGE
 70
     3
  9
$SHADEDIF
 70
    70
  9
$TILEMODE
 70
     1
  9
$MAXACTVP
 70
    64
  9
$PINSBASE
 10
0.0
 20
0.0
 30
0.0
  9
$PLIMCHECK
 70
     0
  9
$PEXTMIN
 10
1.0000000000E+20
 20
1.0000000000E+20
 30
1.0000000000E+20
  9
$PEXTMAX
 10
-1.0000000000E+20
 20
-1.0000000000E+20
 30
-1.0000000000E+20
  9
$PLIMMIN
 10
0.0
 20
0.0
  9
$PLIMMAX
 10
420.0
 20
297.0
  9
$UNITMODE
 70
     0
  9
$VISRETAIN
 70
     1
  9
$PLINEGEN
 70
     0
  9
$PSLTSCALE
 70
     1
  9
$TREEDEPTH
 70
  3020
  9
$CMLSTYLE
  2
Standard
  9
$CMLJUST
 70
     0
  9
$CMLSCALE
 40
20.0
  9
$PROXYGRAPHICS
 70
     1
  9
$MEASUREMENT
 70
     1
  9
$CELWEIGHT
370
    -1
  9
$ENDCAPS
280
     0
  9
$JOINSTYLE
280
     0
  9
$LWDISPLAY
290
     1
  9
$INSUNITS
 70
     4
  9
$HYPERLINKBASE
  1

  9
$STYLESHEET
  1

  9
$XEDIT
290
     1
  9
$CEPSNTYPE
380
     0
  9
$PSTYLEMODE
290
     1
  9
$FINGERPRINTGUID
  2
{35674b2e-d559-496c-823f-33e2942a4432}
  9
$VERSIONGUID
  2
{FAEB1C32-E019-11D5-929B-00C0DF256EC4}
  9
$EXTNAMES
290
     1
  9
$PSVPSCALE
 40
0.0
  9
$OLESTARTUP
290
     0
  0
ENDSEC
  0
SECTION
  2
CLASSES
  0
CLASS
  1
ACDBDICTIONARYWDFLT
  2
AcDbDictionaryWithDefault
  3
ObjectDBX Classes
 90
        0
280
     0
281
     0
  0
CLASS
  1
VISUALSTYLE
  2
AcDbVisualStyle
  3
ObjectDBX Classes
 90
     4095
280
     0
281
     0
  0
CLASS
  1
MATERIAL
  2
AcDbMaterial
  3
ObjectDBX Classes
 90
     1153
280
     0
281
     0
  0
CLASS
  1
SCALE
  2
AcDbScale
  3
ObjectDBX Classes
 90
     1153
280
     0
281
     0
  0
CLASS
  1
TABLESTYLE
  2
AcDbTableStyle
  3
ObjectDBX Classes
 90
     4095
280
     0
281
     0
  0
CLASS
  1
MLEADERSTYLE
  2
AcDbMLeaderStyle
  3
ACDB_MLEADERSTYLE_CLASS
 90
     4095
280
     0
281
     0
  0
CLASS
  1
SUN
  2
AcDbSun
  3
SCENEOE
 90
     1153
280
     0
281
     0
  0
CLASS
  1
ACDBPLACEHOLDER
  2
AcDbPlaceHolder
  3
ObjectDBX Classes
 90
        0
280
     0
281
     0
  0
CLASS
  1
LAYOUT
  2
AcDbLayout
  3
ObjectDBX Classes
 90
        0
280
     0
281
     0
  0
ENDSEC
  0
SECTION
  2
TABLES
  0
TABLE
  2
VPORT
  5
8
330
0
100
AcDbSymbolTable
 70
     1
  0
VPORT
  5
29
330
8
100
AcDbSymbolTableRecord
100
AcDbViewportTableRecord
  2
*Active
 70
     0
 10
0.0
 20
0.0
 11
1.0
 21
1.0
 12
210.0
 22
148.5
 13
0.0
 23
0.0
 14
10.0
 24
10.0
 15
10.0
 25
10.0
 16
0.0
 26
0.0
 36
1.0
 17
0.0
 27
0.0
 37
0.0
 40
297.0
 41
1.4141414141
 42
50.0
 43
0.0
 44
0.0
 50
0.0
 51
0.0
 71
     0
 72
  2000
 73
     1
 74
     3
 75
     0
 76
     0
 77
     0
 78
     0
281
     0
 65
     1
110
0.0
120
0.0
130
0.0
111
1.0
121
0.0
131
0.0
112
0.0
122
1.0
132
0.0
 79
     0
146
0.0
  0
ENDTAB
  0
TABLE
  2
LTYPE
  5
5
330
0
100
AcDbSymbolTable
 70
     6
  0
LTYPE
  5
14
330
5
100
AcDbSymbolTableRecord
100
AcDbLinetypeTableRecord
  2
ByBlock
 70
     0
  3

 72
    65
 73
     0
 40
0.0
  0
LTYPE
  5
15
330
5
100
AcDbSymbolTableRecord
100
AcDbLinetypeTableRecord
  2
ByLayer
 70
     0
  3

 72
    65
 73
     0
 40
0.0
  0
LTYPE
  5
16
330
5
100
AcDbSymbolTableRecord
100
AcDbLinetypeTableRecord
  2
Continuous
 70
     0
  3
Solid line
 72
    65
 73
     0
 40
0.0
  0
LTYPE
  5
5E
330
5
100
AcDbSymbolTableRecord
100
AcDbLinetypeTableRecord
  2
HIDDEN
 70
     0
  3
Hidden __ __ __ __ __ __ __ __ __ __ __ __ __ __
 72
    65
 73
     2
 40
1.905
 49
1.27
 74
     0
 49
-0.635
 74
     0
  0
LTYPE
  5
5F
330
5
100
AcDbSymbolTableRecord
100
AcDbLinetypeTableRecord
  2
PHANTOM
 70
     0
  3
Phantom ______  __  __  ______  __  __  ______
 72
    65
 73
     6
 40
12.7
 49
6.35
 74
     0
 49
-1.27
 74
     0
 49
1.27
 74
     0
 49
-1.27
 74
     0
 49
1.27
 74
     0
 49
-1.27
 74
     0
  0
LTYPE
  5
60
330
5
100
AcDbSymbolTableRecord
100
AcDbLinetypeTableRecord
  2
CENTER
 70
     0
  3
Center ____ _ ____ _ ____ _ ____ _ ____ _ ____
 72
    65
 73
     4
 40
10.16
 49
6.35
 74
     0
 49
-1.27
 74
     0
 49
1.27
 74
     0
 49
-1.27
 74
     0
  0
LTYPE
  5
61
330
5
100
AcDbSymbolTableRecord
100
AcDbLinetypeTableRecord
  2
CENTERX2
 70
     0
  3
Center (2x) ________  __  ________  __  _____
 72
    65
 73
     4
 40
20.32
 49
12.7
 74
     0
 49
-2.54
 74
     0
 49
2.54
 74
     0
 49
-2.54
 74
     0
  0
LTYPE
  5
62
330
5
100
AcDbSymbolTableRecord
100
AcDbLinetypeTableRecord
  2
DOT2
 70
     0
  3
Dot (.5x) ........................................
 72
    65
 73
     2
 40
0.635
 49
0.0
 74
     0
 49
-0.635
 74
     0
  0
ENDTAB
  0
TABLE
  2
LAYER
  5
2
330
0
100
AcDbSymbolTable
 70
     3
  0
LAYER
  5
10
330
2
100
AcDbSymbolTableRecord
100
AcDbLayerTableRecord
  2
0
 70
     0
 62
     7
  6
Continuous
370
    -3
390
F
  0
LAYER
  5
63
330
2
100
AcDbSymbolTableRecord
100
AcDbLayerTableRecord
  2
ВОДЯНОЙ_ЗНАК
 70
     0
 62
    11
  6
Continuous
370
    -3
390
F
  0
LAYER
  5
64
330
2
100
AcDbSymbolTableRecord
100
AcDbLayerTableRecord
  2
ОСНОВНОЙ
 70
     0
 62
     7
  6
Continuous
370
    -3
390
F
  0
ENDTAB
  0
TABLE
  2
STYLE
  5
3
330
0
100
AcDbSymbolTable
 70
     1
  0
STYLE
  5
11
330
3
100
AcDbSymbolTableRecord
100
AcDbTextStyleTableRecord
  2
Standard
 70
     0
 40
0.0
 41
1.0
 50
0.0
 71
     0
 42
5.0
  3
txt
  4

  0
ENDTAB
  0
TABLE
  2
VIEW
  5
6
330
0
100
AcDbSymbolTable
 70
     0
  0
ENDTAB
  0
TABLE
  2
UCS
  5
7
330
0
100
AcDbSymbolTable
 70
     0
  0
ENDTAB
  0
TABLE
  2
APPID
  5
9
330
0
100
AcDbSymbolTable
 70
     1
  0
APPID
  5
12
330
9
100
AcDbSymbolTableRecord
100
AcDbRegAppTableRecord
  2
ACAD
 70
     0
  0
ENDTAB
  0
TABLE
  2
DIMSTYLE
  5
A
330
0
100
AcDbSymbolTable
 70
     1
100
AcDbDimStyleTable
  0
DIMSTYLE
105
27
330
A
100
AcDbSymbolTableRecord
100
AcDbDimStyleTableRecord
  2
ISO-25
 70
     0
 41
2.5
 42
0.625
 43
3.75
 44
1.25
 73
     0
 74
     0
 77
     1
 78
     8
140
2.5
141
2.5
143
0.0393700787
147
0.625
171
     3
172
     1
178
     0
271
     2
272
     2
274
     3
278
    44
283
     0
284
     8
340
11
  0
ENDTAB
  0
TABLE
  2
BLOCK_RECORD
  5
1
330
0
100
AcDbSymbolTable
 70
     1
  0
BLOCK_RECORD
  5
1F
330
1
100
AcDbSymbolTableRecord
100
AcDbBlockTableRecord
  2
*Model_Space
340
22
  0
BLOCK_RECORD
  5
1B
330
1
100
AcDbSymbolTableRecord
100
AcDbBlockTableRecord
  2
*Paper_Space
340
1E
  0
BLOCK_RECORD
  5
23
330
1
100
AcDbSymbolTableRecord
100
AcDbBlockTableRecord
  2
*Paper_Space0
340
26
  0
ENDTAB
  0
ENDSEC
  0
SECTION
  2
BLOCKS
  0
BLOCK
  5
20
330
1F
100
AcDbEntity
  8
0
100
AcDbBlockBegin
  2
*Model_Space
 70
     0
 10
0.0
 20
0.0
 30
0.0
  3
*Model_Space
  1

  0
ENDBLK
  5
21
330
1F
100
AcDbEntity
  8
0
100
AcDbBlockEnd
  0
BLOCK
  5
1C
330
1B
100
AcDbEntity
 67
     1
  8
0
100
AcDbBlockBegin
  2
*Paper_Space
 70
     0
 10
0.0
 20
0.0
 30
0.0
  3
*Paper_Space
  1

  0
ENDBLK
  5
1D
330
1B
100
AcDbEntity
 67
     1
  8
0
100
AcDbBlockEnd
  0
BLOCK
  5
24
330
23
100
AcDbEntity
  8
0
100
AcDbBlockBegin
  2
*Paper_Space0
 70
     0
 10
0.0
 20
0.0
 30
0.0
  3
*Paper_Space0
  1

  0
ENDBLK
  5
25
330
23
100
AcDbEntity
  8
0
100
AcDbBlockEnd
  0
ENDSEC
  0
SECTION
  2
ENTITIES
  0
LINE
  5
65
330
1F
100
AcDbEntity
  8
0
  6
Continuous
 62
     7
100
AcDbLine
 10
1499.0976510136
 20
115.6270826062
 30
0.0
 11
1505.7976510136
 21
115.6270826062
 31
0.0
  0
LINE
  5
66
330
1F
100
AcDbEntity
  8
0
  6
Continuous
 62
     7
100
AcDbLine
 10
1505.7976510136
 20
121.6270826062
 30
0.0
 11
1499.0976510136
 21
121.6270826062
 31
0.0
  0
LINE
  5
67
330
1F
100
AcDbEntity
  8
0
  6
Continuous
 62
     7
100
AcDbLine
 10
1505.7976510136
 20
115.6270826062
 30
0.0
 11
1506.2976510136
 21
116.1270826062
 31
0.0
  0
LINE
  5
68
330
1F
100
AcDbEntity
  8
0
  6
Continuous
 62
     7
100
AcDbLine
 10
1506.2976510136
 20
121.1270826062
 30
0.0
 11
1505.7976510136
 21
121.6270826062
 31
0.0
  0
LINE
  5
69
330
1F
100
AcDbEntity
  8
0
  6
Continuous
 62
     7
100
AcDbLine
 10
584.3976510136
 20
221.4720805353
 30
0.0
 11
583.8976510136
 21
220.9720805353
 31
0.0
  0
LINE
  5
6A
330
1F
100
AcDbEntity
  8
0
  6
Continuous
 62
     7
100
AcDbLine
 10
584.3976510136
 20
215.4720805353
 30
0.0
 11
591.0976510136
 21
215.4720805353
 31
0.0
  0
LINE
  5
6B
330
1F
100
AcDbEntity
  8
0
  6
Continuous
 62
     7
100
AcDbLine
 10
583.8976510136
 20
215.9720805353
 30
0.0
 11
584.3976510136
 21
215.4720805353
 31
0.0
  0
LINE
  5
6C
330
1F
100
AcDbEntity
  8
0
  6
Continuous
 62
     7
100
AcDbLine
 10
591.0976510136
 20
221.4720805353
 30
0.0
 11
584.3976510136
 21
221.4720805353
 31
0.0
  0
LINE
  5
6D
330
1F
100
AcDbEntity
  8
0
  6
Continuous
 62
     7
100
AcDbLine
 10
1499.0976510136
 20
215.6273366441
 30
0.0
 11
1505.7976510136
 21
215.6273366441
 31
0.0
  0
LINE
  5
6E
330
1F
100
AcDbEntity
  8
0
  6
Continuous
 62
     7
100
AcDbLine
 10
1505.7976510136
 20
221.6273366441
 30
0.0
 11
1499.0976510136
 21
221.6273366441
 31
0.0
  0
LINE
  5
6F
330
1F
100
AcDbEntity
  8
0
  6
Continuous
 62
     7
100
AcDbLine
 10
1506.2976510136
 20
221.1273366441
 30
0.0
 11
1505.7976510136
 21
221.6273366441
 31
0.0
  0
LINE
  5
70
330
1F
100
AcDbEntity
  8
0
  6
Continuous
 62
     7
100
AcDbLine
 10
1505.7976510136
 20
215.6273366441
 30
0.0
 11
1506.2976510136
 21
216.1273366441
 31
0.0
  0
LINE
  5
71
330
1F
100
AcDbEntity
  8
0
  6
Continuous
 62
     7
100
AcDbLine
 10
591.0976510136
 20
121.6270826062
 30
0.0
 11
584.3976510136
 21
121.6270826062
 31
0.0
  0
LINE
  5
72
330
1F
100
AcDbEntity
  8
0
  6
Continuous
 62
     7
100
AcDbLine
 10
584.3976510136
 20
121.6270826062
 30
0.0
 11
583.8976510136
 21
121.1270826062
 31
0.0
  0
LINE
  5
73
330
1F
100
AcDbEntity
  8
0
  6
Continuous
 62
     7
100
AcDbLine
 10
583.8976510136
 20
116.1270826062
 30
0.0
 11
584.3976510136
 21
115.6270826062
 31
0.0
  0
LINE
  5
74
330
1F
100
AcDbEntity
  8
0
  6
Continuous
 62
     7
100
AcDbLine
 10
584.3976510136
 20
115.6270826062
 30
0.0
 11
591.0976510136
 21
115.6270826062
 31
0.0
  0
LINE
  5
75
330
1F
100
AcDbEntity
  8
0
  6
Continuous
 62
     7
100
AcDbLine
 10
596.0976510136
 20
237.880670484
 30
0.0
 11
596.0976510136
 21
236.5816323783
 31
0.0
  0
LINE
  5
76
330
1F
100
AcDbEntity
  8
0
  6
Continuous
 62
     7
100
AcDbLine
 10
1494.0976510136
 20
237.880670484
 30
0.0
 11
596.0976510136
 21
237.880670484
 31
0.0
  0
LINE
  5
77
330
1F
100
AcDbEntity
  8
0
  6
Continuous
 62
     7
100
AcDbLine
 10
1494.0976510136
 20
236.5816323783
 30
0.0
 11
1494.0976510136
 21
237.880670484
 31
0.0
  0
LINE
  5
78
330
1F
100
AcDbEntity
  8
0
  6
Continuous
 62
     7
100
AcDbLine
 10
1494.0976510136
 20
236.5816323783
 30
0.0
 11
596.0976510136
 21
236.5816323783
 31
0.0
  0
LINE
  5
79
330
1F
100
AcDbEntity
  8
0
  6
Continuous
 62
     7
100
AcDbLine
 10
1497.0976510136
 20
239.380670484
 30
0.0
 11
1497.0976510136
 21
238.0816323783
 31
0.0
  0
LINE
  5
7A
330
1F
100
AcDbEntity
  8
0
  6
Continuous
 62
     7
100
AcDbLine
 10
1497.0976510136
 20
238.0816323783
 30
0.0
 11
1494.0976510136
 21
236.5816323783
 31
0.0
  0
LINE
  5
7B
330
1F
100
AcDbEntity
  8
0
  6
Continuous
 62
     7
100
AcDbLine
 10
1494.0976510136
 20
237.880670484
 30
0.0
 11
1497.0976510136
 21
239.380670484
 31
0.0
  0
LINE
  5
7C
330
1F
100
AcDbEntity
  8
0
  6
Continuous
 62
     7
100
AcDbLine
 10
1497.0976510136
 20
241.2146450802
 30
0.0
 11
1497.0976510136
 21
239.380670484
 31
0.0
  0
LINE
  5
7D
330
1F
100
AcDbEntity
  8
0
  6
Continuous
 62
     7
100
AcDbLine
 10
593.0976510136
 20
239.380670484
 30
0.0
 11
596.0976510136
 21
237.880670484
 31
0.0
  0
LINE
  5
7E
330
1F
100
AcDbEntity
  8
0
  6
Continuous
 62
     7
100
AcDbLine
 10
593.0976510136
 20
239.380670484
 30
0.0
 11
593.0976510136
 21
241.2146450802
 31
0.0
  0
LINE
  5
7F
330
1F
100
AcDbEntity
  8
0
  6
Continuous
 62
     7
100
AcDbLine
 10
593.0976510136
 20
241.2146450802
 30
0.0
 11
593.0976510136
 21
242.3797085897
 31
0.0
  0
LINE
  5
80
330
1F
100
AcDbEntity
  8
0
  6
Continuous
 62
     7
100
AcDbLine
 10
1497.0976510136
 20
242.3797085897
 30
0.0
 11
593.0976510136
 21
242.3797085897
 31
0.0
  0
LINE
  5
81
330
1F
100
AcDbEntity
  8
0
  6
Continuous
 62
     7
100
AcDbLine
 10
1497.0976510136
 20
241.2146450802
 30
0.0
 11
1497.0976510136
 21
242.3797085897
 31
0.0
  0
LINE
  5
82
330
1F
100
AcDbEntity
  8
0
  6
Continuous
 62
     7
100
AcDbLine
 10
596.0976510136
 20
236.5816323783
 30
0.0
 11
593.0976510136
 21
238.0816323783
 31
0.0
  0
LINE
  5
83
330
1F
100
AcDbEntity
  8
0
  6
Continuous
 62
     7
100
AcDbLine
 10
593.0976510136
 20
238.0816323783
 30
0.0
 11
593.0976510136
 21
239.380670484
 31
0.0
  0
LINE
  5
84
330
1F
100
AcDbEntity
  8
0
  6
Continuous
 62
     7
100
AcDbLine
 10
593.0976510136
 20
95.8845180613
 30
0.0
 11
593.0976510136
 21
97.7184926575
 31
0.0
  0
LINE
  5
85
330
1F
100
AcDbEntity
  8
0
  6
Continuous
 62
     7
100
AcDbLine
 10
596.0976510136
 20
99.2184926575
 30
0.0
 11
593.0976510136
 21
97.7184926575
 31
0.0
  0
LINE
  5
86
330
1F
100
AcDbEntity
  8
0
  6
Continuous
 62
     7
100
AcDbLine
 10
596.0976510136
 20
99.2184926575
 30
0.0
 11
1494.0976510136
 21
99.2184926575
 31
0.0
  0
LINE
  5
87
330
1F
100
AcDbEntity
  8
0
  6
Continuous
 62
     7
100
AcDbLine
 10
1497.0976510136
 20
97.7184926575
 30
0.0
 11
1494.0976510136
 21
99.2184926575
 31
0.0
  0
LINE
  5
88
330
1F
100
AcDbEntity
  8
0
  6
Continuous
 62
     7
100
AcDbLine
 10
1497.0976510136
 20
97.7184926575
 30
0.0
 11
1497.0976510136
 21
95.8845180613
 31
0.0
  0
LINE
  5
89
330
1F
100
AcDbEntity
  8
0
  6
Continuous
 62
     7
100
AcDbLine
 10
1497.0976510136
 20
95.8845180613
 30
0.0
 11
1497.0976510136
 21
94.7194545519
 31
0.0
  0
LINE
  5
8A
330
1F
100
AcDbEntity
  8
0
  6
Continuous
 62
     7
100
AcDbLine
 10
593.0976510136
 20
94.7194545519
 30
0.0
 11
1497.0976510136
 21
94.7194545519
 31
0.0
  0
LINE
  5
8B
330
1F
100
AcDbEntity
  8
0
  6
Continuous
 62
     7
100
AcDbLine
 10
593.0976510136
 20
95.8845180613
 30
0.0
 11
593.0976510136
 21
94.7194545519
 31
0.0
  0
LINE
  5
8C
330
1F
100
AcDbEntity
  8
0
  6
Continuous
 62
     7
100
AcDbLine
 10
593.0976510136
 20
97.7184926575
 30
0.0
 11
593.0976510136
 21
99.0175307632
 31
0.0
  0
LINE
  5
8D
330
1F
100
AcDbEntity
  8
0
  6
Continuous
 62
     7
100
AcDbLine
 10
593.0976510136
 20
99.0175307632
 30
0.0
 11
596.0976510136
 21
100.5175307632
 31
0.0
  0
LINE
  5
8E
330
1F
100
AcDbEntity
  8
0
  6
Continuous
 62
     7
100
AcDbLine
 10
596.0976510136
 20
100.5175307632
 30
0.0
 11
596.0976510136
 21
99.2184926575
 31
0.0
  0
LINE
  5
8F
330
1F
100
AcDbEntity
  8
0
  6
Continuous
 62
     7
100
AcDbLine
 10
1494.0976510136
 20
99.2184926575
 30
0.0
 11
1494.0976510136
 21
100.5175307632
 31
0.0
  0
LINE
  5
90
330
1F
100
AcDbEntity
  8
0
  6
Continuous
 62
     7
100
AcDbLine
 10
596.0976510136
 20
100.5175307632
 30
0.0
 11
1494.0976510136
 21
100.5175307632
 31
0.0
  0
LINE
  5
91
330
1F
100
AcDbEntity
  8
0
  6
Continuous
 62
     7
100
AcDbLine
 10
1494.0976510136
 20
100.5175307632
 30
0.0
 11
1497.0976510136
 21
99.0175307632
 31
0.0
  0
LINE
  5
92
330
1F
100
AcDbEntity
  8
0
  6
Continuous
 62
     7
100
AcDbLine
 10
1497.0976510136
 20
99.0175307632
 30
0.0
 11
1497.0976510136
 21
97.7184926575
 31
0.0
  0
LINE
  5
93
330
1F
100
AcDbEntity
  8
0
  6
Continuous
 62
     7
100
AcDbLine
 10
592.0976510136
 20
105.6524672537
 30
0.0
 11
593.5976510136
 21
105.6524672537
 31
0.0
  0
LINE
  5
94
330
1F
100
AcDbEntity
  8
0
  6
Continuous
 62
     7
100
AcDbLine
 10
592.0976510136
 20
231.4466958878
 30
0.0
 11
593.5976510136
 21
231.4466958878
 31
0.0
  0
LINE
  5
95
330
1F
100
AcDbEntity
  8
0
  6
Continuous
 62
     7
100
AcDbLine
 10
593.5976510136
 20
105.6524672537
 30
0.0
 11
593.5976510136
 21
231.4466958878
 31
0.0
  0
LINE
  5
96
330
1F
100
AcDbEntity
  8
0
  6
Continuous
 62
     7
100
AcDbLine
 10
592.0976510136
 20
105.6524672537
 30
0.0
 11
592.0976510136
 21
231.4466958878
 31
0.0
  0
LINE
  5
97
330
1F
100
AcDbEntity
  8
0
  6
Continuous
 62
     7
100
AcDbLine
 10
592.0976510136
 20
234.4466958878
 30
0.0
 11
593.5976510136
 21
234.4466958878
 31
0.0
  0
LINE
  5
98
330
1F
100
AcDbEntity
  8
0
  6
Continuous
 62
     7
100
AcDbLine
 10
593.5976510136
 20
231.4466958878
 30
0.0
 11
593.5976510136
 21
234.4466958878
 31
0.0
  0
LINE
  5
99
330
1F
100
AcDbEntity
  8
0
  6
Continuous
 62
     7
100
AcDbLine
 10
592.0976510136
 20
231.4466958878
 30
0.0
 11
592.0976510136
 21
234.4466958878
 31
0.0
  0
LINE
  5
9A
330
1F
100
AcDbEntity
  8
0
  6
Continuous
 62
     7
100
AcDbLine
 10
1498.0976510136
 20
231.4466958878
 30
0.0
 11
1496.5976510136
 21
231.4466958878
 31
0.0
  0
LINE
  5
9B
330
1F
100
AcDbEntity
  8
0
  6
Continuous
 62
     7
100
AcDbLine
 10
1498.0976510136
 20
231.4466958878
 30
0.0
 11
1498.0976510136
 21
105.6524672537
 31
0.0
  0
LINE
  5
9C
330
1F
100
AcDbEntity
  8
0
  6
Continuous
 62
     7
100
AcDbLine
 10
1498.0976510136
 20
105.6524672537
 30
0.0
 11
1496.5976510136
 21
105.6524672537
 31
0.0
  0
LINE
  5
9D
330
1F
100
AcDbEntity
  8
0
  6
Continuous
 62
     7
100
AcDbLine
 10
1496.5976510136
 20
231.4466958878
 30
0.0
 11
1496.5976510136
 21
105.6524672537
 31
0.0
  0
LINE
  5
9E
330
1F
100
AcDbEntity
  8
0
  6
Continuous
 62
     7
100
AcDbLine
 10
1498.0976510136
 20
234.4466958878
 30
0.0
 11
1496.5976510136
 21
234.4466958878
 31
0.0
  0
LINE
  5
9F
330
1F
100
AcDbEntity
  8
0
  6
Continuous
 62
     7
100
AcDbLine
 10
1498.0976510136
 20
234.4466958878
 30
0.0
 11
1498.0976510136
 21
231.4466958878
 31
0.0
  0
LINE
  5
A0
330
1F
100
AcDbEntity
  8
0
  6
Continuous
 62
     7
100
AcDbLine
 10
1496.5976510136
 20
234.4466958878
 30
0.0
 11
1496.5976510136
 21
231.4466958878
 31
0.0
  0
LINE
  5
A1
330
1F
100
AcDbEntity
  8
0
  6
Continuous
 62
     7
100
AcDbLine
 10
592.0976510136
 20
102.6524672537
 30
0.0
 11
593.5976510136
 21
102.6524672537
 31
0.0
  0
LINE
  5
A2
330
1F
100
AcDbEntity
  8
0
  6
Continuous
 62
     7
100
AcDbLine
 10
593.5976510136
 20
102.6524672537
 30
0.0
 11
593.5976510136
 21
105.6524672537
 31
0.0
  0
LINE
  5
A3
330
1F
100
AcDbEntity
  8
0
  6
Continuous
 62
     7
100
AcDbLine
 10
592.0976510136
 20
102.6524672537
 30
0.0
 11
592.0976510136
 21
105.6524672537
 31
0.0
  0
LINE
  5
A4
330
1F
100
AcDbEntity
  8
0
  6
Continuous
 62
     7
100
AcDbLine
 10
1498.0976510136
 20
102.6524672537
 30
0.0
 11
1496.5976510136
 21
102.6524672537
 31
0.0
  0
LINE
  5
A5
330
1F
100
AcDbEntity
  8
0
  6
Continuous
 62
     7
100
AcDbLine
 10
1498.0976510136
 20
105.6524672537
 30
0.0
 11
1498.0976510136
 21
102.6524672537
 31
0.0
  0
LINE
  5
A6
330
1F
100
AcDbEntity
  8
0
  6
Continuous
 62
     7
100
AcDbLine
 10
1496.5976510136
 20
105.6524672537
 30
0.0
 11
1496.5976510136
 21
102.6524672537
 31
0.0
  0
ARC
  5
A7
330
1F
100
AcDbEntity
  8
0
  6
Continuous
 62
     7
100
AcDbCircle
 10
1491.0018525695
 20
118.6270826062
 30
0.0
 40
4.154201555956203
100
AcDbArc
 50
164.0367205383
 51
180.0
  0
ARC
  5
A8
330
1F
100
AcDbEntity
  8
0
  6
Continuous
 62
     7
100
AcDbCircle
 10
1487.7997517915
 20
124.1732838446
 30
0.0
 40
4.154201555956599
100
AcDbArc
 50
224.0367205383
 51
255.9632794617
  0
ARC
  5
A9
330
1F
100
AcDbEntity
  8
0
  6
Continuous
 62
     7
100
AcDbCircle
 10
1484.5976510136
 20
121.0770826062
 30
0.0
 40
0.3000000000004835
100
AcDbArc
 50
44.0367205382
 51
135.9632794617
  0
ARC
  5
AA
330
1F
100
AcDbEntity
  8
0
  6
Continuous
 62
     7
100
AcDbCircle
 10
1481.3955502356
 20
124.1732838446
 30
0.0
 40
4.154201555956615
100
AcDbArc
 50
284.0367205383
 51
315.9632794617
  0
ARC
  5
AB
330
1F
100
AcDbEntity
  8
0
  6
Continuous
 62
     7
100
AcDbCircle
 10
1482.4758887743
 20
119.8520826062
 30
0.0
 40
0.3000000000010914
100
AcDbArc
 50
180.0
 51
195.9632794617
  0
ARC
  5
AC
330
1F
100
AcDbEntity
  8
0
  6
Continuous
 62
     7
100
AcDbCircle
 10
1478.1934494576
 20
118.6270826062
 30
0.0
 40
4.154201555956477
100
AcDbArc
 50
344.0367205383
 51
15.9632794618
  0
ARC
  5
AD
330
1F
100
AcDbEntity
  8
0
  6
Continuous
 62
     7
100
AcDbCircle
 10
1482.4758887743
 20
117.4020826062
 30
0.0
 40
0.3000000000007507
100
AcDbArc
 50
164.0367205383
 51
180.0
  0
ARC
  5
AE
330
1F
100
AcDbEntity
  8
0
  6
Continuous
 62
     7
100
AcDbCircle
 10
1482.4758887743
 20
117.4020826062
 30
0.0
 40
0.3000000000006216
100
AcDbArc
 50
180.0
 51
255.9632794617
  0
ARC
  5
AF
330
1F
100
AcDbEntity
  8
0
  6
Continuous
 62
     7
100
AcDbCircle
 10
1481.3955502356
 20
113.0808813678
 30
0.0
 40
4.1542015559561
100
AcDbArc
 50
44.0367205383
 51
75.9632794618
  0
ARC
  5
B0
330
1F
100
AcDbEntity
  8
0
  6
Continuous
 62
     7
100
AcDbCircle
 10
1484.5976510136
 20
116.1770826062
 30
0.0
 40
0.3000000000002168
100
AcDbArc
 50
224.0367205382
 51
315.9632794618
  0
ARC
  5
B1
330
1F
100
AcDbEntity
  8
0
  6
Continuous
 62
     7
100
AcDbCircle
 10
1487.7997517915
 20
113.0808813678
 30
0.0
 40
4.154201555956321
100
AcDbArc
 50
104.0367205382
 51
135.9632794617
  0
ARC
  5
B2
330
1F
100
AcDbEntity
  8
0
  6
Continuous
 62
     7
100
AcDbCircle
 10
1486.7194132528
 20
117.4020826062
 30
0.0
 40
0.3000000000006078
100
AcDbArc
 50
284.0367205383
 51
15.9632794618
  0
ARC
  5
B3
330
1F
100
AcDbEntity
  8
0
  6
Continuous
 62
     7
100
AcDbCircle
 10
1484.5976510136
 20
118.6270826062
 30
0.0
 40
3.132785809344114
100
AcDbArc
 50
0.0
 51
180.0
  0
ARC
  5
B4
330
1F
100
AcDbEntity
  8
0
  6
Continuous
 62
     7
100
AcDbCircle
 10
1484.5976510136
 20
118.6270826062
 30
0.0
 40
3.132785809344114
100
AcDbArc
 50
180.0
 51
0.0
  0
ARC
  5
B5
330
1F
100
AcDbEntity
  8
0
  6
Continuous
 62
     7
100
AcDbCircle
 10
1491.0018525695
 20
118.6270826062
 30
0.0
 40
4.154201555956317
100
AcDbArc
 50
180.0
 51
195.9632794617
  0
ARC
  5
B6
330
1F
100
AcDbEntity
  8
0
  6
Continuous
 62
     7
100
AcDbCircle
 10
1486.7194132528
 20
119.8520826062
 30
0.0
 40
0.3000000000004738
100
AcDbArc
 50
344.0367205382
 51
75.9632794617
  0
ARC
  5
B7
330
1F
100
AcDbEntity
  8
0
  6
Continuous
 62
     7
100
AcDbCircle
 10
1482.4758887743
 20
119.8520826062
 30
0.0
 40
0.3000000000010914
100
AcDbArc
 50
104.0367205383
 51
180.0
  0
LINE
  5
B8
330
1F
100
AcDbEntity
  8
0
  6
Continuous
 62
     7
100
AcDbLine
 10
1487.7304368229
 20
118.6270826062
 30
0.0
 11
1488.4233384512
 21
118.6270826062
 31
0.0
  0
ARC
  5
B9
330
1F
100
AcDbEntity
  8
0
  6
Continuous
 62
     7
100
AcDbCircle
 10
1484.5976510136
 20
118.6270826062
 30
0.0
 40
3.825687437599072
100
AcDbArc
 50
180.0
 51
0.0
  0
LINE
  5
BA
330
1F
100
AcDbEntity
  8
0
  6
Continuous
 62
     7
100
AcDbLine
 10
1481.4648652042
 20
118.6270826062
 30
0.0
 11
1480.771963576
 21
118.6270826062
 31
0.0
  0
ARC
  5
BB
330
1F
100
AcDbEntity
  8
0
  6
Continuous
 62
     7
100
AcDbCircle
 10
1484.5976510136
 20
118.6270826062
 30
0.0
 40
3.825687437599072
100
AcDbArc
 50
0.0
 51
180.0
  0
ARC
  5
BC
330
1F
100
AcDbEntity
  8
0
  6
Continuous
 62
     7
100
AcDbCircle
 10
1478.1934494576
 20
218.6273366441
 30
0.0
 40
4.154201555956309
100
AcDbArc
 50
0.0
 51
15.9632794617
  0
ARC
  5
BD
330
1F
100
AcDbEntity
  8
0
  6
Continuous
 62
     7
100
AcDbCircle
 10
1478.1934494576
 20
218.6273366441
 30
0.0
 40
4.154201555956286
100
AcDbArc
 50
344.0367205383
 51
0.0
  0
ARC
  5
BE
330
1F
100
AcDbEntity
  8
0
  6
Continuous
 62
     7
100
AcDbCircle
 10
1482.4758887743
 20
217.4023366441
 30
0.0
 40
0.300000000000825
100
AcDbArc
 50
164.0367205383
 51
255.9632794617
  0
ARC
  5
BF
330
1F
100
AcDbEntity
  8
0
  6
Continuous
 62
     7
100
AcDbCircle
 10
1481.3955502356
 20
213.0811354057
 30
0.0
 40
4.154201555956703
100
AcDbArc
 50
44.0367205383
 51
75.9632794617
  0
ARC
  5
C0
330
1F
100
AcDbEntity
  8
0
  6
Continuous
 62
     7
100
AcDbCircle
 10
1484.5976510136
 20
216.1773366441
 30
0.0
 40
0.3000000000004934
100
AcDbArc
 50
224.0367205383
 51
315.9632794617
  0
ARC
  5
C1
330
1F
100
AcDbEntity
  8
0
  6
Continuous
 62
     7
100
AcDbCircle
 10
1487.7997517915
 20
213.0811354057
 30
0.0
 40
4.154201555956461
100
AcDbArc
 50
104.0367205383
 51
135.9632794617
  0
ARC
  5
C2
330
1F
100
AcDbEntity
  8
0
  6
Continuous
 62
     7
100
AcDbCircle
 10
1486.7194132528
 20
217.4023366441
 30
0.0
 40
0.300000000000864
100
AcDbArc
 50
284.0367205383
 51
0.0
  0
ARC
  5
C3
330
1F
100
AcDbEntity
  8
0
  6
Continuous
 62
     7
100
AcDbCircle
 10
1486.7194132528
 20
217.4023366441
 30
0.0
 40
0.300000000000864
100
AcDbArc
 50
0.0
 51
15.9632794618
  0
ARC
  5
C4
330
1F
100
AcDbEntity
  8
0
  6
Continuous
 62
     7
100
AcDbCircle
 10
1491.0018525695
 20
218.6273366441
 30
0.0
 40
4.154201555956473
100
AcDbArc
 50
164.0367205383
 51
195.9632794618
  0
ARC
  5
C5
330
1F
100
AcDbEntity
  8
0
  6
Continuous
 62
     7
100
AcDbCircle
 10
1486.7194132528
 20
219.8523366441
 30
0.0
 40
0.300000000000864
100
AcDbArc
 50
344.0367205383
 51
0.0
  0
ARC
  5
C6
330
1F
100
AcDbEntity
  8
0
  6
Continuous
 62
     7
100
AcDbCircle
 10
1482.4758887743
 20
219.8523366441
 30
0.0
 40
0.300000000000825
100
AcDbArc
 50
104.0367205383
 51
195.9632794617
  0
ARC
  5
C7
330
1F
100
AcDbEntity
  8
0
  6
Continuous
 62
     7
100
AcDbCircle
 10
1484.5976510136
 20
218.6273366441
 30
0.0
 40
3.132785809344114
100
AcDbArc
 50
180.0
 51
0.0
  0
ARC
  5
C8
330
1F
100
AcDbEntity
  8
0
  6
Continuous
 62
     7
100
AcDbCircle
 10
1484.5976510136
 20
218.6273366441
 30
0.0
 40
3.132785809344114
100
AcDbArc
 50
0.0
 51
180.0
  0
ARC
  5
C9
330
1F
100
AcDbEntity
  8
0
  6
Continuous
 62
     7
100
AcDbCircle
 10
1487.7997517915
 20
224.1735378825
 30
0.0
 40
4.154201555956401
100
AcDbArc
 50
224.0367205383
 51
255.9632794618
  0
ARC
  5
CA
330
1F
100
AcDbEntity
  8
0
  6
Continuous
 62
     7
100
AcDbCircle
 10
1481.3955502356
 20
224.1735378825
 30
0.0
 40
4.154201555956362
100
AcDbArc
 50
284.0367205382
 51
315.9632794617
  0
ARC
  5
CB
330
1F
100
AcDbEntity
  8
0
  6
Continuous
 62
     7
100
AcDbCircle
 10
1484.5976510136
 20
221.0773366441
 30
0.0
 40
0.3000000000001971
100
AcDbArc
 50
44.0367205382
 51
135.9632794617
  0
ARC
  5
CC
330
1F
100
AcDbEntity
  8
0
  6
Continuous
 62
     7
100
AcDbCircle
 10
1486.7194132528
 20
219.8523366441
 30
0.0
 40
0.300000000000864
100
AcDbArc
 50
0.0
 51
75.9632794617
  0
ARC
  5
CD
330
1F
100
AcDbEntity
  8
0
  6
Continuous
 62
     7
100
AcDbCircle
 10
1484.5976510136
 20
218.6273366441
 30
0.0
 40
3.825687437599072
100
AcDbArc
 50
180.0
 51
0.0
  0
LINE
  5
CE
330
1F
100
AcDbEntity
  8
0
  6
Continuous
 62
     7
100
AcDbLine
 10
1481.4648652042
 20
218.6273366441
 30
0.0
 11
1480.771963576
 21
218.6273366441
 31
0.0
  0
LINE
  5
CF
330
1F
100
AcDbEntity
  8
0
  6
Continuous
 62
     7
100
AcDbLine
 10
1487.7304368229
 20
218.6273366441
 30
0.0
 11
1488.4233384512
 21
218.6273366441
 31
0.0
  0
ARC
  5
D0
330
1F
100
AcDbEntity
  8
0
  6
Continuous
 62
     7
100
AcDbCircle
 10
1484.5976510136
 20
218.6273366441
 30
0.0
 40
3.825687437599072
100
AcDbArc
 50
0.0
 51
180.0
  0
ARC
  5
D1
330
1F
100
AcDbEntity
  8
0
  6
Continuous
 62
     7
100
AcDbCircle
 10
605.5976510136
 20
218.4720805353
 30
0.0
 40
3.825687437599186
100
AcDbArc
 50
0.0
 51
180.0
  0
LINE
  5
D2
330
1F
100
AcDbEntity
  8
0
  6
Continuous
 62
     7
100
AcDbLine
 10
608.7304368229
 20
218.4720805353
 30
0.0
 11
609.4233384512
 21
218.4720805353
 31
0.0
  0
ARC
  5
D3
330
1F
100
AcDbEntity
  8
0
  6
Continuous
 62
     7
100
AcDbCircle
 10
605.5976510136
 20
218.4720805353
 30
0.0
 40
3.132785809343659
100
AcDbArc
 50
0.0
 51
180.0
  0
LINE
  5
D4
330
1F
100
AcDbEntity
  8
0
  6
Continuous
 62
     7
100
AcDbLine
 10
602.4648652042
 20
218.4720805353
 30
0.0
 11
601.771963576
 21
218.4720805353
 31
0.0
  0
ARC
  5
D5
330
1F
100
AcDbEntity
  8
0
  6
Continuous
 62
     7
100
AcDbCircle
 10
612.0018525695
 20
218.4720805353
 30
0.0
 40
4.154201555956387
100
AcDbArc
 50
164.0367205383
 51
180.0
  0
ARC
  5
D6
330
1F
100
AcDbEntity
  8
0
  6
Continuous
 62
     7
100
AcDbCircle
 10
607.7194132528
 20
219.6970805353
 30
0.0
 40
0.3000000000005113
100
AcDbArc
 50
344.0367205382
 51
75.9632794617
  0
ARC
  5
D7
330
1F
100
AcDbEntity
  8
0
  6
Continuous
 62
     7
100
AcDbCircle
 10
608.7997517915
 20
224.0182817737
 30
0.0
 40
4.154201555956293
100
AcDbArc
 50
224.0367205383
 51
255.9632794618
  0
ARC
  5
D8
330
1F
100
AcDbEntity
  8
0
  6
Continuous
 62
     7
100
AcDbCircle
 10
605.5976510136
 20
220.9220805353
 30
0.0
 40
0.3000000000005356
100
AcDbArc
 50
44.0367205383
 51
135.9632794618
  0
ARC
  5
D9
330
1F
100
AcDbEntity
  8
0
  6
Continuous
 62
     7
100
AcDbCircle
 10
602.3955502356
 20
224.0182817737
 30
0.0
 40
4.154201555956217
100
AcDbArc
 50
284.0367205383
 51
315.9632794617
  0
ARC
  5
DA
330
1F
100
AcDbEntity
  8
0
  6
Continuous
 62
     7
100
AcDbCircle
 10
599.1934494576
 20
218.4720805353
 30
0.0
 40
4.15420155595627
100
AcDbArc
 50
344.0367205383
 51
15.9632794618
  0
ARC
  5
DB
330
1F
100
AcDbEntity
  8
0
  6
Continuous
 62
     7
100
AcDbCircle
 10
603.4758887743
 20
217.2470805353
 30
0.0
 40
0.3000000000006366
100
AcDbArc
 50
164.0367205383
 51
180.0
  0
ARC
  5
DC
330
1F
100
AcDbEntity
  8
0
  6
Continuous
 62
     7
100
AcDbCircle
 10
603.4758887743
 20
217.2470805353
 30
0.0
 40
0.3000000000006366
100
AcDbArc
 50
180.0
 51
255.9632794618
  0
ARC
  5
DD
330
1F
100
AcDbEntity
  8
0
  6
Continuous
 62
     7
100
AcDbCircle
 10
602.3955502356
 20
212.9258792969
 30
0.0
 40
4.154201555956276
100
AcDbArc
 50
44.0367205383
 51
75.9632794618
  0
ARC
  5
DE
330
1F
100
AcDbEntity
  8
0
  6
Continuous
 62
     7
100
AcDbCircle
 10
605.5976510136
 20
216.0220805353
 30
0.0
 40
0.2999999999997884
100
AcDbArc
 50
224.0367205383
 51
315.9632794617
  0
ARC
  5
DF
330
1F
100
AcDbEntity
  8
0
  6
Continuous
 62
     7
100
AcDbCircle
 10
608.7997517915
 20
212.9258792969
 30
0.0
 40
4.154201555956444
100
AcDbArc
 50
104.0367205382
 51
135.9632794617
  0
ARC
  5
E0
330
1F
100
AcDbEntity
  8
0
  6
Continuous
 62
     7
100
AcDbCircle
 10
605.5976510136
 20
218.4720805353
 30
0.0
 40
3.132785809343659
100
AcDbArc
 50
180.0
 51
0.0
  0
ARC
  5
E1
330
1F
100
AcDbEntity
  8
0
  6
Continuous
 62
     7
100
AcDbCircle
 10
612.0018525695
 20
218.4720805353
 30
0.0
 40
4.154201555956426
100
AcDbArc
 50
180.0
 51
195.9632794617
  0
ARC
  5
E2
330
1F
100
AcDbEntity
  8
0
  6
Continuous
 62
     7
100
AcDbCircle
 10
603.4758887743
 20
219.6970805353
 30
0.0
 40
0.3000000000006366
100
AcDbArc
 50
180.0
 51
195.9632794618
  0
ARC
  5
E3
330
1F
100
AcDbEntity
  8
0
  6
Continuous
 62
     7
100
AcDbCircle
 10
603.4758887743
 20
219.6970805353
 30
0.0
 40
0.3000000000006366
100
AcDbArc
 50
104.0367205382
 51
180.0
  0
ARC
  5
E4
330
1F
100
AcDbEntity
  8
0
  6
Continuous
 62
     7
100
AcDbCircle
 10
607.7194132528
 20
217.2470805353
 30
0.0
 40
0.300000000000594
100
AcDbArc
 50
284.0367205383
 51
15.9632794618
  0
ARC
  5
E5
330
1F
100
AcDbEntity
  8
0
  6
Continuous
 62
     7
100
AcDbCircle
 10
605.5976510136
 20
218.4720805353
 30
0.0
 40
3.825687437599186
100
AcDbArc
 50
180.0
 51
0.0
  0
ARC
  5
E6
330
1F
100
AcDbEntity
  8
0
  6
Continuous
 62
     7
100
AcDbCircle
 10
599.1934494576
 20
118.6270826062
 30
0.0
 40
4.15420155595632
100
AcDbArc
 50
0.0
 51
15.9632794617
  0
ARC
  5
E7
330
1F
100
AcDbEntity
  8
0
  6
Continuous
 62
     7
100
AcDbCircle
 10
599.1934494576
 20
118.6270826062
 30
0.0
 40
4.15420155595632
100
AcDbArc
 50
344.0367205383
 51
0.0
  0
ARC
  5
E8
330
1F
100
AcDbEntity
  8
0
  6
Continuous
 62
     7
100
AcDbCircle
 10
602.3955502356
 20
113.0808813678
 30
0.0
 40
4.154201555956266
100
AcDbArc
 50
44.0367205383
 51
75.9632794617
  0
ARC
  5
E9
330
1F
100
AcDbEntity
  8
0
  6
Continuous
 62
     7
100
AcDbCircle
 10
605.5976510136
 20
116.1770826062
 30
0.0
 40
0.300000000000585
100
AcDbArc
 50
224.0367205382
 51
315.9632794617
  0
ARC
  5
EA
330
1F
100
AcDbEntity
  8
0
  6
Continuous
 62
     7
100
AcDbCircle
 10
608.7997517915
 20
113.0808813678
 30
0.0
 40
4.154201555956289
100
AcDbArc
 50
104.0367205383
 51
135.9632794617
  0
ARC
  5
EB
330
1F
100
AcDbEntity
  8
0
  6
Continuous
 62
     7
100
AcDbCircle
 10
607.7194132528
 20
117.4020826062
 30
0.0
 40
0.300000000000787
100
AcDbArc
 50
284.0367205382
 51
0.0
  0
ARC
  5
EC
330
1F
100
AcDbEntity
  8
0
  6
Continuous
 62
     7
100
AcDbCircle
 10
612.0018525695
 20
118.6270826062
 30
0.0
 40
4.154201555956263
100
AcDbArc
 50
164.0367205383
 51
195.9632794618
  0
ARC
  5
ED
330
1F
100
AcDbEntity
  8
0
  6
Continuous
 62
     7
100
AcDbCircle
 10
607.7194132528
 20
119.8520826062
 30
0.0
 40
0.3000000000006366
100
AcDbArc
 50
344.0367205383
 51
0.0
  0
ARC
  5
EE
330
1F
100
AcDbEntity
  8
0
  6
Continuous
 62
     7
100
AcDbCircle
 10
607.7194132528
 20
119.8520826062
 30
0.0
 40
0.3000000000006366
100
AcDbArc
 50
0.0
 51
75.9632794617
  0
ARC
  5
EF
330
1F
100
AcDbEntity
  8
0
  6
Continuous
 62
     7
100
AcDbCircle
 10
602.3955502356
 20
124.1732838446
 30
0.0
 40
4.154201555956451
100
AcDbArc
 50
284.0367205382
 51
315.9632794617
  0
ARC
  5
F0
330
1F
100
AcDbEntity
  8
0
  6
Continuous
 62
     7
100
AcDbCircle
 10
603.4758887743
 20
119.8520826062
 30
0.0
 40
0.3000000000006216
100
AcDbArc
 50
104.0367205383
 51
195.9632794617
  0
ARC
  5
F1
330
1F
100
AcDbEntity
  8
0
  6
Continuous
 62
     7
100
AcDbCircle
 10
605.5976510136
 20
118.6270826062
 30
0.0
 40
3.132785809343773
100
AcDbArc
 50
180.0
 51
0.0
  0
ARC
  5
F2
330
1F
100
AcDbEntity
  8
0
  6
Continuous
 62
     7
100
AcDbCircle
 10
605.5976510136
 20
118.6270826062
 30
0.0
 40
3.132785809343773
100
AcDbArc
 50
0.0
 51
180.0
  0
ARC
  5
F3
330
1F
100
AcDbEntity
  8
0
  6
Continuous
 62
     7
100
AcDbCircle
 10
607.7194132528
 20
117.4020826062
 30
0.0
 40
0.300000000000523
100
AcDbArc
 50
0.0
 51
15.9632794617
  0
ARC
  5
F4
330
1F
100
AcDbEntity
  8
0
  6
Continuous
 62
     7
100
AcDbCircle
 10
603.4758887743
 20
117.4020826062
 30
0.0
 40
0.300000000000594
100
AcDbArc
 50
164.0367205382
 51
255.9632794618
  0
ARC
  5
F5
330
1F
100
AcDbEntity
  8
0
  6
Continuous
 62
     7
100
AcDbCircle
 10
605.5976510136
 20
121.0770826062
 30
0.0
 40
0.2999999999998899
100
AcDbArc
 50
44.0367205383
 51
135.9632794617
  0
ARC
  5
F6
330
1F
100
AcDbEntity
  8
0
  6
Continuous
 62
     7
100
AcDbCircle
 10
608.7997517915
 20
124.1732838446
 30
0.0
 40
4.15420155595628
100
AcDbArc
 50
224.0367205383
 51
255.9632794618
  0
ARC
  5
F7
330
1F
100
AcDbEntity
  8
0
  6
Continuous
 62
     7
100
AcDbCircle
 10
605.5976510136
 20
118.6270826062
 30
0.0
 40
3.825687437599186
100
AcDbArc
 50
180.0
 51
0.0
  0
LINE
  5
F8
330
1F
100
AcDbEntity
  8
0
  6
Continuous
 62
     7
100
AcDbLine
 10
602.4648652042
 20
118.6270826062
 30
0.0
 11
601.771963576
 21
118.6270826062
 31
0.0
  0
LINE
  5
F9
330
1F
100
AcDbEntity
  8
0
  6
Continuous
 62
     7
100
AcDbLine
 10
608.7304368229
 20
118.6270826062
 30
0.0
 11
609.4233384512
 21
118.6270826062
 31
0.0
  0
ARC
  5
FA
330
1F
100
AcDbEntity
  8
0
  6
Continuous
 62
     7
100
AcDbCircle
 10
605.5976510136
 20
118.6270826062
 30
0.0
 40
3.825687437599186
100
AcDbArc
 50
0.0
 51
180.0
  0
LINE
  5
FB
330
1F
100
AcDbEntity
  8
0
  6
Continuous
 62
     7
100
AcDbLine
 10
1488.4233384512
 20
118.6270826062
 30
0.0
 11
1489.6905526418
 21
118.6270826062
 31
0.0
  0
ARC
  5
FC
330
1F
100
AcDbEntity
  8
0
  6
Continuous
 62
     7
100
AcDbCircle
 10
1484.5976510136
 20
118.6270826062
 30
0.0
 40
5.092901628256186
100
AcDbArc
 50
180.0
 51
0.0
  0
LINE
  5
FD
330
1F
100
AcDbEntity
  8
0
  6
Continuous
 62
     7
100
AcDbLine
 10
1480.771963576
 20
118.6270826062
 30
0.0
 11
1479.5047493853
 21
118.6270826062
 31
0.0
  0
ARC
  5
FE
330
1F
100
AcDbEntity
  8
0
  6
Continuous
 62
     7
100
AcDbCircle
 10
1484.5976510136
 20
118.6270826062
 30
0.0
 40
5.092901628256186
100
AcDbArc
 50
0.0
 51
180.0
  0
ARC
  5
FF
330
1F
100
AcDbEntity
  8
0
  6
Continuous
 62
     7
100
AcDbCircle
 10
1484.5976510136
 20
218.6273366441
 30
0.0
 40
5.092901628256186
100
AcDbArc
 50
180.0
 51
0.0
  0
LINE
  5
100
330
1F
100
AcDbEntity
  8
0
  6
Continuous
 62
     7
100
AcDbLine
 10
1480.771963576
 20
218.6273366441
 30
0.0
 11
1479.5047493853
 21
218.6273366441
 31
0.0
  0
LINE
  5
101
330
1F
100
AcDbEntity
  8
0
  6
Continuous
 62
     7
100
AcDbLine
 10
1488.4233384512
 20
218.6273366441
 30
0.0
 11
1489.6905526418
 21
218.6273366441
 31
0.0
  0
ARC
  5
102
330
1F
100
AcDbEntity
  8
0
  6
Continuous
 62
     7
100
AcDbCircle
 10
1484.5976510136
 20
218.6273366441
 30
0.0
 40
5.092901628256186
100
AcDbArc
 50
0.0
 51
180.0
  0
ARC
  5
103
330
1F
100
AcDbEntity
  8
0
  6
Continuous
 62
     7
100
AcDbCircle
 10
605.5976510136
 20
218.4720805353
 30
0.0
 40
5.092901628255504
100
AcDbArc
 50
0.0
 51
180.0
  0
LINE
  5
104
330
1F
100
AcDbEntity
  8
0
  6
Continuous
 62
     7
100
AcDbLine
 10
609.4233384512
 20
218.4720805353
 30
0.0
 11
610.6905526418
 21
218.4720805353
 31
0.0
  0
LINE
  5
105
330
1F
100
AcDbEntity
  8
0
  6
Continuous
 62
     7
100
AcDbLine
 10
601.771963576
 20
218.4720805353
 30
0.0
 11
600.5047493853
 21
218.4720805353
 31
0.0
  0
ARC
  5
106
330
1F
100
AcDbEntity
  8
0
  6
Continuous
 62
     7
100
AcDbCircle
 10
605.5976510136
 20
218.4720805353
 30
0.0
 40
5.092901628255504
100
AcDbArc
 50
180.0
 51
0.0
  0
LINE
  5
107
330
1F
100
AcDbEntity
  8
0
  6
Continuous
 62
     7
100
AcDbLine
 10
601.771963576
 20
118.6270826062
 30
0.0
 11
600.5047493853
 21
118.6270826062
 31
0.0
  0
ARC
  5
108
330
1F
100
AcDbEntity
  8
0
  6
Continuous
 62
     7
100
AcDbCircle
 10
605.5976510136
 20
118.6270826062
 30
0.0
 40
5.092901628255504
100
AcDbArc
 50
0.0
 51
180.0
  0
LINE
  5
109
330
1F
100
AcDbEntity
  8
0
  6
Continuous
 62
     7
100
AcDbLine
 10
609.4233384512
 20
118.6270826062
 30
0.0
 11
610.6905526418
 21
118.6270826062
 31
0.0
  0
ARC
  5
10A
330
1F
100
AcDbEntity
  8
0
  6
Continuous
 62
     7
100
AcDbCircle
 10
605.5976510136
 20
118.6270826062
 30
0.0
 40
5.092901628255504
100
AcDbArc
 50
180.0
 51
0.0
  0
ARC
  5
10B
330
1F
100
AcDbEntity
  8
0
  6
Continuous
 62
     7
100
AcDbCircle
 10
1484.5976510136
 20
118.6270826062
 30
0.0
 40
5.900000000000091
100
AcDbArc
 50
0.0
 51
180.0
  0
LINE
  5
10C
330
1F
100
AcDbEntity
  8
0
  6
Continuous
 62
     7
100
AcDbLine
 10
1489.6905526418
 20
118.6270826062
 30
0.0
 11
1490.4976510136
 21
118.6270826062
 31
0.0
  0
LINE
  5
10D
330
1F
100
AcDbEntity
  8
0
  6
Continuous
 62
     7
100
AcDbLine
 10
1479.5047493853
 20
118.6270826062
 30
0.0
 11
1478.6976510136
 21
118.6270826062
 31
0.0
  0
ARC
  5
10E
330
1F
100
AcDbEntity
  8
0
  6
Continuous
 62
     7
100
AcDbCircle
 10
1484.5976510136
 20
118.6270826062
 30
0.0
 40
5.900000000000091
100
AcDbArc
 50
180.0
 51
0.0
  0
ARC
  5
10F
330
1F
100
AcDbEntity
  8
0
  6
Continuous
 62
     7
100
AcDbCircle
 10
1484.5976510136
 20
218.6273366441
 30
0.0
 40
5.900000000000091
100
AcDbArc
 50
180.0
 51
0.0
  0
LINE
  5
110
330
1F
100
AcDbEntity
  8
0
  6
Continuous
 62
     7
100
AcDbLine
 10
1479.5047493853
 20
218.6273366441
 30
0.0
 11
1478.6976510136
 21
218.6273366441
 31
0.0
  0
LINE
  5
111
330
1F
100
AcDbEntity
  8
0
  6
Continuous
 62
     7
100
AcDbLine
 10
1489.6905526418
 20
218.6273366441
 30
0.0
 11
1490.4976510136
 21
218.6273366441
 31
0.0
  0
ARC
  5
112
330
1F
100
AcDbEntity
  8
0
  6
Continuous
 62
     7
100
AcDbCircle
 10
1484.5976510136
 20
218.6273366441
 30
0.0
 40
5.900000000000091
100
AcDbArc
 50
0.0
 51
180.0
  0
ARC
  5
113
330
1F
100
AcDbEntity
  8
0
  6
Continuous
 62
     7
100
AcDbCircle
 10
605.5976510136
 20
218.4720805353
 30
0.0
 40
5.900000000000091
100
AcDbArc
 50
0.0
 51
180.0
  0
LINE
  5
114
330
1F
100
AcDbEntity
  8
0
  6
Continuous
 62
     7
100
AcDbLine
 10
610.6905526418
 20
218.4720805353
 30
0.0
 11
611.4976510136
 21
218.4720805353
 31
0.0
  0
LINE
  5
115
330
1F
100
AcDbEntity
  8
0
  6
Continuous
 62
     7
100
AcDbLine
 10
600.5047493853
 20
218.4720805353
 30
0.0
 11
599.6976510136
 21
218.4720805353
 31
0.0
  0
ARC
  5
116
330
1F
100
AcDbEntity
  8
0
  6
Continuous
 62
     7
100
AcDbCircle
 10
605.5976510136
 20
218.4720805353
 30
0.0
 40
5.900000000000091
100
AcDbArc
 50
180.0
 51
0.0
  0
LINE
  5
117
330
1F
100
AcDbEntity
  8
0
  6
Continuous
 62
     7
100
AcDbLine
 10
600.5047493853
 20
118.6270826062
 30
0.0
 11
599.6976510136
 21
118.6270826062
 31
0.0
  0
ARC
  5
118
330
1F
100
AcDbEntity
  8
0
  6
Continuous
 62
     7
100
AcDbCircle
 10
605.5976510136
 20
118.6270826062
 30
0.0
 40
5.900000000000091
100
AcDbArc
 50
0.0
 51
180.0
  0
LINE
  5
119
330
1F
100
AcDbEntity
  8
0
  6
Continuous
 62
     7
100
AcDbLine
 10
610.6905526418
 20
118.6270826062
 30
0.0
 11
611.4976510136
 21
118.6270826062
 31
0.0
  0
ARC
  5
11A
330
1F
100
AcDbEntity
  8
0
  6
Continuous
 62
     7
100
AcDbCircle
 10
605.5976510136
 20
118.6270826062
 30
0.0
 40
5.900000000000091
100
AcDbArc
 50
180.0
 51
0.0
  0
ARC
  5
11B
330
1F
100
AcDbEntity
  8
0
  6
Continuous
 62
     7
100
AcDbCircle
 10
1484.5976510136
 20
193.5494545508
 30
0.0
 40
3.25
100
AcDbArc
 50
90.0
 51
270.0
  0
ARC
  5
11C
330
1F
100
AcDbEntity
  8
0
  6
Continuous
 62
     7
100
AcDbCircle
 10
1484.5976510136
 20
193.5494545508
 30
0.0
 40
3.25
100
AcDbArc
 50
270.0
 51
90.0
  0
ARC
  5
11D
330
1F
100
AcDbEntity
  8
0
  6
Continuous
 62
     7
100
AcDbCircle
 10
1484.5976510136
 20
168.5494545508
 30
0.0
 40
3.250000000000028
100
AcDbArc
 50
90.0
 51
270.0
  0
ARC
  5
11E
330
1F
100
AcDbEntity
  8
0
  6
Continuous
 62
     7
100
AcDbCircle
 10
1484.5976510136
 20
168.5494545508
 30
0.0
 40
3.250000000000028
100
AcDbArc
 50
270.0
 51
90.0
  0
LINE
  5
11F
330
1F
100
AcDbEntity
  8
0
  6
Continuous
 62
     7
100
AcDbLine
 10
634.0976510136
 20
191.2995815708
 30
0.0
 11
656.0976510136
 21
191.2995815708
 31
0.0
  0
ARC
  5
120
330
1F
100
AcDbEntity
  8
0
  6
Continuous
 62
     7
100
AcDbCircle
 10
634.0976510136
 20
187.2995815708
 30
0.0
 40
4.0
100
AcDbArc
 50
90.0
 51
270.0
  0
LINE
  5
121
330
1F
100
AcDbEntity
  8
0
  6
Continuous
 62
     7
100
AcDbLine
 10
656.0976510136
 20
183.2995815708
 30
0.0
 11
634.0976510136
 21
183.2995815708
 31
0.0
  0
ARC
  5
122
330
1F
100
AcDbEntity
  8
0
  6
Continuous
 62
     7
100
AcDbCircle
 10
656.0976510136
 20
187.2995815708
 30
0.0
 40
4.0
100
AcDbArc
 50
270.0
 51
0.0
  0
ARC
  5
123
330
1F
100
AcDbEntity
  8
0
  6
Continuous
 62
     7
100
AcDbCircle
 10
656.0976510136
 20
187.2995815708
 30
0.0
 40
4.0
100
AcDbArc
 50
0.0
 51
90.0
  0
LINE
  5
124
330
1F
100
AcDbEntity
  8
0
  6
Continuous
 62
     7
100
AcDbLine
 10
634.0976510136
 20
153.7995815708
 30
0.0
 11
656.0976510136
 21
153.7995815708
 31
0.0
  0
ARC
  5
125
330
1F
100
AcDbEntity
  8
0
  6
Continuous
 62
     7
100
AcDbCircle
 10
634.0976510136
 20
149.7995815708
 30
0.0
 40
4.0
100
AcDbArc
 50
90.0
 51
270.0
  0
LINE
  5
126
330
1F
100
AcDbEntity
  8
0
  6
Continuous
 62
     7
100
AcDbLine
 10
656.0976510136
 20
145.7995815708
 30
0.0
 11
634.0976510136
 21
145.7995815708
 31
0.0
  0
ARC
  5
127
330
1F
100
AcDbEntity
  8
0
  6
Continuous
 62
     7
100
AcDbCircle
 10
656.0976510136
 20
149.7995815708
 30
0.0
 40
4.000000000000085
100
AcDbArc
 50
270.0
 51
0.0
  0
ARC
  5
128
330
1F
100
AcDbEntity
  8
0
  6
Continuous
 62
     7
100
AcDbCircle
 10
656.0976510136
 20
149.7995815708
 30
0.0
 40
4.0
100
AcDbArc
 50
0.0
 51
90.0
  0
LINE
  5
129
330
1F
100
AcDbEntity
  8
0
  6
Continuous
 62
     7
100
AcDbLine
 10
684.0976510136
 20
191.2995815708
 30
0.0
 11
706.0976510136
 21
191.2995815708
 31
0.0
  0
ARC
  5
12A
330
1F
100
AcDbEntity
  8
0
  6
Continuous
 62
     7
100
AcDbCircle
 10
684.0976510136
 20
187.2995815708
 30
0.0
 40
4.000000000000028
100
AcDbArc
 50
90.0
 51
270.0
  0
LINE
  5
12B
330
1F
100
AcDbEntity
  8
0
  6
Continuous
 62
     7
100
AcDbLine
 10
706.0976510136
 20
183.2995815708
 30
0.0
 11
684.0976510136
 21
183.2995815708
 31
0.0
  0
ARC
  5
12C
330
1F
100
AcDbEntity
  8
0
  6
Continuous
 62
     7
100
AcDbCircle
 10
706.0976510136
 20
187.2995815708
 30
0.0
 40
4.000000000000028
100
AcDbArc
 50
270.0
 51
0.0
  0
ARC
  5
12D
330
1F
100
AcDbEntity
  8
0
  6
Continuous
 62
     7
100
AcDbCircle
 10
706.0976510136
 20
187.2995815708
 30
0.0
 40
4.0
100
AcDbArc
 50
0.0
 51
90.0
  0
LINE
  5
12E
330
1F
100
AcDbEntity
  8
0
  6
Continuous
 62
     7
100
AcDbLine
 10
684.0976510136
 20
153.7995815708
 30
0.0
 11
706.0976510136
 21
153.7995815708
 31
0.0
  0
ARC
  5
12F
330
1F
100
AcDbEntity
  8
0
  6
Continuous
 62
     7
100
AcDbCircle
 10
684.0976510136
 20
149.7995815708
 30
0.0
 40
4.0
100
AcDbArc
 50
90.0
 51
270.0
  0
LINE
  5
130
330
1F
100
AcDbEntity
  8
0
  6
Continuous
 62
     7
100
AcDbLine
 10
706.0976510136
 20
145.7995815708
 30
0.0
 11
684.0976510136
 21
145.7995815708
 31
0.0
  0
ARC
  5
131
330
1F
100
AcDbEntity
  8
0
  6
Continuous
 62
     7
100
AcDbCircle
 10
706.0976510136
 20
149.7995815708
 30
0.0
 40
4.0
100
AcDbArc
 50
270.0
 51
0.0
  0
ARC
  5
132
330
1F
100
AcDbEntity
  8
0
  6
Continuous
 62
     7
100
AcDbCircle
 10
706.0976510136
 20
149.7995815708
 30
0.0
 40
4.0
100
AcDbArc
 50
0.0
 51
90.0
  0
LINE
  5
133
330
1F
100
AcDbEntity
  8
0
  6
Continuous
 62
     7
100
AcDbLine
 10
734.0976510136
 20
191.2995815708
 30
0.0
 11
756.0976510136
 21
191.2995815708
 31
0.0
  0
ARC
  5
134
330
1F
100
AcDbEntity
  8
0
  6
Continuous
 62
     7
100
AcDbCircle
 10
734.0976510136
 20
187.2995815708
 30
0.0
 40
4.000000000000028
100
AcDbArc
 50
90.0
 51
270.0
  0
LINE
  5
135
330
1F
100
AcDbEntity
  8
0
  6
Continuous
 62
     7
100
AcDbLine
 10
756.0976510136
 20
183.2995815708
 30
0.0
 11
734.0976510136
 21
183.2995815708
 31
0.0
  0
ARC
  5
136
330
1F
100
AcDbEntity
  8
0
  6
Continuous
 62
     7
100
AcDbCircle
 10
756.0976510136
 20
187.2995815708
 30
0.0
 40
4.0
100
AcDbArc
 50
270.0
 51
0.0
  0
ARC
  5
137
330
1F
100
AcDbEntity
  8
0
  6
Continuous
 62
     7
100
AcDbCircle
 10
756.0976510136
 20
187.2995815708
 30
0.0
 40
4.000000000000028
100
AcDbArc
 50
0.0
 51
90.0
  0
LINE
  5
138
330
1F
100
AcDbEntity
  8
0
  6
Continuous
 62
     7
100
AcDbLine
 10
734.0976510136
 20
153.7995815708
 30
0.0
 11
756.0976510136
 21
153.7995815708
 31
0.0
  0
ARC
  5
139
330
1F
100
AcDbEntity
  8
0
  6
Continuous
 62
     7
100
AcDbCircle
 10
734.0976510136
 20
149.7995815708
 30
0.0
 40
4.0
100
AcDbArc
 50
90.0
 51
270.0
  0
LINE
  5
13A
330
1F
100
AcDbEntity
  8
0
  6
Continuous
 62
     7
100
AcDbLine
 10
756.0976510136
 20
145.7995815708
 30
0.0
 11
734.0976510136
 21
145.7995815708
 31
0.0
  0
ARC
  5
13B
330
1F
100
AcDbEntity
  8
0
  6
Continuous
 62
     7
100
AcDbCircle
 10
756.0976510136
 20
149.7995815708
 30
0.0
 40
4.0
100
AcDbArc
 50
270.0
 51
0.0
  0
ARC
  5
13C
330
1F
100
AcDbEntity
  8
0
  6
Continuous
 62
     7
100
AcDbCircle
 10
756.0976510136
 20
149.7995815708
 30
0.0
 40
4.0
100
AcDbArc
 50
0.0
 51
90.0
  0
LINE
  5
13D
330
1F
100
AcDbEntity
  8
0
  6
Continuous
 62
     7
100
AcDbLine
 10
784.0976510136
 20
191.2995815708
 30
0.0
 11
806.0976510136
 21
191.2995815708
 31
0.0
  0
ARC
  5
13E
330
1F
100
AcDbEntity
  8
0
  6
Continuous
 62
     7
100
AcDbCircle
 10
784.0976510136
 20
187.2995815708
 30
0.0
 40
4.0
100
AcDbArc
 50
90.0
 51
270.0
  0
LINE
  5
13F
330
1F
100
AcDbEntity
  8
0
  6
Continuous
 62
     7
100
AcDbLine
 10
806.0976510136
 20
183.2995815708
 30
0.0
 11
784.0976510136
 21
183.2995815708
 31
0.0
  0
ARC
  5
140
330
1F
100
AcDbEntity
  8
0
  6
Continuous
 62
     7
100
AcDbCircle
 10
806.0976510136
 20
187.2995815708
 30
0.0
 40
4.0
100
AcDbArc
 50
270.0
 51
0.0
  0
ARC
  5
141
330
1F
100
AcDbEntity
  8
0
  6
Continuous
 62
     7
100
AcDbCircle
 10
806.0976510136
 20
187.2995815708
 30
0.0
 40
4.0
100
AcDbArc
 50
0.0
 51
90.0
  0
LINE
  5
142
330
1F
100
AcDbEntity
  8
0
  6
Continuous
 62
     7
100
AcDbLine
 10
784.0976510136
 20
153.7995815708
 30
0.0
 11
806.0976510136
 21
153.7995815708
 31
0.0
  0
ARC
  5
143
330
1F
100
AcDbEntity
  8
0
  6
Continuous
 62
     7
100
AcDbCircle
 10
784.0976510136
 20
149.7995815708
 30
0.0
 40
4.0
100
AcDbArc
 50
90.0
 51
270.0
  0
LINE
  5
144
330
1F
100
AcDbEntity
  8
0
  6
Continuous
 62
     7
100
AcDbLine
 10
806.0976510136
 20
145.7995815708
 30
0.0
 11
784.0976510136
 21
145.7995815708
 31
0.0
  0
ARC
  5
145
330
1F
100
AcDbEntity
  8
0
  6
Continuous
 62
     7
100
AcDbCircle
 10
806.0976510136
 20
149.7995815708
 30
0.0
 40
4.0
100
AcDbArc
 50
270.0
 51
0.0
  0
ARC
  5
146
330
1F
100
AcDbEntity
  8
0
  6
Continuous
 62
     7
100
AcDbCircle
 10
806.0976510136
 20
149.7995815708
 30
0.0
 40
4.0
100
AcDbArc
 50
0.0
 51
90.0
  0
LINE
  5
147
330
1F
100
AcDbEntity
  8
0
  6
Continuous
 62
     7
100
AcDbLine
 10
834.0976510136
 20
191.2995815708
 30
0.0
 11
856.0976510136
 21
191.2995815708
 31
0.0
  0
ARC
  5
148
330
1F
100
AcDbEntity
  8
0
  6
Continuous
 62
     7
100
AcDbCircle
 10
834.0976510136
 20
187.2995815708
 30
0.0
 40
4.0
100
AcDbArc
 50
90.0
 51
270.0
  0
LINE
  5
149
330
1F
100
AcDbEntity
  8
0
  6
Continuous
 62
     7
100
AcDbLine
 10
856.0976510136
 20
183.2995815708
 30
0.0
 11
834.0976510136
 21
183.2995815708
 31
0.0
  0
ARC
  5
14A
330
1F
100
AcDbEntity
  8
0
  6
Continuous
 62
     7
100
AcDbCircle
 10
856.0976510136
 20
187.2995815708
 30
0.0
 40
4.0
100
AcDbArc
 50
270.0
 51
0.0
  0
ARC
  5
14B
330
1F
100
AcDbEntity
  8
0
  6
Continuous
 62
     7
100
AcDbCircle
 10
856.0976510136
 20
187.2995815708
 30
0.0
 40
4.0
100
AcDbArc
 50
0.0
 51
90.0
  0
LINE
  5
14C
330
1F
100
AcDbEntity
  8
0
  6
Continuous
 62
     7
100
AcDbLine
 10
834.0976510136
 20
153.7995815708
 30
0.0
 11
856.0976510136
 21
153.7995815708
 31
0.0
  0
ARC
  5
14D
330
1F
100
AcDbEntity
  8
0
  6
Continuous
 62
     7
100
AcDbCircle
 10
834.0976510136
 20
149.7995815708
 30
0.0
 40
4.0
100
AcDbArc
 50
90.0
 51
270.0
  0
LINE
  5
14E
330
1F
100
AcDbEntity
  8
0
  6
Continuous
 62
     7
100
AcDbLine
 10
856.0976510136
 20
145.7995815708
 30
0.0
 11
834.0976510136
 21
145.7995815708
 31
0.0
  0
ARC
  5
14F
330
1F
100
AcDbEntity
  8
0
  6
Continuous
 62
     7
100
AcDbCircle
 10
856.0976510136
 20
149.7995815708
 30
0.0
 40
4.0
100
AcDbArc
 50
270.0
 51
0.0
  0
ARC
  5
150
330
1F
100
AcDbEntity
  8
0
  6
Continuous
 62
     7
100
AcDbCircle
 10
856.0976510136
 20
149.7995815708
 30
0.0
 40
4.0
100
AcDbArc
 50
0.0
 51
90.0
  0
LINE
  5
151
330
1F
100
AcDbEntity
  8
0
  6
Continuous
 62
     7
100
AcDbLine
 10
884.0976510136
 20
191.2995815708
 30
0.0
 11
906.0976510136
 21
191.2995815708
 31
0.0
  0
ARC
  5
152
330
1F
100
AcDbEntity
  8
0
  6
Continuous
 62
     7
100
AcDbCircle
 10
884.0976510136
 20
187.2995815708
 30
0.0
 40
4.0
100
AcDbArc
 50
90.0
 51
270.0
  0
LINE
  5
153
330
1F
100
AcDbEntity
  8
0
  6
Continuous
 62
     7
100
AcDbLine
 10
906.0976510136
 20
183.2995815708
 30
0.0
 11
884.0976510136
 21
183.2995815708
 31
0.0
  0
ARC
  5
154
330
1F
100
AcDbEntity
  8
0
  6
Continuous
 62
     7
100
AcDbCircle
 10
906.0976510136
 20
187.2995815708
 30
0.0
 40
4.0
100
AcDbArc
 50
270.0
 51
0.0
  0
ARC
  5
155
330
1F
100
AcDbEntity
  8
0
  6
Continuous
 62
     7
100
AcDbCircle
 10
906.0976510136
 20
187.2995815708
 30
0.0
 40
4.0
100
AcDbArc
 50
0.0
 51
90.0
  0
LINE
  5
156
330
1F
100
AcDbEntity
  8
0
  6
Continuous
 62
     7
100
AcDbLine
 10
884.0976510136
 20
153.7995815708
 30
0.0
 11
906.0976510136
 21
153.7995815708
 31
0.0
  0
ARC
  5
157
330
1F
100
AcDbEntity
  8
0
  6
Continuous
 62
     7
100
AcDbCircle
 10
884.0976510136
 20
149.7995815708
 30
0.0
 40
4.0
100
AcDbArc
 50
90.0
 51
270.0
  0
LINE
  5
158
330
1F
100
AcDbEntity
  8
0
  6
Continuous
 62
     7
100
AcDbLine
 10
906.0976510136
 20
145.7995815708
 30
0.0
 11
884.0976510136
 21
145.7995815708
 31
0.0
  0
ARC
  5
159
330
1F
100
AcDbEntity
  8
0
  6
Continuous
 62
     7
100
AcDbCircle
 10
906.0976510136
 20
149.7995815708
 30
0.0
 40
4.0
100
AcDbArc
 50
270.0
 51
0.0
  0
ARC
  5
15A
330
1F
100
AcDbEntity
  8
0
  6
Continuous
 62
     7
100
AcDbCircle
 10
906.0976510136
 20
149.7995815708
 30
0.0
 40
4.0
100
AcDbArc
 50
0.0
 51
90.0
  0
LINE
  5
15B
330
1F
100
AcDbEntity
  8
0
  6
Continuous
 62
     7
100
AcDbLine
 10
934.0976510136
 20
191.2995815708
 30
0.0
 11
956.0976510136
 21
191.2995815708
 31
0.0
  0
ARC
  5
15C
330
1F
100
AcDbEntity
  8
0
  6
Continuous
 62
     7
100
AcDbCircle
 10
934.0976510136
 20
187.2995815708
 30
0.0
 40
4.0
100
AcDbArc
 50
90.0
 51
270.0
  0
LINE
  5
15D
330
1F
100
AcDbEntity
  8
0
  6
Continuous
 62
     7
100
AcDbLine
 10
956.0976510136
 20
183.2995815708
 30
0.0
 11
934.0976510136
 21
183.2995815708
 31
0.0
  0
ARC
  5
15E
330
1F
100
AcDbEntity
  8
0
  6
Continuous
 62
     7
100
AcDbCircle
 10
956.0976510136
 20
187.2995815708
 30
0.0
 40
4.000000000000057
100
AcDbArc
 50
270.0
 51
0.0
  0
ARC
  5
15F
330
1F
100
AcDbEntity
  8
0
  6
Continuous
 62
     7
100
AcDbCircle
 10
956.0976510136
 20
187.2995815708
 30
0.0
 40
4.0
100
AcDbArc
 50
0.0
 51
90.0
  0
LINE
  5
160
330
1F
100
AcDbEntity
  8
0
  6
Continuous
 62
     7
100
AcDbLine
 10
934.0976510136
 20
153.7995815708
 30
0.0
 11
956.0976510136
 21
153.7995815708
 31
0.0
  0
ARC
  5
161
330
1F
100
AcDbEntity
  8
0
  6
Continuous
 62
     7
100
AcDbCircle
 10
934.0976510136
 20
149.7995815708
 30
0.0
 40
4.0
100
AcDbArc
 50
90.0
 51
270.0
  0
LINE
  5
162
330
1F
100
AcDbEntity
  8
0
  6
Continuous
 62
     7
100
AcDbLine
 10
956.0976510136
 20
145.7995815708
 30
0.0
 11
934.0976510136
 21
145.7995815708
 31
0.0
  0
ARC
  5
163
330
1F
100
AcDbEntity
  8
0
  6
Continuous
 62
     7
100
AcDbCircle
 10
956.0976510136
 20
149.7995815708
 30
0.0
 40
4.0
100
AcDbArc
 50
270.0
 51
0.0
  0
ARC
  5
164
330
1F
100
AcDbEntity
  8
0
  6
Continuous
 62
     7
100
AcDbCircle
 10
956.0976510136
 20
149.7995815708
 30
0.0
 40
4.0
100
AcDbArc
 50
0.0
 51
90.0
  0
LINE
  5
165
330
1F
100
AcDbEntity
  8
0
  6
Continuous
 62
     7
100
AcDbLine
 10
984.0976510136
 20
191.2995815708
 30
0.0
 11
1006.0976510136
 21
191.2995815708
 31
0.0
  0
ARC
  5
166
330
1F
100
AcDbEntity
  8
0
  6
Continuous
 62
     7
100
AcDbCircle
 10
984.0976510136
 20
187.2995815708
 30
0.0
 40
4.000000000000057
100
AcDbArc
 50
90.0
 51
270.0
  0
LINE
  5
167
330
1F
100
AcDbEntity
  8
0
  6
Continuous
 62
     7
100
AcDbLine
 10
1006.0976510136
 20
183.2995815708
 30
0.0
 11
984.0976510136
 21
183.2995815708
 31
0.0
  0
ARC
  5
168
330
1F
100
AcDbEntity
  8
0
  6
Continuous
 62
     7
100
AcDbCircle
 10
1006.0976510136
 20
187.2995815708
 30
0.0
 40
4.0
100
AcDbArc
 50
270.0
 51
0.0
  0
ARC
  5
169
330
1F
100
AcDbEntity
  8
0
  6
Continuous
 62
     7
100
AcDbCircle
 10
1006.0976510136
 20
187.2995815708
 30
0.0
 40
4.000000000000057
100
AcDbArc
 50
0.0
 51
90.0
  0
LINE
  5
16A
330
1F
100
AcDbEntity
  8
0
  6
Continuous
 62
     7
100
AcDbLine
 10
984.0976510136
 20
153.7995815708
 30
0.0
 11
1006.0976510136
 21
153.7995815708
 31
0.0
  0
ARC
  5
16B
330
1F
100
AcDbEntity
  8
0
  6
Continuous
 62
     7
100
AcDbCircle
 10
984.0976510136
 20
149.7995815708
 30
0.0
 40
4.0
100
AcDbArc
 50
90.0
 51
270.0
  0
LINE
  5
16C
330
1F
100
AcDbEntity
  8
0
  6
Continuous
 62
     7
100
AcDbLine
 10
1006.0976510136
 20
145.7995815708
 30
0.0
 11
984.0976510136
 21
145.7995815708
 31
0.0
  0
ARC
  5
16D
330
1F
100
AcDbEntity
  8
0
  6
Continuous
 62
     7
100
AcDbCircle
 10
1006.0976510136
 20
149.7995815708
 30
0.0
 40
4.0
100
AcDbArc
 50
270.0
 51
0.0
  0
ARC
  5
16E
330
1F
100
AcDbEntity
  8
0
  6
Continuous
 62
     7
100
AcDbCircle
 10
1006.0976510136
 20
149.7995815708
 30
0.0
 40
4.0
100
AcDbArc
 50
0.0
 51
90.0
  0
LINE
  5
16F
330
1F
100
AcDbEntity
  8
0
  6
Continuous
 62
     7
100
AcDbLine
 10
1034.0976510136
 20
191.2995815708
 30
0.0
 11
1056.0976510136
 21
191.2995815708
 31
0.0
  0
ARC
  5
170
330
1F
100
AcDbEntity
  8
0
  6
Continuous
 62
     7
100
AcDbCircle
 10
1034.0976510136
 20
187.2995815708
 30
0.0
 40
4.0
100
AcDbArc
 50
90.0
 51
270.0
  0
LINE
  5
171
330
1F
100
AcDbEntity
  8
0
  6
Continuous
 62
     7
100
AcDbLine
 10
1056.0976510136
 20
183.2995815708
 30
0.0
 11
1034.0976510136
 21
183.2995815708
 31
0.0
  0
ARC
  5
172
330
1F
100
AcDbEntity
  8
0
  6
Continuous
 62
     7
100
AcDbCircle
 10
1056.0976510136
 20
187.2995815708
 30
0.0
 40
4.0
100
AcDbArc
 50
270.0
 51
0.0
  0
ARC
  5
173
330
1F
100
AcDbEntity
  8
0
  6
Continuous
 62
     7
100
AcDbCircle
 10
1056.0976510136
 20
187.2995815708
 30
0.0
 40
4.0
100
AcDbArc
 50
0.0
 51
90.0
  0
LINE
  5
174
330
1F
100
AcDbEntity
  8
0
  6
Continuous
 62
     7
100
AcDbLine
 10
1034.0976510136
 20
153.7995815708
 30
0.0
 11
1056.0976510136
 21
153.7995815708
 31
0.0
  0
ARC
  5
175
330
1F
100
AcDbEntity
  8
0
  6
Continuous
 62
     7
100
AcDbCircle
 10
1034.0976510136
 20
149.7995815708
 30
0.0
 40
4.0
100
AcDbArc
 50
90.0
 51
270.0
  0
LINE
  5
176
330
1F
100
AcDbEntity
  8
0
  6
Continuous
 62
     7
100
AcDbLine
 10
1056.0976510136
 20
145.7995815708
 30
0.0
 11
1034.0976510136
 21
145.7995815708
 31
0.0
  0
ARC
  5
177
330
1F
100
AcDbEntity
  8
0
  6
Continuous
 62
     7
100
AcDbCircle
 10
1056.0976510136
 20
149.7995815708
 30
0.0
 40
4.0
100
AcDbArc
 50
270.0
 51
0.0
  0
ARC
  5
178
330
1F
100
AcDbEntity
  8
0
  6
Continuous
 62
     7
100
AcDbCircle
 10
1056.0976510136
 20
149.7995815708
 30
0.0
 40
4.0
100
AcDbArc
 50
0.0
 51
90.0
  0
LINE
  5
179
330
1F
100
AcDbEntity
  8
0
  6
Continuous
 62
     7
100
AcDbLine
 10
1084.0976510136
 20
191.2995815708
 30
0.0
 11
1106.0976510136
 21
191.2995815708
 31
0.0
  0
ARC
  5
17A
330
1F
100
AcDbEntity
  8
0
  6
Continuous
 62
     7
100
AcDbCircle
 10
1084.0976510136
 20
187.2995815708
 30
0.0
 40
4.0
100
AcDbArc
 50
90.0
 51
270.0
  0
LINE
  5
17B
330
1F
100
AcDbEntity
  8
0
  6
Continuous
 62
     7
100
AcDbLine
 10
1106.0976510136
 20
183.2995815708
 30
0.0
 11
1084.0976510136
 21
183.2995815708
 31
0.0
  0
ARC
  5
17C
330
1F
100
AcDbEntity
  8
0
  6
Continuous
 62
     7
100
AcDbCircle
 10
1106.0976510136
 20
187.2995815708
 30
0.0
 40
4.0
100
AcDbArc
 50
270.0
 51
0.0
  0
ARC
  5
17D
330
1F
100
AcDbEntity
  8
0
  6
Continuous
 62
     7
100
AcDbCircle
 10
1106.0976510136
 20
187.2995815708
 30
0.0
 40
4.0
100
AcDbArc
 50
0.0
 51
90.0
  0
LINE
  5
17E
330
1F
100
AcDbEntity
  8
0
  6
Continuous
 62
     7
100
AcDbLine
 10
1084.0976510136
 20
153.7995815708
 30
0.0
 11
1106.0976510136
 21
153.7995815708
 31
0.0
  0
ARC
  5
17F
330
1F
100
AcDbEntity
  8
0
  6
Continuous
 62
     7
100
AcDbCircle
 10
1084.0976510136
 20
149.7995815708
 30
0.0
 40
4.0
100
AcDbArc
 50
90.0
 51
270.0
  0
LINE
  5
180
330
1F
100
AcDbEntity
  8
0
  6
Continuous
 62
     7
100
AcDbLine
 10
1106.0976510136
 20
145.7995815708
 30
0.0
 11
1084.0976510136
 21
145.7995815708
 31
0.0
  0
ARC
  5
181
330
1F
100
AcDbEntity
  8
0
  6
Continuous
 62
     7
100
AcDbCircle
 10
1106.0976510136
 20
149.7995815708
 30
0.0
 40
4.0
100
AcDbArc
 50
270.0
 51
0.0
  0
ARC
  5
182
330
1F
100
AcDbEntity
  8
0
  6
Continuous
 62
     7
100
AcDbCircle
 10
1106.0976510136
 20
149.7995815708
 30
0.0
 40
4.0
100
AcDbArc
 50
0.0
 51
90.0
  0
LINE
  5
183
330
1F
100
AcDbEntity
  8
0
  6
Continuous
 62
     7
100
AcDbLine
 10
1134.0976510136
 20
191.2995815708
 30
0.0
 11
1156.0976510136
 21
191.2995815708
 31
0.0
  0
ARC
  5
184
330
1F
100
AcDbEntity
  8
0
  6
Continuous
 62
     7
100
AcDbCircle
 10
1134.0976510136
 20
187.2995815708
 30
0.0
 40
4.000000000000057
100
AcDbArc
 50
90.0
 51
270.0
  0
LINE
  5
185
330
1F
100
AcDbEntity
  8
0
  6
Continuous
 62
     7
100
AcDbLine
 10
1156.0976510136
 20
183.2995815708
 30
0.0
 11
1134.0976510136
 21
183.2995815708
 31
0.0
  0
ARC
  5
186
330
1F
100
AcDbEntity
  8
0
  6
Continuous
 62
     7
100
AcDbCircle
 10
1156.0976510136
 20
187.2995815708
 30
0.0
 40
4.0
100
AcDbArc
 50
270.0
 51
0.0
  0
ARC
  5
187
330
1F
100
AcDbEntity
  8
0
  6
Continuous
 62
     7
100
AcDbCircle
 10
1156.0976510136
 20
187.2995815708
 30
0.0
 40
4.000000000000057
100
AcDbArc
 50
0.0
 51
90.0
  0
LINE
  5
188
330
1F
100
AcDbEntity
  8
0
  6
Continuous
 62
     7
100
AcDbLine
 10
1134.0976510136
 20
153.7995815708
 30
0.0
 11
1156.0976510136
 21
153.7995815708
 31
0.0
  0
ARC
  5
189
330
1F
100
AcDbEntity
  8
0
  6
Continuous
 62
     7
100
AcDbCircle
 10
1134.0976510136
 20
149.7995815708
 30
0.0
 40
4.0
100
AcDbArc
 50
90.0
 51
270.0
  0
LINE
  5
18A
330
1F
100
AcDbEntity
  8
0
  6
Continuous
 62
     7
100
AcDbLine
 10
1156.0976510136
 20
145.7995815708
 30
0.0
 11
1134.0976510136
 21
145.7995815708
 31
0.0
  0
ARC
  5
18B
330
1F
100
AcDbEntity
  8
0
  6
Continuous
 62
     7
100
AcDbCircle
 10
1156.0976510136
 20
149.7995815708
 30
0.0
 40
4.0
100
AcDbArc
 50
270.0
 51
0.0
  0
ARC
  5
18C
330
1F
100
AcDbEntity
  8
0
  6
Continuous
 62
     7
100
AcDbCircle
 10
1156.0976510136
 20
149.7995815708
 30
0.0
 40
4.0
100
AcDbArc
 50
0.0
 51
90.0
  0
LINE
  5
18D
330
1F
100
AcDbEntity
  8
0
  6
Continuous
 62
     7
100
AcDbLine
 10
1184.0976510136
 20
191.2995815708
 30
0.0
 11
1206.0976510136
 21
191.2995815708
 31
0.0
  0
ARC
  5
18E
330
1F
100
AcDbEntity
  8
0
  6
Continuous
 62
     7
100
AcDbCircle
 10
1184.0976510136
 20
187.2995815708
 30
0.0
 40
4.0
100
AcDbArc
 50
90.0
 51
270.0
  0
LINE
  5
18F
330
1F
100
AcDbEntity
  8
0
  6
Continuous
 62
     7
100
AcDbLine
 10
1206.0976510136
 20
183.2995815708
 30
0.0
 11
1184.0976510136
 21
183.2995815708
 31
0.0
  0
ARC
  5
190
330
1F
100
AcDbEntity
  8
0
  6
Continuous
 62
     7
100
AcDbCircle
 10
1206.0976510136
 20
187.2995815708
 30
0.0
 40
4.000000000000057
100
AcDbArc
 50
270.0
 51
0.0
  0
ARC
  5
191
330
1F
100
AcDbEntity
  8
0
  6
Continuous
 62
     7
100
AcDbCircle
 10
1206.0976510136
 20
187.2995815708
 30
0.0
 40
4.0
100
AcDbArc
 50
0.0
 51
90.0
  0
LINE
  5
192
330
1F
100
AcDbEntity
  8
0
  6
Continuous
 62
     7
100
AcDbLine
 10
1184.0976510136
 20
153.7995815708
 30
0.0
 11
1206.0976510136
 21
153.7995815708
 31
0.0
  0
ARC
  5
193
330
1F
100
AcDbEntity
  8
0
  6
Continuous
 62
     7
100
AcDbCircle
 10
1184.0976510136
 20
149.7995815708
 30
0.0
 40
4.0
100
AcDbArc
 50
90.0
 51
270.0
  0
LINE
  5
194
330
1F
100
AcDbEntity
  8
0
  6
Continuous
 62
     7
100
AcDbLine
 10
1206.0976510136
 20
145.7995815708
 30
0.0
 11
1184.0976510136
 21
145.7995815708
 31
0.0
  0
ARC
  5
195
330
1F
100
AcDbEntity
  8
0
  6
Continuous
 62
     7
100
AcDbCircle
 10
1206.0976510136
 20
149.7995815708
 30
0.0
 40
4.0
100
AcDbArc
 50
270.0
 51
0.0
  0
ARC
  5
196
330
1F
100
AcDbEntity
  8
0
  6
Continuous
 62
     7
100
AcDbCircle
 10
1206.0976510136
 20
149.7995815708
 30
0.0
 40
4.000000000000114
100
AcDbArc
 50
0.0
 51
90.0
  0
LINE
  5
197
330
1F
100
AcDbEntity
  8
0
  6
Continuous
 62
     7
100
AcDbLine
 10
1234.0976510136
 20
191.2995815708
 30
0.0
 11
1256.0976510136
 21
191.2995815708
 31
0.0
  0
ARC
  5
198
330
1F
100
AcDbEntity
  8
0
  6
Continuous
 62
     7
100
AcDbCircle
 10
1234.0976510136
 20
187.2995815708
 30
0.0
 40
4.000000000000057
100
AcDbArc
 50
90.0
 51
270.0
  0
LINE
  5
199
330
1F
100
AcDbEntity
  8
0
  6
Continuous
 62
     7
100
AcDbLine
 10
1256.0976510136
 20
183.2995815708
 30
0.0
 11
1234.0976510136
 21
183.2995815708
 31
0.0
  0
ARC
  5
19A
330
1F
100
AcDbEntity
  8
0
  6
Continuous
 62
     7
100
AcDbCircle
 10
1256.0976510136
 20
187.2995815708
 30
0.0
 40
4.000000000000057
100
AcDbArc
 50
270.0
 51
0.0
  0
ARC
  5
19B
330
1F
100
AcDbEntity
  8
0
  6
Continuous
 62
     7
100
AcDbCircle
 10
1256.0976510136
 20
187.2995815708
 30
0.0
 40
4.0
100
AcDbArc
 50
0.0
 51
90.0
  0
LINE
  5
19C
330
1F
100
AcDbEntity
  8
0
  6
Continuous
 62
     7
100
AcDbLine
 10
1234.0976510136
 20
153.7995815708
 30
0.0
 11
1256.0976510136
 21
153.7995815708
 31
0.0
  0
ARC
  5
19D
330
1F
100
AcDbEntity
  8
0
  6
Continuous
 62
     7
100
AcDbCircle
 10
1234.0976510136
 20
149.7995815708
 30
0.0
 40
4.000000000000114
100
AcDbArc
 50
90.0
 51
270.0
  0
LINE
  5
19E
330
1F
100
AcDbEntity
  8
0
  6
Continuous
 62
     7
100
AcDbLine
 10
1256.0976510136
 20
145.7995815708
 30
0.0
 11
1234.0976510136
 21
145.7995815708
 31
0.0
  0
ARC
  5
19F
330
1F
100
AcDbEntity
  8
0
  6
Continuous
 62
     7
100
AcDbCircle
 10
1256.0976510136
 20
149.7995815708
 30
0.0
 40
4.0
100
AcDbArc
 50
270.0
 51
0.0
  0
ARC
  5
1A0
330
1F
100
AcDbEntity
  8
0
  6
Continuous
 62
     7
100
AcDbCircle
 10
1256.0976510136
 20
149.7995815708
 30
0.0
 40
4.000000000000114
100
AcDbArc
 50
0.0
 51
90.0
  0
LINE
  5
1A1
330
1F
100
AcDbEntity
  8
0
  6
Continuous
 62
     7
100
AcDbLine
 10
1284.0976510136
 20
191.2995815708
 30
0.0
 11
1306.0976510136
 21
191.2995815708
 31
0.0
  0
ARC
  5
1A2
330
1F
100
AcDbEntity
  8
0
  6
Continuous
 62
     7
100
AcDbCircle
 10
1284.0976510136
 20
187.2995815708
 30
0.0
 40
4.000000000000057
100
AcDbArc
 50
90.0
 51
270.0
  0
LINE
  5
1A3
330
1F
100
AcDbEntity
  8
0
  6
Continuous
 62
     7
100
AcDbLine
 10
1306.0976510136
 20
183.2995815708
 30
0.0
 11
1284.0976510136
 21
183.2995815708
 31
0.0
  0
ARC
  5
1A4
330
1F
100
AcDbEntity
  8
0
  6
Continuous
 62
     7
100
AcDbCircle
 10
1306.0976510136
 20
187.2995815708
 30
0.0
 40
4.000000000000057
100
AcDbArc
 50
270.0
 51
0.0
  0
ARC
  5
1A5
330
1F
100
AcDbEntity
  8
0
  6
Continuous
 62
     7
100
AcDbCircle
 10
1306.0976510136
 20
187.2995815708
 30
0.0
 40
4.0
100
AcDbArc
 50
0.0
 51
90.0
  0
LINE
  5
1A6
330
1F
100
AcDbEntity
  8
0
  6
Continuous
 62
     7
100
AcDbLine
 10
1284.0976510136
 20
153.7995815708
 30
0.0
 11
1306.0976510136
 21
153.7995815708
 31
0.0
  0
ARC
  5
1A7
330
1F
100
AcDbEntity
  8
0
  6
Continuous
 62
     7
100
AcDbCircle
 10
1284.0976510136
 20
149.7995815708
 30
0.0
 40
4.0
100
AcDbArc
 50
90.0
 51
270.0
  0
LINE
  5
1A8
330
1F
100
AcDbEntity
  8
0
  6
Continuous
 62
     7
100
AcDbLine
 10
1306.0976510136
 20
145.7995815708
 30
0.0
 11
1284.0976510136
 21
145.7995815708
 31
0.0
  0
ARC
  5
1A9
330
1F
100
AcDbEntity
  8
0
  6
Continuous
 62
     7
100
AcDbCircle
 10
1306.0976510136
 20
149.7995815708
 30
0.0
 40
4.0
100
AcDbArc
 50
270.0
 51
0.0
  0
ARC
  5
1AA
330
1F
100
AcDbEntity
  8
0
  6
Continuous
 62
     7
100
AcDbCircle
 10
1306.0976510136
 20
149.7995815708
 30
0.0
 40
4.0
100
AcDbArc
 50
0.0
 51
90.0
  0
LINE
  5
1AB
330
1F
100
AcDbEntity
  8
0
  6
Continuous
 62
     7
100
AcDbLine
 10
1334.0976510136
 20
191.2995815708
 30
0.0
 11
1356.0976510136
 21
191.2995815708
 31
0.0
  0
ARC
  5
1AC
330
1F
100
AcDbEntity
  8
0
  6
Continuous
 62
     7
100
AcDbCircle
 10
1334.0976510136
 20
187.2995815708
 30
0.0
 40
4.0
100
AcDbArc
 50
90.0
 51
270.0
  0
LINE
  5
1AD
330
1F
100
AcDbEntity
  8
0
  6
Continuous
 62
     7
100
AcDbLine
 10
1356.0976510136
 20
183.2995815708
 30
0.0
 11
1334.0976510136
 21
183.2995815708
 31
0.0
  0
ARC
  5
1AE
330
1F
100
AcDbEntity
  8
0
  6
Continuous
 62
     7
100
AcDbCircle
 10
1356.0976510136
 20
187.2995815708
 30
0.0
 40
4.0
100
AcDbArc
 50
270.0
 51
0.0
  0
ARC
  5
1AF
330
1F
100
AcDbEntity
  8
0
  6
Continuous
 62
     7
100
AcDbCircle
 10
1356.0976510136
 20
187.2995815708
 30
0.0
 40
4.0
100
AcDbArc
 50
0.0
 51
90.0
  0
LINE
  5
1B0
330
1F
100
AcDbEntity
  8
0
  6
Continuous
 62
     7
100
AcDbLine
 10
1334.0976510136
 20
153.7995815708
 30
0.0
 11
1356.0976510136
 21
153.7995815708
 31
0.0
  0
ARC
  5
1B1
330
1F
100
AcDbEntity
  8
0
  6
Continuous
 62
     7
100
AcDbCircle
 10
1334.0976510136
 20
149.7995815708
 30
0.0
 40
4.0
100
AcDbArc
 50
90.0
 51
270.0
  0
LINE
  5
1B2
330
1F
100
AcDbEntity
  8
0
  6
Continuous
 62
     7
100
AcDbLine
 10
1356.0976510136
 20
145.7995815708
 30
0.0
 11
1334.0976510136
 21
145.7995815708
 31
0.0
  0
ARC
  5
1B3
330
1F
100
AcDbEntity
  8
0
  6
Continuous
 62
     7
100
AcDbCircle
 10
1356.0976510136
 20
149.7995815708
 30
0.0
 40
4.0
100
AcDbArc
 50
270.0
 51
0.0
  0
ARC
  5
1B4
330
1F
100
AcDbEntity
  8
0
  6
Continuous
 62
     7
100
AcDbCircle
 10
1356.0976510136
 20
149.7995815708
 30
0.0
 40
4.0
100
AcDbArc
 50
0.0
 51
90.0
  0
LINE
  5
1B5
330
1F
100
AcDbEntity
  8
0
  6
Continuous
 62
     7
100
AcDbLine
 10
1384.0976510136
 20
191.2995815708
 30
0.0
 11
1406.0976510136
 21
191.2995815708
 31
0.0
  0
ARC
  5
1B6
330
1F
100
AcDbEntity
  8
0
  6
Continuous
 62
     7
100
AcDbCircle
 10
1384.0976510136
 20
187.2995815708
 30
0.0
 40
4.0
100
AcDbArc
 50
90.0
 51
270.0
  0
LINE
  5
1B7
330
1F
100
AcDbEntity
  8
0
  6
Continuous
 62
     7
100
AcDbLine
 10
1406.0976510136
 20
183.2995815708
 30
0.0
 11
1384.0976510136
 21
183.2995815708
 31
0.0
  0
ARC
  5
1B8
330
1F
100
AcDbEntity
  8
0
  6
Continuous
 62
     7
100
AcDbCircle
 10
1406.0976510136
 20
187.2995815708
 30
0.0
 40
4.0
100
AcDbArc
 50
270.0
 51
0.0
  0
ARC
  5
1B9
330
1F
100
AcDbEntity
  8
0
  6
Continuous
 62
     7
100
AcDbCircle
 10
1406.0976510136
 20
187.2995815708
 30
0.0
 40
4.0
100
AcDbArc
 50
0.0
 51
90.0
  0
LINE
  5
1BA
330
1F
100
AcDbEntity
  8
0
  6
Continuous
 62
     7
100
AcDbLine
 10
1384.0976510136
 20
153.7995815708
 30
0.0
 11
1406.0976510136
 21
153.7995815708
 31
0.0
  0
ARC
  5
1BB
330
1F
100
AcDbEntity
  8
0
  6
Continuous
 62
     7
100
AcDbCircle
 10
1384.0976510136
 20
149.7995815708
 30
0.0
 40
4.0
100
AcDbArc
 50
90.0
 51
270.0
  0
LINE
  5
1BC
330
1F
100
AcDbEntity
  8
0
  6
Continuous
 62
     7
100
AcDbLine
 10
1406.0976510136
 20
145.7995815708
 30
0.0
 11
1384.0976510136
 21
145.7995815708
 31
0.0
  0
ARC
  5
1BD
330
1F
100
AcDbEntity
  8
0
  6
Continuous
 62
     7
100
AcDbCircle
 10
1406.0976510136
 20
149.7995815708
 30
0.0
 40
4.0
100
AcDbArc
 50
270.0
 51
0.0
  0
ARC
  5
1BE
330
1F
100
AcDbEntity
  8
0
  6
Continuous
 62
     7
100
AcDbCircle
 10
1406.0976510136
 20
149.7995815708
 30
0.0
 40
4.0
100
AcDbArc
 50
0.0
 51
90.0
  0
ARC
  5
1BF
330
1F
100
AcDbEntity
  8
0
  6
Continuous
 62
     7
100
AcDbCircle
 10
1434.0976510136
 20
149.7995815708
 30
0.0
 40
4.0
100
AcDbArc
 50
90.0
 51
270.0
  0
LINE
  5
1C0
330
1F
100
AcDbEntity
  8
0
  6
Continuous
 62
     7
100
AcDbLine
 10
1456.0976510136
 20
145.7995815708
 30
0.0
 11
1434.0976510136
 21
145.7995815708
 31
0.0
  0
ARC
  5
1C1
330
1F
100
AcDbEntity
  8
0
  6
Continuous
 62
     7
100
AcDbCircle
 10
1456.0976510136
 20
149.7995815708
 30
0.0
 40
4.0
100
AcDbArc
 50
270.0
 51
0.0
  0
ARC
  5
1C2
330
1F
100
AcDbEntity
  8
0
  6
Continuous
 62
     7
100
AcDbCircle
 10
1456.0976510136
 20
149.7995815708
 30
0.0
 40
4.0
100
AcDbArc
 50
0.0
 51
90.0
  0
LINE
  5
1C3
330
1F
100
AcDbEntity
  8
0
  6
Continuous
 62
     7
100
AcDbLine
 10
1434.0976510136
 20
153.7995815708
 30
0.0
 11
1456.0976510136
 21
153.7995815708
 31
0.0
  0
ARC
  5
1C4
330
1F
100
AcDbEntity
  8
0
  6
Continuous
 62
     7
100
AcDbCircle
 10
1025.0976510136
 20
228.5497085897
 30
0.0
 40
2.600000000000023
100
AcDbArc
 50
90.0
 51
270.0
  0
ARC
  5
1C5
330
1F
100
AcDbEntity
  8
0
  6
Continuous
 62
     7
100
AcDbCircle
 10
1025.0976510136
 20
228.5497085897
 30
0.0
 40
2.600000000000023
100
AcDbArc
 50
270.0
 51
90.0
  0
ARC
  5
1C6
330
1F
100
AcDbEntity
  8
0
  6
Continuous
 62
     7
100
AcDbCircle
 10
995.0976510136
 20
228.5497085897
 30
0.0
 40
2.599999999999994
100
AcDbArc
 50
90.0
 51
270.0
  0
ARC
  5
1C7
330
1F
100
AcDbEntity
  8
0
  6
Continuous
 62
     7
100
AcDbCircle
 10
995.0976510136
 20
228.5497085897
 30
0.0
 40
2.599999999999994
100
AcDbArc
 50
270.0
 51
90.0
  0
ARC
  5
1C8
330
1F
100
AcDbEntity
  8
0
  6
Continuous
 62
     7
100
AcDbCircle
 10
1095.0976510136
 20
228.5497085897
 30
0.0
 40
2.599999999999994
100
AcDbArc
 50
90.0
 51
270.0
  0
ARC
  5
1C9
330
1F
100
AcDbEntity
  8
0
  6
Continuous
 62
     7
100
AcDbCircle
 10
1095.0976510136
 20
228.5497085897
 30
0.0
 40
2.599999999999994
100
AcDbArc
 50
270.0
 51
90.0
  0
ARC
  5
1CA
330
1F
100
AcDbEntity
  8
0
  6
Continuous
 62
     7
100
AcDbCircle
 10
1065.0976510136
 20
228.5497085897
 30
0.0
 40
2.600000000000023
100
AcDbArc
 50
90.0
 51
270.0
  0
ARC
  5
1CB
330
1F
100
AcDbEntity
  8
0
  6
Continuous
 62
     7
100
AcDbCircle
 10
1065.0976510136
 20
228.5497085897
 30
0.0
 40
2.600000000000023
100
AcDbArc
 50
270.0
 51
90.0
  0
ARC
  5
1CC
330
1F
100
AcDbEntity
  8
0
  6
Continuous
 62
     7
100
AcDbCircle
 10
1065.0976510136
 20
108.5494545519
 30
0.0
 40
2.600000000000009
100
AcDbArc
 50
90.0
 51
270.0
  0
ARC
  5
1CD
330
1F
100
AcDbEntity
  8
0
  6
Continuous
 62
     7
100
AcDbCircle
 10
1065.0976510136
 20
108.5494545519
 30
0.0
 40
2.600000000000009
100
AcDbArc
 50
270.0
 51
90.0
  0
ARC
  5
1CE
330
1F
100
AcDbEntity
  8
0
  6
Continuous
 62
     7
100
AcDbCircle
 10
1095.0976510136
 20
108.5494545519
 30
0.0
 40
2.600000000000009
100
AcDbArc
 50
90.0
 51
270.0
  0
ARC
  5
1CF
330
1F
100
AcDbEntity
  8
0
  6
Continuous
 62
     7
100
AcDbCircle
 10
1095.0976510136
 20
108.5494545519
 30
0.0
 40
2.600000000000009
100
AcDbArc
 50
270.0
 51
90.0
  0
ARC
  5
1D0
330
1F
100
AcDbEntity
  8
0
  6
Continuous
 62
     7
100
AcDbCircle
 10
1025.0976510136
 20
108.5494545519
 30
0.0
 40
2.600000000000009
100
AcDbArc
 50
90.0
 51
270.0
  0
ARC
  5
1D1
330
1F
100
AcDbEntity
  8
0
  6
Continuous
 62
     7
100
AcDbCircle
 10
1025.0976510136
 20
108.5494545519
 30
0.0
 40
2.600000000000009
100
AcDbArc
 50
270.0
 51
90.0
  0
ARC
  5
1D2
330
1F
100
AcDbEntity
  8
0
  6
Continuous
 62
     7
100
AcDbCircle
 10
995.0976510136
 20
108.5494545519
 30
0.0
 40
2.600000000000009
100
AcDbArc
 50
90.0
 51
270.0
  0
ARC
  5
1D3
330
1F
100
AcDbEntity
  8
0
  6
Continuous
 62
     7
100
AcDbCircle
 10
995.0976510136
 20
108.5494545519
 30
0.0
 40
2.600000000000009
100
AcDbArc
 50
270.0
 51
90.0
  0
ARC
  5
1D4
330
1F
100
AcDbEntity
  8
0
  6
Continuous
 62
     7
100
AcDbCircle
 10
1045.0976510136
 20
228.5497085897
 30
0.0
 40
3.250000000000028
100
AcDbArc
 50
90.0
 51
270.0
  0
ARC
  5
1D5
330
1F
100
AcDbEntity
  8
0
  6
Continuous
 62
     7
100
AcDbCircle
 10
1045.0976510136
 20
228.5497085897
 30
0.0
 40
3.250000000000028
100
AcDbArc
 50
270.0
 51
90.0
  0
ARC
  5
1D6
330
1F
100
AcDbEntity
  8
0
  6
Continuous
 62
     7
100
AcDbCircle
 10
1045.0976510136
 20
108.5494545519
 30
0.0
 40
3.25
100
AcDbArc
 50
90.0
 51
270.0
  0
ARC
  5
1D7
330
1F
100
AcDbEntity
  8
0
  6
Continuous
 62
     7
100
AcDbCircle
 10
1045.0976510136
 20
108.5494545519
 30
0.0
 40
3.25
100
AcDbArc
 50
270.0
 51
90.0
  0
ARC
  5
1D8
330
1F
100
AcDbEntity
  8
0
  6
Continuous
 62
     7
100
AcDbCircle
 10
1434.0976510136
 20
187.2995815708
 30
0.0
 40
4.0
100
AcDbArc
 50
90.0
 51
270.0
  0
LINE
  5
1D9
330
1F
100
AcDbEntity
  8
0
  6
Continuous
 62
     7
100
AcDbLine
 10
1456.0976510136
 20
183.2995815708
 30
0.0
 11
1434.0976510136
 21
183.2995815708
 31
0.0
  0
ARC
  5
1DA
330
1F
100
AcDbEntity
  8
0
  6
Continuous
 62
     7
100
AcDbCircle
 10
1456.0976510136
 20
187.2995815708
 30
0.0
 40
4.000000000000085
100
AcDbArc
 50
270.0
 51
0.0
  0
ARC
  5
1DB
330
1F
100
AcDbEntity
  8
0
  6
Continuous
 62
     7
100
AcDbCircle
 10
1456.0976510136
 20
187.2995815708
 30
0.0
 40
4.0
100
AcDbArc
 50
0.0
 51
90.0
  0
LINE
  5
1DC
330
1F
100
AcDbEntity
  8
0
  6
Continuous
 62
     7
100
AcDbLine
 10
1434.0976510136
 20
191.2995815708
 30
0.0
 11
1456.0976510136
 21
191.2995815708
 31
0.0
  0
ARC
  5
1DD
330
1F
100
AcDbEntity
  8
0
  6
Continuous
 62
     7
100
AcDbCircle
 10
1484.5976510136
 20
143.5494545508
 30
0.0
 40
3.25
100
AcDbArc
 50
90.0
 51
270.0
  0
ARC
  5
1DE
330
1F
100
AcDbEntity
  8
0
  6
Continuous
 62
     7
100
AcDbCircle
 10
1484.5976510136
 20
143.5494545508
 30
0.0
 40
3.25
100
AcDbArc
 50
270.0
 51
90.0
  0
ARC
  5
1DF
330
1F
100
AcDbEntity
  8
0
  6
Continuous
 62
     7
100
AcDbCircle
 10
605.5976510136
 20
143.5494545508
 30
0.0
 40
3.25
100
AcDbArc
 50
90.0
 51
270.0
  0
ARC
  5
1E0
330
1F
100
AcDbEntity
  8
0
  6
Continuous
 62
     7
100
AcDbCircle
 10
605.5976510136
 20
143.5494545508
 30
0.0
 40
3.25
100
AcDbArc
 50
270.0
 51
90.0
  0
ARC
  5
1E1
330
1F
100
AcDbEntity
  8
0
  6
Continuous
 62
     7
100
AcDbCircle
 10
605.5976510136
 20
168.5494545508
 30
0.0
 40
3.25
100
AcDbArc
 50
90.0
 51
270.0
  0
ARC
  5
1E2
330
1F
100
AcDbEntity
  8
0
  6
Continuous
 62
     7
100
AcDbCircle
 10
605.5976510136
 20
168.5494545508
 30
0.0
 40
3.25
100
AcDbArc
 50
270.0
 51
90.0
  0
ARC
  5
1E3
330
1F
100
AcDbEntity
  8
0
  6
Continuous
 62
     7
100
AcDbCircle
 10
605.5976510136
 20
193.5494545508
 30
0.0
 40
3.25
100
AcDbArc
 50
90.0
 51
270.0
  0
ARC
  5
1E4
330
1F
100
AcDbEntity
  8
0
  6
Continuous
 62
     7
100
AcDbCircle
 10
605.5976510136
 20
193.5494545508
 30
0.0
 40
3.25
100
AcDbArc
 50
270.0
 51
90.0
  0
ARC
  5
1E5
330
1F
100
AcDbEntity
  8
0
  6
Continuous
 62
     7
100
AcDbCircle
 10
1145.0976510136
 20
228.5497085897
 30
0.0
 40
3.250000000000028
100
AcDbArc
 50
90.0
 51
270.0
  0
ARC
  5
1E6
330
1F
100
AcDbEntity
  8
0
  6
Continuous
 62
     7
100
AcDbCircle
 10
1145.0976510136
 20
228.5497085897
 30
0.0
 40
3.250000000000028
100
AcDbArc
 50
270.0
 51
90.0
  0
ARC
  5
1E7
330
1F
100
AcDbEntity
  8
0
  6
Continuous
 62
     7
100
AcDbCircle
 10
1145.0976510136
 20
108.5494545519
 30
0.0
 40
3.25
100
AcDbArc
 50
90.0
 51
270.0
  0
ARC
  5
1E8
330
1F
100
AcDbEntity
  8
0
  6
Continuous
 62
     7
100
AcDbCircle
 10
1145.0976510136
 20
108.5494545519
 30
0.0
 40
3.25
100
AcDbArc
 50
270.0
 51
90.0
  0
ARC
  5
1E9
330
1F
100
AcDbEntity
  8
0
  6
Continuous
 62
     7
100
AcDbCircle
 10
1245.0976510136
 20
228.5497085897
 30
0.0
 40
3.250000000000028
100
AcDbArc
 50
90.0
 51
270.0
  0
ARC
  5
1EA
330
1F
100
AcDbEntity
  8
0
  6
Continuous
 62
     7
100
AcDbCircle
 10
1245.0976510136
 20
228.5497085897
 30
0.0
 40
3.250000000000028
100
AcDbArc
 50
270.0
 51
90.0
  0
ARC
  5
1EB
330
1F
100
AcDbEntity
  8
0
  6
Continuous
 62
     7
100
AcDbCircle
 10
1245.0976510136
 20
108.5494545519
 30
0.0
 40
3.25
100
AcDbArc
 50
90.0
 51
270.0
  0
ARC
  5
1EC
330
1F
100
AcDbEntity
  8
0
  6
Continuous
 62
     7
100
AcDbCircle
 10
1245.0976510136
 20
108.5494545519
 30
0.0
 40
3.25
100
AcDbArc
 50
270.0
 51
90.0
  0
ARC
  5
1ED
330
1F
100
AcDbEntity
  8
0
  6
Continuous
 62
     7
100
AcDbCircle
 10
1345.0976510136
 20
228.5497085897
 30
0.0
 40
3.250000000000057
100
AcDbArc
 50
90.0
 51
270.0
  0
ARC
  5
1EE
330
1F
100
AcDbEntity
  8
0
  6
Continuous
 62
     7
100
AcDbCircle
 10
1345.0976510136
 20
228.5497085897
 30
0.0
 40
3.250000000000057
100
AcDbArc
 50
270.0
 51
90.0
  0
ARC
  5
1EF
330
1F
100
AcDbEntity
  8
0
  6
Continuous
 62
     7
100
AcDbCircle
 10
1345.0976510136
 20
108.5494545519
 30
0.0
 40
3.25
100
AcDbArc
 50
90.0
 51
270.0
  0
ARC
  5
1F0
330
1F
100
AcDbEntity
  8
0
  6
Continuous
 62
     7
100
AcDbCircle
 10
1345.0976510136
 20
108.5494545519
 30
0.0
 40
3.25
100
AcDbArc
 50
270.0
 51
90.0
  0
ARC
  5
1F1
330
1F
100
AcDbEntity
  8
0
  6
Continuous
 62
     7
100
AcDbCircle
 10
1445.0976510136
 20
228.5497085897
 30
0.0
 40
3.250000000000028
100
AcDbArc
 50
90.0
 51
270.0
  0
ARC
  5
1F2
330
1F
100
AcDbEntity
  8
0
  6
Continuous
 62
     7
100
AcDbCircle
 10
1445.0976510136
 20
228.5497085897
 30
0.0
 40
3.250000000000028
100
AcDbArc
 50
270.0
 51
90.0
  0
ARC
  5
1F3
330
1F
100
AcDbEntity
  8
0
  6
Continuous
 62
     7
100
AcDbCircle
 10
1445.0976510136
 20
108.5494545519
 30
0.0
 40
3.25
100
AcDbArc
 50
90.0
 51
270.0
  0
ARC
  5
1F4
330
1F
100
AcDbEntity
  8
0
  6
Continuous
 62
     7
100
AcDbCircle
 10
1445.0976510136
 20
108.5494545519
 30
0.0
 40
3.25
100
AcDbArc
 50
270.0
 51
90.0
  0
ARC
  5
1F5
330
1F
100
AcDbEntity
  8
0
  6
Continuous
 62
     7
100
AcDbCircle
 10
945.0976510136
 20
228.5497085897
 30
0.0
 40
3.250000000000028
100
AcDbArc
 50
90.0
 51
270.0
  0
ARC
  5
1F6
330
1F
100
AcDbEntity
  8
0
  6
Continuous
 62
     7
100
AcDbCircle
 10
945.0976510136
 20
228.5497085897
 30
0.0
 40
3.250000000000028
100
AcDbArc
 50
270.0
 51
90.0
  0
ARC
  5
1F7
330
1F
100
AcDbEntity
  8
0
  6
Continuous
 62
     7
100
AcDbCircle
 10
945.0976510136
 20
108.5494545519
 30
0.0
 40
3.250000000000227
100
AcDbArc
 50
90.0
 51
270.0
  0
ARC
  5
1F8
330
1F
100
AcDbEntity
  8
0
  6
Continuous
 62
     7
100
AcDbCircle
 10
945.0976510136
 20
108.5494545519
 30
0.0
 40
3.250000000000227
100
AcDbArc
 50
270.0
 51
90.0
  0
ARC
  5
1F9
330
1F
100
AcDbEntity
  8
0
  6
Continuous
 62
     7
100
AcDbCircle
 10
845.0976510136
 20
228.5497085897
 30
0.0
 40
3.250000000000028
100
AcDbArc
 50
90.0
 51
270.0
  0
ARC
  5
1FA
330
1F
100
AcDbEntity
  8
0
  6
Continuous
 62
     7
100
AcDbCircle
 10
845.0976510136
 20
228.5497085897
 30
0.0
 40
3.250000000000028
100
AcDbArc
 50
270.0
 51
90.0
  0
ARC
  5
1FB
330
1F
100
AcDbEntity
  8
0
  6
Continuous
 62
     7
100
AcDbCircle
 10
845.0976510136
 20
108.5494545519
 30
0.0
 40
3.250000000000213
100
AcDbArc
 50
90.0
 51
270.0
  0
ARC
  5
1FC
330
1F
100
AcDbEntity
  8
0
  6
Continuous
 62
     7
100
AcDbCircle
 10
845.0976510136
 20
108.5494545519
 30
0.0
 40
3.250000000000213
100
AcDbArc
 50
270.0
 51
90.0
  0
ARC
  5
1FD
330
1F
100
AcDbEntity
  8
0
  6
Continuous
 62
     7
100
AcDbCircle
 10
745.0976510136
 20
228.5497085897
 30
0.0
 40
3.250000000000028
100
AcDbArc
 50
90.0
 51
270.0
  0
ARC
  5
1FE
330
1F
100
AcDbEntity
  8
0
  6
Continuous
 62
     7
100
AcDbCircle
 10
745.0976510136
 20
228.5497085897
 30
0.0
 40
3.250000000000028
100
AcDbArc
 50
270.0
 51
90.0
  0
ARC
  5
1FF
330
1F
100
AcDbEntity
  8
0
  6
Continuous
 62
     7
100
AcDbCircle
 10
745.0976510136
 20
108.5494545519
 30
0.0
 40
3.250000000000014
100
AcDbArc
 50
90.0
 51
270.0
  0
ARC
  5
200
330
1F
100
AcDbEntity
  8
0
  6
Continuous
 62
     7
100
AcDbCircle
 10
745.0976510136
 20
108.5494545519
 30
0.0
 40
3.250000000000014
100
AcDbArc
 50
270.0
 51
90.0
  0
ARC
  5
201
330
1F
100
AcDbEntity
  8
0
  6
Continuous
 62
     7
100
AcDbCircle
 10
645.0976510136
 20
228.5497085897
 30
0.0
 40
3.250000000000028
100
AcDbArc
 50
90.0
 51
270.0
  0
ARC
  5
202
330
1F
100
AcDbEntity
  8
0
  6
Continuous
 62
     7
100
AcDbCircle
 10
645.0976510136
 20
228.5497085897
 30
0.0
 40
3.250000000000028
100
AcDbArc
 50
270.0
 51
90.0
  0
ARC
  5
203
330
1F
100
AcDbEntity
  8
0
  6
Continuous
 62
     7
100
AcDbCircle
 10
645.0976510136
 20
108.5494545519
 30
0.0
 40
3.250000000000199
100
AcDbArc
 50
90.0
 51
270.0
  0
ARC
  5
204
330
1F
100
AcDbEntity
  8
0
  6
Continuous
 62
     7
100
AcDbCircle
 10
645.0976510136
 20
108.5494545519
 30
0.0
 40
3.250000000000199
100
AcDbArc
 50
270.0
 51
90.0
  0
ARC
  5
205
330
1F
100
AcDbEntity
  8
0
  6
Continuous
 62
     7
100
AcDbCircle
 10
895.0976510136
 20
108.5494545519
 30
0.0
 40
2.600000000000023
100
AcDbArc
 50
90.0
 51
270.0
  0
ARC
  5
206
330
1F
100
AcDbEntity
  8
0
  6
Continuous
 62
     7
100
AcDbCircle
 10
895.0976510136
 20
108.5494545519
 30
0.0
 40
2.600000000000023
100
AcDbArc
 50
270.0
 51
90.0
  0
ARC
  5
207
330
1F
100
AcDbEntity
  8
0
  6
Continuous
 62
     7
100
AcDbCircle
 10
895.0976510136
 20
228.5497085897
 30
0.0
 40
2.599999999999994
100
AcDbArc
 50
90.0
 51
270.0
  0
ARC
  5
208
330
1F
100
AcDbEntity
  8
0
  6
Continuous
 62
     7
100
AcDbCircle
 10
895.0976510136
 20
228.5497085897
 30
0.0
 40
2.599999999999994
100
AcDbArc
 50
270.0
 51
90.0
  0
ARC
  5
209
330
1F
100
AcDbEntity
  8
0
  6
Continuous
 62
     7
100
AcDbCircle
 10
1195.0976510136
 20
108.5494545519
 30
0.0
 40
2.600000000000009
100
AcDbArc
 50
90.0
 51
270.0
  0
ARC
  5
20A
330
1F
100
AcDbEntity
  8
0
  6
Continuous
 62
     7
100
AcDbCircle
 10
1195.0976510136
 20
108.5494545519
 30
0.0
 40
2.600000000000009
100
AcDbArc
 50
270.0
 51
90.0
  0
ARC
  5
20B
330
1F
100
AcDbEntity
  8
0
  6
Continuous
 62
     7
100
AcDbCircle
 10
1195.0976510136
 20
228.5497085897
 30
0.0
 40
2.599999999999994
100
AcDbArc
 50
90.0
 51
270.0
  0
ARC
  5
20C
330
1F
100
AcDbEntity
  8
0
  6
Continuous
 62
     7
100
AcDbCircle
 10
1195.0976510136
 20
228.5497085897
 30
0.0
 40
2.599999999999994
100
AcDbArc
 50
270.0
 51
90.0
  0
ARC
  5
20D
330
1F
100
AcDbEntity
  8
0
  6
Continuous
 62
     7
100
AcDbCircle
 10
1295.0976510136
 20
108.5494545519
 30
0.0
 40
2.600000000000009
100
AcDbArc
 50
90.0
 51
270.0
  0
ARC
  5
20E
330
1F
100
AcDbEntity
  8
0
  6
Continuous
 62
     7
100
AcDbCircle
 10
1295.0976510136
 20
108.5494545519
 30
0.0
 40
2.600000000000009
100
AcDbArc
 50
270.0
 51
90.0
  0
ARC
  5
20F
330
1F
100
AcDbEntity
  8
0
  6
Continuous
 62
     7
100
AcDbCircle
 10
1295.0976510136
 20
228.5497085897
 30
0.0
 40
2.600000000000023
100
AcDbArc
 50
90.0
 51
270.0
  0
ARC
  5
210
330
1F
100
AcDbEntity
  8
0
  6
Continuous
 62
     7
100
AcDbCircle
 10
1295.0976510136
 20
228.5497085897
 30
0.0
 40
2.600000000000023
100
AcDbArc
 50
270.0
 51
90.0
  0
ARC
  5
211
330
1F
100
AcDbEntity
  8
0
  6
Continuous
 62
     7
100
AcDbCircle
 10
795.0976510136
 20
108.5494545519
 30
0.0
 40
2.600000000000009
100
AcDbArc
 50
90.0
 51
270.0
  0
ARC
  5
212
330
1F
100
AcDbEntity
  8
0
  6
Continuous
 62
     7
100
AcDbCircle
 10
795.0976510136
 20
108.5494545519
 30
0.0
 40
2.600000000000009
100
AcDbArc
 50
270.0
 51
90.0
  0
ARC
  5
213
330
1F
100
AcDbEntity
  8
0
  6
Continuous
 62
     7
100
AcDbCircle
 10
795.0976510136
 20
228.5497085897
 30
0.0
 40
2.599999999999994
100
AcDbArc
 50
90.0
 51
270.0
  0
ARC
  5
214
330
1F
100
AcDbEntity
  8
0
  6
Continuous
 62
     7
100
AcDbCircle
 10
795.0976510136
 20
228.5497085897
 30
0.0
 40
2.599999999999994
100
AcDbArc
 50
270.0
 51
90.0
  0
ARC
  5
215
330
1F
100
AcDbEntity
  8
0
  6
Continuous
 62
     7
100
AcDbCircle
 10
1395.0976510136
 20
228.5495815708
 30
0.0
 40
2.599999999999994
100
AcDbArc
 50
90.0
 51
270.0
  0
ARC
  5
216
330
1F
100
AcDbEntity
  8
0
  6
Continuous
 62
     7
100
AcDbCircle
 10
1395.0976510136
 20
228.5495815708
 30
0.0
 40
2.599999999999994
100
AcDbArc
 50
270.0
 51
90.0
  0
ARC
  5
217
330
1F
100
AcDbEntity
  8
0
  6
Continuous
 62
     7
100
AcDbCircle
 10
695.0976510136
 20
108.5495815708
 30
0.0
 40
2.600000000000009
100
AcDbArc
 50
90.0
 51
270.0
  0
ARC
  5
218
330
1F
100
AcDbEntity
  8
0
  6
Continuous
 62
     7
100
AcDbCircle
 10
695.0976510136
 20
108.5495815708
 30
0.0
 40
2.600000000000009
100
AcDbArc
 50
270.0
 51
90.0
  0
ARC
  5
219
330
1F
100
AcDbEntity
  8
0
  6
Continuous
 62
     7
100
AcDbCircle
 10
695.0976510136
 20
228.5495815708
 30
0.0
 40
2.599999999999994
100
AcDbArc
 50
90.0
 51
270.0
  0
ARC
  5
21A
330
1F
100
AcDbEntity
  8
0
  6
Continuous
 62
     7
100
AcDbCircle
 10
695.0976510136
 20
228.5495815708
 30
0.0
 40
2.599999999999994
100
AcDbArc
 50
270.0
 51
90.0
  0
ARC
  5
21B
330
1F
100
AcDbEntity
  8
0
  6
Continuous
 62
     7
100
AcDbCircle
 10
1395.0976510136
 20
108.5495815708
 30
0.0
 40
2.600000000000023
100
AcDbArc
 50
90.0
 51
270.0
  0
ARC
  5
21C
330
1F
100
AcDbEntity
  8
0
  6
Continuous
 62
     7
100
AcDbCircle
 10
1395.0976510136
 20
108.5495815708
 30
0.0
 40
2.600000000000023
100
AcDbArc
 50
270.0
 51
90.0
  0
LINE
  5
21D
330
1F
100
AcDbEntity
  8
0
  6
Continuous
 62
     7
100
AcDbLine
 10
1497.0976510136
 20
238.0816323783
 30
0.0
 11
1497.0976510136
 21
235.4466958878
 31
0.0
  0
LINE
  5
21E
330
1F
100
AcDbEntity
  8
0
  6
Continuous
 62
     7
100
AcDbLine
 10
1497.0976510136
 20
235.4466958878
 30
0.0
 11
1495.5976510136
 21
235.4466958878
 31
0.0
  0
LINE
  5
21F
330
1F
100
AcDbEntity
  8
0
  6
Continuous
 62
     7
100
AcDbLine
 10
1495.5976510136
 20
235.4466958878
 30
0.0
 11
1495.5976510136
 21
234.4466958878
 31
0.0
  0
LINE
  5
220
330
1F
100
AcDbEntity
  8
0
  6
Continuous
 62
     7
100
AcDbLine
 10
1495.5976510136
 20
102.6524672537
 30
0.0
 11
1495.5976510136
 21
101.6524672537
 31
0.0
  0
LINE
  5
221
330
1F
100
AcDbEntity
  8
0
  6
Continuous
 62
     7
100
AcDbLine
 10
1495.5976510136
 20
101.6524672537
 30
0.0
 11
1497.0976510136
 21
101.6524672537
 31
0.0
  0
LINE
  5
222
330
1F
100
AcDbEntity
  8
0
  6
Continuous
 62
     7
100
AcDbLine
 10
1497.0976510136
 20
101.6524672537
 30
0.0
 11
1497.0976510136
 21
99.0175307632
 31
0.0
  0
LINE
  5
223
330
1F
100
AcDbEntity
  8
0
  6
Continuous
 62
     7
100
AcDbLine
 10
593.0976510136
 20
99.0175307632
 30
0.0
 11
593.0976510136
 21
101.6524672537
 31
0.0
  0
LINE
  5
224
330
1F
100
AcDbEntity
  8
0
  6
Continuous
 62
     7
100
AcDbLine
 10
593.0976510136
 20
101.6524672537
 30
0.0
 11
594.5976510136
 21
101.6524672537
 31
0.0
  0
LINE
  5
225
330
1F
100
AcDbEntity
  8
0
  6
Continuous
 62
     7
100
AcDbLine
 10
594.5976510136
 20
101.6524672537
 30
0.0
 11
594.5976510136
 21
102.6524672537
 31
0.0
  0
LINE
  5
226
330
1F
100
AcDbEntity
  8
0
  6
Continuous
 62
     7
100
AcDbLine
 10
594.5976510136
 20
234.4466958878
 30
0.0
 11
594.5976510136
 21
235.4466958878
 31
0.0
  0
LINE
  5
227
330
1F
100
AcDbEntity
  8
0
  6
Continuous
 62
     7
100
AcDbLine
 10
594.5976510136
 20
235.4466958878
 30
0.0
 11
593.0976510136
 21
235.4466958878
 31
0.0
  0
LINE
  5
228
330
1F
100
AcDbEntity
  8
0
  6
Continuous
 62
     7
100
AcDbLine
 10
593.0976510136
 20
235.4466958878
 30
0.0
 11
593.0976510136
 21
238.0816323783
 31
0.0
  0
LINE
  5
229
330
1F
100
AcDbEntity
  8
0
  6
Continuous
 62
     7
100
AcDbLine
 10
1495.5976510136
 20
102.6524672537
 30
0.0
 11
1496.5976510136
 21
102.6524672537
 31
0.0
  0
LINE
  5
22A
330
1F
100
AcDbEntity
  8
0
  6
Continuous
 62
     7
100
AcDbLine
 10
594.5976510136
 20
102.6524672537
 30
0.0
 11
593.5976510136
 21
102.6524672537
 31
0.0
  0
LINE
  5
22B
330
1F
100
AcDbEntity
  8
0
  6
Continuous
 62
     7
100
AcDbLine
 10
1495.5976510136
 20
234.4466958878
 30
0.0
 11
1496.5976510136
 21
234.4466958878
 31
0.0
  0
LINE
  5
22C
330
1F
100
AcDbEntity
  8
0
  6
Continuous
 62
     7
100
AcDbLine
 10
594.5976510136
 20
234.4466958878
 30
0.0
 11
593.5976510136
 21
234.4466958878
 31
0.0
  0
LINE
  5
22D
330
1F
100
AcDbEntity
  8
0
  6
Continuous
 62
     7
100
AcDbLine
 10
591.0976510136
 20
229.6444524809
 30
0.0
 11
591.0976510136
 21
207.2997085897
 31
0.0
  0
LINE
  5
22E
330
1F
100
AcDbEntity
  8
0
  6
Continuous
 62
     7
100
AcDbLine
 10
592.0976510136
 20
207.2997085897
 30
0.0
 11
591.0976510136
 21
207.2997085897
 31
0.0
  0
LINE
  5
22F
330
1F
100
AcDbEntity
  8
0
  6
Continuous
 62
     7
100
AcDbLine
 10
592.0976510136
 20
229.6444524809
 30
0.0
 11
591.0976510136
 21
229.6444524809
 31
0.0
  0
LINE
  5
230
330
1F
100
AcDbEntity
  8
0
  6
Continuous
 62
     7
100
AcDbLine
 10
591.0976510136
 20
129.7994545519
 30
0.0
 11
591.0976510136
 21
107.4547106606
 31
0.0
  0
LINE
  5
231
330
1F
100
AcDbEntity
  8
0
  6
Continuous
 62
     7
100
AcDbLine
 10
592.0976510136
 20
129.7994545519
 30
0.0
 11
591.0976510136
 21
129.7994545519
 31
0.0
  0
LINE
  5
232
330
1F
100
AcDbEntity
  8
0
  6
Continuous
 62
     7
100
AcDbLine
 10
592.0976510136
 20
107.4547106606
 30
0.0
 11
591.0976510136
 21
107.4547106606
 31
0.0
  0
LINE
  5
233
330
1F
100
AcDbEntity
  8
0
  6
Continuous
 62
     7
100
AcDbLine
 10
1499.0976510136
 20
107.4547106606
 30
0.0
 11
1499.0976510136
 21
129.7994545519
 31
0.0
  0
LINE
  5
234
330
1F
100
AcDbEntity
  8
0
  6
Continuous
 62
     7
100
AcDbLine
 10
1498.0976510136
 20
129.7994545519
 30
0.0
 11
1499.0976510136
 21
129.7994545519
 31
0.0
  0
LINE
  5
235
330
1F
100
AcDbEntity
  8
0
  6
Continuous
 62
     7
100
AcDbLine
 10
1498.0976510136
 20
107.4547106606
 30
0.0
 11
1499.0976510136
 21
107.4547106606
 31
0.0
  0
LINE
  5
236
330
1F
100
AcDbEntity
  8
0
  6
Continuous
 62
     7
100
AcDbLine
 10
1499.0976510136
 20
207.4549646984
 30
0.0
 11
1499.0976510136
 21
229.7997085897
 31
0.0
  0
LINE
  5
237
330
1F
100
AcDbEntity
  8
0
  6
Continuous
 62
     7
100
AcDbLine
 10
1498.0976510136
 20
207.4549646984
 30
0.0
 11
1499.0976510136
 21
207.4549646984
 31
0.0
  0
LINE
  5
238
330
1F
100
AcDbEntity
  8
0
  6
Continuous
 62
     7
100
AcDbLine
 10
1498.0976510136
 20
229.7997085897
 30
0.0
 11
1499.0976510136
 21
229.7997085897
 31
0.0
  0
LINE
  5
239
330
1F
100
AcDbEntity
  8
0
  6
Continuous
 62
     7
100
AcDbLine
 10
591.0505767936
 20
229.9476561382
 30
0.0
 11
591.0976510136
 21
229.7997085897
 31
0.0
  0
LINE
  5
23A
330
1F
100
AcDbEntity
  8
0
  6
Continuous
 62
     7
100
AcDbLine
 10
591.0976510136
 20
229.6444524809
 30
0.0
 11
591.0976510136
 21
229.7997085897
 31
0.0
  0
LINE
  5
23B
330
1F
100
AcDbEntity
  8
0
  6
Continuous
 62
     7
100
AcDbLine
 10
591.2535025736
 20
235.9061159042
 30
0.0
 11
589.3476510136
 21
235.2997085897
 31
0.0
  0
LINE
  5
23C
330
1F
100
AcDbEntity
  8
0
  6
Continuous
 62
     7
100
AcDbLine
 10
591.2535025736
 20
235.9061159042
 30
0.0
 11
592.0976510136
 21
233.25307795
 31
0.0
  0
LINE
  5
23D
330
1F
100
AcDbEntity
  8
0
  6
Continuous
 62
     7
100
AcDbLine
 10
589.3476510136
 20
235.2997085897
 30
0.0
 11
591.0505767936
 21
229.9476561382
 31
0.0
  0
LINE
  5
23E
330
1F
100
AcDbEntity
  8
0
  6
Continuous
 62
     7
100
AcDbLine
 10
1500.8476510136
 20
101.7994545519
 30
0.0
 11
1499.1447252336
 21
107.1515070033
 31
0.0
  0
LINE
  5
23F
330
1F
100
AcDbEntity
  8
0
  6
Continuous
 62
     7
100
AcDbLine
 10
1498.9417994535
 20
101.1930472373
 30
0.0
 11
1498.0976510136
 21
103.8460851915
 31
0.0
  0
LINE
  5
240
330
1F
100
AcDbEntity
  8
0
  6
Continuous
 62
     7
100
AcDbLine
 10
1498.9417994535
 20
101.1930472373
 30
0.0
 11
1500.8476510136
 21
101.7994545519
 31
0.0
  0
LINE
  5
241
330
1F
100
AcDbEntity
  8
0
  6
Continuous
 62
     7
100
AcDbLine
 10
1498.9417994535
 20
201.1933012751
 30
0.0
 11
1498.0976510136
 21
203.8463392293
 31
0.0
  0
LINE
  5
242
330
1F
100
AcDbEntity
  8
0
  6
Continuous
 62
     7
100
AcDbLine
 10
1500.8476510136
 20
201.7997085897
 30
0.0
 11
1499.1447252336
 21
207.1517610412
 31
0.0
  0
LINE
  5
243
330
1F
100
AcDbEntity
  8
0
  6
Continuous
 62
     7
100
AcDbLine
 10
1498.9417994535
 20
201.1933012751
 30
0.0
 11
1500.8476510136
 21
201.7997085897
 31
0.0
  0
LINE
  5
244
330
1F
100
AcDbEntity
  8
0
  6
Continuous
 62
     7
100
AcDbLine
 10
1499.1447252336
 20
107.1515070033
 30
0.0
 11
1499.0976510136
 21
107.2994545519
 31
0.0
  0
LINE
  5
245
330
1F
100
AcDbEntity
  8
0
  6
Continuous
 62
     7
100
AcDbLine
 10
1499.0976510136
 20
107.4547106606
 30
0.0
 11
1499.0976510136
 21
107.2994545519
 31
0.0
  0
LINE
  5
246
330
1F
100
AcDbEntity
  8
0
  6
Continuous
 62
     7
100
AcDbLine
 10
589.3476510136
 20
135.4547106606
 30
0.0
 11
591.0505767936
 21
130.1026582091
 31
0.0
  0
LINE
  5
247
330
1F
100
AcDbEntity
  8
0
  6
Continuous
 62
     7
100
AcDbLine
 10
591.2535025736
 20
136.0611179752
 30
0.0
 11
589.3476510136
 21
135.4547106606
 31
0.0
  0
LINE
  5
248
330
1F
100
AcDbEntity
  8
0
  6
Continuous
 62
     7
100
AcDbLine
 10
591.2535025736
 20
136.0611179752
 30
0.0
 11
592.0976510136
 21
133.4080800209
 31
0.0
  0
LINE
  5
249
330
1F
100
AcDbEntity
  8
0
  6
Continuous
 62
     7
100
AcDbLine
 10
591.0505767936
 20
130.1026582091
 30
0.0
 11
591.0976510136
 21
129.9547106606
 31
0.0
  0
LINE
  5
24A
330
1F
100
AcDbEntity
  8
0
  6
Continuous
 62
     7
100
AcDbLine
 10
591.0976510136
 20
129.7994545519
 30
0.0
 11
591.0976510136
 21
129.9547106606
 31
0.0
  0
LINE
  5
24B
330
1F
100
AcDbEntity
  8
0
  6
Continuous
 62
     7
100
AcDbLine
 10
1499.1447252336
 20
207.1517610412
 30
0.0
 11
1499.0976510136
 21
207.2997085897
 31
0.0
  0
LINE
  5
24C
330
1F
100
AcDbEntity
  8
0
  6
Continuous
 62
     7
100
AcDbLine
 10
1499.0976510136
 20
207.4549646984
 30
0.0
 11
1499.0976510136
 21
207.2997085897
 31
0.0
  0
LINE
  5
24D
330
1F
100
AcDbEntity
  8
0
  6
Continuous
 62
     7
100
AcDbLine
 10
1505.7976510136
 20
118.6270826062
 30
0.0
 11
1505.7976510136
 21
115.6270826062
 31
0.0
  0
LINE
  5
24E
330
1F
100
AcDbEntity
  8
0
  6
Continuous
 62
     7
100
AcDbLine
 10
1505.7976510136
 20
121.6270826062
 30
0.0
 11
1505.7976510136
 21
118.6270826062
 31
0.0
  0
LINE
  5
24F
330
1F
100
AcDbEntity
  8
0
  6
Continuous
 62
     7
100
AcDbLine
 10
1506.2976510136
 20
118.6270826062
 30
0.0
 11
1505.7976510136
 21
118.6270826062
 31
0.0
  0
LINE
  5
250
330
1F
100
AcDbEntity
  8
0
  6
Continuous
 62
     7
100
AcDbLine
 10
1506.2976510136
 20
118.6270826062
 30
0.0
 11
1506.2976510136
 21
116.1270826062
 31
0.0
  0
LINE
  5
251
330
1F
100
AcDbEntity
  8
0
  6
Continuous
 62
     7
100
AcDbLine
 10
1506.2976510136
 20
121.1270826062
 30
0.0
 11
1506.2976510136
 21
118.6270826062
 31
0.0
  0
LINE
  5
252
330
1F
100
AcDbEntity
  8
0
  6
Continuous
 62
     7
100
AcDbLine
 10
584.3976510136
 20
218.4720805353
 30
0.0
 11
584.3976510136
 21
221.4720805353
 31
0.0
  0
LINE
  5
253
330
1F
100
AcDbEntity
  8
0
  6
Continuous
 62
     7
100
AcDbLine
 10
583.8976510136
 20
218.4720805353
 30
0.0
 11
584.3976510136
 21
218.4720805353
 31
0.0
  0
LINE
  5
254
330
1F
100
AcDbEntity
  8
0
  6
Continuous
 62
     7
100
AcDbLine
 10
583.8976510136
 20
218.4720805353
 30
0.0
 11
583.8976510136
 21
220.9720805353
 31
0.0
  0
LINE
  5
255
330
1F
100
AcDbEntity
  8
0
  6
Continuous
 62
     7
100
AcDbLine
 10
584.3976510136
 20
215.4720805353
 30
0.0
 11
584.3976510136
 21
218.4720805353
 31
0.0
  0
LINE
  5
256
330
1F
100
AcDbEntity
  8
0
  6
Continuous
 62
     7
100
AcDbLine
 10
583.8976510136
 20
215.9720805353
 30
0.0
 11
583.8976510136
 21
218.4720805353
 31
0.0
  0
LINE
  5
257
330
1F
100
AcDbEntity
  8
0
  6
Continuous
 62
     7
100
AcDbLine
 10
1505.7976510136
 20
218.6273366441
 30
0.0
 11
1505.7976510136
 21
215.6273366441
 31
0.0
  0
LINE
  5
258
330
1F
100
AcDbEntity
  8
0
  6
Continuous
 62
     7
100
AcDbLine
 10
1505.7976510136
 20
221.6273366441
 30
0.0
 11
1505.7976510136
 21
218.6273366441
 31
0.0
  0
LINE
  5
259
330
1F
100
AcDbEntity
  8
0
  6
Continuous
 62
     7
100
AcDbLine
 10
1506.2976510136
 20
221.1273366441
 30
0.0
 11
1506.2976510136
 21
218.6273366441
 31
0.0
  0
LINE
  5
25A
330
1F
100
AcDbEntity
  8
0
  6
Continuous
 62
     7
100
AcDbLine
 10
1506.2976510136
 20
218.6273366441
 30
0.0
 11
1505.7976510136
 21
218.6273366441
 31
0.0
  0
LINE
  5
25B
330
1F
100
AcDbEntity
  8
0
  6
Continuous
 62
     7
100
AcDbLine
 10
1506.2976510136
 20
218.6273366441
 30
0.0
 11
1506.2976510136
 21
216.1273366441
 31
0.0
  0
LINE
  5
25C
330
1F
100
AcDbEntity
  8
0
  6
Continuous
 62
     7
100
AcDbLine
 10
584.3976510136
 20
118.6270826062
 30
0.0
 11
584.3976510136
 21
121.6270826062
 31
0.0
  0
LINE
  5
25D
330
1F
100
AcDbEntity
  8
0
  6
Continuous
 62
     7
100
AcDbLine
 10
583.8976510136
 20
118.6270826062
 30
0.0
 11
584.3976510136
 21
118.6270826062
 31
0.0
  0
LINE
  5
25E
330
1F
100
AcDbEntity
  8
0
  6
Continuous
 62
     7
100
AcDbLine
 10
583.8976510136
 20
118.6270826062
 30
0.0
 11
583.8976510136
 21
121.1270826062
 31
0.0
  0
LINE
  5
25F
330
1F
100
AcDbEntity
  8
0
  6
Continuous
 62
     7
100
AcDbLine
 10
584.3976510136
 20
115.6270826062
 30
0.0
 11
584.3976510136
 21
118.6270826062
 31
0.0
  0
LINE
  5
260
330
1F
100
AcDbEntity
  8
0
  6
Continuous
 62
     7
100
AcDbLine
 10
583.8976510136
 20
116.1270826062
 30
0.0
 11
583.8976510136
 21
118.6270826062
 31
0.0
  0
LINE
  5
261
330
1F
100
AcDbEntity
  8
0
  6
Continuous
 62
     7
100
AcDbLine
 10
591.0505767936
 20
229.9476561382
 30
0.0
 11
592.0976510136
 21
230.2808161173
 31
0.0
  0
LINE
  5
262
330
1F
100
AcDbEntity
  8
0
  6
Continuous
 62
     7
100
AcDbLine
 10
1499.1447252336
 20
107.1515070033
 30
0.0
 11
1498.0976510136
 21
106.8183470242
 31
0.0
  0
LINE
  5
263
330
1F
100
AcDbEntity
  8
0
  6
Continuous
 62
     7
100
AcDbLine
 10
1499.1447252336
 20
207.1517610412
 30
0.0
 11
1498.0976510136
 21
206.8186010621
 31
0.0
  0
LINE
  5
264
330
1F
100
AcDbEntity
  8
0
  6
Continuous
 62
     7
100
AcDbLine
 10
591.0505767936
 20
130.1026582091
 30
0.0
 11
592.0976510136
 21
130.4358181882
 31
0.0
  0
LINE
  5
265
330
1F
100
AcDbEntity
  8
0
  6
Continuous
 62
     7
100
AcDbLine
 10
1505.7976510136
 20
118.6270826062
 30
0.0
 11
1499.0976510136
 21
118.6270826062
 31
0.0
  0
LINE
  5
266
330
1F
100
AcDbEntity
  8
0
  6
Continuous
 62
     7
100
AcDbLine
 10
584.3976510136
 20
218.4720805353
 30
0.0
 11
591.0976510136
 21
218.4720805353
 31
0.0
  0
LINE
  5
267
330
1F
100
AcDbEntity
  8
0
  6
Continuous
 62
     7
100
AcDbLine
 10
1505.7976510136
 20
218.6273366441
 30
0.0
 11
1499.0976510136
 21
218.6273366441
 31
0.0
  0
LINE
  5
268
330
1F
100
AcDbEntity
  8
0
  6
Continuous
 62
     7
100
AcDbLine
 10
584.3976510136
 20
118.6270826062
 30
0.0
 11
591.0976510136
 21
118.6270826062
 31
0.0
  0
LINE
  5
269
330
1F
100
AcDbEntity
  8
0
  6
Continuous
 62
     7
100
AcDbLine
 10
529.8185372083
 20
218.6273366441
 30
0.0
 11
530.3185372083
 21
218.6273366441
 31
0.0
  0
ARC
  5
26A
330
1F
100
AcDbEntity
  8
0
  6
Continuous
 62
     7
100
AcDbCircle
 10
527.3185372083
 20
218.6273366441
 30
0.0
 40
3.0
100
AcDbArc
 50
180.0
 51
0.0
  0
LINE
  5
26B
330
1F
100
AcDbEntity
  8
0
  6
Continuous
 62
     7
100
AcDbLine
 10
524.8185372083
 20
218.6273366441
 30
0.0
 11
524.3185372083
 21
218.6273366441
 31
0.0
  0
ARC
  5
26C
330
1F
100
AcDbEntity
  8
0
  6
Continuous
 62
     7
100
AcDbCircle
 10
527.3185372083
 20
218.6273366441
 30
0.0
 40
2.500000000000114
100
AcDbArc
 50
180.0
 51
0.0
  0
ARC
  5
26D
330
1F
100
AcDbEntity
  8
0
  6
Continuous
 62
     7
100
AcDbCircle
 10
527.3185372083
 20
218.6273366441
 30
0.0
 40
3.0
100
AcDbArc
 50
0.0
 51
180.0
  0
ARC
  5
26E
330
1F
100
AcDbEntity
  8
0
  6
Continuous
 62
     7
100
AcDbCircle
 10
527.3185372083
 20
218.6273366441
 30
0.0
 40
2.500000000000114
100
AcDbArc
 50
0.0
 51
180.0
  0
LINE
  5
26F
330
1F
100
AcDbEntity
  8
0
  6
Continuous
 62
     7
100
AcDbLine
 10
529.8185372083
 20
118.6270826062
 30
0.0
 11
530.3185372083
 21
118.6270826062
 31
0.0
  0
ARC
  5
270
330
1F
100
AcDbEntity
  8
0
  6
Continuous
 62
     7
100
AcDbCircle
 10
527.3185372083
 20
118.6270826062
 30
0.0
 40
3.0
100
AcDbArc
 50
180.0
 51
0.0
  0
LINE
  5
271
330
1F
100
AcDbEntity
  8
0
  6
Continuous
 62
     7
100
AcDbLine
 10
524.8185372083
 20
118.6270826062
 30
0.0
 11
524.3185372083
 21
118.6270826062
 31
0.0
  0
ARC
  5
272
330
1F
100
AcDbEntity
  8
0
  6
Continuous
 62
     7
100
AcDbCircle
 10
527.3185372083
 20
118.6270826062
 30
0.0
 40
2.500000000000114
100
AcDbArc
 50
180.0
 51
0.0
  0
ARC
  5
273
330
1F
100
AcDbEntity
  8
0
  6
Continuous
 62
     7
100
AcDbCircle
 10
527.3185372083
 20
118.6270826062
 30
0.0
 40
3.0
100
AcDbArc
 50
0.0
 51
180.0
  0
ARC
  5
274
330
1F
100
AcDbEntity
  8
0
  6
Continuous
 62
     7
100
AcDbCircle
 10
527.3185372083
 20
118.6270826062
 30
0.0
 40
2.500000000000114
100
AcDbArc
 50
0.0
 51
180.0
  0
LINE
  5
275
330
1F
100
AcDbEntity
  8
0
  6
Continuous
 62
     7
100
AcDbLine
 10
531.8185372083
 20
101.1930472373
 30
0.0
 11
531.8185372083
 21
101.7994545519
 31
0.0
  0
LINE
  5
276
330
1F
100
AcDbEntity
  8
0
  6
Continuous
 62
     7
100
AcDbLine
 10
531.8185372083
 20
101.1930472373
 30
0.0
 11
522.8185372083
 21
101.1930472373
 31
0.0
  0
LINE
  5
277
330
1F
100
AcDbEntity
  8
0
  6
Continuous
 62
     7
100
AcDbLine
 10
522.8185372083
 20
101.1930472373
 30
0.0
 11
522.8185372083
 21
101.7994545519
 31
0.0
  0
LINE
  5
278
330
1F
100
AcDbEntity
  8
0
  6
Continuous
 62
     7
100
AcDbLine
 10
531.8185372083
 20
101.7994545519
 30
0.0
 11
522.8185372083
 21
101.7994545519
 31
0.0
  0
LINE
  5
279
330
1F
100
AcDbEntity
  8
0
  6
Continuous
 62
     7
100
AcDbLine
 10
531.8185372083
 20
201.7997085897
 30
0.0
 11
522.8185372083
 21
201.7997085897
 31
0.0
  0
LINE
  5
27A
330
1F
100
AcDbEntity
  8
0
  6
Continuous
 62
     7
100
AcDbLine
 10
522.8185372083
 20
201.7997085897
 30
0.0
 11
522.8185372083
 21
207.1517610412
 31
0.0
  0
LINE
  5
27B
330
1F
100
AcDbEntity
  8
0
  6
Continuous
 62
     7
100
AcDbLine
 10
522.8185372083
 20
207.1517610412
 30
0.0
 11
522.8185372083
 21
207.2997085897
 31
0.0
  0
LINE
  5
27C
330
1F
100
AcDbEntity
  8
0
  6
Continuous
 62
     7
100
AcDbLine
 10
522.8185372083
 20
207.2997085897
 30
0.0
 11
531.8185372083
 21
207.2997085897
 31
0.0
  0
LINE
  5
27D
330
1F
100
AcDbEntity
  8
0
  6
Continuous
 62
     7
100
AcDbLine
 10
531.8185372083
 20
207.1517610412
 30
0.0
 11
531.8185372083
 21
207.2997085897
 31
0.0
  0
LINE
  5
27E
330
1F
100
AcDbEntity
  8
0
  6
Continuous
 62
     7
100
AcDbLine
 10
531.8185372083
 20
207.1517610412
 30
0.0
 11
531.8185372083
 21
201.7997085897
 31
0.0
  0
LINE
  5
27F
330
1F
100
AcDbEntity
  8
0
  6
Continuous
 62
     7
100
AcDbLine
 10
522.8185372083
 20
101.7994545519
 30
0.0
 11
522.8185372083
 21
107.1515070033
 31
0.0
  0
LINE
  5
280
330
1F
100
AcDbEntity
  8
0
  6
Continuous
 62
     7
100
AcDbLine
 10
522.8185372083
 20
107.1515070033
 30
0.0
 11
522.8185372083
 21
107.2994545519
 31
0.0
  0
LINE
  5
281
330
1F
100
AcDbEntity
  8
0
  6
Continuous
 62
     7
100
AcDbLine
 10
522.8185372083
 20
107.2994545519
 30
0.0
 11
531.8185372083
 21
107.2994545519
 31
0.0
  0
LINE
  5
282
330
1F
100
AcDbEntity
  8
0
  6
Continuous
 62
     7
100
AcDbLine
 10
531.8185372083
 20
107.1515070033
 30
0.0
 11
531.8185372083
 21
107.2994545519
 31
0.0
  0
LINE
  5
283
330
1F
100
AcDbEntity
  8
0
  6
Continuous
 62
     7
100
AcDbLine
 10
531.8185372083
 20
107.1515070033
 30
0.0
 11
531.8185372083
 21
101.7994545519
 31
0.0
  0
LINE
  5
284
330
1F
100
AcDbEntity
  8
0
  6
Continuous
 62
     7
100
AcDbLine
 10
531.8185372083
 20
201.1933012751
 30
0.0
 11
522.8185372083
 21
201.1933012751
 31
0.0
  0
LINE
  5
285
330
1F
100
AcDbEntity
  8
0
  6
Continuous
 62
     7
100
AcDbLine
 10
522.8185372083
 20
201.1933012751
 30
0.0
 11
522.8185372083
 21
201.7997085897
 31
0.0
  0
LINE
  5
286
330
1F
100
AcDbEntity
  8
0
  6
Continuous
 62
     7
100
AcDbLine
 10
531.8185372083
 20
201.1933012751
 30
0.0
 11
531.8185372083
 21
201.7997085897
 31
0.0
  0
ARC
  5
287
330
1F
100
AcDbEntity
  8
0
  6
Continuous
 62
     7
100
AcDbCircle
 10
527.3185372083
 20
118.6270826062
 30
0.0
 40
3.25
100
AcDbArc
 50
270.0
 51
90.0
  0
ARC
  5
288
330
1F
100
AcDbEntity
  8
0
  6
Continuous
 62
     7
100
AcDbCircle
 10
527.3185372083
 20
118.6270826062
 30
0.0
 40
3.25
100
AcDbArc
 50
90.0
 51
270.0
  0
LINE
  5
289
330
1F
100
AcDbEntity
  8
0
  6
Continuous
 62
     7
100
AcDbLine
 10
516.8185372083
 20
107.4547106606
 30
0.0
 11
522.8185372083
 21
107.4547106606
 31
0.0
  0
LINE
  5
28A
330
1F
100
AcDbEntity
  8
0
  6
Continuous
 62
     7
100
AcDbLine
 10
516.8185372083
 20
107.4547106606
 30
0.0
 11
513.8185372083
 21
107.4547106606
 31
0.0
  0
LINE
  5
28B
330
1F
100
AcDbEntity
  8
0
  6
Continuous
 62
     7
100
AcDbLine
 10
513.8185372083
 20
107.4547106606
 30
0.0
 11
513.8185372083
 21
129.7994545519
 31
0.0
  0
LINE
  5
28C
330
1F
100
AcDbEntity
  8
0
  6
Continuous
 62
     7
100
AcDbLine
 10
516.8185372083
 20
129.7994545519
 30
0.0
 11
513.8185372083
 21
129.7994545519
 31
0.0
  0
LINE
  5
28D
330
1F
100
AcDbEntity
  8
0
  6
Continuous
 62
     7
100
AcDbLine
 10
531.8185372083
 20
129.7994545519
 30
0.0
 11
516.8185372083
 21
129.7994545519
 31
0.0
  0
LINE
  5
28E
330
1F
100
AcDbEntity
  8
0
  6
Continuous
 62
     7
100
AcDbLine
 10
534.8185372083
 20
126.7994545519
 30
0.0
 11
531.8185372083
 21
129.7994545519
 31
0.0
  0
LINE
  5
28F
330
1F
100
AcDbEntity
  8
0
  6
Continuous
 62
     7
100
AcDbLine
 10
531.8185372083
 20
107.4547106606
 30
0.0
 11
534.8185372083
 21
110.4547106606
 31
0.0
  0
LINE
  5
290
330
1F
100
AcDbEntity
  8
0
  6
Continuous
 62
     7
100
AcDbLine
 10
534.8185372083
 20
110.4547106606
 30
0.0
 11
534.8185372083
 21
126.7994545519
 31
0.0
  0
LINE
  5
291
330
1F
100
AcDbEntity
  8
0
  6
Continuous
 62
     7
100
AcDbLine
 10
522.8185372083
 20
107.4547106606
 30
0.0
 11
522.8185372083
 21
107.2994545519
 31
0.0
  0
LINE
  5
292
330
1F
100
AcDbEntity
  8
0
  6
Continuous
 62
     7
100
AcDbLine
 10
531.8185372083
 20
107.4547106606
 30
0.0
 11
531.8185372083
 21
107.2994545519
 31
0.0
  0
ARC
  5
293
330
1F
100
AcDbEntity
  8
0
  6
Continuous
 62
     7
100
AcDbCircle
 10
527.3185372083
 20
218.6273366441
 30
0.0
 40
3.25
100
AcDbArc
 50
90.0
 51
270.0
  0
LINE
  5
294
330
1F
100
AcDbEntity
  8
0
  6
Continuous
 62
     7
100
AcDbLine
 10
516.8185372083
 20
207.4549646984
 30
0.0
 11
522.8185372083
 21
207.4549646984
 31
0.0
  0
LINE
  5
295
330
1F
100
AcDbEntity
  8
0
  6
Continuous
 62
     7
100
AcDbLine
 10
516.8185372083
 20
207.4549646984
 30
0.0
 11
513.8185372083
 21
207.4549646984
 31
0.0
  0
LINE
  5
296
330
1F
100
AcDbEntity
  8
0
  6
Continuous
 62
     7
100
AcDbLine
 10
513.8185372083
 20
207.4549646984
 30
0.0
 11
513.8185372083
 21
229.7997085897
 31
0.0
  0
LINE
  5
297
330
1F
100
AcDbEntity
  8
0
  6
Continuous
 62
     7
100
AcDbLine
 10
516.8185372083
 20
229.7997085897
 30
0.0
 11
513.8185372083
 21
229.7997085897
 31
0.0
  0
LINE
  5
298
330
1F
100
AcDbEntity
  8
0
  6
Continuous
 62
     7
100
AcDbLine
 10
534.8185372083
 20
210.4549646984
 30
0.0
 11
534.8185372083
 21
226.7997085897
 31
0.0
  0
LINE
  5
299
330
1F
100
AcDbEntity
  8
0
  6
Continuous
 62
     7
100
AcDbLine
 10
531.8185372083
 20
207.4549646984
 30
0.0
 11
534.8185372083
 21
210.4549646984
 31
0.0
  0
LINE
  5
29A
330
1F
100
AcDbEntity
  8
0
  6
Continuous
 62
     7
100
AcDbLine
 10
534.8185372083
 20
226.7997085897
 30
0.0
 11
531.8185372083
 21
229.7997085897
 31
0.0
  0
ARC
  5
29B
330
1F
100
AcDbEntity
  8
0
  6
Continuous
 62
     7
100
AcDbCircle
 10
527.3185372083
 20
218.6273366441
 30
0.0
 40
3.25
100
AcDbArc
 50
270.0
 51
90.0
  0
LINE
  5
29C
330
1F
100
AcDbEntity
  8
0
  6
Continuous
 62
     7
100
AcDbLine
 10
531.8185372083
 20
229.7997085897
 30
0.0
 11
516.8185372083
 21
229.7997085897
 31
0.0
  0
LINE
  5
29D
330
1F
100
AcDbEntity
  8
0
  6
Continuous
 62
     7
100
AcDbLine
 10
522.8185372083
 20
207.4549646984
 30
0.0
 11
522.8185372083
 21
207.2997085897
 31
0.0
  0
LINE
  5
29E
330
1F
100
AcDbEntity
  8
0
  6
Continuous
 62
     7
100
AcDbLine
 10
531.8185372083
 20
207.4549646984
 30
0.0
 11
531.8185372083
 21
207.2997085897
 31
0.0
  0
LINE
  5
29F
330
1F
100
AcDbEntity
  8
0
  6
Continuous
 62
     7
100
AcDbLine
 10
505.8185372083
 20
105.6524672537
 30
0.0
 11
508.8185372083
 21
102.6524672537
 31
0.0
  0
LINE
  5
2A0
330
1F
100
AcDbEntity
  8
0
  6
Continuous
 62
     7
100
AcDbLine
 10
505.8185372083
 20
231.4466958878
 30
0.0
 11
505.8185372083
 21
105.6524672537
 31
0.0
  0
LINE
  5
2A1
330
1F
100
AcDbEntity
  8
0
  6
Continuous
 62
     7
100
AcDbLine
 10
508.8185372083
 20
234.4466958878
 30
0.0
 11
505.8185372083
 21
231.4466958878
 31
0.0
  0
LINE
  5
2A2
330
1F
100
AcDbEntity
  8
0
  6
Continuous
 62
     7
100
AcDbLine
 10
511.3185372083
 20
234.4466958878
 30
0.0
 11
508.8185372083
 21
234.4466958878
 31
0.0
  0
LINE
  5
2A3
330
1F
100
AcDbEntity
  8
0
  6
Continuous
 62
     7
100
AcDbLine
 10
511.3185372083
 20
234.4466958878
 30
0.0
 11
513.8185372083
 21
234.4466958878
 31
0.0
  0
LINE
  5
2A4
330
1F
100
AcDbEntity
  8
0
  6
Continuous
 62
     7
100
AcDbLine
 10
513.8185372083
 20
229.7997085897
 30
0.0
 11
513.8185372083
 21
234.4466958878
 31
0.0
  0
LINE
  5
2A5
330
1F
100
AcDbEntity
  8
0
  6
Continuous
 62
     7
100
AcDbLine
 10
513.8185372083
 20
129.7994545519
 30
0.0
 11
513.8185372083
 21
207.4549646984
 31
0.0
  0
LINE
  5
2A6
330
1F
100
AcDbEntity
  8
0
  6
Continuous
 62
     7
100
AcDbLine
 10
513.8185372083
 20
102.6524672537
 30
0.0
 11
513.8185372083
 21
107.4547106606
 31
0.0
  0
LINE
  5
2A7
330
1F
100
AcDbEntity
  8
0
  6
Continuous
 62
     7
100
AcDbLine
 10
511.3185372083
 20
102.6524672537
 30
0.0
 11
513.8185372083
 21
102.6524672537
 31
0.0
  0
LINE
  5
2A8
330
1F
100
AcDbEntity
  8
0
  6
Continuous
 62
     7
100
AcDbLine
 10
508.8185372083
 20
102.6524672537
 30
0.0
 11
511.3185372083
 21
102.6524672537
 31
0.0
  0
LINE
  5
2A9
330
1F
100
AcDbEntity
  8
0
  6
Continuous
 62
     7
100
AcDbLine
 10
510.8185372083
 20
97.183556167
 30
0.0
 11
510.0685372083
 21
95.8845180613
 31
0.0
  0
LINE
  5
2AA
330
1F
100
AcDbEntity
  8
0
  6
Continuous
 62
     7
100
AcDbLine
 10
506.8920000278
 20
97.7184926575
 30
0.0
 11
510.0685372083
 21
95.8845180613
 31
0.0
  0
LINE
  5
2AB
330
1F
100
AcDbEntity
  8
0
  6
Continuous
 62
     7
100
AcDbLine
 10
507.6420000278
 20
99.0175307632
 30
0.0
 11
506.8920000278
 21
97.7184926575
 31
0.0
  0
LINE
  5
2AC
330
1F
100
AcDbEntity
  8
0
  6
Continuous
 62
     7
100
AcDbLine
 10
507.6420000278
 20
99.0175307632
 30
0.0
 11
510.8185372083
 21
97.183556167
 31
0.0
  0
LINE
  5
2AD
330
1F
100
AcDbEntity
  8
0
  6
Continuous
 62
     7
100
AcDbLine
 10
510.8185372083
 20
97.183556167
 30
0.0
 11
512.3185372083
 21
96.3175307632
 31
0.0
  0
LINE
  5
2AE
330
1F
100
AcDbEntity
  8
0
  6
Continuous
 62
     7
100
AcDbLine
 10
512.3185372083
 20
98.0495815708
 30
0.0
 11
512.3185372083
 21
96.3175307632
 31
0.0
  0
LINE
  5
2AF
330
1F
100
AcDbEntity
  8
0
  6
Continuous
 62
     7
100
AcDbLine
 10
512.3185372083
 20
98.0495815708
 30
0.0
 11
513.8185372083
 21
98.0495815708
 31
0.0
  0
LINE
  5
2B0
330
1F
100
AcDbEntity
  8
0
  6
Continuous
 62
     7
100
AcDbLine
 10
512.0864864007
 20
94.7194545519
 30
0.0
 11
513.8185372083
 21
95.7194545519
 31
0.0
  0
LINE
  5
2B1
330
1F
100
AcDbEntity
  8
0
  6
Continuous
 62
     7
100
AcDbLine
 10
510.0685372083
 20
95.8845180613
 30
0.0
 11
512.0864864007
 21
94.7194545519
 31
0.0
  0
LINE
  5
2B2
330
1F
100
AcDbEntity
  8
0
  6
Continuous
 62
     7
100
AcDbLine
 10
513.8185372083
 20
98.0495815708
 30
0.0
 11
513.8185372083
 21
95.7194545519
 31
0.0
  0
LINE
  5
2B3
330
1F
100
AcDbEntity
  8
0
  6
Continuous
 62
     7
100
AcDbLine
 10
504.2939238165
 20
99.2184926575
 30
0.0
 11
505.0439238165
 21
100.5175307632
 31
0.0
  0
LINE
  5
2B4
330
1F
100
AcDbEntity
  8
0
  6
Continuous
 62
     7
100
AcDbLine
 10
505.0439238165
 20
100.5175307632
 30
0.0
 11
507.6420000278
 21
99.0175307632
 31
0.0
  0
LINE
  5
2B5
330
1F
100
AcDbEntity
  8
0
  6
Continuous
 62
     7
100
AcDbLine
 10
506.8920000278
 20
97.7184926575
 30
0.0
 11
504.2939238165
 21
99.2184926575
 31
0.0
  0
LINE
  5
2B6
330
1F
100
AcDbEntity
  8
0
  6
Continuous
 62
     7
100
AcDbLine
 10
506.8920000278
 20
239.380670484
 30
0.0
 11
507.6420000278
 21
238.0816323783
 31
0.0
  0
LINE
  5
2B7
330
1F
100
AcDbEntity
  8
0
  6
Continuous
 62
     7
100
AcDbLine
 10
507.6420000278
 20
238.0816323783
 30
0.0
 11
505.0439238165
 21
236.5816323783
 31
0.0
  0
LINE
  5
2B8
330
1F
100
AcDbEntity
  8
0
  6
Continuous
 62
     7
100
AcDbLine
 10
505.0439238165
 20
236.5816323783
 30
0.0
 11
504.2939238165
 21
237.880670484
 31
0.0
  0
LINE
  5
2B9
330
1F
100
AcDbEntity
  8
0
  6
Continuous
 62
     7
100
AcDbLine
 10
504.2939238165
 20
237.880670484
 30
0.0
 11
506.8920000278
 21
239.380670484
 31
0.0
  0
LINE
  5
2BA
330
1F
100
AcDbEntity
  8
0
  6
Continuous
 62
     7
100
AcDbLine
 10
512.3185372083
 20
101.6524672537
 30
0.0
 11
512.3185372083
 21
98.0495815708
 31
0.0
  0
LINE
  5
2BB
330
1F
100
AcDbEntity
  8
0
  6
Continuous
 62
     7
100
AcDbLine
 10
513.8185372083
 20
101.6524672537
 30
0.0
 11
512.3185372083
 21
101.6524672537
 31
0.0
  0
LINE
  5
2BC
330
1F
100
AcDbEntity
  8
0
  6
Continuous
 62
     7
100
AcDbLine
 10
513.8185372083
 20
101.6524672537
 30
0.0
 11
513.8185372083
 21
98.0495815708
 31
0.0
  0
LINE
  5
2BD
330
1F
100
AcDbEntity
  8
0
  6
Continuous
 62
     7
100
AcDbLine
 10
512.3185372083
 20
239.0495815708
 30
0.0
 11
513.8185372083
 21
239.0495815708
 31
0.0
  0
LINE
  5
2BE
330
1F
100
AcDbEntity
  8
0
  6
Continuous
 62
     7
100
AcDbLine
 10
510.8185372083
 20
239.9156069746
 30
0.0
 11
510.0685372083
 21
241.2146450802
 31
0.0
  0
LINE
  5
2BF
330
1F
100
AcDbEntity
  8
0
  6
Continuous
 62
     7
100
AcDbLine
 10
513.8185372083
 20
241.3797085897
 30
0.0
 11
512.0864864007
 21
242.3797085897
 31
0.0
  0
LINE
  5
2C0
330
1F
100
AcDbEntity
  8
0
  6
Continuous
 62
     7
100
AcDbLine
 10
510.0685372083
 20
241.2146450802
 30
0.0
 11
512.0864864007
 21
242.3797085897
 31
0.0
  0
LINE
  5
2C1
330
1F
100
AcDbEntity
  8
0
  6
Continuous
 62
     7
100
AcDbLine
 10
510.8185372083
 20
239.9156069746
 30
0.0
 11
512.3185372083
 21
240.7816323783
 31
0.0
  0
LINE
  5
2C2
330
1F
100
AcDbEntity
  8
0
  6
Continuous
 62
     7
100
AcDbLine
 10
512.3185372083
 20
239.0495815708
 30
0.0
 11
512.3185372083
 21
240.7816323783
 31
0.0
  0
LINE
  5
2C3
330
1F
100
AcDbEntity
  8
0
  6
Continuous
 62
     7
100
AcDbLine
 10
513.8185372083
 20
239.0495815708
 30
0.0
 11
513.8185372083
 21
241.3797085897
 31
0.0
  0
LINE
  5
2C4
330
1F
100
AcDbEntity
  8
0
  6
Continuous
 62
     7
100
AcDbLine
 10
513.8185372083
 20
235.4466958878
 30
0.0
 11
512.3185372083
 21
235.4466958878
 31
0.0
  0
LINE
  5
2C5
330
1F
100
AcDbEntity
  8
0
  6
Continuous
 62
     7
100
AcDbLine
 10
512.3185372083
 20
239.0495815708
 30
0.0
 11
512.3185372083
 21
235.4466958878
 31
0.0
  0
LINE
  5
2C6
330
1F
100
AcDbEntity
  8
0
  6
Continuous
 62
     7
100
AcDbLine
 10
513.8185372083
 20
239.0495815708
 30
0.0
 11
513.8185372083
 21
235.4466958878
 31
0.0
  0
LINE
  5
2C7
330
1F
100
AcDbEntity
  8
0
  6
Continuous
 62
     7
100
AcDbLine
 10
510.0685372083
 20
241.2146450802
 30
0.0
 11
506.8920000278
 21
239.380670484
 31
0.0
  0
LINE
  5
2C8
330
1F
100
AcDbEntity
  8
0
  6
Continuous
 62
     7
100
AcDbLine
 10
510.8185372083
 20
239.9156069746
 30
0.0
 11
507.6420000278
 21
238.0816323783
 31
0.0
  0
LINE
  5
2C9
330
1F
100
AcDbEntity
  8
0
  6
Continuous
 62
     7
100
AcDbLine
 10
512.3185372083
 20
102.6524672537
 30
0.0
 11
512.3185372083
 21
101.6524672537
 31
0.0
  0
LINE
  5
2CA
330
1F
100
AcDbEntity
  8
0
  6
Continuous
 62
     7
100
AcDbLine
 10
513.8185372083
 20
102.6524672537
 30
0.0
 11
513.8185372083
 21
101.6524672537
 31
0.0
  0
LINE
  5
2CB
330
1F
100
AcDbEntity
  8
0
  6
Continuous
 62
     7
100
AcDbLine
 10
512.3185372083
 20
235.4466958878
 30
0.0
 11
512.3185372083
 21
234.4466958878
 31
0.0
  0
LINE
  5
2CC
330
1F
100
AcDbEntity
  8
0
  6
Continuous
 62
     7
100
AcDbLine
 10
513.8185372083
 20
235.4466958878
 30
0.0
 11
513.8185372083
 21
234.4466958878
 31
0.0
  0
LINE
  5
2CD
330
1F
100
AcDbEntity
  8
0
  6
Continuous
 62
     7
100
AcDbLine
 10
513.8185372083
 20
207.2997085897
 30
0.0
 11
515.8185372083
 21
207.2997085897
 31
0.0
  0
LINE
  5
2CE
330
1F
100
AcDbEntity
  8
0
  6
Continuous
 62
     7
100
AcDbLine
 10
515.8185372083
 20
207.2997085897
 30
0.0
 11
515.8185372083
 21
207.4549646984
 31
0.0
  0
LINE
  5
2CF
330
1F
100
AcDbEntity
  8
0
  6
Continuous
 62
     7
100
AcDbLine
 10
534.8185372083
 20
210.4549646984
 30
0.0
 11
534.8185372083
 21
210.2997085897
 31
0.0
  0
LINE
  5
2D0
330
1F
100
AcDbEntity
  8
0
  6
Continuous
 62
     7
100
AcDbLine
 10
534.8185372083
 20
210.2997085897
 30
0.0
 11
531.8185372083
 21
207.2997085897
 31
0.0
  0
LINE
  5
2D1
330
1F
100
AcDbEntity
  8
0
  6
Continuous
 62
     7
100
AcDbLine
 10
522.8185372083
 20
207.2997085897
 30
0.0
 11
516.8185372083
 21
207.2997085897
 31
0.0
  0
LINE
  5
2D2
330
1F
100
AcDbEntity
  8
0
  6
Continuous
 62
     7
100
AcDbLine
 10
522.8185372083
 20
229.7997085897
 30
0.0
 11
522.8185372083
 21
230.1102208072
 31
0.0
  0
LINE
  5
2D3
330
1F
100
AcDbEntity
  8
0
  6
Continuous
 62
     7
100
AcDbLine
 10
522.8185372083
 20
230.1102208072
 30
0.0
 11
531.8185372083
 21
230.1102208072
 31
0.0
  0
LINE
  5
2D4
330
1F
100
AcDbEntity
  8
0
  6
Continuous
 62
     7
100
AcDbLine
 10
531.8185372083
 20
229.7997085897
 30
0.0
 11
531.8185372083
 21
230.1102208072
 31
0.0
  0
LINE
  5
2D5
330
1F
100
AcDbEntity
  8
0
  6
Continuous
 62
     7
100
AcDbLine
 10
516.8185372083
 20
207.2997085897
 30
0.0
 11
515.8185372083
 21
207.2997085897
 31
0.0
  0
LINE
  5
2D6
330
1F
100
AcDbEntity
  8
0
  6
Continuous
 62
     7
100
AcDbLine
 10
522.8185372083
 20
129.7994545519
 30
0.0
 11
522.8185372083
 21
130.2652228781
 31
0.0
  0
LINE
  5
2D7
330
1F
100
AcDbEntity
  8
0
  6
Continuous
 62
     7
100
AcDbLine
 10
522.8185372083
 20
130.2652228781
 30
0.0
 11
531.8185372083
 21
130.2652228781
 31
0.0
  0
LINE
  5
2D8
330
1F
100
AcDbEntity
  8
0
  6
Continuous
 62
     7
100
AcDbLine
 10
531.8185372083
 20
129.7994545519
 30
0.0
 11
531.8185372083
 21
130.2652228781
 31
0.0
  0
LINE
  5
2D9
330
1F
100
AcDbEntity
  8
0
  6
Continuous
 62
     7
100
AcDbLine
 10
531.8185372083
 20
235.9061159042
 30
0.0
 11
522.8185372083
 21
235.9061159042
 31
0.0
  0
LINE
  5
2DA
330
1F
100
AcDbEntity
  8
0
  6
Continuous
 62
     7
100
AcDbLine
 10
531.8185372083
 20
230.5540634528
 30
0.0
 11
531.8185372083
 21
235.9061159042
 31
0.0
  0
LINE
  5
2DB
330
1F
100
AcDbEntity
  8
0
  6
Continuous
 62
     7
100
AcDbLine
 10
522.8185372083
 20
230.5540634528
 30
0.0
 11
522.8185372083
 21
230.1102208072
 31
0.0
  0
LINE
  5
2DC
330
1F
100
AcDbEntity
  8
0
  6
Continuous
 62
     7
100
AcDbLine
 10
522.8185372083
 20
235.9061159042
 30
0.0
 11
522.8185372083
 21
230.5540634528
 31
0.0
  0
LINE
  5
2DD
330
1F
100
AcDbEntity
  8
0
  6
Continuous
 62
     7
100
AcDbLine
 10
531.8185372083
 20
230.5540634528
 30
0.0
 11
531.8185372083
 21
230.1102208072
 31
0.0
  0
LINE
  5
2DE
330
1F
100
AcDbEntity
  8
0
  6
Continuous
 62
     7
100
AcDbLine
 10
531.8185372083
 20
136.0611179752
 30
0.0
 11
522.8185372083
 21
136.0611179752
 31
0.0
  0
LINE
  5
2DF
330
1F
100
AcDbEntity
  8
0
  6
Continuous
 62
     7
100
AcDbLine
 10
531.8185372083
 20
130.7090655237
 30
0.0
 11
531.8185372083
 21
136.0611179752
 31
0.0
  0
LINE
  5
2E0
330
1F
100
AcDbEntity
  8
0
  6
Continuous
 62
     7
100
AcDbLine
 10
531.8185372083
 20
130.7090655237
 30
0.0
 11
531.8185372083
 21
130.2652228781
 31
0.0
  0
LINE
  5
2E1
330
1F
100
AcDbEntity
  8
0
  6
Continuous
 62
     7
100
AcDbLine
 10
522.8185372083
 20
130.7090655237
 30
0.0
 11
522.8185372083
 21
130.2652228781
 31
0.0
  0
LINE
  5
2E2
330
1F
100
AcDbEntity
  8
0
  6
Continuous
 62
     7
100
AcDbLine
 10
522.8185372083
 20
136.0611179752
 30
0.0
 11
522.8185372083
 21
130.7090655237
 31
0.0
  0
ARC
  5
2E3
330
1F
100
AcDbEntity
  8
0
  6
Continuous
 62
     7
100
AcDbCircle
 10
1556.6939245777
 20
218.4720805353
 30
0.0
 40
3.0
100
AcDbArc
 50
0.0
 51
180.0
  0
LINE
  5
2E4
330
1F
100
AcDbEntity
  8
0
  6
Continuous
 62
     7
100
AcDbLine
 10
1559.1939245777
 20
218.4720805353
 30
0.0
 11
1559.6939245777
 21
218.4720805353
 31
0.0
  0
ARC
  5
2E5
330
1F
100
AcDbEntity
  8
0
  6
Continuous
 62
     7
100
AcDbCircle
 10
1556.6939245777
 20
218.4720805353
 30
0.0
 40
2.5
100
AcDbArc
 50
0.0
 51
180.0
  0
LINE
  5
2E6
330
1F
100
AcDbEntity
  8
0
  6
Continuous
 62
     7
100
AcDbLine
 10
1554.1939245777
 20
218.4720805353
 30
0.0
 11
1553.6939245777
 21
218.4720805353
 31
0.0
  0
ARC
  5
2E7
330
1F
100
AcDbEntity
  8
0
  6
Continuous
 62
     7
100
AcDbCircle
 10
1556.6939245777
 20
218.4720805353
 30
0.0
 40
3.0
100
AcDbArc
 50
180.0
 51
0.0
  0
ARC
  5
2E8
330
1F
100
AcDbEntity
  8
0
  6
Continuous
 62
     7
100
AcDbCircle
 10
1556.6939245777
 20
218.4720805353
 30
0.0
 40
2.5
100
AcDbArc
 50
180.0
 51
0.0
  0
ARC
  5
2E9
330
1F
100
AcDbEntity
  8
0
  6
Continuous
 62
     7
100
AcDbCircle
 10
1556.6939245777
 20
118.6270826062
 30
0.0
 40
3.0
100
AcDbArc
 50
0.0
 51
180.0
  0
LINE
  5
2EA
330
1F
100
AcDbEntity
  8
0
  6
Continuous
 62
     7
100
AcDbLine
 10
1559.1939245777
 20
118.6270826062
 30
0.0
 11
1559.6939245777
 21
118.6270826062
 31
0.0
  0
ARC
  5
2EB
330
1F
100
AcDbEntity
  8
0
  6
Continuous
 62
     7
100
AcDbCircle
 10
1556.6939245777
 20
118.6270826062
 30
0.0
 40
2.500000000000227
100
AcDbArc
 50
0.0
 51
180.0
  0
LINE
  5
2EC
330
1F
100
AcDbEntity
  8
0
  6
Continuous
 62
     7
100
AcDbLine
 10
1554.1939245777
 20
118.6270826062
 30
0.0
 11
1553.6939245777
 21
118.6270826062
 31
0.0
  0
ARC
  5
2ED
330
1F
100
AcDbEntity
  8
0
  6
Continuous
 62
     7
100
AcDbCircle
 10
1556.6939245777
 20
118.6270826062
 30
0.0
 40
3.0
100
AcDbArc
 50
180.0
 51
0.0
  0
ARC
  5
2EE
330
1F
100
AcDbEntity
  8
0
  6
Continuous
 62
     7
100
AcDbCircle
 10
1556.6939245777
 20
118.6270826062
 30
0.0
 40
2.500000000000227
100
AcDbArc
 50
180.0
 51
0.0
  0
LINE
  5
2EF
330
1F
100
AcDbEntity
  8
0
  6
Continuous
 62
     7
100
AcDbLine
 10
1552.1939245777
 20
235.9061159042
 30
0.0
 11
1552.1939245777
 21
235.2997085897
 31
0.0
  0
LINE
  5
2F0
330
1F
100
AcDbEntity
  8
0
  6
Continuous
 62
     7
100
AcDbLine
 10
1552.1939245777
 20
235.9061159042
 30
0.0
 11
1561.1939245777
 21
235.9061159042
 31
0.0
  0
LINE
  5
2F1
330
1F
100
AcDbEntity
  8
0
  6
Continuous
 62
     7
100
AcDbLine
 10
1561.1939245777
 20
235.9061159042
 30
0.0
 11
1561.1939245777
 21
235.2997085897
 31
0.0
  0
LINE
  5
2F2
330
1F
100
AcDbEntity
  8
0
  6
Continuous
 62
     7
100
AcDbLine
 10
1552.1939245777
 20
235.2997085897
 30
0.0
 11
1561.1939245777
 21
235.2997085897
 31
0.0
  0
LINE
  5
2F3
330
1F
100
AcDbEntity
  8
0
  6
Continuous
 62
     7
100
AcDbLine
 10
1552.1939245777
 20
135.4547106606
 30
0.0
 11
1561.1939245777
 21
135.4547106606
 31
0.0
  0
LINE
  5
2F4
330
1F
100
AcDbEntity
  8
0
  6
Continuous
 62
     7
100
AcDbLine
 10
1561.1939245777
 20
135.4547106606
 30
0.0
 11
1561.1939245777
 21
130.1026582091
 31
0.0
  0
LINE
  5
2F5
330
1F
100
AcDbEntity
  8
0
  6
Continuous
 62
     7
100
AcDbLine
 10
1561.1939245777
 20
130.1026582091
 30
0.0
 11
1561.1939245777
 21
129.9547106606
 31
0.0
  0
LINE
  5
2F6
330
1F
100
AcDbEntity
  8
0
  6
Continuous
 62
     7
100
AcDbLine
 10
1561.1939245777
 20
129.9547106606
 30
0.0
 11
1552.1939245777
 21
129.9547106606
 31
0.0
  0
LINE
  5
2F7
330
1F
100
AcDbEntity
  8
0
  6
Continuous
 62
     7
100
AcDbLine
 10
1552.1939245777
 20
130.1026582091
 30
0.0
 11
1552.1939245777
 21
129.9547106606
 31
0.0
  0
LINE
  5
2F8
330
1F
100
AcDbEntity
  8
0
  6
Continuous
 62
     7
100
AcDbLine
 10
1552.1939245777
 20
130.1026582091
 30
0.0
 11
1552.1939245777
 21
135.4547106606
 31
0.0
  0
LINE
  5
2F9
330
1F
100
AcDbEntity
  8
0
  6
Continuous
 62
     7
100
AcDbLine
 10
1552.1939245777
 20
136.0611179752
 30
0.0
 11
1552.1939245777
 21
135.4547106606
 31
0.0
  0
LINE
  5
2FA
330
1F
100
AcDbEntity
  8
0
  6
Continuous
 62
     7
100
AcDbLine
 10
1552.1939245777
 20
136.0611179752
 30
0.0
 11
1561.1939245777
 21
136.0611179752
 31
0.0
  0
LINE
  5
2FB
330
1F
100
AcDbEntity
  8
0
  6
Continuous
 62
     7
100
AcDbLine
 10
1561.1939245777
 20
136.0611179752
 30
0.0
 11
1561.1939245777
 21
135.4547106606
 31
0.0
  0
LINE
  5
2FC
330
1F
100
AcDbEntity
  8
0
  6
Continuous
 62
     7
100
AcDbLine
 10
1561.1939245777
 20
235.2997085897
 30
0.0
 11
1561.1939245777
 21
229.9476561382
 31
0.0
  0
LINE
  5
2FD
330
1F
100
AcDbEntity
  8
0
  6
Continuous
 62
     7
100
AcDbLine
 10
1561.1939245777
 20
229.9476561382
 30
0.0
 11
1561.1939245777
 21
229.7997085897
 31
0.0
  0
LINE
  5
2FE
330
1F
100
AcDbEntity
  8
0
  6
Continuous
 62
     7
100
AcDbLine
 10
1561.1939245777
 20
229.7997085897
 30
0.0
 11
1552.1939245777
 21
229.7997085897
 31
0.0
  0
LINE
  5
2FF
330
1F
100
AcDbEntity
  8
0
  6
Continuous
 62
     7
100
AcDbLine
 10
1552.1939245777
 20
229.9476561382
 30
0.0
 11
1552.1939245777
 21
229.7997085897
 31
0.0
  0
LINE
  5
300
330
1F
100
AcDbEntity
  8
0
  6
Continuous
 62
     7
100
AcDbLine
 10
1552.1939245777
 20
229.9476561382
 30
0.0
 11
1552.1939245777
 21
235.2997085897
 31
0.0
  0
ARC
  5
301
330
1F
100
AcDbEntity
  8
0
  6
Continuous
 62
     7
100
AcDbCircle
 10
1556.6939245777
 20
118.6270826062
 30
0.0
 40
3.250000000000014
100
AcDbArc
 50
90.0
 51
270.0
  0
ARC
  5
302
330
1F
100
AcDbEntity
  8
0
  6
Continuous
 62
     7
100
AcDbCircle
 10
1556.6939245777
 20
118.6270826062
 30
0.0
 40
3.250000000000014
100
AcDbArc
 50
270.0
 51
90.0
  0
LINE
  5
303
330
1F
100
AcDbEntity
  8
0
  6
Continuous
 62
     7
100
AcDbLine
 10
1567.1939245777
 20
129.7994545519
 30
0.0
 11
1561.1939245777
 21
129.7994545519
 31
0.0
  0
LINE
  5
304
330
1F
100
AcDbEntity
  8
0
  6
Continuous
 62
     7
100
AcDbLine
 10
1567.1939245777
 20
129.7994545519
 30
0.0
 11
1570.1939245777
 21
129.7994545519
 31
0.0
  0
LINE
  5
305
330
1F
100
AcDbEntity
  8
0
  6
Continuous
 62
     7
100
AcDbLine
 10
1570.1939245777
 20
129.7994545519
 30
0.0
 11
1570.1939245777
 21
107.4547106606
 31
0.0
  0
LINE
  5
306
330
1F
100
AcDbEntity
  8
0
  6
Continuous
 62
     7
100
AcDbLine
 10
1567.1939245777
 20
107.4547106606
 30
0.0
 11
1570.1939245777
 21
107.4547106606
 31
0.0
  0
LINE
  5
307
330
1F
100
AcDbEntity
  8
0
  6
Continuous
 62
     7
100
AcDbLine
 10
1552.1939245777
 20
107.4547106606
 30
0.0
 11
1567.1939245777
 21
107.4547106606
 31
0.0
  0
LINE
  5
308
330
1F
100
AcDbEntity
  8
0
  6
Continuous
 62
     7
100
AcDbLine
 10
1549.1939245777
 20
110.4547106606
 30
0.0
 11
1552.1939245777
 21
107.4547106606
 31
0.0
  0
LINE
  5
309
330
1F
100
AcDbEntity
  8
0
  6
Continuous
 62
     7
100
AcDbLine
 10
1549.1939245777
 20
126.7994545519
 30
0.0
 11
1549.1939245777
 21
110.4547106606
 31
0.0
  0
LINE
  5
30A
330
1F
100
AcDbEntity
  8
0
  6
Continuous
 62
     7
100
AcDbLine
 10
1552.1939245777
 20
129.7994545519
 30
0.0
 11
1549.1939245777
 21
126.7994545519
 31
0.0
  0
LINE
  5
30B
330
1F
100
AcDbEntity
  8
0
  6
Continuous
 62
     7
100
AcDbLine
 10
1552.1939245777
 20
129.7994545519
 30
0.0
 11
1552.1939245777
 21
129.9547106606
 31
0.0
  0
LINE
  5
30C
330
1F
100
AcDbEntity
  8
0
  6
Continuous
 62
     7
100
AcDbLine
 10
1561.1939245777
 20
129.7994545519
 30
0.0
 11
1561.1939245777
 21
129.9547106606
 31
0.0
  0
ARC
  5
30D
330
1F
100
AcDbEntity
  8
0
  6
Continuous
 62
     7
100
AcDbCircle
 10
1556.6939245777
 20
218.4720805353
 30
0.0
 40
3.25
100
AcDbArc
 50
90.0
 51
270.0
  0
ARC
  5
30E
330
1F
100
AcDbEntity
  8
0
  6
Continuous
 62
     7
100
AcDbCircle
 10
1556.6939245777
 20
218.4720805353
 30
0.0
 40
3.25
100
AcDbArc
 50
270.0
 51
90.0
  0
LINE
  5
30F
330
1F
100
AcDbEntity
  8
0
  6
Continuous
 62
     7
100
AcDbLine
 10
1567.1939245777
 20
229.6444524809
 30
0.0
 11
1561.1939245777
 21
229.6444524809
 31
0.0
  0
LINE
  5
310
330
1F
100
AcDbEntity
  8
0
  6
Continuous
 62
     7
100
AcDbLine
 10
1567.1939245777
 20
229.6444524809
 30
0.0
 11
1570.1939245777
 21
229.6444524809
 31
0.0
  0
LINE
  5
311
330
1F
100
AcDbEntity
  8
0
  6
Continuous
 62
     7
100
AcDbLine
 10
1570.1939245777
 20
229.6444524809
 30
0.0
 11
1570.1939245777
 21
207.2997085897
 31
0.0
  0
LINE
  5
312
330
1F
100
AcDbEntity
  8
0
  6
Continuous
 62
     7
100
AcDbLine
 10
1567.1939245777
 20
207.2997085897
 30
0.0
 11
1570.1939245777
 21
207.2997085897
 31
0.0
  0
LINE
  5
313
330
1F
100
AcDbEntity
  8
0
  6
Continuous
 62
     7
100
AcDbLine
 10
1552.1939245777
 20
207.2997085897
 30
0.0
 11
1567.1939245777
 21
207.2997085897
 31
0.0
  0
LINE
  5
314
330
1F
100
AcDbEntity
  8
0
  6
Continuous
 62
     7
100
AcDbLine
 10
1549.1939245777
 20
210.2997085897
 30
0.0
 11
1552.1939245777
 21
207.2997085897
 31
0.0
  0
LINE
  5
315
330
1F
100
AcDbEntity
  8
0
  6
Continuous
 62
     7
100
AcDbLine
 10
1549.1939245777
 20
226.6444524809
 30
0.0
 11
1549.1939245777
 21
210.2997085897
 31
0.0
  0
LINE
  5
316
330
1F
100
AcDbEntity
  8
0
  6
Continuous
 62
     7
100
AcDbLine
 10
1552.1939245777
 20
229.6444524809
 30
0.0
 11
1549.1939245777
 21
226.6444524809
 31
0.0
  0
LINE
  5
317
330
1F
100
AcDbEntity
  8
0
  6
Continuous
 62
     7
100
AcDbLine
 10
1552.1939245777
 20
229.6444524809
 30
0.0
 11
1552.1939245777
 21
229.7997085897
 31
0.0
  0
LINE
  5
318
330
1F
100
AcDbEntity
  8
0
  6
Continuous
 62
     7
100
AcDbLine
 10
1561.1939245777
 20
229.6444524809
 30
0.0
 11
1561.1939245777
 21
229.7997085897
 31
0.0
  0
LINE
  5
319
330
1F
100
AcDbEntity
  8
0
  6
Continuous
 62
     7
100
AcDbLine
 10
1578.1939245777
 20
231.4466958878
 30
0.0
 11
1575.1939245777
 21
234.4466958878
 31
0.0
  0
LINE
  5
31A
330
1F
100
AcDbEntity
  8
0
  6
Continuous
 62
     7
100
AcDbLine
 10
1578.1939245777
 20
105.6524672537
 30
0.0
 11
1578.1939245777
 21
231.4466958878
 31
0.0
  0
LINE
  5
31B
330
1F
100
AcDbEntity
  8
0
  6
Continuous
 62
     7
100
AcDbLine
 10
1575.1939245777
 20
102.6524672537
 30
0.0
 11
1578.1939245777
 21
105.6524672537
 31
0.0
  0
LINE
  5
31C
330
1F
100
AcDbEntity
  8
0
  6
Continuous
 62
     7
100
AcDbLine
 10
1572.6939245777
 20
102.6524672537
 30
0.0
 11
1575.1939245777
 21
102.6524672537
 31
0.0
  0
LINE
  5
31D
330
1F
100
AcDbEntity
  8
0
  6
Continuous
 62
     7
100
AcDbLine
 10
1570.1939245777
 20
107.4547106606
 30
0.0
 11
1570.1939245777
 21
102.6524672537
 31
0.0
  0
LINE
  5
31E
330
1F
100
AcDbEntity
  8
0
  6
Continuous
 62
     7
100
AcDbLine
 10
1570.1939245777
 20
207.2997085897
 30
0.0
 11
1570.1939245777
 21
129.7994545519
 31
0.0
  0
LINE
  5
31F
330
1F
100
AcDbEntity
  8
0
  6
Continuous
 62
     7
100
AcDbLine
 10
1570.1939245777
 20
234.4466958878
 30
0.0
 11
1570.1939245777
 21
229.6444524809
 31
0.0
  0
LINE
  5
320
330
1F
100
AcDbEntity
  8
0
  6
Continuous
 62
     7
100
AcDbLine
 10
1575.1939245777
 20
234.4466958878
 30
0.0
 11
1572.6939245777
 21
234.4466958878
 31
0.0
  0
LINE
  5
321
330
1F
100
AcDbEntity
  8
0
  6
Continuous
 62
     7
100
AcDbLine
 10
1572.6939245777
 20
102.6524672537
 30
0.0
 11
1570.1939245777
 21
102.6524672537
 31
0.0
  0
LINE
  5
322
330
1F
100
AcDbEntity
  8
0
  6
Continuous
 62
     7
100
AcDbLine
 10
1572.6939245777
 20
234.4466958878
 30
0.0
 11
1570.1939245777
 21
234.4466958878
 31
0.0
  0
LINE
  5
323
330
1F
100
AcDbEntity
  8
0
  6
Continuous
 62
     7
100
AcDbLine
 10
1571.6939245777
 20
98.0495815708
 30
0.0
 11
1570.1939245777
 21
98.0495815708
 31
0.0
  0
LINE
  5
324
330
1F
100
AcDbEntity
  8
0
  6
Continuous
 62
     7
100
AcDbLine
 10
1571.6939245777
 20
98.0495815708
 30
0.0
 11
1571.6939245777
 21
96.3175307632
 31
0.0
  0
LINE
  5
325
330
1F
100
AcDbEntity
  8
0
  6
Continuous
 62
     7
100
AcDbLine
 10
1573.1939245777
 20
97.183556167
 30
0.0
 11
1571.6939245777
 21
96.3175307632
 31
0.0
  0
LINE
  5
326
330
1F
100
AcDbEntity
  8
0
  6
Continuous
 62
     7
100
AcDbLine
 10
1573.1939245777
 20
97.183556167
 30
0.0
 11
1573.9439245777
 21
95.8845180613
 31
0.0
  0
LINE
  5
327
330
1F
100
AcDbEntity
  8
0
  6
Continuous
 62
     7
100
AcDbLine
 10
1573.9439245777
 20
95.8845180613
 30
0.0
 11
1571.9259753852
 21
94.7194545519
 31
0.0
  0
LINE
  5
328
330
1F
100
AcDbEntity
  8
0
  6
Continuous
 62
     7
100
AcDbLine
 10
1570.1939245777
 20
95.7194545519
 30
0.0
 11
1571.9259753852
 21
94.7194545519
 31
0.0
  0
LINE
  5
329
330
1F
100
AcDbEntity
  8
0
  6
Continuous
 62
     7
100
AcDbLine
 10
1570.1939245777
 20
98.0495815708
 30
0.0
 11
1570.1939245777
 21
95.7194545519
 31
0.0
  0
LINE
  5
32A
330
1F
100
AcDbEntity
  8
0
  6
Continuous
 62
     7
100
AcDbLine
 10
1571.6939245777
 20
98.0495815708
 30
0.0
 11
1571.6939245777
 21
101.6524672537
 31
0.0
  0
LINE
  5
32B
330
1F
100
AcDbEntity
  8
0
  6
Continuous
 62
     7
100
AcDbLine
 10
1570.1939245777
 20
101.6524672537
 30
0.0
 11
1571.6939245777
 21
101.6524672537
 31
0.0
  0
LINE
  5
32C
330
1F
100
AcDbEntity
  8
0
  6
Continuous
 62
     7
100
AcDbLine
 10
1570.1939245777
 20
98.0495815708
 30
0.0
 11
1570.1939245777
 21
101.6524672537
 31
0.0
  0
LINE
  5
32D
330
1F
100
AcDbEntity
  8
0
  6
Continuous
 62
     7
100
AcDbLine
 10
1571.6939245777
 20
239.0495815708
 30
0.0
 11
1570.1939245777
 21
239.0495815708
 31
0.0
  0
LINE
  5
32E
330
1F
100
AcDbEntity
  8
0
  6
Continuous
 62
     7
100
AcDbLine
 10
1571.6939245777
 20
235.4466958878
 30
0.0
 11
1571.6939245777
 21
239.0495815708
 31
0.0
  0
LINE
  5
32F
330
1F
100
AcDbEntity
  8
0
  6
Continuous
 62
     7
100
AcDbLine
 10
1570.1939245777
 20
235.4466958878
 30
0.0
 11
1571.6939245777
 21
235.4466958878
 31
0.0
  0
LINE
  5
330
330
1F
100
AcDbEntity
  8
0
  6
Continuous
 62
     7
100
AcDbLine
 10
1570.1939245777
 20
235.4466958878
 30
0.0
 11
1570.1939245777
 21
239.0495815708
 31
0.0
  0
LINE
  5
331
330
1F
100
AcDbEntity
  8
0
  6
Continuous
 62
     7
100
AcDbLine
 10
1577.1204617581
 20
97.7184926575
 30
0.0
 11
1576.3704617581
 21
99.0175307632
 31
0.0
  0
LINE
  5
332
330
1F
100
AcDbEntity
  8
0
  6
Continuous
 62
     7
100
AcDbLine
 10
1573.9439245777
 20
95.8845180613
 30
0.0
 11
1577.1204617581
 21
97.7184926575
 31
0.0
  0
LINE
  5
333
330
1F
100
AcDbEntity
  8
0
  6
Continuous
 62
     7
100
AcDbLine
 10
1573.1939245777
 20
97.183556167
 30
0.0
 11
1576.3704617581
 21
99.0175307632
 31
0.0
  0
LINE
  5
334
330
1F
100
AcDbEntity
  8
0
  6
Continuous
 62
     7
100
AcDbLine
 10
1578.9685379695
 20
100.5175307632
 30
0.0
 11
1579.7185379695
 21
99.2184926575
 31
0.0
  0
LINE
  5
335
330
1F
100
AcDbEntity
  8
0
  6
Continuous
 62
     7
100
AcDbLine
 10
1579.7185379695
 20
99.2184926575
 30
0.0
 11
1577.1204617581
 21
97.7184926575
 31
0.0
  0
LINE
  5
336
330
1F
100
AcDbEntity
  8
0
  6
Continuous
 62
     7
100
AcDbLine
 10
1576.3704617581
 20
99.0175307632
 30
0.0
 11
1578.9685379695
 21
100.5175307632
 31
0.0
  0
LINE
  5
337
330
1F
100
AcDbEntity
  8
0
  6
Continuous
 62
     7
100
AcDbLine
 10
1573.1939245777
 20
239.9156069746
 30
0.0
 11
1573.9439245777
 21
241.2146450802
 31
0.0
  0
LINE
  5
338
330
1F
100
AcDbEntity
  8
0
  6
Continuous
 62
     7
100
AcDbLine
 10
1573.1939245777
 20
239.9156069746
 30
0.0
 11
1571.6939245777
 21
240.7816323783
 31
0.0
  0
LINE
  5
339
330
1F
100
AcDbEntity
  8
0
  6
Continuous
 62
     7
100
AcDbLine
 10
1571.9259753852
 20
242.3797085897
 30
0.0
 11
1570.1939245777
 21
241.3797085897
 31
0.0
  0
LINE
  5
33A
330
1F
100
AcDbEntity
  8
0
  6
Continuous
 62
     7
100
AcDbLine
 10
1573.9439245777
 20
241.2146450802
 30
0.0
 11
1571.9259753852
 21
242.3797085897
 31
0.0
  0
LINE
  5
33B
330
1F
100
AcDbEntity
  8
0
  6
Continuous
 62
     7
100
AcDbLine
 10
1571.6939245777
 20
239.0495815708
 30
0.0
 11
1571.6939245777
 21
240.7816323783
 31
0.0
  0
LINE
  5
33C
330
1F
100
AcDbEntity
  8
0
  6
Continuous
 62
     7
100
AcDbLine
 10
1570.1939245777
 20
239.0495815708
 30
0.0
 11
1570.1939245777
 21
241.3797085897
 31
0.0
  0
LINE
  5
33D
330
1F
100
AcDbEntity
  8
0
  6
Continuous
 62
     7
100
AcDbLine
 10
1576.3704617581
 20
238.0816323783
 30
0.0
 11
1577.1204617581
 21
239.380670484
 31
0.0
  0
LINE
  5
33E
330
1F
100
AcDbEntity
  8
0
  6
Continuous
 62
     7
100
AcDbLine
 10
1577.1204617581
 20
239.380670484
 30
0.0
 11
1573.9439245777
 21
241.2146450802
 31
0.0
  0
LINE
  5
33F
330
1F
100
AcDbEntity
  8
0
  6
Continuous
 62
     7
100
AcDbLine
 10
1576.3704617581
 20
238.0816323783
 30
0.0
 11
1573.1939245777
 21
239.9156069746
 31
0.0
  0
LINE
  5
340
330
1F
100
AcDbEntity
  8
0
  6
Continuous
 62
     7
100
AcDbLine
 10
1579.7185379695
 20
237.880670484
 30
0.0
 11
1578.9685379695
 21
236.5816323783
 31
0.0
  0
LINE
  5
341
330
1F
100
AcDbEntity
  8
0
  6
Continuous
 62
     7
100
AcDbLine
 10
1577.1204617581
 20
239.380670484
 30
0.0
 11
1579.7185379695
 21
237.880670484
 31
0.0
  0
LINE
  5
342
330
1F
100
AcDbEntity
  8
0
  6
Continuous
 62
     7
100
AcDbLine
 10
1578.9685379695
 20
236.5816323783
 30
0.0
 11
1576.3704617581
 21
238.0816323783
 31
0.0
  0
LINE
  5
343
330
1F
100
AcDbEntity
  8
0
  6
Continuous
 62
     7
100
AcDbLine
 10
1571.6939245777
 20
101.6524672537
 30
0.0
 11
1571.6939245777
 21
102.6524672537
 31
0.0
  0
LINE
  5
344
330
1F
100
AcDbEntity
  8
0
  6
Continuous
 62
     7
100
AcDbLine
 10
1570.1939245777
 20
101.6524672537
 30
0.0
 11
1570.1939245777
 21
102.6524672537
 31
0.0
  0
LINE
  5
345
330
1F
100
AcDbEntity
  8
0
  6
Continuous
 62
     7
100
AcDbLine
 10
1571.6939245777
 20
234.4466958878
 30
0.0
 11
1571.6939245777
 21
235.4466958878
 31
0.0
  0
LINE
  5
346
330
1F
100
AcDbEntity
  8
0
  6
Continuous
 62
     7
100
AcDbLine
 10
1570.1939245777
 20
234.4466958878
 30
0.0
 11
1570.1939245777
 21
235.4466958878
 31
0.0
  0
LINE
  5
347
330
1F
100
AcDbEntity
  8
0
  6
Continuous
 62
     7
100
AcDbLine
 10
1570.1939245777
 20
229.7997085897
 30
0.0
 11
1568.1939245777
 21
229.7997085897
 31
0.0
  0
LINE
  5
348
330
1F
100
AcDbEntity
  8
0
  6
Continuous
 62
     7
100
AcDbLine
 10
1568.1939245777
 20
229.7997085897
 30
0.0
 11
1568.1939245777
 21
229.6444524809
 31
0.0
  0
LINE
  5
349
330
1F
100
AcDbEntity
  8
0
  6
Continuous
 62
     7
100
AcDbLine
 10
1561.1939245777
 20
107.4547106606
 30
0.0
 11
1561.1939245777
 21
106.9889423344
 31
0.0
  0
LINE
  5
34A
330
1F
100
AcDbEntity
  8
0
  6
Continuous
 62
     7
100
AcDbLine
 10
1561.1939245777
 20
106.9889423344
 30
0.0
 11
1552.1939245777
 21
106.9889423344
 31
0.0
  0
LINE
  5
34B
330
1F
100
AcDbEntity
  8
0
  6
Continuous
 62
     7
100
AcDbLine
 10
1552.1939245777
 20
107.4547106606
 30
0.0
 11
1552.1939245777
 21
106.9889423344
 31
0.0
  0
LINE
  5
34C
330
1F
100
AcDbEntity
  8
0
  6
Continuous
 62
     7
100
AcDbLine
 10
1552.1939245777
 20
101.1930472373
 30
0.0
 11
1561.1939245777
 21
101.1930472373
 31
0.0
  0
LINE
  5
34D
330
1F
100
AcDbEntity
  8
0
  6
Continuous
 62
     7
100
AcDbLine
 10
1552.1939245777
 20
106.5450996888
 30
0.0
 11
1552.1939245777
 21
101.1930472373
 31
0.0
  0
LINE
  5
34E
330
1F
100
AcDbEntity
  8
0
  6
Continuous
 62
     7
100
AcDbLine
 10
1552.1939245777
 20
106.5450996888
 30
0.0
 11
1552.1939245777
 21
106.9889423344
 31
0.0
  0
LINE
  5
34F
330
1F
100
AcDbEntity
  8
0
  6
Continuous
 62
     7
100
AcDbLine
 10
1561.1939245777
 20
106.5450996888
 30
0.0
 11
1561.1939245777
 21
106.9889423344
 31
0.0
  0
LINE
  5
350
330
1F
100
AcDbEntity
  8
0
  6
Continuous
 62
     7
100
AcDbLine
 10
1561.1939245777
 20
101.1930472373
 30
0.0
 11
1561.1939245777
 21
106.5450996888
 31
0.0
  0
LINE
  5
351
330
1F
100
AcDbEntity
  8
0
  6
Continuous
 62
     7
100
AcDbLine
 10
1549.1939245777
 20
226.7997085897
 30
0.0
 11
1552.1939245777
 21
229.7997085897
 31
0.0
  0
LINE
  5
352
330
1F
100
AcDbEntity
  8
0
  6
Continuous
 62
     7
100
AcDbLine
 10
1561.1939245777
 20
229.7997085897
 30
0.0
 11
1567.1939245777
 21
229.7997085897
 31
0.0
  0
LINE
  5
353
330
1F
100
AcDbEntity
  8
0
  6
Continuous
 62
     7
100
AcDbLine
 10
1561.1939245777
 20
207.2997085897
 30
0.0
 11
1561.1939245777
 21
206.9891963722
 31
0.0
  0
LINE
  5
354
330
1F
100
AcDbEntity
  8
0
  6
Continuous
 62
     7
100
AcDbLine
 10
1561.1939245777
 20
206.9891963722
 30
0.0
 11
1552.1939245777
 21
206.9891963722
 31
0.0
  0
LINE
  5
355
330
1F
100
AcDbEntity
  8
0
  6
Continuous
 62
     7
100
AcDbLine
 10
1552.1939245777
 20
207.2997085897
 30
0.0
 11
1552.1939245777
 21
206.9891963722
 31
0.0
  0
LINE
  5
356
330
1F
100
AcDbEntity
  8
0
  6
Continuous
 62
     7
100
AcDbLine
 10
1549.1939245777
 20
226.6444524809
 30
0.0
 11
1549.1939245777
 21
226.7997085897
 31
0.0
  0
LINE
  5
357
330
1F
100
AcDbEntity
  8
0
  6
Continuous
 62
     7
100
AcDbLine
 10
1567.1939245777
 20
229.7997085897
 30
0.0
 11
1568.1939245777
 21
229.7997085897
 31
0.0
  0
LINE
  5
358
330
1F
100
AcDbEntity
  8
0
  6
Continuous
 62
     7
100
AcDbLine
 10
1552.1939245777
 20
201.1933012751
 30
0.0
 11
1561.1939245777
 21
201.1933012751
 31
0.0
  0
LINE
  5
359
330
1F
100
AcDbEntity
  8
0
  6
Continuous
 62
     7
100
AcDbLine
 10
1552.1939245777
 20
206.5453537266
 30
0.0
 11
1552.1939245777
 21
201.1933012751
 31
0.0
  0
LINE
  5
35A
330
1F
100
AcDbEntity
  8
0
  6
Continuous
 62
     7
100
AcDbLine
 10
1552.1939245777
 20
206.5453537266
 30
0.0
 11
1552.1939245777
 21
206.9891963722
 31
0.0
  0
LINE
  5
35B
330
1F
100
AcDbEntity
  8
0
  6
Continuous
 62
     7
100
AcDbLine
 10
1561.1939245777
 20
206.5453537266
 30
0.0
 11
1561.1939245777
 21
206.9891963722
 31
0.0
  0
LINE
  5
35C
330
1F
100
AcDbEntity
  8
0
  6
Continuous
 62
     7
100
AcDbLine
 10
1561.1939245777
 20
201.1933012751
 30
0.0
 11
1561.1939245777
 21
206.5453537266
 31
0.0
  0
LINE
  5
35D
330
1F
100
AcDbEntity
  8
0
  6
Continuous
 62
     7
100
AcDbLine
 10
593.0976510136
 20
301.6940796987
 30
0.0
 11
593.0976510136
 21
304.8706168791
 31
0.0
  0
LINE
  5
35E
330
1F
100
AcDbEntity
  8
0
  6
Continuous
 62
     7
100
AcDbLine
 10
596.0976510136
 20
307.4686930905
 30
0.0
 11
593.0976510136
 21
304.8706168791
 31
0.0
  0
LINE
  5
35F
330
1F
100
AcDbEntity
  8
0
  6
Continuous
 62
     7
100
AcDbLine
 10
596.0976510136
 20
307.4686930905
 30
0.0
 11
1494.0976510136
 21
307.4686930905
 31
0.0
  0
LINE
  5
360
330
1F
100
AcDbEntity
  8
0
  6
Continuous
 62
     7
100
AcDbLine
 10
1497.0976510136
 20
304.8706168791
 30
0.0
 11
1494.0976510136
 21
307.4686930905
 31
0.0
  0
LINE
  5
361
330
1F
100
AcDbEntity
  8
0
  6
Continuous
 62
     7
100
AcDbLine
 10
1497.0976510136
 20
304.8706168791
 30
0.0
 11
1497.0976510136
 21
301.6940796987
 31
0.0
  0
LINE
  5
362
330
1F
100
AcDbEntity
  8
0
  6
Continuous
 62
     7
100
AcDbLine
 10
1497.0976510136
 20
301.6940796987
 30
0.0
 11
1497.0976510136
 21
299.6761305063
 31
0.0
  0
LINE
  5
363
330
1F
100
AcDbEntity
  8
0
  6
Continuous
 62
     7
100
AcDbLine
 10
593.0976510136
 20
299.6761305063
 30
0.0
 11
1497.0976510136
 21
299.6761305063
 31
0.0
  0
LINE
  5
364
330
1F
100
AcDbEntity
  8
0
  6
Continuous
 62
     7
100
AcDbLine
 10
593.0976510136
 20
301.6940796987
 30
0.0
 11
593.0976510136
 21
299.6761305063
 31
0.0
  0
LINE
  5
365
330
1F
100
AcDbEntity
  8
0
  6
Continuous
 62
     7
100
AcDbLine
 10
1497.0976510136
 20
297.9440796987
 30
0.0
 11
593.0976510136
 21
297.9440796987
 31
0.0
  0
LINE
  5
366
330
1F
100
AcDbEntity
  8
0
  6
Continuous
 62
     7
100
AcDbLine
 10
593.0976510136
 20
297.9440796987
 30
0.0
 11
593.0976510136
 21
299.6761305063
 31
0.0
  0
LINE
  5
367
330
1F
100
AcDbEntity
  8
0
  6
Continuous
 62
     7
100
AcDbLine
 10
1497.0976510136
 20
299.6761305063
 30
0.0
 11
1497.0976510136
 21
297.9440796987
 31
0.0
  0
LINE
  5
368
330
1F
100
AcDbEntity
  8
0
  6
Continuous
 62
     7
100
AcDbLine
 10
1498.9417994535
 20
279.9440796987
 30
0.0
 11
1498.9417994535
 21
288.9440796987
 31
0.0
  0
LINE
  5
369
330
1F
100
AcDbEntity
  8
0
  6
Continuous
 62
     7
100
AcDbLine
 10
1497.2388736735
 20
279.9440796987
 30
0.0
 11
1498.9417994535
 21
279.9440796987
 31
0.0
  0
LINE
  5
36A
330
1F
100
AcDbEntity
  8
0
  6
Continuous
 62
     7
100
AcDbLine
 10
1497.2388736735
 20
279.9440796987
 30
0.0
 11
1497.0976510136
 21
279.9440796987
 31
0.0
  0
LINE
  5
36B
330
1F
100
AcDbEntity
  8
0
  6
Continuous
 62
     7
100
AcDbLine
 10
1497.0976510136
 20
288.9440796987
 30
0.0
 11
1497.0976510136
 21
279.9440796987
 31
0.0
  0
LINE
  5
36C
330
1F
100
AcDbEntity
  8
0
  6
Continuous
 62
     7
100
AcDbLine
 10
1497.2388736735
 20
288.9440796987
 30
0.0
 11
1497.0976510136
 21
288.9440796987
 31
0.0
  0
LINE
  5
36D
330
1F
100
AcDbEntity
  8
0
  6
Continuous
 62
     7
100
AcDbLine
 10
1498.9417994535
 20
288.9440796987
 30
0.0
 11
1497.2388736735
 21
288.9440796987
 31
0.0
  0
LINE
  5
36E
330
1F
100
AcDbEntity
  8
0
  6
Continuous
 62
     7
100
AcDbLine
 10
1498.9417994535
 20
288.9440796987
 30
0.0
 11
1500.8476510136
 21
288.9440796987
 31
0.0
  0
LINE
  5
36F
330
1F
100
AcDbEntity
  8
0
  6
Continuous
 62
     7
100
AcDbLine
 10
1500.8476510136
 20
279.9440796987
 30
0.0
 11
1500.8476510136
 21
288.9440796987
 31
0.0
  0
LINE
  5
370
330
1F
100
AcDbEntity
  8
0
  6
Continuous
 62
     7
100
AcDbLine
 10
1498.9417994535
 20
279.9440796987
 30
0.0
 11
1500.8476510136
 21
279.9440796987
 31
0.0
  0
LINE
  5
371
330
1F
100
AcDbEntity
  8
0
  6
Continuous
 62
     7
100
AcDbLine
 10
1498.0976510136
 20
300.4440796987
 30
0.0
 11
1498.0976510136
 21
297.9440796987
 31
0.0
  0
LINE
  5
372
330
1F
100
AcDbEntity
  8
0
  6
Continuous
 62
     7
100
AcDbLine
 10
1497.0976510136
 20
297.9440796987
 30
0.0
 11
1498.0976510136
 21
297.9440796987
 31
0.0
  0
LINE
  5
373
330
1F
100
AcDbEntity
  8
0
  6
Continuous
 62
     7
100
AcDbLine
 10
1498.0976510136
 20
302.9440796987
 30
0.0
 11
1497.0976510136
 21
302.9440796987
 31
0.0
  0
LINE
  5
374
330
1F
100
AcDbEntity
  8
0
  6
Continuous
 62
     7
100
AcDbLine
 10
1498.0976510136
 20
302.9440796987
 30
0.0
 11
1498.0976510136
 21
300.4440796987
 31
0.0
  0
LINE
  5
375
330
1F
100
AcDbEntity
  8
0
  6
Continuous
 62
     7
100
AcDbLine
 10
1498.0976510136
 20
305.9440796987
 30
0.0
 11
1496.5976510136
 21
305.9440796987
 31
0.0
  0
LINE
  5
376
330
1F
100
AcDbEntity
  8
0
  6
Continuous
 62
     7
100
AcDbLine
 10
1496.5976510136
 20
305.9440796987
 30
0.0
 11
1496.5976510136
 21
305.303629581
 31
0.0
  0
LINE
  5
377
330
1F
100
AcDbEntity
  8
0
  6
Continuous
 62
     7
100
AcDbLine
 10
1498.0976510136
 20
305.9440796987
 30
0.0
 11
1498.0976510136
 21
302.9440796987
 31
0.0
  0
LINE
  5
378
330
1F
100
AcDbEntity
  8
0
  6
Continuous
 62
     7
100
AcDbLine
 10
592.0976510136
 20
302.9440796987
 30
0.0
 11
593.0976510136
 21
302.9440796987
 31
0.0
  0
LINE
  5
379
330
1F
100
AcDbEntity
  8
0
  6
Continuous
 62
     7
100
AcDbLine
 10
592.0976510136
 20
302.9440796987
 30
0.0
 11
592.0976510136
 21
305.9440796987
 31
0.0
  0
LINE
  5
37A
330
1F
100
AcDbEntity
  8
0
  6
Continuous
 62
     7
100
AcDbLine
 10
592.0976510136
 20
305.9440796987
 30
0.0
 11
593.5976510136
 21
305.9440796987
 31
0.0
  0
LINE
  5
37B
330
1F
100
AcDbEntity
  8
0
  6
Continuous
 62
     7
100
AcDbLine
 10
593.5976510136
 20
305.303629581
 30
0.0
 11
593.5976510136
 21
305.9440796987
 31
0.0
  0
LINE
  5
37C
330
1F
100
AcDbEntity
  8
0
  6
Continuous
 62
     7
100
AcDbLine
 10
592.0976510136
 20
300.4440796987
 30
0.0
 11
592.0976510136
 21
297.9440796987
 31
0.0
  0
LINE
  5
37D
330
1F
100
AcDbEntity
  8
0
  6
Continuous
 62
     7
100
AcDbLine
 10
593.0976510136
 20
297.9440796987
 30
0.0
 11
592.0976510136
 21
297.9440796987
 31
0.0
  0
LINE
  5
37E
330
1F
100
AcDbEntity
  8
0
  6
Continuous
 62
     7
100
AcDbLine
 10
592.0976510136
 20
300.4440796987
 30
0.0
 11
592.0976510136
 21
302.9440796987
 31
0.0
  0
LINE
  5
37F
330
1F
100
AcDbEntity
  8
0
  6
Continuous
 62
     7
100
AcDbLine
 10
1497.0976510136
 20
276.9440796987
 30
0.0
 11
1499.0976510136
 21
276.9440796987
 31
0.0
  0
LINE
  5
380
330
1F
100
AcDbEntity
  8
0
  6
Continuous
 62
     7
100
AcDbLine
 10
1499.0976510136
 20
279.9440796987
 30
0.0
 11
1499.0976510136
 21
276.9440796987
 31
0.0
  0
LINE
  5
381
330
1F
100
AcDbEntity
  8
0
  6
Continuous
 62
     7
100
AcDbLine
 10
1497.0976510136
 20
279.9440796987
 30
0.0
 11
1497.0976510136
 21
276.9440796987
 31
0.0
  0
LINE
  5
382
330
1F
100
AcDbEntity
  8
0
  6
Continuous
 62
     7
100
AcDbLine
 10
1497.0976510136
 20
294.9440796987
 30
0.0
 11
1499.0976510136
 21
294.9440796987
 31
0.0
  0
LINE
  5
383
330
1F
100
AcDbEntity
  8
0
  6
Continuous
 62
     7
100
AcDbLine
 10
1499.0976510136
 20
294.9440796987
 30
0.0
 11
1499.0976510136
 21
288.9440796987
 31
0.0
  0
LINE
  5
384
330
1F
100
AcDbEntity
  8
0
  6
Continuous
 62
     7
100
AcDbLine
 10
1497.0976510136
 20
294.9440796987
 30
0.0
 11
1497.0976510136
 21
288.9440796987
 31
0.0
  0
LINE
  5
385
330
1F
100
AcDbEntity
  8
0
  6
Continuous
 62
     7
100
AcDbLine
 10
1480.0976510136
 20
297.9440796987
 30
0.0
 11
1480.0976510136
 21
295.9440796987
 31
0.0
  0
LINE
  5
386
330
1F
100
AcDbEntity
  8
0
  6
Continuous
 62
     7
100
AcDbLine
 10
1496.0976510136
 20
295.9440796987
 30
0.0
 11
1496.0976510136
 21
297.9440796987
 31
0.0
  0
LINE
  5
387
330
1F
100
AcDbEntity
  8
0
  6
Continuous
 62
     7
100
AcDbLine
 10
1480.0976510136
 20
295.9440796987
 30
0.0
 11
1496.0976510136
 21
295.9440796987
 31
0.0
  0
LINE
  5
388
330
1F
100
AcDbEntity
  8
0
  6
Continuous
 62
     7
100
AcDbLine
 10
1498.0976510136
 20
297.9440796987
 30
0.0
 11
1499.0976510136
 21
297.9440796987
 31
0.0
  0
LINE
  5
389
330
1F
100
AcDbEntity
  8
0
  6
Continuous
 62
     7
100
AcDbLine
 10
1496.0976510136
 20
295.9440796987
 30
0.0
 11
1497.0976510136
 21
295.9440796987
 31
0.0
  0
LINE
  5
38A
330
1F
100
AcDbEntity
  8
0
  6
Continuous
 62
     7
100
AcDbLine
 10
1499.0976510136
 20
294.9440796987
 30
0.0
 11
1499.0976510136
 21
297.9440796987
 31
0.0
  0
LINE
  5
38B
330
1F
100
AcDbEntity
  8
0
  6
Continuous
 62
     7
100
AcDbLine
 10
1497.0976510136
 20
294.9440796987
 30
0.0
 11
1497.0976510136
 21
295.9440796987
 31
0.0
  0
LINE
  5
38C
330
1F
100
AcDbEntity
  8
0
  6
Continuous
 62
     7
100
AcDbLine
 10
1477.0976510136
 20
297.9440796987
 30
0.0
 11
1477.0976510136
 21
295.9440796987
 31
0.0
  0
LINE
  5
38D
330
1F
100
AcDbEntity
  8
0
  6
Continuous
 62
     7
100
AcDbLine
 10
1477.0976510136
 20
295.9440796987
 30
0.0
 11
1480.0976510136
 21
295.9440796987
 31
0.0
  0
LINE
  5
38E
330
1F
100
AcDbEntity
  8
0
  6
Continuous
 62
     7
100
AcDbLine
 10
593.0976510136
 20
279.9440796987
 30
0.0
 11
591.0976510136
 21
279.9440796987
 31
0.0
  0
LINE
  5
38F
330
1F
100
AcDbEntity
  8
0
  6
Continuous
 62
     7
100
AcDbLine
 10
593.0976510136
 20
276.9440796987
 30
0.0
 11
593.0976510136
 21
279.9440796987
 31
0.0
  0
LINE
  5
390
330
1F
100
AcDbEntity
  8
0
  6
Continuous
 62
     7
100
AcDbLine
 10
593.0976510136
 20
276.9440796987
 30
0.0
 11
591.0976510136
 21
276.9440796987
 31
0.0
  0
LINE
  5
391
330
1F
100
AcDbEntity
  8
0
  6
Continuous
 62
     7
100
AcDbLine
 10
591.0976510136
 20
276.9440796987
 30
0.0
 11
591.0976510136
 21
279.9440796987
 31
0.0
  0
LINE
  5
392
330
1F
100
AcDbEntity
  8
0
  6
Continuous
 62
     7
100
AcDbLine
 10
593.0976510136
 20
294.9440796987
 30
0.0
 11
591.0976510136
 21
294.9440796987
 31
0.0
  0
LINE
  5
393
330
1F
100
AcDbEntity
  8
0
  6
Continuous
 62
     7
100
AcDbLine
 10
591.0976510136
 20
279.9440796987
 30
0.0
 11
591.0976510136
 21
294.9440796987
 31
0.0
  0
LINE
  5
394
330
1F
100
AcDbEntity
  8
0
  6
Continuous
 62
     7
100
AcDbLine
 10
593.0976510136
 20
279.9440796987
 30
0.0
 11
593.0976510136
 21
294.9440796987
 31
0.0
  0
LINE
  5
395
330
1F
100
AcDbEntity
  8
0
  6
Continuous
 62
     7
100
AcDbLine
 10
592.0976510136
 20
297.9440796987
 30
0.0
 11
591.0976510136
 21
297.9440796987
 31
0.0
  0
LINE
  5
396
330
1F
100
AcDbEntity
  8
0
  6
Continuous
 62
     7
100
AcDbLine
 10
594.0976510136
 20
295.9440796987
 30
0.0
 11
594.0976510136
 21
297.9440796987
 31
0.0
  0
LINE
  5
397
330
1F
100
AcDbEntity
  8
0
  6
Continuous
 62
     7
100
AcDbLine
 10
594.0976510136
 20
295.9440796987
 30
0.0
 11
593.0976510136
 21
295.9440796987
 31
0.0
  0
LINE
  5
398
330
1F
100
AcDbEntity
  8
0
  6
Continuous
 62
     7
100
AcDbLine
 10
591.0976510136
 20
294.9440796987
 30
0.0
 11
591.0976510136
 21
297.9440796987
 31
0.0
  0
LINE
  5
399
330
1F
100
AcDbEntity
  8
0
  6
Continuous
 62
     7
100
AcDbLine
 10
593.0976510136
 20
294.9440796987
 30
0.0
 11
593.0976510136
 21
295.9440796987
 31
0.0
  0
LINE
  5
39A
330
1F
100
AcDbEntity
  8
0
  6
Continuous
 62
     7
100
AcDbLine
 10
610.0976510136
 20
297.9440796987
 30
0.0
 11
610.0976510136
 21
295.9440796987
 31
0.0
  0
LINE
  5
39B
330
1F
100
AcDbEntity
  8
0
  6
Continuous
 62
     7
100
AcDbLine
 10
594.0976510136
 20
295.9440796987
 30
0.0
 11
610.0976510136
 21
295.9440796987
 31
0.0
  0
LINE
  5
39C
330
1F
100
AcDbEntity
  8
0
  6
Continuous
 62
     7
100
AcDbLine
 10
613.0976510136
 20
297.9440796987
 30
0.0
 11
613.0976510136
 21
295.9440796987
 31
0.0
  0
LINE
  5
39D
330
1F
100
AcDbEntity
  8
0
  6
Continuous
 62
     7
100
AcDbLine
 10
610.0976510136
 20
295.9440796987
 30
0.0
 11
613.0976510136
 21
295.9440796987
 31
0.0
  0
LINE
  5
39E
330
1F
100
AcDbEntity
  8
0
  6
Continuous
 62
     7
100
AcDbLine
 10
1494.2576584045
 20
278.5440796987
 30
0.0
 11
1497.0976510136
 21
278.5440796987
 31
0.0
  0
LINE
  5
39F
330
1F
100
AcDbEntity
  8
0
  6
Continuous
 62
     7
100
AcDbLine
 10
1494.2576584045
 20
290.3440796987
 30
0.0
 11
1494.2576584045
 21
278.5440796987
 31
0.0
  0
LINE
  5
3A0
330
1F
100
AcDbEntity
  8
0
  6
Continuous
 62
     7
100
AcDbLine
 10
1494.2576584045
 20
290.3440796987
 30
0.0
 11
1497.0976510136
 21
290.3440796987
 31
0.0
  0
ARC
  5
3A1
330
1F
100
AcDbEntity
  8
0
  6
Continuous
 62
     7
100
AcDbCircle
 10
1494.2576584045
 20
280.0440796987
 30
0.0
 40
1.5
100
AcDbArc
 50
207.5120026239
 51
270.0
  0
LINE
  5
3A2
330
1F
100
AcDbEntity
  8
0
  6
Continuous
 62
     7
100
AcDbLine
 10
1492.9272872783
 20
289.5369813269
 30
0.0
 11
1492.9272872783
 21
279.3511780704
 31
0.0
  0
ARC
  5
3A3
330
1F
100
AcDbEntity
  8
0
  6
Continuous
 62
     7
100
AcDbCircle
 10
1494.2576584045
 20
288.8440796987
 30
0.0
 40
1.499999999999943
100
AcDbArc
 50
90.0
 51
152.4879973761
  0
LINE
  5
3A4
330
1F
100
AcDbEntity
  8
0
  6
Continuous
 62
     7
100
AcDbLine
 10
595.9376436226
 20
278.5440796987
 30
0.0
 11
595.9376436226
 21
290.3440796987
 31
0.0
  0
ARC
  5
3A5
330
1F
100
AcDbEntity
  8
0
  6
Continuous
 62
     7
100
AcDbCircle
 10
595.9376436226
 20
288.8440796987
 30
0.0
 40
1.5
100
AcDbArc
 50
27.5120026239
 51
90.0
  0
LINE
  5
3A6
330
1F
100
AcDbEntity
  8
0
  6
Continuous
 62
     7
100
AcDbLine
 10
597.2680147488
 20
279.3511780704
 30
0.0
 11
597.2680147488
 21
289.5369813269
 31
0.0
  0
ARC
  5
3A7
330
1F
100
AcDbEntity
  8
0
  6
Continuous
 62
     7
100
AcDbCircle
 10
595.9376436226
 20
280.0440796987
 30
0.0
 40
1.5
100
AcDbArc
 50
270.0
 51
332.4879973761
  0
LINE
  5
3A8
330
1F
100
AcDbEntity
  8
0
  6
Continuous
 62
     7
100
AcDbLine
 10
595.9376436226
 20
290.3440796987
 30
0.0
 11
593.0976510136
 21
290.3440796987
 31
0.0
  0
LINE
  5
3A9
330
1F
100
AcDbEntity
  8
0
  6
Continuous
 62
     7
100
AcDbLine
 10
595.9376436226
 20
278.5440796987
 30
0.0
 11
593.0976510136
 21
278.5440796987
 31
0.0
  0
LINE
  5
3AA
330
1F
100
AcDbEntity
  8
0
  6
Continuous
 62
     7
100
AcDbLine
 10
1492.2672798873
 20
280.6183922611
 30
0.0
 11
1492.9272872783
 21
279.3511780704
 31
0.0
  0
LINE
  5
3AB
330
1F
100
AcDbEntity
  8
0
  6
Continuous
 62
     7
100
AcDbLine
 10
1492.2672798873
 20
288.2697671363
 30
0.0
 11
1492.2672798873
 21
280.6183922611
 31
0.0
  0
LINE
  5
3AC
330
1F
100
AcDbEntity
  8
0
  6
Continuous
 62
     7
100
AcDbLine
 10
1492.2672798873
 20
288.2697671363
 30
0.0
 11
1492.9272872783
 21
289.5369813269
 31
0.0
  0
LINE
  5
3AD
330
1F
100
AcDbEntity
  8
0
  6
Continuous
 62
     7
100
AcDbLine
 10
597.9280221398
 20
288.2697671363
 30
0.0
 11
597.2680147488
 21
289.5369813269
 31
0.0
  0
LINE
  5
3AE
330
1F
100
AcDbEntity
  8
0
  6
Continuous
 62
     7
100
AcDbLine
 10
597.9280221398
 20
280.6183922611
 30
0.0
 11
597.9280221398
 21
288.2697671363
 31
0.0
  0
LINE
  5
3AF
330
1F
100
AcDbEntity
  8
0
  6
Continuous
 62
     7
100
AcDbLine
 10
597.9280221398
 20
280.6183922611
 30
0.0
 11
597.2680147488
 21
279.3511780704
 31
0.0
  0
ARC
  5
3B0
330
1F
100
AcDbEntity
  8
0
  6
Continuous
 62
     7
100
AcDbCircle
 10
1493.5976510136
 20
281.3112938893
 30
0.0
 40
1.500000000003159
100
AcDbArc
 50
180.0
 51
207.5120026238
  0
LINE
  5
3B1
330
1F
100
AcDbEntity
  8
0
  6
Continuous
 62
     7
100
AcDbLine
 10
1492.0976510136
 20
287.576865508
 30
0.0
 11
1492.0976510136
 21
281.3112938893
 31
0.0
  0
ARC
  5
3B2
330
1F
100
AcDbEntity
  8
0
  6
Continuous
 62
     7
100
AcDbCircle
 10
1493.5976510136
 20
287.576865508
 30
0.0
 40
1.500000000003159
100
AcDbArc
 50
152.4879973762
 51
180.0
  0
ARC
  5
3B3
330
1F
100
AcDbEntity
  8
0
  6
Continuous
 62
     7
100
AcDbCircle
 10
596.5976510136
 20
287.576865508
 30
0.0
 40
1.500000000000114
100
AcDbArc
 50
0.0
 51
27.5120026239
  0
LINE
  5
3B4
330
1F
100
AcDbEntity
  8
0
  6
Continuous
 62
     7
100
AcDbLine
 10
598.0976510136
 20
281.3112938893
 30
0.0
 11
598.0976510136
 21
287.576865508
 31
0.0
  0
ARC
  5
3B5
330
1F
100
AcDbEntity
  8
0
  6
Continuous
 62
     7
100
AcDbCircle
 10
596.5976510136
 20
281.3112938893
 30
0.0
 40
1.5
100
AcDbArc
 50
332.4879973761
 51
360.0
  0
LINE
  5
3B6
330
1F
100
AcDbEntity
  8
0
  6
Continuous
 62
     7
100
AcDbLine
 10
1505.7976510136
 20
287.4440796987
 30
0.0
 11
1500.8476510136
 21
287.4440796987
 31
0.0
  0
LINE
  5
3B7
330
1F
100
AcDbEntity
  8
0
  6
Continuous
 62
     7
100
AcDbLine
 10
1505.7976510136
 20
287.4440796987
 30
0.0
 11
1505.7976510136
 21
281.4440796987
 31
0.0
  0
LINE
  5
3B8
330
1F
100
AcDbEntity
  8
0
  6
Continuous
 62
     7
100
AcDbLine
 10
1505.7976510136
 20
281.4440796987
 30
0.0
 11
1500.8476510136
 21
281.4440796987
 31
0.0
  0
LINE
  5
3B9
330
1F
100
AcDbEntity
  8
0
  6
Continuous
 62
     7
100
AcDbLine
 10
1506.2976510136
 20
281.9440796987
 30
0.0
 11
1505.7976510136
 21
281.4440796987
 31
0.0
  0
LINE
  5
3BA
330
1F
100
AcDbEntity
  8
0
  6
Continuous
 62
     7
100
AcDbLine
 10
1506.2976510136
 20
286.9440796987
 30
0.0
 11
1505.7976510136
 21
287.4440796987
 31
0.0
  0
LINE
  5
3BB
330
1F
100
AcDbEntity
  8
0
  6
Continuous
 62
     7
100
AcDbLine
 10
1506.2976510136
 20
286.9440796987
 30
0.0
 11
1506.2976510136
 21
281.9440796987
 31
0.0
  0
LINE
  5
3BC
330
1F
100
AcDbEntity
  8
0
  6
Continuous
 62
     7
100
AcDbLine
 10
1487.5976510136
 20
290.7440796987
 30
0.0
 11
1481.5976510136
 21
290.7440796987
 31
0.0
  0
LINE
  5
3BD
330
1F
100
AcDbEntity
  8
0
  6
Continuous
 62
     7
100
AcDbLine
 10
1487.0976510136
 20
290.2440796987
 30
0.0
 11
1487.5976510136
 21
290.7440796987
 31
0.0
  0
LINE
  5
3BE
330
1F
100
AcDbEntity
  8
0
  6
Continuous
 62
     7
100
AcDbLine
 10
1487.0976510136
 20
290.2440796987
 30
0.0
 11
1482.0976510136
 21
290.2440796987
 31
0.0
  0
LINE
  5
3BF
330
1F
100
AcDbEntity
  8
0
  6
Continuous
 62
     7
100
AcDbLine
 10
1482.0976510136
 20
290.2440796987
 30
0.0
 11
1481.5976510136
 21
290.7440796987
 31
0.0
  0
LINE
  5
3C0
330
1F
100
AcDbEntity
  8
0
  6
Continuous
 62
     7
100
AcDbLine
 10
1481.5976510136
 20
290.7440796987
 30
0.0
 11
1481.5976510136
 21
295.9440796987
 31
0.0
  0
LINE
  5
3C1
330
1F
100
AcDbEntity
  8
0
  6
Continuous
 62
     7
100
AcDbLine
 10
1487.5976510136
 20
290.7440796987
 30
0.0
 11
1487.5976510136
 21
295.9440796987
 31
0.0
  0
LINE
  5
3C2
330
1F
100
AcDbEntity
  8
0
  6
Continuous
 62
     7
100
AcDbLine
 10
603.0976510136
 20
290.2440796987
 30
0.0
 11
602.5976510136
 21
290.7440796987
 31
0.0
  0
LINE
  5
3C3
330
1F
100
AcDbEntity
  8
0
  6
Continuous
 62
     7
100
AcDbLine
 10
608.5976510136
 20
290.7440796987
 30
0.0
 11
602.5976510136
 21
290.7440796987
 31
0.0
  0
LINE
  5
3C4
330
1F
100
AcDbEntity
  8
0
  6
Continuous
 62
     7
100
AcDbLine
 10
608.0976510136
 20
290.2440796987
 30
0.0
 11
608.5976510136
 21
290.7440796987
 31
0.0
  0
LINE
  5
3C5
330
1F
100
AcDbEntity
  8
0
  6
Continuous
 62
     7
100
AcDbLine
 10
608.0976510136
 20
290.2440796987
 30
0.0
 11
603.0976510136
 21
290.2440796987
 31
0.0
  0
LINE
  5
3C6
330
1F
100
AcDbEntity
  8
0
  6
Continuous
 62
     7
100
AcDbLine
 10
608.5976510136
 20
290.7440796987
 30
0.0
 11
608.5976510136
 21
295.9440796987
 31
0.0
  0
LINE
  5
3C7
330
1F
100
AcDbEntity
  8
0
  6
Continuous
 62
     7
100
AcDbLine
 10
602.5976510136
 20
290.7440796987
 30
0.0
 11
602.5976510136
 21
295.9440796987
 31
0.0
  0
LINE
  5
3C8
330
1F
100
AcDbEntity
  8
0
  6
Continuous
 62
     7
100
AcDbLine
 10
584.3976510136
 20
281.4440796987
 30
0.0
 11
591.0976510136
 21
281.4440796987
 31
0.0
  0
LINE
  5
3C9
330
1F
100
AcDbEntity
  8
0
  6
Continuous
 62
     7
100
AcDbLine
 10
584.3976510136
 20
281.4440796987
 30
0.0
 11
584.3976510136
 21
287.4440796987
 31
0.0
  0
LINE
  5
3CA
330
1F
100
AcDbEntity
  8
0
  6
Continuous
 62
     7
100
AcDbLine
 10
584.3976510136
 20
287.4440796987
 30
0.0
 11
591.0976510136
 21
287.4440796987
 31
0.0
  0
LINE
  5
3CB
330
1F
100
AcDbEntity
  8
0
  6
Continuous
 62
     7
100
AcDbLine
 10
583.8976510136
 20
286.9440796987
 30
0.0
 11
584.3976510136
 21
287.4440796987
 31
0.0
  0
LINE
  5
3CC
330
1F
100
AcDbEntity
  8
0
  6
Continuous
 62
     7
100
AcDbLine
 10
583.8976510136
 20
281.9440796987
 30
0.0
 11
584.3976510136
 21
281.4440796987
 31
0.0
  0
LINE
  5
3CD
330
1F
100
AcDbEntity
  8
0
  6
Continuous
 62
     7
100
AcDbLine
 10
583.8976510136
 20
281.9440796987
 30
0.0
 11
583.8976510136
 21
286.9440796987
 31
0.0
  0
LINE
  5
3CE
330
1F
100
AcDbEntity
  8
0
  6
Continuous
 62
     7
100
AcDbLine
 10
589.3476510136
 20
279.9440796987
 30
0.0
 11
589.3476510136
 21
281.4440796987
 31
0.0
  0
LINE
  5
3CF
330
1F
100
AcDbEntity
  8
0
  6
Continuous
 62
     7
100
AcDbLine
 10
589.3476510136
 20
287.4440796987
 30
0.0
 11
589.3476510136
 21
288.9440796987
 31
0.0
  0
LINE
  5
3D0
330
1F
100
AcDbEntity
  8
0
  6
Continuous
 62
     7
100
AcDbLine
 10
589.3476510136
 20
288.9440796987
 30
0.0
 11
591.0505767936
 21
288.9440796987
 31
0.0
  0
LINE
  5
3D1
330
1F
100
AcDbEntity
  8
0
  6
Continuous
 62
     7
100
AcDbLine
 10
591.0505767936
 20
279.9440796987
 30
0.0
 11
589.3476510136
 21
279.9440796987
 31
0.0
  0
LINE
  5
3D2
330
1F
100
AcDbEntity
  8
0
  6
Continuous
 62
     7
100
AcDbLine
 10
591.0505767936
 20
288.9440796987
 30
0.0
 11
591.0976510136
 21
288.9440796987
 31
0.0
  0
LINE
  5
3D3
330
1F
100
AcDbEntity
  8
0
  6
Continuous
 62
     7
100
AcDbLine
 10
591.0505767936
 20
279.9440796987
 30
0.0
 11
591.0976510136
 21
279.9440796987
 31
0.0
  0
LINE
  5
3D4
330
1F
100
AcDbEntity
  8
0
  6
Continuous
 62
     7
100
AcDbLine
 10
1497.0976510136
 20
300.4440796987
 30
0.0
 11
1498.0976510136
 21
300.4440796987
 31
0.0
  0
LINE
  5
3D5
330
1F
100
AcDbEntity
  8
0
  6
Continuous
 62
     7
100
AcDbLine
 10
593.0976510136
 20
300.4440796987
 30
0.0
 11
592.0976510136
 21
300.4440796987
 31
0.0
  0
LINE
  5
3D6
330
1F
100
AcDbEntity
  8
0
  6
Continuous
 62
     7
100
AcDbLine
 10
1497.0976510136
 20
27.1182989
 30
0.0
 11
593.0976510136
 21
27.1182989
 31
0.0
  0
LINE
  5
3D7
330
1F
100
AcDbEntity
  8
0
  6
Continuous
 62
     7
100
AcDbLine
 10
593.0976510136
 20
27.1182989
 30
0.0
 11
593.0976510136
 21
28.8503497075
 31
0.0
  0
LINE
  5
3D8
330
1F
100
AcDbEntity
  8
0
  6
Continuous
 62
     7
100
AcDbLine
 10
593.0976510136
 20
28.8503497075
 30
0.0
 11
1497.0976510136
 21
28.8503497075
 31
0.0
  0
LINE
  5
3D9
330
1F
100
AcDbEntity
  8
0
  6
Continuous
 62
     7
100
AcDbLine
 10
1497.0976510136
 20
28.8503497075
 30
0.0
 11
1497.0976510136
 21
27.1182989
 31
0.0
  0
LINE
  5
3DA
330
1F
100
AcDbEntity
  8
0
  6
Continuous
 62
     7
100
AcDbLine
 10
1497.0976510136
 20
25.1003497075
 30
0.0
 11
1497.0976510136
 21
21.9238125271
 31
0.0
  0
LINE
  5
3DB
330
1F
100
AcDbEntity
  8
0
  6
Continuous
 62
     7
100
AcDbLine
 10
1494.0976510136
 20
19.3257363158
 30
0.0
 11
1497.0976510136
 21
21.9238125271
 31
0.0
  0
LINE
  5
3DC
330
1F
100
AcDbEntity
  8
0
  6
Continuous
 62
     7
100
AcDbLine
 10
1494.0976510136
 20
19.3257363158
 30
0.0
 11
596.0976510136
 21
19.3257363158
 31
0.0
  0
LINE
  5
3DD
330
1F
100
AcDbEntity
  8
0
  6
Continuous
 62
     7
100
AcDbLine
 10
593.0976510136
 20
21.9238125271
 30
0.0
 11
596.0976510136
 21
19.3257363158
 31
0.0
  0
LINE
  5
3DE
330
1F
100
AcDbEntity
  8
0
  6
Continuous
 62
     7
100
AcDbLine
 10
593.0976510136
 20
21.9238125271
 30
0.0
 11
593.0976510136
 21
25.1003497075
 31
0.0
  0
LINE
  5
3DF
330
1F
100
AcDbEntity
  8
0
  6
Continuous
 62
     7
100
AcDbLine
 10
1497.0976510136
 20
25.1003497075
 30
0.0
 11
1497.0976510136
 21
27.1182989
 31
0.0
  0
LINE
  5
3E0
330
1F
100
AcDbEntity
  8
0
  6
Continuous
 62
     7
100
AcDbLine
 10
593.0976510136
 20
25.1003497075
 30
0.0
 11
593.0976510136
 21
27.1182989
 31
0.0
  0
LINE
  5
3E1
330
1F
100
AcDbEntity
  8
0
  6
Continuous
 62
     7
100
AcDbLine
 10
591.2535025736
 20
46.8503497075
 30
0.0
 11
591.2535025736
 21
37.8503497075
 31
0.0
  0
LINE
  5
3E2
330
1F
100
AcDbEntity
  8
0
  6
Continuous
 62
     7
100
AcDbLine
 10
592.9564283536
 20
46.8503497075
 30
0.0
 11
591.2535025736
 21
46.8503497075
 31
0.0
  0
LINE
  5
3E3
330
1F
100
AcDbEntity
  8
0
  6
Continuous
 62
     7
100
AcDbLine
 10
592.9564283536
 20
46.8503497075
 30
0.0
 11
593.0976510136
 21
46.8503497075
 31
0.0
  0
LINE
  5
3E4
330
1F
100
AcDbEntity
  8
0
  6
Continuous
 62
     7
100
AcDbLine
 10
593.0976510136
 20
37.8503497075
 30
0.0
 11
593.0976510136
 21
46.8503497075
 31
0.0
  0
LINE
  5
3E5
330
1F
100
AcDbEntity
  8
0
  6
Continuous
 62
     7
100
AcDbLine
 10
592.9564283536
 20
37.8503497075
 30
0.0
 11
593.0976510136
 21
37.8503497075
 31
0.0
  0
LINE
  5
3E6
330
1F
100
AcDbEntity
  8
0
  6
Continuous
 62
     7
100
AcDbLine
 10
591.2535025736
 20
37.8503497075
 30
0.0
 11
592.9564283536
 21
37.8503497075
 31
0.0
  0
LINE
  5
3E7
330
1F
100
AcDbEntity
  8
0
  6
Continuous
 62
     7
100
AcDbLine
 10
591.2535025736
 20
37.8503497075
 30
0.0
 11
589.3476510136
 21
37.8503497075
 31
0.0
  0
LINE
  5
3E8
330
1F
100
AcDbEntity
  8
0
  6
Continuous
 62
     7
100
AcDbLine
 10
589.3476510136
 20
46.8503497075
 30
0.0
 11
589.3476510136
 21
37.8503497075
 31
0.0
  0
LINE
  5
3E9
330
1F
100
AcDbEntity
  8
0
  6
Continuous
 62
     7
100
AcDbLine
 10
591.2535025736
 20
46.8503497075
 30
0.0
 11
589.3476510136
 21
46.8503497075
 31
0.0
  0
LINE
  5
3EA
330
1F
100
AcDbEntity
  8
0
  6
Continuous
 62
     7
100
AcDbLine
 10
592.0976510136
 20
26.3503497075
 30
0.0
 11
592.0976510136
 21
28.8503497075
 31
0.0
  0
LINE
  5
3EB
330
1F
100
AcDbEntity
  8
0
  6
Continuous
 62
     7
100
AcDbLine
 10
593.0976510136
 20
28.8503497075
 30
0.0
 11
592.0976510136
 21
28.8503497075
 31
0.0
  0
LINE
  5
3EC
330
1F
100
AcDbEntity
  8
0
  6
Continuous
 62
     7
100
AcDbLine
 10
592.0976510136
 20
23.8503497075
 30
0.0
 11
593.0976510136
 21
23.8503497075
 31
0.0
  0
LINE
  5
3ED
330
1F
100
AcDbEntity
  8
0
  6
Continuous
 62
     7
100
AcDbLine
 10
592.0976510136
 20
23.8503497075
 30
0.0
 11
592.0976510136
 21
26.3503497075
 31
0.0
  0
LINE
  5
3EE
330
1F
100
AcDbEntity
  8
0
  6
Continuous
 62
     7
100
AcDbLine
 10
592.0976510136
 20
20.8503497075
 30
0.0
 11
593.5976510136
 21
20.8503497075
 31
0.0
  0
LINE
  5
3EF
330
1F
100
AcDbEntity
  8
0
  6
Continuous
 62
     7
100
AcDbLine
 10
593.5976510136
 20
20.8503497075
 30
0.0
 11
593.5976510136
 21
21.4907998252
 31
0.0
  0
LINE
  5
3F0
330
1F
100
AcDbEntity
  8
0
  6
Continuous
 62
     7
100
AcDbLine
 10
592.0976510136
 20
20.8503497075
 30
0.0
 11
592.0976510136
 21
23.8503497075
 31
0.0
  0
LINE
  5
3F1
330
1F
100
AcDbEntity
  8
0
  6
Continuous
 62
     7
100
AcDbLine
 10
1498.0976510136
 20
26.3503497075
 30
0.0
 11
1498.0976510136
 21
28.8503497075
 31
0.0
  0
LINE
  5
3F2
330
1F
100
AcDbEntity
  8
0
  6
Continuous
 62
     7
100
AcDbLine
 10
1497.0976510136
 20
28.8503497075
 30
0.0
 11
1498.0976510136
 21
28.8503497075
 31
0.0
  0
LINE
  5
3F3
330
1F
100
AcDbEntity
  8
0
  6
Continuous
 62
     7
100
AcDbLine
 10
1498.0976510136
 20
23.8503497075
 30
0.0
 11
1497.0976510136
 21
23.8503497075
 31
0.0
  0
LINE
  5
3F4
330
1F
100
AcDbEntity
  8
0
  6
Continuous
 62
     7
100
AcDbLine
 10
1498.0976510136
 20
26.3503497075
 30
0.0
 11
1498.0976510136
 21
23.8503497075
 31
0.0
  0
LINE
  5
3F5
330
1F
100
AcDbEntity
  8
0
  6
Continuous
 62
     7
100
AcDbLine
 10
1498.0976510136
 20
20.8503497075
 30
0.0
 11
1496.5976510136
 21
20.8503497075
 31
0.0
  0
LINE
  5
3F6
330
1F
100
AcDbEntity
  8
0
  6
Continuous
 62
     7
100
AcDbLine
 10
1496.5976510136
 20
21.4907998252
 30
0.0
 11
1496.5976510136
 21
20.8503497075
 31
0.0
  0
LINE
  5
3F7
330
1F
100
AcDbEntity
  8
0
  6
Continuous
 62
     7
100
AcDbLine
 10
1498.0976510136
 20
23.8503497075
 30
0.0
 11
1498.0976510136
 21
20.8503497075
 31
0.0
  0
LINE
  5
3F8
330
1F
100
AcDbEntity
  8
0
  6
Continuous
 62
     7
100
AcDbLine
 10
1497.0976510136
 20
46.8503497075
 30
0.0
 11
1499.0976510136
 21
46.8503497075
 31
0.0
  0
LINE
  5
3F9
330
1F
100
AcDbEntity
  8
0
  6
Continuous
 62
     7
100
AcDbLine
 10
1497.0976510136
 20
49.8503497075
 30
0.0
 11
1499.0976510136
 21
49.8503497075
 31
0.0
  0
LINE
  5
3FA
330
1F
100
AcDbEntity
  8
0
  6
Continuous
 62
     7
100
AcDbLine
 10
1497.0976510136
 20
49.8503497075
 30
0.0
 11
1497.0976510136
 21
46.8503497075
 31
0.0
  0
LINE
  5
3FB
330
1F
100
AcDbEntity
  8
0
  6
Continuous
 62
     7
100
AcDbLine
 10
1499.0976510136
 20
49.8503497075
 30
0.0
 11
1499.0976510136
 21
46.8503497075
 31
0.0
  0
LINE
  5
3FC
330
1F
100
AcDbEntity
  8
0
  6
Continuous
 62
     7
100
AcDbLine
 10
1497.0976510136
 20
31.8503497075
 30
0.0
 11
1499.0976510136
 21
31.8503497075
 31
0.0
  0
LINE
  5
3FD
330
1F
100
AcDbEntity
  8
0
  6
Continuous
 62
     7
100
AcDbLine
 10
1497.0976510136
 20
46.8503497075
 30
0.0
 11
1497.0976510136
 21
31.8503497075
 31
0.0
  0
LINE
  5
3FE
330
1F
100
AcDbEntity
  8
0
  6
Continuous
 62
     7
100
AcDbLine
 10
1499.0976510136
 20
46.8503497075
 30
0.0
 11
1499.0976510136
 21
31.8503497075
 31
0.0
  0
LINE
  5
3FF
330
1F
100
AcDbEntity
  8
0
  6
Continuous
 62
     7
100
AcDbLine
 10
1498.0976510136
 20
28.8503497075
 30
0.0
 11
1499.0976510136
 21
28.8503497075
 31
0.0
  0
LINE
  5
400
330
1F
100
AcDbEntity
  8
0
  6
Continuous
 62
     7
100
AcDbLine
 10
1496.0976510136
 20
30.8503497075
 30
0.0
 11
1496.0976510136
 21
28.8503497075
 31
0.0
  0
LINE
  5
401
330
1F
100
AcDbEntity
  8
0
  6
Continuous
 62
     7
100
AcDbLine
 10
1496.0976510136
 20
30.8503497075
 30
0.0
 11
1497.0976510136
 21
30.8503497075
 31
0.0
  0
LINE
  5
402
330
1F
100
AcDbEntity
  8
0
  6
Continuous
 62
     7
100
AcDbLine
 10
1497.0976510136
 20
31.8503497075
 30
0.0
 11
1497.0976510136
 21
30.8503497075
 31
0.0
  0
LINE
  5
403
330
1F
100
AcDbEntity
  8
0
  6
Continuous
 62
     7
100
AcDbLine
 10
1499.0976510136
 20
31.8503497075
 30
0.0
 11
1499.0976510136
 21
28.8503497075
 31
0.0
  0
LINE
  5
404
330
1F
100
AcDbEntity
  8
0
  6
Continuous
 62
     7
100
AcDbLine
 10
1480.0976510136
 20
28.8503497075
 30
0.0
 11
1480.0976510136
 21
30.8503497075
 31
0.0
  0
LINE
  5
405
330
1F
100
AcDbEntity
  8
0
  6
Continuous
 62
     7
100
AcDbLine
 10
1496.0976510136
 20
30.8503497075
 30
0.0
 11
1480.0976510136
 21
30.8503497075
 31
0.0
  0
LINE
  5
406
330
1F
100
AcDbEntity
  8
0
  6
Continuous
 62
     7
100
AcDbLine
 10
1477.0976510136
 20
28.8503497075
 30
0.0
 11
1477.0976510136
 21
30.8503497075
 31
0.0
  0
LINE
  5
407
330
1F
100
AcDbEntity
  8
0
  6
Continuous
 62
     7
100
AcDbLine
 10
1480.0976510136
 20
30.8503497075
 30
0.0
 11
1477.0976510136
 21
30.8503497075
 31
0.0
  0
LINE
  5
408
330
1F
100
AcDbEntity
  8
0
  6
Continuous
 62
     7
100
AcDbLine
 10
593.0976510136
 20
49.8503497075
 30
0.0
 11
591.0976510136
 21
49.8503497075
 31
0.0
  0
LINE
  5
409
330
1F
100
AcDbEntity
  8
0
  6
Continuous
 62
     7
100
AcDbLine
 10
591.0976510136
 20
46.8503497075
 30
0.0
 11
591.0976510136
 21
49.8503497075
 31
0.0
  0
LINE
  5
40A
330
1F
100
AcDbEntity
  8
0
  6
Continuous
 62
     7
100
AcDbLine
 10
593.0976510136
 20
46.8503497075
 30
0.0
 11
593.0976510136
 21
49.8503497075
 31
0.0
  0
LINE
  5
40B
330
1F
100
AcDbEntity
  8
0
  6
Continuous
 62
     7
100
AcDbLine
 10
593.0976510136
 20
31.8503497075
 30
0.0
 11
591.0976510136
 21
31.8503497075
 31
0.0
  0
LINE
  5
40C
330
1F
100
AcDbEntity
  8
0
  6
Continuous
 62
     7
100
AcDbLine
 10
591.0976510136
 20
31.8503497075
 30
0.0
 11
591.0976510136
 21
37.8503497075
 31
0.0
  0
LINE
  5
40D
330
1F
100
AcDbEntity
  8
0
  6
Continuous
 62
     7
100
AcDbLine
 10
593.0976510136
 20
31.8503497075
 30
0.0
 11
593.0976510136
 21
37.8503497075
 31
0.0
  0
LINE
  5
40E
330
1F
100
AcDbEntity
  8
0
  6
Continuous
 62
     7
100
AcDbLine
 10
592.0976510136
 20
28.8503497075
 30
0.0
 11
591.0976510136
 21
28.8503497075
 31
0.0
  0
LINE
  5
40F
330
1F
100
AcDbEntity
  8
0
  6
Continuous
 62
     7
100
AcDbLine
 10
594.0976510136
 20
30.8503497075
 30
0.0
 11
593.0976510136
 21
30.8503497075
 31
0.0
  0
LINE
  5
410
330
1F
100
AcDbEntity
  8
0
  6
Continuous
 62
     7
100
AcDbLine
 10
594.0976510136
 20
30.8503497075
 30
0.0
 11
594.0976510136
 21
28.8503497075
 31
0.0
  0
LINE
  5
411
330
1F
100
AcDbEntity
  8
0
  6
Continuous
 62
     7
100
AcDbLine
 10
591.0976510136
 20
31.8503497075
 30
0.0
 11
591.0976510136
 21
28.8503497075
 31
0.0
  0
LINE
  5
412
330
1F
100
AcDbEntity
  8
0
  6
Continuous
 62
     7
100
AcDbLine
 10
593.0976510136
 20
31.8503497075
 30
0.0
 11
593.0976510136
 21
30.8503497075
 31
0.0
  0
LINE
  5
413
330
1F
100
AcDbEntity
  8
0
  6
Continuous
 62
     7
100
AcDbLine
 10
610.0976510136
 20
28.8503497075
 30
0.0
 11
610.0976510136
 21
30.8503497075
 31
0.0
  0
LINE
  5
414
330
1F
100
AcDbEntity
  8
0
  6
Continuous
 62
     7
100
AcDbLine
 10
610.0976510136
 20
30.8503497075
 30
0.0
 11
594.0976510136
 21
30.8503497075
 31
0.0
  0
LINE
  5
415
330
1F
100
AcDbEntity
  8
0
  6
Continuous
 62
     7
100
AcDbLine
 10
613.0976510136
 20
28.8503497075
 30
0.0
 11
613.0976510136
 21
30.8503497075
 31
0.0
  0
LINE
  5
416
330
1F
100
AcDbEntity
  8
0
  6
Continuous
 62
     7
100
AcDbLine
 10
613.0976510136
 20
30.8503497075
 30
0.0
 11
610.0976510136
 21
30.8503497075
 31
0.0
  0
LINE
  5
417
330
1F
100
AcDbEntity
  8
0
  6
Continuous
 62
     7
100
AcDbLine
 10
1494.2576584045
 20
48.2503497075
 30
0.0
 11
1497.0976510136
 21
48.2503497075
 31
0.0
  0
LINE
  5
418
330
1F
100
AcDbEntity
  8
0
  6
Continuous
 62
     7
100
AcDbLine
 10
1494.2576584045
 20
36.4503497075
 30
0.0
 11
1497.0976510136
 21
36.4503497075
 31
0.0
  0
LINE
  5
419
330
1F
100
AcDbEntity
  8
0
  6
Continuous
 62
     7
100
AcDbLine
 10
1494.2576584045
 20
48.2503497075
 30
0.0
 11
1494.2576584045
 21
36.4503497075
 31
0.0
  0
ARC
  5
41A
330
1F
100
AcDbEntity
  8
0
  6
Continuous
 62
     7
100
AcDbCircle
 10
1494.2576584045
 20
46.7503497075
 30
0.0
 40
1.500000000000303
100
AcDbArc
 50
90.0
 51
152.4879973762
  0
ARC
  5
41B
330
1F
100
AcDbEntity
  8
0
  6
Continuous
 62
     7
100
AcDbCircle
 10
1494.2576584045
 20
37.9503497075
 30
0.0
 40
1.500000000000342
100
AcDbArc
 50
207.5120026238
 51
270.0
  0
LINE
  5
41C
330
1F
100
AcDbEntity
  8
0
  6
Continuous
 62
     7
100
AcDbLine
 10
1492.9272872783
 20
47.4432513358
 30
0.0
 11
1492.9272872783
 21
37.2574480793
 31
0.0
  0
ARC
  5
41D
330
1F
100
AcDbEntity
  8
0
  6
Continuous
 62
     7
100
AcDbCircle
 10
595.9376436226
 20
37.9503497075
 30
0.0
 40
1.50000000000002
100
AcDbArc
 50
270.0
 51
332.4879973762
  0
LINE
  5
41E
330
1F
100
AcDbEntity
  8
0
  6
Continuous
 62
     7
100
AcDbLine
 10
595.9376436226
 20
36.4503497075
 30
0.0
 11
595.9376436226
 21
48.2503497075
 31
0.0
  0
ARC
  5
41F
330
1F
100
AcDbEntity
  8
0
  6
Continuous
 62
     7
100
AcDbCircle
 10
595.9376436226
 20
46.7503497075
 30
0.0
 40
1.5
100
AcDbArc
 50
27.5120026239
 51
90.0
  0
LINE
  5
420
330
1F
100
AcDbEntity
  8
0
  6
Continuous
 62
     7
100
AcDbLine
 10
597.2680147488
 20
37.2574480793
 30
0.0
 11
597.2680147488
 21
47.4432513358
 31
0.0
  0
LINE
  5
421
330
1F
100
AcDbEntity
  8
0
  6
Continuous
 62
     7
100
AcDbLine
 10
595.9376436226
 20
36.4503497075
 30
0.0
 11
593.0976510136
 21
36.4503497075
 31
0.0
  0
LINE
  5
422
330
1F
100
AcDbEntity
  8
0
  6
Continuous
 62
     7
100
AcDbLine
 10
595.9376436226
 20
48.2503497075
 30
0.0
 11
593.0976510136
 21
48.2503497075
 31
0.0
  0
LINE
  5
423
330
1F
100
AcDbEntity
  8
0
  6
Continuous
 62
     7
100
AcDbLine
 10
1492.2672798873
 20
46.1760371451
 30
0.0
 11
1492.9272872783
 21
47.4432513358
 31
0.0
  0
LINE
  5
424
330
1F
100
AcDbEntity
  8
0
  6
Continuous
 62
     7
100
AcDbLine
 10
1492.2672798873
 20
38.5246622699
 30
0.0
 11
1492.9272872783
 21
37.2574480793
 31
0.0
  0
LINE
  5
425
330
1F
100
AcDbEntity
  8
0
  6
Continuous
 62
     7
100
AcDbLine
 10
1492.2672798873
 20
46.1760371451
 30
0.0
 11
1492.2672798873
 21
38.5246622699
 31
0.0
  0
LINE
  5
426
330
1F
100
AcDbEntity
  8
0
  6
Continuous
 62
     7
100
AcDbLine
 10
597.9280221398
 20
38.5246622699
 30
0.0
 11
597.2680147488
 21
37.2574480793
 31
0.0
  0
LINE
  5
427
330
1F
100
AcDbEntity
  8
0
  6
Continuous
 62
     7
100
AcDbLine
 10
597.9280221398
 20
46.1760371451
 30
0.0
 11
597.2680147488
 21
47.4432513358
 31
0.0
  0
LINE
  5
428
330
1F
100
AcDbEntity
  8
0
  6
Continuous
 62
     7
100
AcDbLine
 10
597.9280221398
 20
38.5246622699
 30
0.0
 11
597.9280221398
 21
46.1760371451
 31
0.0
  0
ARC
  5
429
330
1F
100
AcDbEntity
  8
0
  6
Continuous
 62
     7
100
AcDbCircle
 10
1493.5976510136
 20
45.4831355169
 30
0.0
 40
1.5
100
AcDbArc
 50
152.4879973761
 51
180.0
  0
ARC
  5
42A
330
1F
100
AcDbEntity
  8
0
  6
Continuous
 62
     7
100
AcDbCircle
 10
1493.5976510136
 20
39.2175638982
 30
0.0
 40
1.5
100
AcDbArc
 50
180.0
 51
207.5120026239
  0
LINE
  5
42B
330
1F
100
AcDbEntity
  8
0
  6
Continuous
 62
     7
100
AcDbLine
 10
1492.0976510136
 20
45.4831355169
 30
0.0
 11
1492.0976510136
 21
39.2175638982
 31
0.0
  0
ARC
  5
42C
330
1F
100
AcDbEntity
  8
0
  6
Continuous
 62
     7
100
AcDbCircle
 10
596.5976510136
 20
39.2175638982
 30
0.0
 40
1.500000000000017
100
AcDbArc
 50
332.4879973762
 51
0.0
  0
ARC
  5
42D
330
1F
100
AcDbEntity
  8
0
  6
Continuous
 62
     7
100
AcDbCircle
 10
596.5976510136
 20
45.4831355169
 30
0.0
 40
1.5
100
AcDbArc
 50
0.0
 51
27.5120026239
  0
LINE
  5
42E
330
1F
100
AcDbEntity
  8
0
  6
Continuous
 62
     7
100
AcDbLine
 10
598.0976510136
 20
39.2175638982
 30
0.0
 11
598.0976510136
 21
45.4831355169
 31
0.0
  0
LINE
  5
42F
330
1F
100
AcDbEntity
  8
0
  6
Continuous
 62
     7
100
AcDbLine
 10
1505.7976510136
 20
45.3503497075
 30
0.0
 11
1505.7976510136
 21
39.3503497075
 31
0.0
  0
LINE
  5
430
330
1F
100
AcDbEntity
  8
0
  6
Continuous
 62
     7
100
AcDbLine
 10
1506.2976510136
 20
44.8503497075
 30
0.0
 11
1505.7976510136
 21
45.3503497075
 31
0.0
  0
LINE
  5
431
330
1F
100
AcDbEntity
  8
0
  6
Continuous
 62
     7
100
AcDbLine
 10
1506.2976510136
 20
44.8503497075
 30
0.0
 11
1506.2976510136
 21
39.8503497075
 31
0.0
  0
LINE
  5
432
330
1F
100
AcDbEntity
  8
0
  6
Continuous
 62
     7
100
AcDbLine
 10
1506.2976510136
 20
39.8503497075
 30
0.0
 11
1505.7976510136
 21
39.3503497075
 31
0.0
  0
LINE
  5
433
330
1F
100
AcDbEntity
  8
0
  6
Continuous
 62
     7
100
AcDbLine
 10
1505.7976510136
 20
39.3503497075
 30
0.0
 11
1499.0976510136
 21
39.3503497075
 31
0.0
  0
LINE
  5
434
330
1F
100
AcDbEntity
  8
0
  6
Continuous
 62
     7
100
AcDbLine
 10
1505.7976510136
 20
45.3503497075
 30
0.0
 11
1499.0976510136
 21
45.3503497075
 31
0.0
  0
LINE
  5
435
330
1F
100
AcDbEntity
  8
0
  6
Continuous
 62
     7
100
AcDbLine
 10
1481.5976510136
 20
36.0503497075
 30
0.0
 11
1487.5976510136
 21
36.0503497075
 31
0.0
  0
LINE
  5
436
330
1F
100
AcDbEntity
  8
0
  6
Continuous
 62
     7
100
AcDbLine
 10
1482.0976510136
 20
36.5503497075
 30
0.0
 11
1481.5976510136
 21
36.0503497075
 31
0.0
  0
LINE
  5
437
330
1F
100
AcDbEntity
  8
0
  6
Continuous
 62
     7
100
AcDbLine
 10
1482.0976510136
 20
36.5503497075
 30
0.0
 11
1487.0976510136
 21
36.5503497075
 31
0.0
  0
LINE
  5
438
330
1F
100
AcDbEntity
  8
0
  6
Continuous
 62
     7
100
AcDbLine
 10
1487.0976510136
 20
36.5503497075
 30
0.0
 11
1487.5976510136
 21
36.0503497075
 31
0.0
  0
LINE
  5
439
330
1F
100
AcDbEntity
  8
0
  6
Continuous
 62
     7
100
AcDbLine
 10
1487.5976510136
 20
36.0503497075
 30
0.0
 11
1487.5976510136
 21
30.8503497075
 31
0.0
  0
LINE
  5
43A
330
1F
100
AcDbEntity
  8
0
  6
Continuous
 62
     7
100
AcDbLine
 10
1481.5976510136
 20
36.0503497075
 30
0.0
 11
1481.5976510136
 21
30.8503497075
 31
0.0
  0
LINE
  5
43B
330
1F
100
AcDbEntity
  8
0
  6
Continuous
 62
     7
100
AcDbLine
 10
584.3976510136
 20
39.3503497075
 30
0.0
 11
584.3976510136
 21
45.3503497075
 31
0.0
  0
LINE
  5
43C
330
1F
100
AcDbEntity
  8
0
  6
Continuous
 62
     7
100
AcDbLine
 10
583.8976510136
 20
39.8503497075
 30
0.0
 11
584.3976510136
 21
39.3503497075
 31
0.0
  0
LINE
  5
43D
330
1F
100
AcDbEntity
  8
0
  6
Continuous
 62
     7
100
AcDbLine
 10
583.8976510136
 20
39.8503497075
 30
0.0
 11
583.8976510136
 21
44.8503497075
 31
0.0
  0
LINE
  5
43E
330
1F
100
AcDbEntity
  8
0
  6
Continuous
 62
     7
100
AcDbLine
 10
583.8976510136
 20
44.8503497075
 30
0.0
 11
584.3976510136
 21
45.3503497075
 31
0.0
  0
LINE
  5
43F
330
1F
100
AcDbEntity
  8
0
  6
Continuous
 62
     7
100
AcDbLine
 10
584.3976510136
 20
45.3503497075
 30
0.0
 11
589.3476510136
 21
45.3503497075
 31
0.0
  0
LINE
  5
440
330
1F
100
AcDbEntity
  8
0
  6
Continuous
 62
     7
100
AcDbLine
 10
584.3976510136
 20
39.3503497075
 30
0.0
 11
589.3476510136
 21
39.3503497075
 31
0.0
  0
LINE
  5
441
330
1F
100
AcDbEntity
  8
0
  6
Continuous
 62
     7
100
AcDbLine
 10
608.0976510136
 20
36.5503497075
 30
0.0
 11
608.5976510136
 21
36.0503497075
 31
0.0
  0
LINE
  5
442
330
1F
100
AcDbEntity
  8
0
  6
Continuous
 62
     7
100
AcDbLine
 10
602.5976510136
 20
36.0503497075
 30
0.0
 11
608.5976510136
 21
36.0503497075
 31
0.0
  0
LINE
  5
443
330
1F
100
AcDbEntity
  8
0
  6
Continuous
 62
     7
100
AcDbLine
 10
603.0976510136
 20
36.5503497075
 30
0.0
 11
602.5976510136
 21
36.0503497075
 31
0.0
  0
LINE
  5
444
330
1F
100
AcDbEntity
  8
0
  6
Continuous
 62
     7
100
AcDbLine
 10
603.0976510136
 20
36.5503497075
 30
0.0
 11
608.0976510136
 21
36.5503497075
 31
0.0
  0
LINE
  5
445
330
1F
100
AcDbEntity
  8
0
  6
Continuous
 62
     7
100
AcDbLine
 10
602.5976510136
 20
36.0503497075
 30
0.0
 11
602.5976510136
 21
30.8503497075
 31
0.0
  0
LINE
  5
446
330
1F
100
AcDbEntity
  8
0
  6
Continuous
 62
     7
100
AcDbLine
 10
608.5976510136
 20
36.0503497075
 30
0.0
 11
608.5976510136
 21
30.8503497075
 31
0.0
  0
LINE
  5
447
330
1F
100
AcDbEntity
  8
0
  6
Continuous
 62
     7
100
AcDbLine
 10
1500.8476510136
 20
46.8503497075
 30
0.0
 11
1500.8476510136
 21
45.3503497075
 31
0.0
  0
LINE
  5
448
330
1F
100
AcDbEntity
  8
0
  6
Continuous
 62
     7
100
AcDbLine
 10
1500.8476510136
 20
39.3503497075
 30
0.0
 11
1500.8476510136
 21
37.8503497075
 31
0.0
  0
LINE
  5
449
330
1F
100
AcDbEntity
  8
0
  6
Continuous
 62
     7
100
AcDbLine
 10
1500.8476510136
 20
37.8503497075
 30
0.0
 11
1499.1447252336
 21
37.8503497075
 31
0.0
  0
LINE
  5
44A
330
1F
100
AcDbEntity
  8
0
  6
Continuous
 62
     7
100
AcDbLine
 10
1499.1447252336
 20
46.8503497075
 30
0.0
 11
1500.8476510136
 21
46.8503497075
 31
0.0
  0
LINE
  5
44B
330
1F
100
AcDbEntity
  8
0
  6
Continuous
 62
     7
100
AcDbLine
 10
1499.1447252336
 20
37.8503497075
 30
0.0
 11
1499.0976510136
 21
37.8503497075
 31
0.0
  0
LINE
  5
44C
330
1F
100
AcDbEntity
  8
0
  6
Continuous
 62
     7
100
AcDbLine
 10
1499.1447252336
 20
46.8503497075
 30
0.0
 11
1499.0976510136
 21
46.8503497075
 31
0.0
  0
LINE
  5
44D
330
1F
100
AcDbEntity
  8
0
  6
Continuous
 62
     7
100
AcDbLine
 10
593.0976510136
 20
26.3503497075
 30
0.0
 11
592.0976510136
 21
26.3503497075
 31
0.0
  0
LINE
  5
44E
330
1F
100
AcDbEntity
  8
0
  6
Continuous
 62
     7
100
AcDbLine
 10
1497.0976510136
 20
26.3503497075
 30
0.0
 11
1498.0976510136
 21
26.3503497075
 31
0.0
  0
LINE
  5
44F
330
1F
100
AcDbEntity
  8
0
  6
Continuous
 62
     7
100
AcDbLine
 10
1638.7766976367
 20
224.5273366441
 30
0.0
 11
1635.9367050277
 21
224.5273366441
 31
0.0
  0
LINE
  5
450
330
1F
100
AcDbEntity
  8
0
  6
Continuous
 62
     7
100
AcDbLine
 10
1635.9367050277
 20
212.7273366441
 30
0.0
 11
1638.7766976367
 21
212.7273366441
 31
0.0
  0
ARC
  5
451
330
1F
100
AcDbEntity
  8
0
  6
Continuous
 62
     7
100
AcDbCircle
 10
1638.7766976367
 20
223.0273366441
 30
0.0
 40
1.500000000000029
100
AcDbArc
 50
27.5120026238
 51
90.0
  0
ARC
  5
452
330
1F
100
AcDbEntity
  8
0
  6
Continuous
 62
     7
100
AcDbCircle
 10
1638.7766976367
 20
214.2273366441
 30
0.0
 40
1.500000000000042
100
AcDbArc
 50
270.0
 51
332.4879973762
  0
ARC
  5
453
330
1F
100
AcDbEntity
  8
0
  6
Continuous
 62
     7
100
AcDbCircle
 10
2537.0967124186
 20
123.0270826062
 30
0.0
 40
1.500000000000121
100
AcDbArc
 50
90.0
 51
152.4879973762
  0
ARC
  5
454
330
1F
100
AcDbEntity
  8
0
  6
Continuous
 62
     7
100
AcDbCircle
 10
2537.0967124186
 20
114.2270826062
 30
0.0
 40
1.500000000000127
100
AcDbArc
 50
207.5120026238
 51
270.0
  0
LINE
  5
455
330
1F
100
AcDbEntity
  8
0
  6
Continuous
 62
     7
100
AcDbLine
 10
2539.9367050277
 20
124.5270826062
 30
0.0
 11
2537.0967124186
 21
124.5270826062
 31
0.0
  0
LINE
  5
456
330
1F
100
AcDbEntity
  8
0
  6
Continuous
 62
     7
100
AcDbLine
 10
2537.0967124186
 20
112.7270826062
 30
0.0
 11
2539.9367050277
 21
112.7270826062
 31
0.0
  0
LINE
  5
457
330
1F
100
AcDbEntity
  8
0
  6
Continuous
 62
     7
100
AcDbLine
 10
1635.9367050277
 20
112.7270826062
 30
0.0
 11
1638.7766976367
 21
112.7270826062
 31
0.0
  0
LINE
  5
458
330
1F
100
AcDbEntity
  8
0
  6
Continuous
 62
     7
100
AcDbLine
 10
1638.7766976367
 20
124.5270826062
 30
0.0
 11
1635.9367050277
 21
124.5270826062
 31
0.0
  0
ARC
  5
459
330
1F
100
AcDbEntity
  8
0
  6
Continuous
 62
     7
100
AcDbCircle
 10
1638.7766976367
 20
114.2270826062
 30
0.0
 40
1.5
100
AcDbArc
 50
270.0
 51
332.4879973761
  0
ARC
  5
45A
330
1F
100
AcDbEntity
  8
0
  6
Continuous
 62
     7
100
AcDbCircle
 10
1638.7766976367
 20
123.0270826062
 30
0.0
 40
1.5
100
AcDbArc
 50
27.5120026239
 51
90.0
  0
ARC
  5
45B
330
1F
100
AcDbEntity
  8
0
  6
Continuous
 62
     7
100
AcDbCircle
 10
2537.0967124186
 20
222.8720805353
 30
0.0
 40
1.500000000000134
100
AcDbArc
 50
90.0
 51
152.4879973762
  0
ARC
  5
45C
330
1F
100
AcDbEntity
  8
0
  6
Continuous
 62
     7
100
AcDbCircle
 10
2537.0967124186
 20
214.0720805353
 30
0.0
 40
1.500000000000134
100
AcDbArc
 50
207.5120026239
 51
270.0
  0
LINE
  5
45D
330
1F
100
AcDbEntity
  8
0
  6
Continuous
 62
     7
100
AcDbLine
 10
2537.0967124186
 20
212.5720805353
 30
0.0
 11
2539.9367050277
 21
212.5720805353
 31
0.0
  0
LINE
  5
45E
330
1F
100
AcDbEntity
  8
0
  6
Continuous
 62
     7
100
AcDbLine
 10
2539.9367050277
 20
224.3720805353
 30
0.0
 11
2537.0967124186
 21
224.3720805353
 31
0.0
  0
LINE
  5
45F
330
1F
100
AcDbEntity
  8
0
  6
Continuous
 62
     7
100
AcDbLine
 10
1640.107068763
 20
213.5344350158
 30
0.0
 11
1640.7670761539
 21
214.8016492065
 31
0.0
  0
LINE
  5
460
330
1F
100
AcDbEntity
  8
0
  6
Continuous
 62
     7
100
AcDbLine
 10
1640.7670761539
 20
222.4530240817
 30
0.0
 11
1640.107068763
 21
223.7202382723
 31
0.0
  0
LINE
  5
461
330
1F
100
AcDbEntity
  8
0
  6
Continuous
 62
     7
100
AcDbLine
 10
2535.7663412924
 20
123.7199842345
 30
0.0
 11
2535.1063339014
 21
122.4527700438
 31
0.0
  0
LINE
  5
462
330
1F
100
AcDbEntity
  8
0
  6
Continuous
 62
     7
100
AcDbLine
 10
2535.1063339014
 20
114.8013951686
 30
0.0
 11
2535.7663412924
 21
113.534180978
 31
0.0
  0
LINE
  5
463
330
1F
100
AcDbEntity
  8
0
  6
Continuous
 62
     7
100
AcDbLine
 10
1640.7670761539
 20
122.4527700438
 30
0.0
 11
1640.107068763
 21
123.7199842345
 31
0.0
  0
LINE
  5
464
330
1F
100
AcDbEntity
  8
0
  6
Continuous
 62
     7
100
AcDbLine
 10
1640.107068763
 20
113.534180978
 30
0.0
 11
1640.7670761539
 21
114.8013951686
 31
0.0
  0
LINE
  5
465
330
1F
100
AcDbEntity
  8
0
  6
Continuous
 62
     7
100
AcDbLine
 10
2535.1063339014
 20
214.6463930977
 30
0.0
 11
2535.7663412924
 21
213.3791789071
 31
0.0
  0
LINE
  5
466
330
1F
100
AcDbEntity
  8
0
  6
Continuous
 62
     7
100
AcDbLine
 10
2535.7663412924
 20
223.5649821636
 30
0.0
 11
2535.1063339014
 21
222.2977679729
 31
0.0
  0
ARC
  5
467
330
1F
100
AcDbEntity
  8
0
  6
Continuous
 62
     7
100
AcDbCircle
 10
1639.4367050277
 20
215.4945508347
 30
0.0
 40
1.500000000000227
100
AcDbArc
 50
332.4879973761
 51
0.0
  0
ARC
  5
468
330
1F
100
AcDbEntity
  8
0
  6
Continuous
 62
     7
100
AcDbCircle
 10
1639.4367050277
 20
221.7601224534
 30
0.0
 40
1.500000000000227
100
AcDbArc
 50
0.0
 51
27.5120026239
  0
ARC
  5
469
330
1F
100
AcDbEntity
  8
0
  6
Continuous
 62
     7
100
AcDbCircle
 10
2536.4367050277
 20
121.7598684156
 30
0.0
 40
1.50000000000014
100
AcDbArc
 50
152.4879973761
 51
180.0
  0
ARC
  5
46A
330
1F
100
AcDbEntity
  8
0
  6
Continuous
 62
     7
100
AcDbCircle
 10
2536.4367050277
 20
115.4942967969
 30
0.0
 40
1.500000000000121
100
AcDbArc
 50
180.0
 51
207.5120026238
  0
ARC
  5
46B
330
1F
100
AcDbEntity
  8
0
  6
Continuous
 62
     7
100
AcDbCircle
 10
1639.4367050277
 20
115.4942967969
 30
0.0
 40
1.500000000000258
100
AcDbArc
 50
332.4879973762
 51
0.0
  0
ARC
  5
46C
330
1F
100
AcDbEntity
  8
0
  6
Continuous
 62
     7
100
AcDbCircle
 10
1639.4367050277
 20
121.7598684156
 30
0.0
 40
1.500000000000258
100
AcDbArc
 50
0.0
 51
27.5120026238
  0
ARC
  5
46D
330
1F
100
AcDbEntity
  8
0
  6
Continuous
 62
     7
100
AcDbCircle
 10
2536.4367050277
 20
215.339294726
 30
0.0
 40
1.500000000000134
100
AcDbArc
 50
180.0
 51
207.5120026239
  0
ARC
  5
46E
330
1F
100
AcDbEntity
  8
0
  6
Continuous
 62
     7
100
AcDbCircle
 10
2536.4367050277
 20
221.6048663447
 30
0.0
 40
1.500000000000134
100
AcDbArc
 50
152.4879973762
 51
180.0
  0
LINE
  5
46F
330
1F
100
AcDbEntity
  8
0
  6
Continuous
 62
     7
100
AcDbLine
 10
1626.7367050277
 20
216.1273366441
 30
0.0
 11
1627.2367050277
 21
215.6273366441
 31
0.0
  0
LINE
  5
470
330
1F
100
AcDbEntity
  8
0
  6
Continuous
 62
     7
100
AcDbLine
 10
1627.2367050277
 20
221.6273366441
 30
0.0
 11
1626.7367050277
 21
221.1273366441
 31
0.0
  0
LINE
  5
471
330
1F
100
AcDbEntity
  8
0
  6
Continuous
 62
     7
100
AcDbLine
 10
1627.2367050277
 20
215.6273366441
 30
0.0
 11
1633.9367050277
 21
215.6273366441
 31
0.0
  0
LINE
  5
472
330
1F
100
AcDbEntity
  8
0
  6
Continuous
 62
     7
100
AcDbLine
 10
1633.9367050277
 20
221.6273366441
 30
0.0
 11
1627.2367050277
 21
221.6273366441
 31
0.0
  0
LINE
  5
473
330
1F
100
AcDbEntity
  8
0
  6
Continuous
 62
     7
100
AcDbLine
 10
2541.9367050277
 20
115.6270826062
 30
0.0
 11
2548.6367050277
 21
115.6270826062
 31
0.0
  0
LINE
  5
474
330
1F
100
AcDbEntity
  8
0
  6
Continuous
 62
     7
100
AcDbLine
 10
2548.6367050277
 20
121.6270826062
 30
0.0
 11
2541.9367050277
 21
121.6270826062
 31
0.0
  0
LINE
  5
475
330
1F
100
AcDbEntity
  8
0
  6
Continuous
 62
     7
100
AcDbLine
 10
2548.6367050277
 20
115.6270826062
 30
0.0
 11
2549.1367050277
 21
116.1270826062
 31
0.0
  0
LINE
  5
476
330
1F
100
AcDbEntity
  8
0
  6
Continuous
 62
     7
100
AcDbLine
 10
2549.1367050277
 20
121.1270826062
 30
0.0
 11
2548.6367050277
 21
121.6270826062
 31
0.0
  0
LINE
  5
477
330
1F
100
AcDbEntity
  8
0
  6
Continuous
 62
     7
100
AcDbLine
 10
1626.7367050277
 20
116.1270826062
 30
0.0
 11
1627.2367050277
 21
115.6270826062
 31
0.0
  0
LINE
  5
478
330
1F
100
AcDbEntity
  8
0
  6
Continuous
 62
     7
100
AcDbLine
 10
1627.2367050277
 20
121.6270826062
 30
0.0
 11
1626.7367050277
 21
121.1270826062
 31
0.0
  0
LINE
  5
479
330
1F
100
AcDbEntity
  8
0
  6
Continuous
 62
     7
100
AcDbLine
 10
1633.9367050277
 20
121.6270826062
 30
0.0
 11
1627.2367050277
 21
121.6270826062
 31
0.0
  0
LINE
  5
47A
330
1F
100
AcDbEntity
  8
0
  6
Continuous
 62
     7
100
AcDbLine
 10
1627.2367050277
 20
115.6270826062
 30
0.0
 11
1633.9367050277
 21
115.6270826062
 31
0.0
  0
LINE
  5
47B
330
1F
100
AcDbEntity
  8
0
  6
Continuous
 62
     7
100
AcDbLine
 10
2548.6367050277
 20
221.4720805353
 30
0.0
 11
2541.9367050277
 21
221.4720805353
 31
0.0
  0
LINE
  5
47C
330
1F
100
AcDbEntity
  8
0
  6
Continuous
 62
     7
100
AcDbLine
 10
2541.9367050277
 20
215.4720805353
 30
0.0
 11
2548.6367050277
 21
215.4720805353
 31
0.0
  0
LINE
  5
47D
330
1F
100
AcDbEntity
  8
0
  6
Continuous
 62
     7
100
AcDbLine
 10
2549.1367050277
 20
220.9720805353
 30
0.0
 11
2548.6367050277
 21
221.4720805353
 31
0.0
  0
LINE
  5
47E
330
1F
100
AcDbEntity
  8
0
  6
Continuous
 62
     7
100
AcDbLine
 10
2548.6367050277
 20
215.4720805353
 30
0.0
 11
2549.1367050277
 21
215.9720805353
 31
0.0
  0
LINE
  5
47F
330
1F
100
AcDbEntity
  8
0
  6
Continuous
 62
     7
100
AcDbLine
 10
1635.9367050277
 20
110.4547106606
 30
0.0
 11
1633.9367050277
 21
110.4547106606
 31
0.0
  0
LINE
  5
480
330
1F
100
AcDbEntity
  8
0
  6
Continuous
 62
     7
100
AcDbLine
 10
1635.9367050277
 20
107.4547106606
 30
0.0
 11
1635.9367050277
 21
110.4547106606
 31
0.0
  0
LINE
  5
481
330
1F
100
AcDbEntity
  8
0
  6
Continuous
 62
     7
100
AcDbLine
 10
1635.9367050277
 20
107.4547106606
 30
0.0
 11
1633.9367050277
 21
107.4547106606
 31
0.0
  0
LINE
  5
482
330
1F
100
AcDbEntity
  8
0
  6
Continuous
 62
     7
100
AcDbLine
 10
1633.9367050277
 20
107.4547106606
 30
0.0
 11
1633.9367050277
 21
110.4547106606
 31
0.0
  0
LINE
  5
483
330
1F
100
AcDbEntity
  8
0
  6
Continuous
 62
     7
100
AcDbLine
 10
1635.9367050277
 20
126.7994545519
 30
0.0
 11
1633.9367050277
 21
126.7994545519
 31
0.0
  0
LINE
  5
484
330
1F
100
AcDbEntity
  8
0
  6
Continuous
 62
     7
100
AcDbLine
 10
1635.9367050277
 20
110.4547106606
 30
0.0
 11
1635.9367050277
 21
126.7994545519
 31
0.0
  0
LINE
  5
485
330
1F
100
AcDbEntity
  8
0
  6
Continuous
 62
     7
100
AcDbLine
 10
1633.9367050277
 20
110.4547106606
 30
0.0
 11
1633.9367050277
 21
126.7994545519
 31
0.0
  0
LINE
  5
486
330
1F
100
AcDbEntity
  8
0
  6
Continuous
 62
     7
100
AcDbLine
 10
1635.9367050277
 20
129.7994545519
 30
0.0
 11
1633.9367050277
 21
129.7994545519
 31
0.0
  0
LINE
  5
487
330
1F
100
AcDbEntity
  8
0
  6
Continuous
 62
     7
100
AcDbLine
 10
1635.9367050277
 20
126.7994545519
 30
0.0
 11
1635.9367050277
 21
129.7994545519
 31
0.0
  0
LINE
  5
488
330
1F
100
AcDbEntity
  8
0
  6
Continuous
 62
     7
100
AcDbLine
 10
1633.9367050277
 20
126.7994545519
 30
0.0
 11
1633.9367050277
 21
129.7994545519
 31
0.0
  0
LINE
  5
489
330
1F
100
AcDbEntity
  8
0
  6
Continuous
 62
     7
100
AcDbLine
 10
1635.9367050277
 20
210.4549646984
 30
0.0
 11
1633.9367050277
 21
210.4549646984
 31
0.0
  0
LINE
  5
48A
330
1F
100
AcDbEntity
  8
0
  6
Continuous
 62
     7
100
AcDbLine
 10
1635.9367050277
 20
207.4549646984
 30
0.0
 11
1635.9367050277
 21
210.4549646984
 31
0.0
  0
LINE
  5
48B
330
1F
100
AcDbEntity
  8
0
  6
Continuous
 62
     7
100
AcDbLine
 10
1635.9367050277
 20
207.4549646984
 30
0.0
 11
1633.9367050277
 21
207.4549646984
 31
0.0
  0
LINE
  5
48C
330
1F
100
AcDbEntity
  8
0
  6
Continuous
 62
     7
100
AcDbLine
 10
1633.9367050277
 20
207.4549646984
 30
0.0
 11
1633.9367050277
 21
210.4549646984
 31
0.0
  0
LINE
  5
48D
330
1F
100
AcDbEntity
  8
0
  6
Continuous
 62
     7
100
AcDbLine
 10
1635.9367050277
 20
226.7997085897
 30
0.0
 11
1633.9367050277
 21
226.7997085897
 31
0.0
  0
LINE
  5
48E
330
1F
100
AcDbEntity
  8
0
  6
Continuous
 62
     7
100
AcDbLine
 10
1635.9367050277
 20
210.4549646984
 30
0.0
 11
1635.9367050277
 21
226.7997085897
 31
0.0
  0
LINE
  5
48F
330
1F
100
AcDbEntity
  8
0
  6
Continuous
 62
     7
100
AcDbLine
 10
1633.9367050277
 20
210.4549646984
 30
0.0
 11
1633.9367050277
 21
226.7997085897
 31
0.0
  0
LINE
  5
490
330
1F
100
AcDbEntity
  8
0
  6
Continuous
 62
     7
100
AcDbLine
 10
1635.9367050277
 20
229.7997085897
 30
0.0
 11
1633.9367050277
 21
229.7997085897
 31
0.0
  0
LINE
  5
491
330
1F
100
AcDbEntity
  8
0
  6
Continuous
 62
     7
100
AcDbLine
 10
1635.9367050277
 20
226.7997085897
 30
0.0
 11
1635.9367050277
 21
229.7997085897
 31
0.0
  0
LINE
  5
492
330
1F
100
AcDbEntity
  8
0
  6
Continuous
 62
     7
100
AcDbLine
 10
1633.9367050277
 20
226.7997085897
 30
0.0
 11
1633.9367050277
 21
229.7997085897
 31
0.0
  0
LINE
  5
493
330
1F
100
AcDbEntity
  8
0
  6
Continuous
 62
     7
100
AcDbLine
 10
2539.9367050277
 20
126.7994545519
 30
0.0
 11
2541.9367050277
 21
126.7994545519
 31
0.0
  0
LINE
  5
494
330
1F
100
AcDbEntity
  8
0
  6
Continuous
 62
     7
100
AcDbLine
 10
2539.9367050277
 20
129.7994545519
 30
0.0
 11
2539.9367050277
 21
126.7994545519
 31
0.0
  0
LINE
  5
495
330
1F
100
AcDbEntity
  8
0
  6
Continuous
 62
     7
100
AcDbLine
 10
2539.9367050277
 20
129.7994545519
 30
0.0
 11
2541.9367050277
 21
129.7994545519
 31
0.0
  0
LINE
  5
496
330
1F
100
AcDbEntity
  8
0
  6
Continuous
 62
     7
100
AcDbLine
 10
2541.9367050277
 20
129.7994545519
 30
0.0
 11
2541.9367050277
 21
126.7994545519
 31
0.0
  0
LINE
  5
497
330
1F
100
AcDbEntity
  8
0
  6
Continuous
 62
     7
100
AcDbLine
 10
2539.9367050277
 20
110.4547106606
 30
0.0
 11
2541.9367050277
 21
110.4547106606
 31
0.0
  0
LINE
  5
498
330
1F
100
AcDbEntity
  8
0
  6
Continuous
 62
     7
100
AcDbLine
 10
2539.9367050277
 20
126.7994545519
 30
0.0
 11
2539.9367050277
 21
110.4547106606
 31
0.0
  0
LINE
  5
499
330
1F
100
AcDbEntity
  8
0
  6
Continuous
 62
     7
100
AcDbLine
 10
2541.9367050277
 20
126.7994545519
 30
0.0
 11
2541.9367050277
 21
110.4547106606
 31
0.0
  0
LINE
  5
49A
330
1F
100
AcDbEntity
  8
0
  6
Continuous
 62
     7
100
AcDbLine
 10
2539.9367050277
 20
107.4547106606
 30
0.0
 11
2541.9367050277
 21
107.4547106606
 31
0.0
  0
LINE
  5
49B
330
1F
100
AcDbEntity
  8
0
  6
Continuous
 62
     7
100
AcDbLine
 10
2541.9367050277
 20
110.4547106606
 30
0.0
 11
2541.9367050277
 21
107.4547106606
 31
0.0
  0
LINE
  5
49C
330
1F
100
AcDbEntity
  8
0
  6
Continuous
 62
     7
100
AcDbLine
 10
2539.9367050277
 20
110.4547106606
 30
0.0
 11
2539.9367050277
 21
107.4547106606
 31
0.0
  0
LINE
  5
49D
330
1F
100
AcDbEntity
  8
0
  6
Continuous
 62
     7
100
AcDbLine
 10
2539.9367050277
 20
210.2997085897
 30
0.0
 11
2541.9367050277
 21
210.2997085897
 31
0.0
  0
LINE
  5
49E
330
1F
100
AcDbEntity
  8
0
  6
Continuous
 62
     7
100
AcDbLine
 10
2539.9367050277
 20
226.6444524809
 30
0.0
 11
2539.9367050277
 21
210.2997085897
 31
0.0
  0
LINE
  5
49F
330
1F
100
AcDbEntity
  8
0
  6
Continuous
 62
     7
100
AcDbLine
 10
2539.9367050277
 20
226.6444524809
 30
0.0
 11
2541.9367050277
 21
226.6444524809
 31
0.0
  0
LINE
  5
4A0
330
1F
100
AcDbEntity
  8
0
  6
Continuous
 62
     7
100
AcDbLine
 10
2541.9367050277
 20
226.6444524809
 30
0.0
 11
2541.9367050277
 21
210.2997085897
 31
0.0
  0
LINE
  5
4A1
330
1F
100
AcDbEntity
  8
0
  6
Continuous
 62
     7
100
AcDbLine
 10
2539.9367050277
 20
207.2997085897
 30
0.0
 11
2541.9367050277
 21
207.2997085897
 31
0.0
  0
LINE
  5
4A2
330
1F
100
AcDbEntity
  8
0
  6
Continuous
 62
     7
100
AcDbLine
 10
2541.9367050277
 20
210.2997085897
 30
0.0
 11
2541.9367050277
 21
207.2997085897
 31
0.0
  0
LINE
  5
4A3
330
1F
100
AcDbEntity
  8
0
  6
Continuous
 62
     7
100
AcDbLine
 10
2539.9367050277
 20
210.2997085897
 30
0.0
 11
2539.9367050277
 21
207.2997085897
 31
0.0
  0
LINE
  5
4A4
330
1F
100
AcDbEntity
  8
0
  6
Continuous
 62
     7
100
AcDbLine
 10
2539.9367050277
 20
229.6444524809
 30
0.0
 11
2541.9367050277
 21
229.6444524809
 31
0.0
  0
LINE
  5
4A5
330
1F
100
AcDbEntity
  8
0
  6
Continuous
 62
     7
100
AcDbLine
 10
2541.9367050277
 20
229.6444524809
 30
0.0
 11
2541.9367050277
 21
226.6444524809
 31
0.0
  0
LINE
  5
4A6
330
1F
100
AcDbEntity
  8
0
  6
Continuous
 62
     7
100
AcDbLine
 10
2539.9367050277
 20
229.6444524809
 30
0.0
 11
2539.9367050277
 21
226.6444524809
 31
0.0
  0
LINE
  5
4A7
330
1F
100
AcDbEntity
  8
0
  6
Continuous
 62
     7
100
AcDbLine
 10
1638.7766976367
 20
218.6273366441
 30
0.0
 11
1635.9367050277
 21
218.6273366441
 31
0.0
  0
LINE
  5
4A8
330
1F
100
AcDbEntity
  8
0
  6
Continuous
 62
     7
100
AcDbLine
 10
1640.107068763
 20
218.6273366441
 30
0.0
 11
1638.7766976367
 21
218.6273366441
 31
0.0
  0
LINE
  5
4A9
330
1F
100
AcDbEntity
  8
0
  6
Continuous
 62
     7
100
AcDbLine
 10
2535.7663412924
 20
118.6270826062
 30
0.0
 11
2537.0967124186
 21
118.6270826062
 31
0.0
  0
LINE
  5
4AA
330
1F
100
AcDbEntity
  8
0
  6
Continuous
 62
     7
100
AcDbLine
 10
2537.0967124186
 20
118.6270826062
 30
0.0
 11
2539.9367050277
 21
118.6270826062
 31
0.0
  0
LINE
  5
4AB
330
1F
100
AcDbEntity
  8
0
  6
Continuous
 62
     7
100
AcDbLine
 10
1638.7766976367
 20
118.6270826062
 30
0.0
 11
1635.9367050277
 21
118.6270826062
 31
0.0
  0
LINE
  5
4AC
330
1F
100
AcDbEntity
  8
0
  6
Continuous
 62
     7
100
AcDbLine
 10
1640.107068763
 20
118.6270826062
 30
0.0
 11
1638.7766976367
 21
118.6270826062
 31
0.0
  0
LINE
  5
4AD
330
1F
100
AcDbEntity
  8
0
  6
Continuous
 62
     7
100
AcDbLine
 10
2535.7663412924
 20
218.4720805353
 30
0.0
 11
2537.0967124186
 21
218.4720805353
 31
0.0
  0
LINE
  5
4AE
330
1F
100
AcDbEntity
  8
0
  6
Continuous
 62
     7
100
AcDbLine
 10
2537.0967124186
 20
218.4720805353
 30
0.0
 11
2539.9367050277
 21
218.4720805353
 31
0.0
  0
LINE
  5
4AF
330
1F
100
AcDbEntity
  8
0
  6
Continuous
 62
     7
100
AcDbLine
 10
1640.7670761539
 20
218.6273366441
 30
0.0
 11
1640.107068763
 21
218.6273366441
 31
0.0
  0
LINE
  5
4B0
330
1F
100
AcDbEntity
  8
0
  6
Continuous
 62
     7
100
AcDbLine
 10
2535.1063339014
 20
118.6270826062
 30
0.0
 11
2535.7663412924
 21
118.6270826062
 31
0.0
  0
LINE
  5
4B1
330
1F
100
AcDbEntity
  8
0
  6
Continuous
 62
     7
100
AcDbLine
 10
1640.7670761539
 20
118.6270826062
 30
0.0
 11
1640.107068763
 21
118.6270826062
 31
0.0
  0
LINE
  5
4B2
330
1F
100
AcDbEntity
  8
0
  6
Continuous
 62
     7
100
AcDbLine
 10
2535.1063339014
 20
218.4720805353
 30
0.0
 11
2535.7663412924
 21
218.4720805353
 31
0.0
  0
LINE
  5
4B3
330
1F
100
AcDbEntity
  8
0
  6
Continuous
 62
     7
100
AcDbLine
 10
1635.7954823677
 20
206.5453537266
 30
0.0
 11
1634.0925565877
 21
201.1933012751
 31
0.0
  0
LINE
  5
4B4
330
1F
100
AcDbEntity
  8
0
  6
Continuous
 62
     7
100
AcDbLine
 10
1634.0925565877
 20
201.1933012751
 30
0.0
 11
1632.1867050277
 21
201.7997085897
 31
0.0
  0
LINE
  5
4B5
330
1F
100
AcDbEntity
  8
0
  6
Continuous
 62
     7
100
AcDbLine
 10
1633.8896308077
 20
207.1517610412
 30
0.0
 11
1632.1867050277
 21
201.7997085897
 31
0.0
  0
LINE
  5
4B6
330
1F
100
AcDbEntity
  8
0
  6
Continuous
 62
     7
100
AcDbLine
 10
1633.8896308077
 20
207.1517610412
 30
0.0
 11
1635.7954823677
 21
206.5453537266
 31
0.0
  0
LINE
  5
4B7
330
1F
100
AcDbEntity
  8
0
  6
Continuous
 62
     7
100
AcDbLine
 10
1635.7954823677
 20
106.5450996888
 30
0.0
 11
1634.0925565877
 21
101.1930472373
 31
0.0
  0
LINE
  5
4B8
330
1F
100
AcDbEntity
  8
0
  6
Continuous
 62
     7
100
AcDbLine
 10
1634.0925565877
 20
101.1930472373
 30
0.0
 11
1632.1867050277
 21
101.7994545519
 31
0.0
  0
LINE
  5
4B9
330
1F
100
AcDbEntity
  8
0
  6
Continuous
 62
     7
100
AcDbLine
 10
1633.8896308077
 20
107.1515070033
 30
0.0
 11
1635.7954823677
 21
106.5450996888
 31
0.0
  0
LINE
  5
4BA
330
1F
100
AcDbEntity
  8
0
  6
Continuous
 62
     7
100
AcDbLine
 10
1633.8896308077
 20
107.1515070033
 30
0.0
 11
1632.1867050277
 21
101.7994545519
 31
0.0
  0
LINE
  5
4BB
330
1F
100
AcDbEntity
  8
0
  6
Continuous
 62
     7
100
AcDbLine
 10
1635.7954823677
 20
206.5453537266
 30
0.0
 11
1635.9367050277
 21
206.9891963722
 31
0.0
  0
LINE
  5
4BC
330
1F
100
AcDbEntity
  8
0
  6
Continuous
 62
     7
100
AcDbLine
 10
1633.8896308077
 20
207.1517610412
 30
0.0
 11
1633.9367050277
 21
207.2997085897
 31
0.0
  0
LINE
  5
4BD
330
1F
100
AcDbEntity
  8
0
  6
Continuous
 62
     7
100
AcDbLine
 10
1635.9367050277
 20
207.4549646984
 30
0.0
 11
1635.9367050277
 21
206.9891963722
 31
0.0
  0
LINE
  5
4BE
330
1F
100
AcDbEntity
  8
0
  6
Continuous
 62
     7
100
AcDbLine
 10
1633.9367050277
 20
207.4549646984
 30
0.0
 11
1633.9367050277
 21
207.2997085897
 31
0.0
  0
LINE
  5
4BF
330
1F
100
AcDbEntity
  8
0
  6
Continuous
 62
     7
100
AcDbLine
 10
1635.7954823677
 20
106.5450996888
 30
0.0
 11
1635.9367050277
 21
106.9889423344
 31
0.0
  0
LINE
  5
4C0
330
1F
100
AcDbEntity
  8
0
  6
Continuous
 62
     7
100
AcDbLine
 10
1633.8896308077
 20
107.1515070033
 30
0.0
 11
1633.9367050277
 21
107.2994545519
 31
0.0
  0
LINE
  5
4C1
330
1F
100
AcDbEntity
  8
0
  6
Continuous
 62
     7
100
AcDbLine
 10
1635.9367050277
 20
107.4547106606
 30
0.0
 11
1635.9367050277
 21
106.9889423344
 31
0.0
  0
LINE
  5
4C2
330
1F
100
AcDbEntity
  8
0
  6
Continuous
 62
     7
100
AcDbLine
 10
1633.9367050277
 20
107.4547106606
 30
0.0
 11
1633.9367050277
 21
107.2994545519
 31
0.0
  0
LINE
  5
4C3
330
1F
100
AcDbEntity
  8
0
  6
Continuous
 62
     7
100
AcDbLine
 10
2541.9837792477
 20
130.1026582091
 30
0.0
 11
2540.0779276876
 21
130.7090655237
 31
0.0
  0
LINE
  5
4C4
330
1F
100
AcDbEntity
  8
0
  6
Continuous
 62
     7
100
AcDbLine
 10
2541.9837792477
 20
130.1026582091
 30
0.0
 11
2541.9367050277
 21
129.9547106606
 31
0.0
  0
LINE
  5
4C5
330
1F
100
AcDbEntity
  8
0
  6
Continuous
 62
     7
100
AcDbLine
 10
2540.0779276876
 20
130.7090655237
 30
0.0
 11
2539.9367050277
 21
130.2652228781
 31
0.0
  0
LINE
  5
4C6
330
1F
100
AcDbEntity
  8
0
  6
Continuous
 62
     7
100
AcDbLine
 10
2541.9367050277
 20
129.7994545519
 30
0.0
 11
2541.9367050277
 21
129.9547106606
 31
0.0
  0
LINE
  5
4C7
330
1F
100
AcDbEntity
  8
0
  6
Continuous
 62
     7
100
AcDbLine
 10
2539.9367050277
 20
129.7994545519
 30
0.0
 11
2539.9367050277
 21
130.2652228781
 31
0.0
  0
LINE
  5
4C8
330
1F
100
AcDbEntity
  8
0
  6
Continuous
 62
     7
100
AcDbLine
 10
2541.7808534677
 20
136.0611179752
 30
0.0
 11
2543.6867050277
 21
135.4547106606
 31
0.0
  0
LINE
  5
4C9
330
1F
100
AcDbEntity
  8
0
  6
Continuous
 62
     7
100
AcDbLine
 10
2541.9837792477
 20
130.1026582091
 30
0.0
 11
2543.6867050277
 21
135.4547106606
 31
0.0
  0
LINE
  5
4CA
330
1F
100
AcDbEntity
  8
0
  6
Continuous
 62
     7
100
AcDbLine
 10
2540.0779276876
 20
130.7090655237
 30
0.0
 11
2541.7808534677
 21
136.0611179752
 31
0.0
  0
LINE
  5
4CB
330
1F
100
AcDbEntity
  8
0
  6
Continuous
 62
     7
100
AcDbLine
 10
2541.7808534677
 20
235.9061159042
 30
0.0
 11
2543.6867050277
 21
235.2997085897
 31
0.0
  0
LINE
  5
4CC
330
1F
100
AcDbEntity
  8
0
  6
Continuous
 62
     7
100
AcDbLine
 10
2541.9837792477
 20
229.9476561382
 30
0.0
 11
2543.6867050277
 21
235.2997085897
 31
0.0
  0
LINE
  5
4CD
330
1F
100
AcDbEntity
  8
0
  6
Continuous
 62
     7
100
AcDbLine
 10
2541.9837792477
 20
229.9476561382
 30
0.0
 11
2540.0779276876
 21
230.5540634528
 31
0.0
  0
LINE
  5
4CE
330
1F
100
AcDbEntity
  8
0
  6
Continuous
 62
     7
100
AcDbLine
 10
2540.0779276876
 20
230.5540634528
 30
0.0
 11
2541.7808534677
 21
235.9061159042
 31
0.0
  0
LINE
  5
4CF
330
1F
100
AcDbEntity
  8
0
  6
Continuous
 62
     7
100
AcDbLine
 10
2541.9837792477
 20
229.9476561382
 30
0.0
 11
2541.9367050277
 21
229.7997085897
 31
0.0
  0
LINE
  5
4D0
330
1F
100
AcDbEntity
  8
0
  6
Continuous
 62
     7
100
AcDbLine
 10
2540.0779276876
 20
230.5540634528
 30
0.0
 11
2539.9367050277
 21
230.1102208072
 31
0.0
  0
LINE
  5
4D1
330
1F
100
AcDbEntity
  8
0
  6
Continuous
 62
     7
100
AcDbLine
 10
2541.9367050277
 20
229.6444524809
 30
0.0
 11
2541.9367050277
 21
229.7997085897
 31
0.0
  0
LINE
  5
4D2
330
1F
100
AcDbEntity
  8
0
  6
Continuous
 62
     7
100
AcDbLine
 10
2539.9367050277
 20
229.6444524809
 30
0.0
 11
2539.9367050277
 21
230.1102208072
 31
0.0
  0
LINE
  5
4D3
330
1F
100
AcDbEntity
  8
0
  6
Continuous
 62
     7
100
AcDbLine
 10
1640.9367050277
 20
218.6273366441
 30
0.0
 11
1640.7670761539
 21
218.6273366441
 31
0.0
  0
LINE
  5
4D4
330
1F
100
AcDbEntity
  8
0
  6
Continuous
 62
     7
100
AcDbLine
 10
1640.9367050277
 20
215.4945508347
 30
0.0
 11
1640.9367050277
 21
218.6273366441
 31
0.0
  0
LINE
  5
4D5
330
1F
100
AcDbEntity
  8
0
  6
Continuous
 62
     7
100
AcDbLine
 10
1640.9367050277
 20
218.6273366441
 30
0.0
 11
1640.9367050277
 21
221.7601224534
 31
0.0
  0
LINE
  5
4D6
330
1F
100
AcDbEntity
  8
0
  6
Continuous
 62
     7
100
AcDbLine
 10
2534.9367050277
 20
118.6270826062
 30
0.0
 11
2535.1063339014
 21
118.6270826062
 31
0.0
  0
LINE
  5
4D7
330
1F
100
AcDbEntity
  8
0
  6
Continuous
 62
     7
100
AcDbLine
 10
2534.9367050277
 20
121.7598684156
 30
0.0
 11
2534.9367050277
 21
118.6270826062
 31
0.0
  0
LINE
  5
4D8
330
1F
100
AcDbEntity
  8
0
  6
Continuous
 62
     7
100
AcDbLine
 10
2534.9367050277
 20
118.6270826062
 30
0.0
 11
2534.9367050277
 21
115.4942967969
 31
0.0
  0
LINE
  5
4D9
330
1F
100
AcDbEntity
  8
0
  6
Continuous
 62
     7
100
AcDbLine
 10
1640.9367050277
 20
118.6270826062
 30
0.0
 11
1640.7670761539
 21
118.6270826062
 31
0.0
  0
LINE
  5
4DA
330
1F
100
AcDbEntity
  8
0
  6
Continuous
 62
     7
100
AcDbLine
 10
1640.9367050277
 20
115.4942967969
 30
0.0
 11
1640.9367050277
 21
118.6270826062
 31
0.0
  0
LINE
  5
4DB
330
1F
100
AcDbEntity
  8
0
  6
Continuous
 62
     7
100
AcDbLine
 10
1640.9367050277
 20
118.6270826062
 30
0.0
 11
1640.9367050277
 21
121.7598684156
 31
0.0
  0
LINE
  5
4DC
330
1F
100
AcDbEntity
  8
0
  6
Continuous
 62
     7
100
AcDbLine
 10
2534.9367050277
 20
218.4720805353
 30
0.0
 11
2534.9367050277
 21
215.339294726
 31
0.0
  0
LINE
  5
4DD
330
1F
100
AcDbEntity
  8
0
  6
Continuous
 62
     7
100
AcDbLine
 10
2534.9367050277
 20
218.4720805353
 30
0.0
 11
2535.1063339014
 21
218.4720805353
 31
0.0
  0
LINE
  5
4DE
330
1F
100
AcDbEntity
  8
0
  6
Continuous
 62
     7
100
AcDbLine
 10
2534.9367050277
 20
221.6048663447
 30
0.0
 11
2534.9367050277
 21
218.4720805353
 31
0.0
  0
LINE
  5
4DF
330
1F
100
AcDbEntity
  8
0
  6
Continuous
 62
     7
100
AcDbLine
 10
1626.7367050277
 20
218.6273366441
 30
0.0
 11
1627.2367050277
 21
218.6273366441
 31
0.0
  0
LINE
  5
4E0
330
1F
100
AcDbEntity
  8
0
  6
Continuous
 62
     7
100
AcDbLine
 10
1627.2367050277
 20
215.6273366441
 30
0.0
 11
1627.2367050277
 21
218.6273366441
 31
0.0
  0
LINE
  5
4E1
330
1F
100
AcDbEntity
  8
0
  6
Continuous
 62
     7
100
AcDbLine
 10
1626.7367050277
 20
216.1273366441
 30
0.0
 11
1626.7367050277
 21
218.6273366441
 31
0.0
  0
LINE
  5
4E2
330
1F
100
AcDbEntity
  8
0
  6
Continuous
 62
     7
100
AcDbLine
 10
1627.2367050277
 20
218.6273366441
 30
0.0
 11
1627.2367050277
 21
221.6273366441
 31
0.0
  0
LINE
  5
4E3
330
1F
100
AcDbEntity
  8
0
  6
Continuous
 62
     7
100
AcDbLine
 10
1626.7367050277
 20
218.6273366441
 30
0.0
 11
1626.7367050277
 21
221.1273366441
 31
0.0
  0
LINE
  5
4E4
330
1F
100
AcDbEntity
  8
0
  6
Continuous
 62
     7
100
AcDbLine
 10
2548.6367050277
 20
118.6270826062
 30
0.0
 11
2548.6367050277
 21
115.6270826062
 31
0.0
  0
LINE
  5
4E5
330
1F
100
AcDbEntity
  8
0
  6
Continuous
 62
     7
100
AcDbLine
 10
2548.6367050277
 20
121.6270826062
 30
0.0
 11
2548.6367050277
 21
118.6270826062
 31
0.0
  0
LINE
  5
4E6
330
1F
100
AcDbEntity
  8
0
  6
Continuous
 62
     7
100
AcDbLine
 10
2549.1367050277
 20
118.6270826062
 30
0.0
 11
2548.6367050277
 21
118.6270826062
 31
0.0
  0
LINE
  5
4E7
330
1F
100
AcDbEntity
  8
0
  6
Continuous
 62
     7
100
AcDbLine
 10
2549.1367050277
 20
118.6270826062
 30
0.0
 11
2549.1367050277
 21
116.1270826062
 31
0.0
  0
LINE
  5
4E8
330
1F
100
AcDbEntity
  8
0
  6
Continuous
 62
     7
100
AcDbLine
 10
2549.1367050277
 20
121.1270826062
 30
0.0
 11
2549.1367050277
 21
118.6270826062
 31
0.0
  0
LINE
  5
4E9
330
1F
100
AcDbEntity
  8
0
  6
Continuous
 62
     7
100
AcDbLine
 10
1626.7367050277
 20
118.6270826062
 30
0.0
 11
1627.2367050277
 21
118.6270826062
 31
0.0
  0
LINE
  5
4EA
330
1F
100
AcDbEntity
  8
0
  6
Continuous
 62
     7
100
AcDbLine
 10
1627.2367050277
 20
115.6270826062
 30
0.0
 11
1627.2367050277
 21
118.6270826062
 31
0.0
  0
LINE
  5
4EB
330
1F
100
AcDbEntity
  8
0
  6
Continuous
 62
     7
100
AcDbLine
 10
1626.7367050277
 20
116.1270826062
 30
0.0
 11
1626.7367050277
 21
118.6270826062
 31
0.0
  0
LINE
  5
4EC
330
1F
100
AcDbEntity
  8
0
  6
Continuous
 62
     7
100
AcDbLine
 10
1627.2367050277
 20
118.6270826062
 30
0.0
 11
1627.2367050277
 21
121.6270826062
 31
0.0
  0
LINE
  5
4ED
330
1F
100
AcDbEntity
  8
0
  6
Continuous
 62
     7
100
AcDbLine
 10
1626.7367050277
 20
118.6270826062
 30
0.0
 11
1626.7367050277
 21
121.1270826062
 31
0.0
  0
LINE
  5
4EE
330
1F
100
AcDbEntity
  8
0
  6
Continuous
 62
     7
100
AcDbLine
 10
2548.6367050277
 20
221.4720805353
 30
0.0
 11
2548.6367050277
 21
218.4720805353
 31
0.0
  0
LINE
  5
4EF
330
1F
100
AcDbEntity
  8
0
  6
Continuous
 62
     7
100
AcDbLine
 10
2548.6367050277
 20
218.4720805353
 30
0.0
 11
2548.6367050277
 21
215.4720805353
 31
0.0
  0
LINE
  5
4F0
330
1F
100
AcDbEntity
  8
0
  6
Continuous
 62
     7
100
AcDbLine
 10
2549.1367050277
 20
220.9720805353
 30
0.0
 11
2549.1367050277
 21
218.4720805353
 31
0.0
  0
LINE
  5
4F1
330
1F
100
AcDbEntity
  8
0
  6
Continuous
 62
     7
100
AcDbLine
 10
2549.1367050277
 20
218.4720805353
 30
0.0
 11
2548.6367050277
 21
218.4720805353
 31
0.0
  0
LINE
  5
4F2
330
1F
100
AcDbEntity
  8
0
  6
Continuous
 62
     7
100
AcDbLine
 10
2549.1367050277
 20
218.4720805353
 30
0.0
 11
2549.1367050277
 21
215.9720805353
 31
0.0
  0
LINE
  5
4F3
330
1F
100
AcDbEntity
  8
0
  6
Continuous
 62
     7
100
AcDbLine
 10
1650.9367050277
 20
218.6273366441
 30
0.0
 11
1651.4367050277
 21
218.6273366441
 31
0.0
  0
ARC
  5
4F4
330
1F
100
AcDbEntity
  8
0
  6
Continuous
 62
     7
100
AcDbCircle
 10
1648.4367050277
 20
218.6273366441
 30
0.0
 40
3.0
100
AcDbArc
 50
180.0
 51
0.0
  0
LINE
  5
4F5
330
1F
100
AcDbEntity
  8
0
  6
Continuous
 62
     7
100
AcDbLine
 10
1645.9367050277
 20
218.6273366441
 30
0.0
 11
1645.4367050277
 21
218.6273366441
 31
0.0
  0
ARC
  5
4F6
330
1F
100
AcDbEntity
  8
0
  6
Continuous
 62
     7
100
AcDbCircle
 10
1648.4367050277
 20
218.6273366441
 30
0.0
 40
2.500000000000227
100
AcDbArc
 50
180.0
 51
0.0
  0
ARC
  5
4F7
330
1F
100
AcDbEntity
  8
0
  6
Continuous
 62
     7
100
AcDbCircle
 10
1648.4367050277
 20
218.6273366441
 30
0.0
 40
3.0
100
AcDbArc
 50
0.0
 51
180.0
  0
ARC
  5
4F8
330
1F
100
AcDbEntity
  8
0
  6
Continuous
 62
     7
100
AcDbCircle
 10
1648.4367050277
 20
218.6273366441
 30
0.0
 40
2.500000000000227
100
AcDbArc
 50
0.0
 51
180.0
  0
ARC
  5
4F9
330
1F
100
AcDbEntity
  8
0
  6
Continuous
 62
     7
100
AcDbCircle
 10
1648.4367050277
 20
118.6270826062
 30
0.0
 40
3.0
100
AcDbArc
 50
180.0
 51
0.0
  0
LINE
  5
4FA
330
1F
100
AcDbEntity
  8
0
  6
Continuous
 62
     7
100
AcDbLine
 10
1645.9367050277
 20
118.6270826062
 30
0.0
 11
1645.4367050277
 21
118.6270826062
 31
0.0
  0
ARC
  5
4FB
330
1F
100
AcDbEntity
  8
0
  6
Continuous
 62
     7
100
AcDbCircle
 10
1648.4367050277
 20
118.6270826062
 30
0.0
 40
2.500000000000227
100
AcDbArc
 50
180.0
 51
0.0
  0
LINE
  5
4FC
330
1F
100
AcDbEntity
  8
0
  6
Continuous
 62
     7
100
AcDbLine
 10
1650.9367050277
 20
118.6270826062
 30
0.0
 11
1651.4367050277
 21
118.6270826062
 31
0.0
  0
ARC
  5
4FD
330
1F
100
AcDbEntity
  8
0
  6
Continuous
 62
     7
100
AcDbCircle
 10
1648.4367050277
 20
118.6270826062
 30
0.0
 40
3.0
100
AcDbArc
 50
0.0
 51
180.0
  0
ARC
  5
4FE
330
1F
100
AcDbEntity
  8
0
  6
Continuous
 62
     7
100
AcDbCircle
 10
1648.4367050277
 20
118.6270826062
 30
0.0
 40
2.500000000000227
100
AcDbArc
 50
0.0
 51
180.0
  0
ARC
  5
4FF
330
1F
100
AcDbEntity
  8
0
  6
Continuous
 62
     7
100
AcDbCircle
 10
2527.4367050277
 20
118.6270826062
 30
0.0
 40
3.0
100
AcDbArc
 50
0.0
 51
180.0
  0
LINE
  5
500
330
1F
100
AcDbEntity
  8
0
  6
Continuous
 62
     7
100
AcDbLine
 10
2529.9367050277
 20
118.6270826062
 30
0.0
 11
2530.4367050277
 21
118.6270826062
 31
0.0
  0
ARC
  5
501
330
1F
100
AcDbEntity
  8
0
  6
Continuous
 62
     7
100
AcDbCircle
 10
2527.4367050277
 20
118.6270826062
 30
0.0
 40
2.5
100
AcDbArc
 50
0.0
 51
180.0
  0
LINE
  5
502
330
1F
100
AcDbEntity
  8
0
  6
Continuous
 62
     7
100
AcDbLine
 10
2524.9367050277
 20
118.6270826062
 30
0.0
 11
2524.4367050277
 21
118.6270826062
 31
0.0
  0
ARC
  5
503
330
1F
100
AcDbEntity
  8
0
  6
Continuous
 62
     7
100
AcDbCircle
 10
2527.4367050277
 20
118.6270826062
 30
0.0
 40
3.0
100
AcDbArc
 50
180.0
 51
0.0
  0
ARC
  5
504
330
1F
100
AcDbEntity
  8
0
  6
Continuous
 62
     7
100
AcDbCircle
 10
2527.4367050277
 20
118.6270826062
 30
0.0
 40
2.5
100
AcDbArc
 50
180.0
 51
0.0
  0
LINE
  5
505
330
1F
100
AcDbEntity
  8
0
  6
Continuous
 62
     7
100
AcDbLine
 10
2524.9367050277
 20
218.4720805353
 30
0.0
 11
2524.4367050277
 21
218.4720805353
 31
0.0
  0
ARC
  5
506
330
1F
100
AcDbEntity
  8
0
  6
Continuous
 62
     7
100
AcDbCircle
 10
2527.4367050277
 20
218.4720805353
 30
0.0
 40
3.0
100
AcDbArc
 50
0.0
 51
180.0
  0
LINE
  5
507
330
1F
100
AcDbEntity
  8
0
  6
Continuous
 62
     7
100
AcDbLine
 10
2529.9367050277
 20
218.4720805353
 30
0.0
 11
2530.4367050277
 21
218.4720805353
 31
0.0
  0
ARC
  5
508
330
1F
100
AcDbEntity
  8
0
  6
Continuous
 62
     7
100
AcDbCircle
 10
2527.4367050277
 20
218.4720805353
 30
0.0
 40
2.5
100
AcDbArc
 50
0.0
 51
180.0
  0
ARC
  5
509
330
1F
100
AcDbEntity
  8
0
  6
Continuous
 62
     7
100
AcDbCircle
 10
2527.4367050277
 20
218.4720805353
 30
0.0
 40
3.0
100
AcDbArc
 50
180.0
 51
0.0
  0
ARC
  5
50A
330
1F
100
AcDbEntity
  8
0
  6
Continuous
 62
     7
100
AcDbCircle
 10
2527.4367050277
 20
218.4720805353
 30
0.0
 40
2.5
100
AcDbArc
 50
180.0
 51
0.0
  0
LINE
  5
50B
330
1F
100
AcDbEntity
  8
0
  6
Continuous
 62
     7
100
AcDbLine
 10
1652.9367050277
 20
229.7997085897
 30
0.0
 11
1655.9367050277
 21
226.7997085897
 31
0.0
  0
LINE
  5
50C
330
1F
100
AcDbEntity
  8
0
  6
Continuous
 62
     7
100
AcDbLine
 10
1655.9367050277
 20
226.7997085897
 30
0.0
 11
1655.9367050277
 21
210.4549646984
 31
0.0
  0
LINE
  5
50D
330
1F
100
AcDbEntity
  8
0
  6
Continuous
 62
     7
100
AcDbLine
 10
1655.9367050277
 20
210.4549646984
 30
0.0
 11
1652.9367050277
 21
207.4549646984
 31
0.0
  0
LINE
  5
50E
330
1F
100
AcDbEntity
  8
0
  6
Continuous
 62
     7
100
AcDbLine
 10
1652.9367050277
 20
207.4549646984
 30
0.0
 11
1636.9367050277
 21
207.4549646984
 31
0.0
  0
LINE
  5
50F
330
1F
100
AcDbEntity
  8
0
  6
Continuous
 62
     7
100
AcDbLine
 10
1636.9367050277
 20
229.7997085897
 30
0.0
 11
1652.9367050277
 21
229.7997085897
 31
0.0
  0
LINE
  5
510
330
1F
100
AcDbEntity
  8
0
  6
Continuous
 62
     7
100
AcDbLine
 10
1636.9367050277
 20
229.7997085897
 30
0.0
 11
1635.9367050277
 21
229.7997085897
 31
0.0
  0
LINE
  5
511
330
1F
100
AcDbEntity
  8
0
  6
Continuous
 62
     7
100
AcDbLine
 10
1636.9367050277
 20
207.4549646984
 30
0.0
 11
1635.9367050277
 21
207.4549646984
 31
0.0
  0
LINE
  5
512
330
1F
100
AcDbEntity
  8
0
  6
Continuous
 62
     7
100
AcDbLine
 10
1652.9367050277
 20
129.7994545519
 30
0.0
 11
1655.9367050277
 21
126.7994545519
 31
0.0
  0
LINE
  5
513
330
1F
100
AcDbEntity
  8
0
  6
Continuous
 62
     7
100
AcDbLine
 10
1655.9367050277
 20
126.7994545519
 30
0.0
 11
1655.9367050277
 21
110.4547106606
 31
0.0
  0
LINE
  5
514
330
1F
100
AcDbEntity
  8
0
  6
Continuous
 62
     7
100
AcDbLine
 10
1655.9367050277
 20
110.4547106606
 30
0.0
 11
1652.9367050277
 21
107.4547106606
 31
0.0
  0
LINE
  5
515
330
1F
100
AcDbEntity
  8
0
  6
Continuous
 62
     7
100
AcDbLine
 10
1652.9367050277
 20
107.4547106606
 30
0.0
 11
1636.9367050277
 21
107.4547106606
 31
0.0
  0
LINE
  5
516
330
1F
100
AcDbEntity
  8
0
  6
Continuous
 62
     7
100
AcDbLine
 10
1636.9367050277
 20
129.7994545519
 30
0.0
 11
1652.9367050277
 21
129.7994545519
 31
0.0
  0
LINE
  5
517
330
1F
100
AcDbEntity
  8
0
  6
Continuous
 62
     7
100
AcDbLine
 10
1636.9367050277
 20
107.4547106606
 30
0.0
 11
1635.9367050277
 21
107.4547106606
 31
0.0
  0
LINE
  5
518
330
1F
100
AcDbEntity
  8
0
  6
Continuous
 62
     7
100
AcDbLine
 10
1636.9367050277
 20
129.7994545519
 30
0.0
 11
1635.9367050277
 21
129.7994545519
 31
0.0
  0
LINE
  5
519
330
1F
100
AcDbEntity
  8
0
  6
Continuous
 62
     7
100
AcDbLine
 10
2522.9367050277
 20
107.4547106606
 30
0.0
 11
2519.9367050277
 21
110.4547106606
 31
0.0
  0
LINE
  5
51A
330
1F
100
AcDbEntity
  8
0
  6
Continuous
 62
     7
100
AcDbLine
 10
2519.9367050277
 20
110.4547106606
 30
0.0
 11
2519.9367050277
 21
126.7994545519
 31
0.0
  0
LINE
  5
51B
330
1F
100
AcDbEntity
  8
0
  6
Continuous
 62
     7
100
AcDbLine
 10
2519.9367050277
 20
126.7994545519
 30
0.0
 11
2522.9367050277
 21
129.7994545519
 31
0.0
  0
LINE
  5
51C
330
1F
100
AcDbEntity
  8
0
  6
Continuous
 62
     7
100
AcDbLine
 10
2522.9367050277
 20
129.7994545519
 30
0.0
 11
2538.9367050277
 21
129.7994545519
 31
0.0
  0
LINE
  5
51D
330
1F
100
AcDbEntity
  8
0
  6
Continuous
 62
     7
100
AcDbLine
 10
2538.9367050277
 20
107.4547106606
 30
0.0
 11
2522.9367050277
 21
107.4547106606
 31
0.0
  0
LINE
  5
51E
330
1F
100
AcDbEntity
  8
0
  6
Continuous
 62
     7
100
AcDbLine
 10
2538.9367050277
 20
107.4547106606
 30
0.0
 11
2539.9367050277
 21
107.4547106606
 31
0.0
  0
LINE
  5
51F
330
1F
100
AcDbEntity
  8
0
  6
Continuous
 62
     7
100
AcDbLine
 10
2538.9367050277
 20
129.7994545519
 30
0.0
 11
2539.9367050277
 21
129.7994545519
 31
0.0
  0
LINE
  5
520
330
1F
100
AcDbEntity
  8
0
  6
Continuous
 62
     7
100
AcDbLine
 10
2522.9367050277
 20
207.2997085897
 30
0.0
 11
2519.9367050277
 21
210.2997085897
 31
0.0
  0
LINE
  5
521
330
1F
100
AcDbEntity
  8
0
  6
Continuous
 62
     7
100
AcDbLine
 10
2519.9367050277
 20
210.2997085897
 30
0.0
 11
2519.9367050277
 21
226.6444524809
 31
0.0
  0
LINE
  5
522
330
1F
100
AcDbEntity
  8
0
  6
Continuous
 62
     7
100
AcDbLine
 10
2519.9367050277
 20
226.6444524809
 30
0.0
 11
2522.9367050277
 21
229.6444524809
 31
0.0
  0
LINE
  5
523
330
1F
100
AcDbEntity
  8
0
  6
Continuous
 62
     7
100
AcDbLine
 10
2522.9367050277
 20
229.6444524809
 30
0.0
 11
2538.9367050277
 21
229.6444524809
 31
0.0
  0
LINE
  5
524
330
1F
100
AcDbEntity
  8
0
  6
Continuous
 62
     7
100
AcDbLine
 10
2538.9367050277
 20
207.2997085897
 30
0.0
 11
2522.9367050277
 21
207.2997085897
 31
0.0
  0
LINE
  5
525
330
1F
100
AcDbEntity
  8
0
  6
Continuous
 62
     7
100
AcDbLine
 10
2538.9367050277
 20
229.6444524809
 30
0.0
 11
2539.9367050277
 21
229.6444524809
 31
0.0
  0
LINE
  5
526
330
1F
100
AcDbEntity
  8
0
  6
Continuous
 62
     7
100
AcDbLine
 10
2538.9367050277
 20
207.2997085897
 30
0.0
 11
2539.9367050277
 21
207.2997085897
 31
0.0
  0
ARC
  5
527
330
1F
100
AcDbEntity
  8
0
  6
Continuous
 62
     7
100
AcDbCircle
 10
1648.4367050277
 20
193.5494545508
 30
0.0
 40
3.25
100
AcDbArc
 50
270.0
 51
90.0
  0
ARC
  5
528
330
1F
100
AcDbEntity
  8
0
  6
Continuous
 62
     7
100
AcDbCircle
 10
1648.4367050277
 20
193.5494545508
 30
0.0
 40
3.25
100
AcDbArc
 50
90.0
 51
270.0
  0
ARC
  5
529
330
1F
100
AcDbEntity
  8
0
  6
Continuous
 62
     7
100
AcDbCircle
 10
1648.4367050277
 20
168.5494545508
 30
0.0
 40
3.250000000000028
100
AcDbArc
 50
270.0
 51
90.0
  0
ARC
  5
52A
330
1F
100
AcDbEntity
  8
0
  6
Continuous
 62
     7
100
AcDbCircle
 10
1648.4367050277
 20
168.5494545508
 30
0.0
 40
3.250000000000028
100
AcDbArc
 50
90.0
 51
270.0
  0
ARC
  5
52B
330
1F
100
AcDbEntity
  8
0
  6
Continuous
 62
     7
100
AcDbCircle
 10
2476.9367050277
 20
187.2995815708
 30
0.0
 40
4.0
100
AcDbArc
 50
180.0
 51
270.0
  0
LINE
  5
52C
330
1F
100
AcDbEntity
  8
0
  6
Continuous
 62
     7
100
AcDbLine
 10
2476.9367050277
 20
183.2995815708
 30
0.0
 11
2498.9367050277
 21
183.2995815708
 31
0.0
  0
ARC
  5
52D
330
1F
100
AcDbEntity
  8
0
  6
Continuous
 62
     7
100
AcDbCircle
 10
2498.9367050277
 20
187.2995815708
 30
0.0
 40
4.0
100
AcDbArc
 50
270.0
 51
90.0
  0
LINE
  5
52E
330
1F
100
AcDbEntity
  8
0
  6
Continuous
 62
     7
100
AcDbLine
 10
2498.9367050277
 20
191.2995815708
 30
0.0
 11
2476.9367050277
 21
191.2995815708
 31
0.0
  0
ARC
  5
52F
330
1F
100
AcDbEntity
  8
0
  6
Continuous
 62
     7
100
AcDbCircle
 10
2476.9367050277
 20
187.2995815708
 30
0.0
 40
4.0
100
AcDbArc
 50
90.0
 51
180.0
  0
ARC
  5
530
330
1F
100
AcDbEntity
  8
0
  6
Continuous
 62
     7
100
AcDbCircle
 10
2476.9367050277
 20
149.7995815708
 30
0.0
 40
4.0
100
AcDbArc
 50
180.0
 51
270.0
  0
LINE
  5
531
330
1F
100
AcDbEntity
  8
0
  6
Continuous
 62
     7
100
AcDbLine
 10
2476.9367050277
 20
145.7995815708
 30
0.0
 11
2498.9367050277
 21
145.7995815708
 31
0.0
  0
ARC
  5
532
330
1F
100
AcDbEntity
  8
0
  6
Continuous
 62
     7
100
AcDbCircle
 10
2498.9367050277
 20
149.7995815708
 30
0.0
 40
4.0
100
AcDbArc
 50
270.0
 51
90.0
  0
LINE
  5
533
330
1F
100
AcDbEntity
  8
0
  6
Continuous
 62
     7
100
AcDbLine
 10
2498.9367050277
 20
153.7995815708
 30
0.0
 11
2476.9367050277
 21
153.7995815708
 31
0.0
  0
ARC
  5
534
330
1F
100
AcDbEntity
  8
0
  6
Continuous
 62
     7
100
AcDbCircle
 10
2476.9367050277
 20
149.7995815708
 30
0.0
 40
4.0
100
AcDbArc
 50
90.0
 51
180.0
  0
ARC
  5
535
330
1F
100
AcDbEntity
  8
0
  6
Continuous
 62
     7
100
AcDbCircle
 10
2426.9367050277
 20
187.2995815708
 30
0.0
 40
4.0
100
AcDbArc
 50
180.0
 51
270.0
  0
LINE
  5
536
330
1F
100
AcDbEntity
  8
0
  6
Continuous
 62
     7
100
AcDbLine
 10
2426.9367050277
 20
183.2995815708
 30
0.0
 11
2448.9367050277
 21
183.2995815708
 31
0.0
  0
ARC
  5
537
330
1F
100
AcDbEntity
  8
0
  6
Continuous
 62
     7
100
AcDbCircle
 10
2448.9367050277
 20
187.2995815708
 30
0.0
 40
4.0
100
AcDbArc
 50
270.0
 51
90.0
  0
LINE
  5
538
330
1F
100
AcDbEntity
  8
0
  6
Continuous
 62
     7
100
AcDbLine
 10
2448.9367050277
 20
191.2995815708
 30
0.0
 11
2426.9367050277
 21
191.2995815708
 31
0.0
  0
ARC
  5
539
330
1F
100
AcDbEntity
  8
0
  6
Continuous
 62
     7
100
AcDbCircle
 10
2426.9367050277
 20
187.2995815708
 30
0.0
 40
4.0
100
AcDbArc
 50
90.0
 51
180.0
  0
ARC
  5
53A
330
1F
100
AcDbEntity
  8
0
  6
Continuous
 62
     7
100
AcDbCircle
 10
2426.9367050277
 20
149.7995815708
 30
0.0
 40
4.0
100
AcDbArc
 50
180.0
 51
270.0
  0
LINE
  5
53B
330
1F
100
AcDbEntity
  8
0
  6
Continuous
 62
     7
100
AcDbLine
 10
2426.9367050277
 20
145.7995815708
 30
0.0
 11
2448.9367050277
 21
145.7995815708
 31
0.0
  0
ARC
  5
53C
330
1F
100
AcDbEntity
  8
0
  6
Continuous
 62
     7
100
AcDbCircle
 10
2448.9367050277
 20
149.7995815708
 30
0.0
 40
4.0
100
AcDbArc
 50
270.0
 51
90.0
  0
LINE
  5
53D
330
1F
100
AcDbEntity
  8
0
  6
Continuous
 62
     7
100
AcDbLine
 10
2448.9367050277
 20
153.7995815708
 30
0.0
 11
2426.9367050277
 21
153.7995815708
 31
0.0
  0
ARC
  5
53E
330
1F
100
AcDbEntity
  8
0
  6
Continuous
 62
     7
100
AcDbCircle
 10
2426.9367050277
 20
149.7995815708
 30
0.0
 40
4.0
100
AcDbArc
 50
90.0
 51
180.0
  0
ARC
  5
53F
330
1F
100
AcDbEntity
  8
0
  6
Continuous
 62
     7
100
AcDbCircle
 10
2376.9367050277
 20
187.2995815708
 30
0.0
 40
4.000000000000028
100
AcDbArc
 50
180.0
 51
270.0
  0
LINE
  5
540
330
1F
100
AcDbEntity
  8
0
  6
Continuous
 62
     7
100
AcDbLine
 10
2376.9367050277
 20
183.2995815708
 30
0.0
 11
2398.9367050277
 21
183.2995815708
 31
0.0
  0
ARC
  5
541
330
1F
100
AcDbEntity
  8
0
  6
Continuous
 62
     7
100
AcDbCircle
 10
2398.9367050277
 20
187.2995815708
 30
0.0
 40
4.000000000000028
100
AcDbArc
 50
270.0
 51
90.0
  0
LINE
  5
542
330
1F
100
AcDbEntity
  8
0
  6
Continuous
 62
     7
100
AcDbLine
 10
2398.9367050277
 20
191.2995815708
 30
0.0
 11
2376.9367050277
 21
191.2995815708
 31
0.0
  0
ARC
  5
543
330
1F
100
AcDbEntity
  8
0
  6
Continuous
 62
     7
100
AcDbCircle
 10
2376.9367050277
 20
187.2995815708
 30
0.0
 40
4.0
100
AcDbArc
 50
90.0
 51
180.0
  0
ARC
  5
544
330
1F
100
AcDbEntity
  8
0
  6
Continuous
 62
     7
100
AcDbCircle
 10
2376.9367050277
 20
149.7995815708
 30
0.0
 40
4.0
100
AcDbArc
 50
180.0
 51
270.0
  0
LINE
  5
545
330
1F
100
AcDbEntity
  8
0
  6
Continuous
 62
     7
100
AcDbLine
 10
2376.9367050277
 20
145.7995815708
 30
0.0
 11
2398.9367050277
 21
145.7995815708
 31
0.0
  0
ARC
  5
546
330
1F
100
AcDbEntity
  8
0
  6
Continuous
 62
     7
100
AcDbCircle
 10
2398.9367050277
 20
149.7995815708
 30
0.0
 40
4.0
100
AcDbArc
 50
270.0
 51
90.0
  0
LINE
  5
547
330
1F
100
AcDbEntity
  8
0
  6
Continuous
 62
     7
100
AcDbLine
 10
2398.9367050277
 20
153.7995815708
 30
0.0
 11
2376.9367050277
 21
153.7995815708
 31
0.0
  0
ARC
  5
548
330
1F
100
AcDbEntity
  8
0
  6
Continuous
 62
     7
100
AcDbCircle
 10
2376.9367050277
 20
149.7995815708
 30
0.0
 40
4.0
100
AcDbArc
 50
90.0
 51
180.0
  0
ARC
  5
549
330
1F
100
AcDbEntity
  8
0
  6
Continuous
 62
     7
100
AcDbCircle
 10
2326.9367050277
 20
187.2995815708
 30
0.0
 40
4.000000000000028
100
AcDbArc
 50
180.0
 51
270.0
  0
LINE
  5
54A
330
1F
100
AcDbEntity
  8
0
  6
Continuous
 62
     7
100
AcDbLine
 10
2326.9367050277
 20
183.2995815708
 30
0.0
 11
2348.9367050277
 21
183.2995815708
 31
0.0
  0
ARC
  5
54B
330
1F
100
AcDbEntity
  8
0
  6
Continuous
 62
     7
100
AcDbCircle
 10
2348.9367050277
 20
187.2995815708
 30
0.0
 40
4.000000000000028
100
AcDbArc
 50
270.0
 51
90.0
  0
LINE
  5
54C
330
1F
100
AcDbEntity
  8
0
  6
Continuous
 62
     7
100
AcDbLine
 10
2348.9367050277
 20
191.2995815708
 30
0.0
 11
2326.9367050277
 21
191.2995815708
 31
0.0
  0
ARC
  5
54D
330
1F
100
AcDbEntity
  8
0
  6
Continuous
 62
     7
100
AcDbCircle
 10
2326.9367050277
 20
187.2995815708
 30
0.0
 40
4.0
100
AcDbArc
 50
90.0
 51
180.0
  0
ARC
  5
54E
330
1F
100
AcDbEntity
  8
0
  6
Continuous
 62
     7
100
AcDbCircle
 10
2326.9367050277
 20
149.7995815708
 30
0.0
 40
4.0
100
AcDbArc
 50
180.0
 51
270.0
  0
LINE
  5
54F
330
1F
100
AcDbEntity
  8
0
  6
Continuous
 62
     7
100
AcDbLine
 10
2326.9367050277
 20
145.7995815708
 30
0.0
 11
2348.9367050277
 21
145.7995815708
 31
0.0
  0
ARC
  5
550
330
1F
100
AcDbEntity
  8
0
  6
Continuous
 62
     7
100
AcDbCircle
 10
2348.9367050277
 20
149.7995815708
 30
0.0
 40
4.0
100
AcDbArc
 50
270.0
 51
90.0
  0
LINE
  5
551
330
1F
100
AcDbEntity
  8
0
  6
Continuous
 62
     7
100
AcDbLine
 10
2348.9367050277
 20
153.7995815708
 30
0.0
 11
2326.9367050277
 21
153.7995815708
 31
0.0
  0
ARC
  5
552
330
1F
100
AcDbEntity
  8
0
  6
Continuous
 62
     7
100
AcDbCircle
 10
2326.9367050277
 20
149.7995815708
 30
0.0
 40
4.0
100
AcDbArc
 50
90.0
 51
180.0
  0
ARC
  5
553
330
1F
100
AcDbEntity
  8
0
  6
Continuous
 62
     7
100
AcDbCircle
 10
2276.9367050277
 20
187.2995815708
 30
0.0
 40
4.0
100
AcDbArc
 50
180.0
 51
270.0
  0
LINE
  5
554
330
1F
100
AcDbEntity
  8
0
  6
Continuous
 62
     7
100
AcDbLine
 10
2276.9367050277
 20
183.2995815708
 30
0.0
 11
2298.9367050277
 21
183.2995815708
 31
0.0
  0
ARC
  5
555
330
1F
100
AcDbEntity
  8
0
  6
Continuous
 62
     7
100
AcDbCircle
 10
2298.9367050277
 20
187.2995815708
 30
0.0
 40
4.000000000000028
100
AcDbArc
 50
270.0
 51
90.0
  0
LINE
  5
556
330
1F
100
AcDbEntity
  8
0
  6
Continuous
 62
     7
100
AcDbLine
 10
2298.9367050277
 20
191.2995815708
 30
0.0
 11
2276.9367050277
 21
191.2995815708
 31
0.0
  0
ARC
  5
557
330
1F
100
AcDbEntity
  8
0
  6
Continuous
 62
     7
100
AcDbCircle
 10
2276.9367050277
 20
187.2995815708
 30
0.0
 40
4.0
100
AcDbArc
 50
90.0
 51
180.0
  0
ARC
  5
558
330
1F
100
AcDbEntity
  8
0
  6
Continuous
 62
     7
100
AcDbCircle
 10
2276.9367050277
 20
149.7995815708
 30
0.0
 40
4.0
100
AcDbArc
 50
180.0
 51
270.0
  0
LINE
  5
559
330
1F
100
AcDbEntity
  8
0
  6
Continuous
 62
     7
100
AcDbLine
 10
2276.9367050277
 20
145.7995815708
 30
0.0
 11
2298.9367050277
 21
145.7995815708
 31
0.0
  0
ARC
  5
55A
330
1F
100
AcDbEntity
  8
0
  6
Continuous
 62
     7
100
AcDbCircle
 10
2298.9367050277
 20
149.7995815708
 30
0.0
 40
4.0
100
AcDbArc
 50
270.0
 51
90.0
  0
LINE
  5
55B
330
1F
100
AcDbEntity
  8
0
  6
Continuous
 62
     7
100
AcDbLine
 10
2298.9367050277
 20
153.7995815708
 30
0.0
 11
2276.9367050277
 21
153.7995815708
 31
0.0
  0
ARC
  5
55C
330
1F
100
AcDbEntity
  8
0
  6
Continuous
 62
     7
100
AcDbCircle
 10
2276.9367050277
 20
149.7995815708
 30
0.0
 40
4.0
100
AcDbArc
 50
90.0
 51
180.0
  0
ARC
  5
55D
330
1F
100
AcDbEntity
  8
0
  6
Continuous
 62
     7
100
AcDbCircle
 10
2226.9367050277
 20
187.2995815708
 30
0.0
 40
4.0
100
AcDbArc
 50
180.0
 51
270.0
  0
LINE
  5
55E
330
1F
100
AcDbEntity
  8
0
  6
Continuous
 62
     7
100
AcDbLine
 10
2226.9367050277
 20
183.2995815708
 30
0.0
 11
2248.9367050277
 21
183.2995815708
 31
0.0
  0
ARC
  5
55F
330
1F
100
AcDbEntity
  8
0
  6
Continuous
 62
     7
100
AcDbCircle
 10
2248.9367050277
 20
187.2995815708
 30
0.0
 40
4.0
100
AcDbArc
 50
270.0
 51
90.0
  0
LINE
  5
560
330
1F
100
AcDbEntity
  8
0
  6
Continuous
 62
     7
100
AcDbLine
 10
2248.9367050277
 20
191.2995815708
 30
0.0
 11
2226.9367050277
 21
191.2995815708
 31
0.0
  0
ARC
  5
561
330
1F
100
AcDbEntity
  8
0
  6
Continuous
 62
     7
100
AcDbCircle
 10
2226.9367050277
 20
187.2995815708
 30
0.0
 40
4.0
100
AcDbArc
 50
90.0
 51
180.0
  0
ARC
  5
562
330
1F
100
AcDbEntity
  8
0
  6
Continuous
 62
     7
100
AcDbCircle
 10
2226.9367050277
 20
149.7995815708
 30
0.0
 40
4.0
100
AcDbArc
 50
180.0
 51
270.0
  0
LINE
  5
563
330
1F
100
AcDbEntity
  8
0
  6
Continuous
 62
     7
100
AcDbLine
 10
2226.9367050277
 20
145.7995815708
 30
0.0
 11
2248.9367050277
 21
145.7995815708
 31
0.0
  0
ARC
  5
564
330
1F
100
AcDbEntity
  8
0
  6
Continuous
 62
     7
100
AcDbCircle
 10
2248.9367050277
 20
149.7995815708
 30
0.0
 40
4.0
100
AcDbArc
 50
270.0
 51
90.0
  0
LINE
  5
565
330
1F
100
AcDbEntity
  8
0
  6
Continuous
 62
     7
100
AcDbLine
 10
2248.9367050277
 20
153.7995815708
 30
0.0
 11
2226.9367050277
 21
153.7995815708
 31
0.0
  0
ARC
  5
566
330
1F
100
AcDbEntity
  8
0
  6
Continuous
 62
     7
100
AcDbCircle
 10
2226.9367050277
 20
149.7995815708
 30
0.0
 40
4.0
100
AcDbArc
 50
90.0
 51
180.0
  0
ARC
  5
567
330
1F
100
AcDbEntity
  8
0
  6
Continuous
 62
     7
100
AcDbCircle
 10
2176.9367050277
 20
187.2995815708
 30
0.0
 40
4.0
100
AcDbArc
 50
180.0
 51
270.0
  0
LINE
  5
568
330
1F
100
AcDbEntity
  8
0
  6
Continuous
 62
     7
100
AcDbLine
 10
2176.9367050277
 20
183.2995815708
 30
0.0
 11
2198.9367050277
 21
183.2995815708
 31
0.0
  0
ARC
  5
569
330
1F
100
AcDbEntity
  8
0
  6
Continuous
 62
     7
100
AcDbCircle
 10
2198.9367050277
 20
187.2995815708
 30
0.0
 40
4.0
100
AcDbArc
 50
270.0
 51
90.0
  0
LINE
  5
56A
330
1F
100
AcDbEntity
  8
0
  6
Continuous
 62
     7
100
AcDbLine
 10
2198.9367050277
 20
191.2995815708
 30
0.0
 11
2176.9367050277
 21
191.2995815708
 31
0.0
  0
ARC
  5
56B
330
1F
100
AcDbEntity
  8
0
  6
Continuous
 62
     7
100
AcDbCircle
 10
2176.9367050277
 20
187.2995815708
 30
0.0
 40
4.0
100
AcDbArc
 50
90.0
 51
180.0
  0
ARC
  5
56C
330
1F
100
AcDbEntity
  8
0
  6
Continuous
 62
     7
100
AcDbCircle
 10
2176.9367050277
 20
149.7995815708
 30
0.0
 40
4.0
100
AcDbArc
 50
180.0
 51
270.0
  0
LINE
  5
56D
330
1F
100
AcDbEntity
  8
0
  6
Continuous
 62
     7
100
AcDbLine
 10
2176.9367050277
 20
145.7995815708
 30
0.0
 11
2198.9367050277
 21
145.7995815708
 31
0.0
  0
ARC
  5
56E
330
1F
100
AcDbEntity
  8
0
  6
Continuous
 62
     7
100
AcDbCircle
 10
2198.9367050277
 20
149.7995815708
 30
0.0
 40
4.0
100
AcDbArc
 50
270.0
 51
90.0
  0
LINE
  5
56F
330
1F
100
AcDbEntity
  8
0
  6
Continuous
 62
     7
100
AcDbLine
 10
2198.9367050277
 20
153.7995815708
 30
0.0
 11
2176.9367050277
 21
153.7995815708
 31
0.0
  0
ARC
  5
570
330
1F
100
AcDbEntity
  8
0
  6
Continuous
 62
     7
100
AcDbCircle
 10
2176.9367050277
 20
149.7995815708
 30
0.0
 40
4.0
100
AcDbArc
 50
90.0
 51
180.0
  0
ARC
  5
571
330
1F
100
AcDbEntity
  8
0
  6
Continuous
 62
     7
100
AcDbCircle
 10
2126.9367050277
 20
187.2995815708
 30
0.0
 40
4.000000000000057
100
AcDbArc
 50
180.0
 51
270.0
  0
LINE
  5
572
330
1F
100
AcDbEntity
  8
0
  6
Continuous
 62
     7
100
AcDbLine
 10
2126.9367050277
 20
183.2995815708
 30
0.0
 11
2148.9367050277
 21
183.2995815708
 31
0.0
  0
ARC
  5
573
330
1F
100
AcDbEntity
  8
0
  6
Continuous
 62
     7
100
AcDbCircle
 10
2148.9367050277
 20
187.2995815708
 30
0.0
 40
4.0
100
AcDbArc
 50
270.0
 51
90.0
  0
LINE
  5
574
330
1F
100
AcDbEntity
  8
0
  6
Continuous
 62
     7
100
AcDbLine
 10
2148.9367050277
 20
191.2995815708
 30
0.0
 11
2126.9367050277
 21
191.2995815708
 31
0.0
  0
ARC
  5
575
330
1F
100
AcDbEntity
  8
0
  6
Continuous
 62
     7
100
AcDbCircle
 10
2126.9367050277
 20
187.2995815708
 30
0.0
 40
4.0
100
AcDbArc
 50
90.0
 51
180.0
  0
ARC
  5
576
330
1F
100
AcDbEntity
  8
0
  6
Continuous
 62
     7
100
AcDbCircle
 10
2126.9367050277
 20
149.7995815708
 30
0.0
 40
4.0
100
AcDbArc
 50
180.0
 51
270.0
  0
LINE
  5
577
330
1F
100
AcDbEntity
  8
0
  6
Continuous
 62
     7
100
AcDbLine
 10
2126.9367050277
 20
145.7995815708
 30
0.0
 11
2148.9367050277
 21
145.7995815708
 31
0.0
  0
ARC
  5
578
330
1F
100
AcDbEntity
  8
0
  6
Continuous
 62
     7
100
AcDbCircle
 10
2148.9367050277
 20
149.7995815708
 30
0.0
 40
4.0
100
AcDbArc
 50
270.0
 51
90.0
  0
LINE
  5
579
330
1F
100
AcDbEntity
  8
0
  6
Continuous
 62
     7
100
AcDbLine
 10
2148.9367050277
 20
153.7995815708
 30
0.0
 11
2126.9367050277
 21
153.7995815708
 31
0.0
  0
ARC
  5
57A
330
1F
100
AcDbEntity
  8
0
  6
Continuous
 62
     7
100
AcDbCircle
 10
2126.9367050277
 20
149.7995815708
 30
0.0
 40
4.0
100
AcDbArc
 50
90.0
 51
180.0
  0
ARC
  5
57B
330
1F
100
AcDbEntity
  8
0
  6
Continuous
 62
     7
100
AcDbCircle
 10
2076.9367050277
 20
187.2995815708
 30
0.0
 40
4.000000000000057
100
AcDbArc
 50
180.0
 51
270.0
  0
LINE
  5
57C
330
1F
100
AcDbEntity
  8
0
  6
Continuous
 62
     7
100
AcDbLine
 10
2076.9367050277
 20
183.2995815708
 30
0.0
 11
2098.9367050277
 21
183.2995815708
 31
0.0
  0
ARC
  5
57D
330
1F
100
AcDbEntity
  8
0
  6
Continuous
 62
     7
100
AcDbCircle
 10
2098.9367050277
 20
187.2995815708
 30
0.0
 40
4.000000000000057
100
AcDbArc
 50
270.0
 51
90.0
  0
LINE
  5
57E
330
1F
100
AcDbEntity
  8
0
  6
Continuous
 62
     7
100
AcDbLine
 10
2098.9367050277
 20
191.2995815708
 30
0.0
 11
2076.9367050277
 21
191.2995815708
 31
0.0
  0
ARC
  5
57F
330
1F
100
AcDbEntity
  8
0
  6
Continuous
 62
     7
100
AcDbCircle
 10
2076.9367050277
 20
187.2995815708
 30
0.0
 40
4.0
100
AcDbArc
 50
90.0
 51
180.0
  0
ARC
  5
580
330
1F
100
AcDbEntity
  8
0
  6
Continuous
 62
     7
100
AcDbCircle
 10
2076.9367050277
 20
149.7995815708
 30
0.0
 40
4.0
100
AcDbArc
 50
180.0
 51
270.0
  0
LINE
  5
581
330
1F
100
AcDbEntity
  8
0
  6
Continuous
 62
     7
100
AcDbLine
 10
2076.9367050277
 20
145.7995815708
 30
0.0
 11
2098.9367050277
 21
145.7995815708
 31
0.0
  0
ARC
  5
582
330
1F
100
AcDbEntity
  8
0
  6
Continuous
 62
     7
100
AcDbCircle
 10
2098.9367050277
 20
149.7995815708
 30
0.0
 40
4.0
100
AcDbArc
 50
270.0
 51
90.0
  0
LINE
  5
583
330
1F
100
AcDbEntity
  8
0
  6
Continuous
 62
     7
100
AcDbLine
 10
2098.9367050277
 20
153.7995815708
 30
0.0
 11
2076.9367050277
 21
153.7995815708
 31
0.0
  0
ARC
  5
584
330
1F
100
AcDbEntity
  8
0
  6
Continuous
 62
     7
100
AcDbCircle
 10
2076.9367050277
 20
149.7995815708
 30
0.0
 40
4.0
100
AcDbArc
 50
90.0
 51
180.0
  0
ARC
  5
585
330
1F
100
AcDbEntity
  8
0
  6
Continuous
 62
     7
100
AcDbCircle
 10
2026.9367050277
 20
187.2995815708
 30
0.0
 40
4.0
100
AcDbArc
 50
180.0
 51
270.0
  0
LINE
  5
586
330
1F
100
AcDbEntity
  8
0
  6
Continuous
 62
     7
100
AcDbLine
 10
2026.9367050277
 20
183.2995815708
 30
0.0
 11
2048.9367050277
 21
183.2995815708
 31
0.0
  0
ARC
  5
587
330
1F
100
AcDbEntity
  8
0
  6
Continuous
 62
     7
100
AcDbCircle
 10
2048.9367050277
 20
187.2995815708
 30
0.0
 40
4.0
100
AcDbArc
 50
270.0
 51
90.0
  0
LINE
  5
588
330
1F
100
AcDbEntity
  8
0
  6
Continuous
 62
     7
100
AcDbLine
 10
2048.9367050277
 20
191.2995815708
 30
0.0
 11
2026.9367050277
 21
191.2995815708
 31
0.0
  0
ARC
  5
589
330
1F
100
AcDbEntity
  8
0
  6
Continuous
 62
     7
100
AcDbCircle
 10
2026.9367050277
 20
187.2995815708
 30
0.0
 40
4.0
100
AcDbArc
 50
90.0
 51
180.0
  0
ARC
  5
58A
330
1F
100
AcDbEntity
  8
0
  6
Continuous
 62
     7
100
AcDbCircle
 10
2026.9367050277
 20
149.7995815708
 30
0.0
 40
4.0
100
AcDbArc
 50
180.0
 51
270.0
  0
LINE
  5
58B
330
1F
100
AcDbEntity
  8
0
  6
Continuous
 62
     7
100
AcDbLine
 10
2026.9367050277
 20
145.7995815708
 30
0.0
 11
2048.9367050277
 21
145.7995815708
 31
0.0
  0
ARC
  5
58C
330
1F
100
AcDbEntity
  8
0
  6
Continuous
 62
     7
100
AcDbCircle
 10
2048.9367050277
 20
149.7995815708
 30
0.0
 40
4.0
100
AcDbArc
 50
270.0
 51
90.0
  0
LINE
  5
58D
330
1F
100
AcDbEntity
  8
0
  6
Continuous
 62
     7
100
AcDbLine
 10
2048.9367050277
 20
153.7995815708
 30
0.0
 11
2026.9367050277
 21
153.7995815708
 31
0.0
  0
ARC
  5
58E
330
1F
100
AcDbEntity
  8
0
  6
Continuous
 62
     7
100
AcDbCircle
 10
2026.9367050277
 20
149.7995815708
 30
0.0
 40
4.0
100
AcDbArc
 50
90.0
 51
180.0
  0
ARC
  5
58F
330
1F
100
AcDbEntity
  8
0
  6
Continuous
 62
     7
100
AcDbCircle
 10
1976.9367050277
 20
187.2995815708
 30
0.0
 40
4.0
100
AcDbArc
 50
180.0
 51
270.0
  0
LINE
  5
590
330
1F
100
AcDbEntity
  8
0
  6
Continuous
 62
     7
100
AcDbLine
 10
1976.9367050277
 20
183.2995815708
 30
0.0
 11
1998.9367050277
 21
183.2995815708
 31
0.0
  0
ARC
  5
591
330
1F
100
AcDbEntity
  8
0
  6
Continuous
 62
     7
100
AcDbCircle
 10
1998.9367050277
 20
187.2995815708
 30
0.0
 40
4.0
100
AcDbArc
 50
270.0
 51
90.0
  0
LINE
  5
592
330
1F
100
AcDbEntity
  8
0
  6
Continuous
 62
     7
100
AcDbLine
 10
1998.9367050277
 20
191.2995815708
 30
0.0
 11
1976.9367050277
 21
191.2995815708
 31
0.0
  0
ARC
  5
593
330
1F
100
AcDbEntity
  8
0
  6
Continuous
 62
     7
100
AcDbCircle
 10
1976.9367050277
 20
187.2995815708
 30
0.0
 40
4.0
100
AcDbArc
 50
90.0
 51
180.0
  0
ARC
  5
594
330
1F
100
AcDbEntity
  8
0
  6
Continuous
 62
     7
100
AcDbCircle
 10
1976.9367050277
 20
149.7995815708
 30
0.0
 40
4.0
100
AcDbArc
 50
180.0
 51
270.0
  0
LINE
  5
595
330
1F
100
AcDbEntity
  8
0
  6
Continuous
 62
     7
100
AcDbLine
 10
1976.9367050277
 20
145.7995815708
 30
0.0
 11
1998.9367050277
 21
145.7995815708
 31
0.0
  0
ARC
  5
596
330
1F
100
AcDbEntity
  8
0
  6
Continuous
 62
     7
100
AcDbCircle
 10
1998.9367050277
 20
149.7995815708
 30
0.0
 40
4.0
100
AcDbArc
 50
270.0
 51
90.0
  0
LINE
  5
597
330
1F
100
AcDbEntity
  8
0
  6
Continuous
 62
     7
100
AcDbLine
 10
1998.9367050277
 20
153.7995815708
 30
0.0
 11
1976.9367050277
 21
153.7995815708
 31
0.0
  0
ARC
  5
598
330
1F
100
AcDbEntity
  8
0
  6
Continuous
 62
     7
100
AcDbCircle
 10
1976.9367050277
 20
149.7995815708
 30
0.0
 40
4.0
100
AcDbArc
 50
90.0
 51
180.0
  0
ARC
  5
599
330
1F
100
AcDbEntity
  8
0
  6
Continuous
 62
     7
100
AcDbCircle
 10
1926.9367050277
 20
187.2995815708
 30
0.0
 40
4.0
100
AcDbArc
 50
180.0
 51
270.0
  0
LINE
  5
59A
330
1F
100
AcDbEntity
  8
0
  6
Continuous
 62
     7
100
AcDbLine
 10
1926.9367050277
 20
183.2995815708
 30
0.0
 11
1948.9367050277
 21
183.2995815708
 31
0.0
  0
ARC
  5
59B
330
1F
100
AcDbEntity
  8
0
  6
Continuous
 62
     7
100
AcDbCircle
 10
1948.9367050277
 20
187.2995815708
 30
0.0
 40
4.000000000000057
100
AcDbArc
 50
270.0
 51
90.0
  0
LINE
  5
59C
330
1F
100
AcDbEntity
  8
0
  6
Continuous
 62
     7
100
AcDbLine
 10
1948.9367050277
 20
191.2995815708
 30
0.0
 11
1926.9367050277
 21
191.2995815708
 31
0.0
  0
ARC
  5
59D
330
1F
100
AcDbEntity
  8
0
  6
Continuous
 62
     7
100
AcDbCircle
 10
1926.9367050277
 20
187.2995815708
 30
0.0
 40
4.000000000000057
100
AcDbArc
 50
90.0
 51
180.0
  0
ARC
  5
59E
330
1F
100
AcDbEntity
  8
0
  6
Continuous
 62
     7
100
AcDbCircle
 10
1926.9367050277
 20
149.7995815708
 30
0.0
 40
4.0
100
AcDbArc
 50
180.0
 51
270.0
  0
LINE
  5
59F
330
1F
100
AcDbEntity
  8
0
  6
Continuous
 62
     7
100
AcDbLine
 10
1926.9367050277
 20
145.7995815708
 30
0.0
 11
1948.9367050277
 21
145.7995815708
 31
0.0
  0
ARC
  5
5A0
330
1F
100
AcDbEntity
  8
0
  6
Continuous
 62
     7
100
AcDbCircle
 10
1948.9367050277
 20
149.7995815708
 30
0.0
 40
4.0
100
AcDbArc
 50
270.0
 51
90.0
  0
LINE
  5
5A1
330
1F
100
AcDbEntity
  8
0
  6
Continuous
 62
     7
100
AcDbLine
 10
1948.9367050277
 20
153.7995815708
 30
0.0
 11
1926.9367050277
 21
153.7995815708
 31
0.0
  0
ARC
  5
5A2
330
1F
100
AcDbEntity
  8
0
  6
Continuous
 62
     7
100
AcDbCircle
 10
1926.9367050277
 20
149.7995815708
 30
0.0
 40
4.0
100
AcDbArc
 50
90.0
 51
180.0
  0
ARC
  5
5A3
330
1F
100
AcDbEntity
  8
0
  6
Continuous
 62
     7
100
AcDbCircle
 10
1876.9367050277
 20
187.2995815708
 30
0.0
 40
4.0
100
AcDbArc
 50
180.0
 51
270.0
  0
LINE
  5
5A4
330
1F
100
AcDbEntity
  8
0
  6
Continuous
 62
     7
100
AcDbLine
 10
1876.9367050277
 20
183.2995815708
 30
0.0
 11
1898.9367050277
 21
183.2995815708
 31
0.0
  0
ARC
  5
5A5
330
1F
100
AcDbEntity
  8
0
  6
Continuous
 62
     7
100
AcDbCircle
 10
1898.9367050277
 20
187.2995815708
 30
0.0
 40
4.0
100
AcDbArc
 50
270.0
 51
90.0
  0
LINE
  5
5A6
330
1F
100
AcDbEntity
  8
0
  6
Continuous
 62
     7
100
AcDbLine
 10
1898.9367050277
 20
191.2995815708
 30
0.0
 11
1876.9367050277
 21
191.2995815708
 31
0.0
  0
ARC
  5
5A7
330
1F
100
AcDbEntity
  8
0
  6
Continuous
 62
     7
100
AcDbCircle
 10
1876.9367050277
 20
187.2995815708
 30
0.0
 40
4.0
100
AcDbArc
 50
90.0
 51
180.0
  0
ARC
  5
5A8
330
1F
100
AcDbEntity
  8
0
  6
Continuous
 62
     7
100
AcDbCircle
 10
1876.9367050277
 20
149.7995815708
 30
0.0
 40
4.0
100
AcDbArc
 50
180.0
 51
270.0
  0
LINE
  5
5A9
330
1F
100
AcDbEntity
  8
0
  6
Continuous
 62
     7
100
AcDbLine
 10
1876.9367050277
 20
145.7995815708
 30
0.0
 11
1898.9367050277
 21
145.7995815708
 31
0.0
  0
ARC
  5
5AA
330
1F
100
AcDbEntity
  8
0
  6
Continuous
 62
     7
100
AcDbCircle
 10
1898.9367050277
 20
149.7995815708
 30
0.0
 40
4.0
100
AcDbArc
 50
270.0
 51
90.0
  0
LINE
  5
5AB
330
1F
100
AcDbEntity
  8
0
  6
Continuous
 62
     7
100
AcDbLine
 10
1898.9367050277
 20
153.7995815708
 30
0.0
 11
1876.9367050277
 21
153.7995815708
 31
0.0
  0
ARC
  5
5AC
330
1F
100
AcDbEntity
  8
0
  6
Continuous
 62
     7
100
AcDbCircle
 10
1876.9367050277
 20
149.7995815708
 30
0.0
 40
4.0
100
AcDbArc
 50
90.0
 51
180.0
  0
ARC
  5
5AD
330
1F
100
AcDbEntity
  8
0
  6
Continuous
 62
     7
100
AcDbCircle
 10
1826.9367050277
 20
187.2995815708
 30
0.0
 40
4.000000000000057
100
AcDbArc
 50
180.0
 51
270.0
  0
LINE
  5
5AE
330
1F
100
AcDbEntity
  8
0
  6
Continuous
 62
     7
100
AcDbLine
 10
1826.9367050277
 20
183.2995815708
 30
0.0
 11
1848.9367050277
 21
183.2995815708
 31
0.0
  0
ARC
  5
5AF
330
1F
100
AcDbEntity
  8
0
  6
Continuous
 62
     7
100
AcDbCircle
 10
1848.9367050277
 20
187.2995815708
 30
0.0
 40
4.000000000000057
100
AcDbArc
 50
270.0
 51
90.0
  0
LINE
  5
5B0
330
1F
100
AcDbEntity
  8
0
  6
Continuous
 62
     7
100
AcDbLine
 10
1848.9367050277
 20
191.2995815708
 30
0.0
 11
1826.9367050277
 21
191.2995815708
 31
0.0
  0
ARC
  5
5B1
330
1F
100
AcDbEntity
  8
0
  6
Continuous
 62
     7
100
AcDbCircle
 10
1826.9367050277
 20
187.2995815708
 30
0.0
 40
4.0
100
AcDbArc
 50
90.0
 51
180.0
  0
ARC
  5
5B2
330
1F
100
AcDbEntity
  8
0
  6
Continuous
 62
     7
100
AcDbCircle
 10
1826.9367050277
 20
149.7995815708
 30
0.0
 40
4.0
100
AcDbArc
 50
180.0
 51
270.0
  0
LINE
  5
5B3
330
1F
100
AcDbEntity
  8
0
  6
Continuous
 62
     7
100
AcDbLine
 10
1826.9367050277
 20
145.7995815708
 30
0.0
 11
1848.9367050277
 21
145.7995815708
 31
0.0
  0
ARC
  5
5B4
330
1F
100
AcDbEntity
  8
0
  6
Continuous
 62
     7
100
AcDbCircle
 10
1848.9367050277
 20
149.7995815708
 30
0.0
 40
4.000000000000114
100
AcDbArc
 50
270.0
 51
90.0
  0
LINE
  5
5B5
330
1F
100
AcDbEntity
  8
0
  6
Continuous
 62
     7
100
AcDbLine
 10
1848.9367050277
 20
153.7995815708
 30
0.0
 11
1826.9367050277
 21
153.7995815708
 31
0.0
  0
ARC
  5
5B6
330
1F
100
AcDbEntity
  8
0
  6
Continuous
 62
     7
100
AcDbCircle
 10
1826.9367050277
 20
149.7995815708
 30
0.0
 40
4.000000000000114
100
AcDbArc
 50
90.0
 51
180.0
  0
ARC
  5
5B7
330
1F
100
AcDbEntity
  8
0
  6
Continuous
 62
     7
100
AcDbCircle
 10
1776.9367050277
 20
187.2995815708
 30
0.0
 40
4.000000000000057
100
AcDbArc
 50
180.0
 51
270.0
  0
LINE
  5
5B8
330
1F
100
AcDbEntity
  8
0
  6
Continuous
 62
     7
100
AcDbLine
 10
1776.9367050277
 20
183.2995815708
 30
0.0
 11
1798.9367050277
 21
183.2995815708
 31
0.0
  0
ARC
  5
5B9
330
1F
100
AcDbEntity
  8
0
  6
Continuous
 62
     7
100
AcDbCircle
 10
1798.9367050277
 20
187.2995815708
 30
0.0
 40
4.000000000000057
100
AcDbArc
 50
270.0
 51
90.0
  0
LINE
  5
5BA
330
1F
100
AcDbEntity
  8
0
  6
Continuous
 62
     7
100
AcDbLine
 10
1798.9367050277
 20
191.2995815708
 30
0.0
 11
1776.9367050277
 21
191.2995815708
 31
0.0
  0
ARC
  5
5BB
330
1F
100
AcDbEntity
  8
0
  6
Continuous
 62
     7
100
AcDbCircle
 10
1776.9367050277
 20
187.2995815708
 30
0.0
 40
4.0
100
AcDbArc
 50
90.0
 51
180.0
  0
ARC
  5
5BC
330
1F
100
AcDbEntity
  8
0
  6
Continuous
 62
     7
100
AcDbCircle
 10
1776.9367050277
 20
149.7995815708
 30
0.0
 40
4.0
100
AcDbArc
 50
180.0
 51
270.0
  0
LINE
  5
5BD
330
1F
100
AcDbEntity
  8
0
  6
Continuous
 62
     7
100
AcDbLine
 10
1776.9367050277
 20
145.7995815708
 30
0.0
 11
1798.9367050277
 21
145.7995815708
 31
0.0
  0
ARC
  5
5BE
330
1F
100
AcDbEntity
  8
0
  6
Continuous
 62
     7
100
AcDbCircle
 10
1798.9367050277
 20
149.7995815708
 30
0.0
 40
4.0
100
AcDbArc
 50
270.0
 51
90.0
  0
LINE
  5
5BF
330
1F
100
AcDbEntity
  8
0
  6
Continuous
 62
     7
100
AcDbLine
 10
1798.9367050277
 20
153.7995815708
 30
0.0
 11
1776.9367050277
 21
153.7995815708
 31
0.0
  0
ARC
  5
5C0
330
1F
100
AcDbEntity
  8
0
  6
Continuous
 62
     7
100
AcDbCircle
 10
1776.9367050277
 20
149.7995815708
 30
0.0
 40
4.0
100
AcDbArc
 50
90.0
 51
180.0
  0
ARC
  5
5C1
330
1F
100
AcDbEntity
  8
0
  6
Continuous
 62
     7
100
AcDbCircle
 10
1726.9367050277
 20
187.2995815708
 30
0.0
 40
4.0
100
AcDbArc
 50
180.0
 51
270.0
  0
LINE
  5
5C2
330
1F
100
AcDbEntity
  8
0
  6
Continuous
 62
     7
100
AcDbLine
 10
1726.9367050277
 20
183.2995815708
 30
0.0
 11
1748.9367050277
 21
183.2995815708
 31
0.0
  0
ARC
  5
5C3
330
1F
100
AcDbEntity
  8
0
  6
Continuous
 62
     7
100
AcDbCircle
 10
1748.9367050277
 20
187.2995815708
 30
0.0
 40
4.0
100
AcDbArc
 50
270.0
 51
90.0
  0
LINE
  5
5C4
330
1F
100
AcDbEntity
  8
0
  6
Continuous
 62
     7
100
AcDbLine
 10
1748.9367050277
 20
191.2995815708
 30
0.0
 11
1726.9367050277
 21
191.2995815708
 31
0.0
  0
ARC
  5
5C5
330
1F
100
AcDbEntity
  8
0
  6
Continuous
 62
     7
100
AcDbCircle
 10
1726.9367050277
 20
187.2995815708
 30
0.0
 40
4.0
100
AcDbArc
 50
90.0
 51
180.0
  0
ARC
  5
5C6
330
1F
100
AcDbEntity
  8
0
  6
Continuous
 62
     7
100
AcDbCircle
 10
1726.9367050277
 20
149.7995815708
 30
0.0
 40
4.0
100
AcDbArc
 50
180.0
 51
270.0
  0
LINE
  5
5C7
330
1F
100
AcDbEntity
  8
0
  6
Continuous
 62
     7
100
AcDbLine
 10
1726.9367050277
 20
145.7995815708
 30
0.0
 11
1748.9367050277
 21
145.7995815708
 31
0.0
  0
ARC
  5
5C8
330
1F
100
AcDbEntity
  8
0
  6
Continuous
 62
     7
100
AcDbCircle
 10
1748.9367050277
 20
149.7995815708
 30
0.0
 40
4.0
100
AcDbArc
 50
270.0
 51
90.0
  0
LINE
  5
5C9
330
1F
100
AcDbEntity
  8
0
  6
Continuous
 62
     7
100
AcDbLine
 10
1748.9367050277
 20
153.7995815708
 30
0.0
 11
1726.9367050277
 21
153.7995815708
 31
0.0
  0
ARC
  5
5CA
330
1F
100
AcDbEntity
  8
0
  6
Continuous
 62
     7
100
AcDbCircle
 10
1726.9367050277
 20
149.7995815708
 30
0.0
 40
4.0
100
AcDbArc
 50
90.0
 51
180.0
  0
ARC
  5
5CB
330
1F
100
AcDbEntity
  8
0
  6
Continuous
 62
     7
100
AcDbCircle
 10
1676.9367050277
 20
149.7995815708
 30
0.0
 40
4.0
100
AcDbArc
 50
180.0
 51
270.0
  0
LINE
  5
5CC
330
1F
100
AcDbEntity
  8
0
  6
Continuous
 62
     7
100
AcDbLine
 10
1676.9367050277
 20
145.7995815708
 30
0.0
 11
1698.9367050277
 21
145.7995815708
 31
0.0
  0
ARC
  5
5CD
330
1F
100
AcDbEntity
  8
0
  6
Continuous
 62
     7
100
AcDbCircle
 10
1698.9367050277
 20
149.7995815708
 30
0.0
 40
4.0
100
AcDbArc
 50
270.0
 51
90.0
  0
LINE
  5
5CE
330
1F
100
AcDbEntity
  8
0
  6
Continuous
 62
     7
100
AcDbLine
 10
1698.9367050277
 20
153.7995815708
 30
0.0
 11
1676.9367050277
 21
153.7995815708
 31
0.0
  0
ARC
  5
5CF
330
1F
100
AcDbEntity
  8
0
  6
Continuous
 62
     7
100
AcDbCircle
 10
1676.9367050277
 20
149.7995815708
 30
0.0
 40
4.0
100
AcDbArc
 50
90.0
 51
180.0
  0
ARC
  5
5D0
330
1F
100
AcDbEntity
  8
0
  6
Continuous
 62
     7
100
AcDbCircle
 10
2107.9367050277
 20
228.5497085897
 30
0.0
 40
2.599999999999994
100
AcDbArc
 50
270.0
 51
90.0
  0
ARC
  5
5D1
330
1F
100
AcDbEntity
  8
0
  6
Continuous
 62
     7
100
AcDbCircle
 10
2107.9367050277
 20
228.5497085897
 30
0.0
 40
2.599999999999994
100
AcDbArc
 50
90.0
 51
270.0
  0
ARC
  5
5D2
330
1F
100
AcDbEntity
  8
0
  6
Continuous
 62
     7
100
AcDbCircle
 10
2137.9367050277
 20
228.5497085897
 30
0.0
 40
2.599999999999994
100
AcDbArc
 50
270.0
 51
90.0
  0
ARC
  5
5D3
330
1F
100
AcDbEntity
  8
0
  6
Continuous
 62
     7
100
AcDbCircle
 10
2137.9367050277
 20
228.5497085897
 30
0.0
 40
2.599999999999994
100
AcDbArc
 50
90.0
 51
270.0
  0
ARC
  5
5D4
330
1F
100
AcDbEntity
  8
0
  6
Continuous
 62
     7
100
AcDbCircle
 10
2037.9367050277
 20
228.5497085897
 30
0.0
 40
2.600000000000023
100
AcDbArc
 50
270.0
 51
90.0
  0
ARC
  5
5D5
330
1F
100
AcDbEntity
  8
0
  6
Continuous
 62
     7
100
AcDbCircle
 10
2037.9367050277
 20
228.5497085897
 30
0.0
 40
2.600000000000023
100
AcDbArc
 50
90.0
 51
270.0
  0
ARC
  5
5D6
330
1F
100
AcDbEntity
  8
0
  6
Continuous
 62
     7
100
AcDbCircle
 10
2067.9367050277
 20
228.5497085897
 30
0.0
 40
2.600000000000023
100
AcDbArc
 50
270.0
 51
90.0
  0
ARC
  5
5D7
330
1F
100
AcDbEntity
  8
0
  6
Continuous
 62
     7
100
AcDbCircle
 10
2067.9367050277
 20
228.5497085897
 30
0.0
 40
2.600000000000023
100
AcDbArc
 50
90.0
 51
270.0
  0
ARC
  5
5D8
330
1F
100
AcDbEntity
  8
0
  6
Continuous
 62
     7
100
AcDbCircle
 10
2067.9367050277
 20
108.5494545519
 30
0.0
 40
2.600000000000009
100
AcDbArc
 50
270.0
 51
90.0
  0
ARC
  5
5D9
330
1F
100
AcDbEntity
  8
0
  6
Continuous
 62
     7
100
AcDbCircle
 10
2067.9367050277
 20
108.5494545519
 30
0.0
 40
2.600000000000009
100
AcDbArc
 50
90.0
 51
270.0
  0
ARC
  5
5DA
330
1F
100
AcDbEntity
  8
0
  6
Continuous
 62
     7
100
AcDbCircle
 10
2037.9367050277
 20
108.5494545519
 30
0.0
 40
2.600000000000009
100
AcDbArc
 50
270.0
 51
90.0
  0
ARC
  5
5DB
330
1F
100
AcDbEntity
  8
0
  6
Continuous
 62
     7
100
AcDbCircle
 10
2037.9367050277
 20
108.5494545519
 30
0.0
 40
2.600000000000009
100
AcDbArc
 50
90.0
 51
270.0
  0
ARC
  5
5DC
330
1F
100
AcDbEntity
  8
0
  6
Continuous
 62
     7
100
AcDbCircle
 10
2107.9367050277
 20
108.5494545519
 30
0.0
 40
2.600000000000207
100
AcDbArc
 50
270.0
 51
90.0
  0
ARC
  5
5DD
330
1F
100
AcDbEntity
  8
0
  6
Continuous
 62
     7
100
AcDbCircle
 10
2107.9367050277
 20
108.5494545519
 30
0.0
 40
2.600000000000207
100
AcDbArc
 50
90.0
 51
270.0
  0
ARC
  5
5DE
330
1F
100
AcDbEntity
  8
0
  6
Continuous
 62
     7
100
AcDbCircle
 10
2137.9367050277
 20
108.5494545519
 30
0.0
 40
2.600000000000207
100
AcDbArc
 50
270.0
 51
90.0
  0
ARC
  5
5DF
330
1F
100
AcDbEntity
  8
0
  6
Continuous
 62
     7
100
AcDbCircle
 10
2137.9367050277
 20
108.5494545519
 30
0.0
 40
2.600000000000207
100
AcDbArc
 50
90.0
 51
270.0
  0
ARC
  5
5E0
330
1F
100
AcDbEntity
  8
0
  6
Continuous
 62
     7
100
AcDbCircle
 10
2087.9367050277
 20
228.5497085897
 30
0.0
 40
3.250000000000028
100
AcDbArc
 50
270.0
 51
90.0
  0
ARC
  5
5E1
330
1F
100
AcDbEntity
  8
0
  6
Continuous
 62
     7
100
AcDbCircle
 10
2087.9367050277
 20
228.5497085897
 30
0.0
 40
3.250000000000028
100
AcDbArc
 50
90.0
 51
270.0
  0
ARC
  5
5E2
330
1F
100
AcDbEntity
  8
0
  6
Continuous
 62
     7
100
AcDbCircle
 10
2087.9367050277
 20
108.5494545519
 30
0.0
 40
3.25
100
AcDbArc
 50
270.0
 51
90.0
  0
ARC
  5
5E3
330
1F
100
AcDbEntity
  8
0
  6
Continuous
 62
     7
100
AcDbCircle
 10
2087.9367050277
 20
108.5494545519
 30
0.0
 40
3.25
100
AcDbArc
 50
90.0
 51
270.0
  0
ARC
  5
5E4
330
1F
100
AcDbEntity
  8
0
  6
Continuous
 62
     7
100
AcDbCircle
 10
1676.9367050277
 20
187.2995815708
 30
0.0
 40
4.0
100
AcDbArc
 50
180.0
 51
270.0
  0
LINE
  5
5E5
330
1F
100
AcDbEntity
  8
0
  6
Continuous
 62
     7
100
AcDbLine
 10
1676.9367050277
 20
183.2995815708
 30
0.0
 11
1698.9367050277
 21
183.2995815708
 31
0.0
  0
ARC
  5
5E6
330
1F
100
AcDbEntity
  8
0
  6
Continuous
 62
     7
100
AcDbCircle
 10
1698.9367050277
 20
187.2995815708
 30
0.0
 40
4.0
100
AcDbArc
 50
270.0
 51
90.0
  0
LINE
  5
5E7
330
1F
100
AcDbEntity
  8
0
  6
Continuous
 62
     7
100
AcDbLine
 10
1698.9367050277
 20
191.2995815708
 30
0.0
 11
1676.9367050277
 21
191.2995815708
 31
0.0
  0
ARC
  5
5E8
330
1F
100
AcDbEntity
  8
0
  6
Continuous
 62
     7
100
AcDbCircle
 10
1676.9367050277
 20
187.2995815708
 30
0.0
 40
4.0
100
AcDbArc
 50
90.0
 51
180.0
  0
ARC
  5
5E9
330
1F
100
AcDbEntity
  8
0
  6
Continuous
 62
     7
100
AcDbCircle
 10
1648.4367050277
 20
143.5494545508
 30
0.0
 40
3.25
100
AcDbArc
 50
270.0
 51
90.0
  0
ARC
  5
5EA
330
1F
100
AcDbEntity
  8
0
  6
Continuous
 62
     7
100
AcDbCircle
 10
1648.4367050277
 20
143.5494545508
 30
0.0
 40
3.25
100
AcDbArc
 50
90.0
 51
270.0
  0
ARC
  5
5EB
330
1F
100
AcDbEntity
  8
0
  6
Continuous
 62
     7
100
AcDbCircle
 10
2527.4367050277
 20
143.5494545508
 30
0.0
 40
3.25
100
AcDbArc
 50
270.0
 51
90.0
  0
ARC
  5
5EC
330
1F
100
AcDbEntity
  8
0
  6
Continuous
 62
     7
100
AcDbCircle
 10
2527.4367050277
 20
143.5494545508
 30
0.0
 40
3.25
100
AcDbArc
 50
90.0
 51
270.0
  0
ARC
  5
5ED
330
1F
100
AcDbEntity
  8
0
  6
Continuous
 62
     7
100
AcDbCircle
 10
2527.4367050277
 20
168.5494545508
 30
0.0
 40
3.249999999999972
100
AcDbArc
 50
270.0
 51
90.0
  0
ARC
  5
5EE
330
1F
100
AcDbEntity
  8
0
  6
Continuous
 62
     7
100
AcDbCircle
 10
2527.4367050277
 20
168.5494545508
 30
0.0
 40
3.249999999999972
100
AcDbArc
 50
90.0
 51
270.0
  0
ARC
  5
5EF
330
1F
100
AcDbEntity
  8
0
  6
Continuous
 62
     7
100
AcDbCircle
 10
2527.4367050277
 20
193.5494545508
 30
0.0
 40
3.25
100
AcDbArc
 50
270.0
 51
90.0
  0
ARC
  5
5F0
330
1F
100
AcDbEntity
  8
0
  6
Continuous
 62
     7
100
AcDbCircle
 10
2527.4367050277
 20
193.5494545508
 30
0.0
 40
3.25
100
AcDbArc
 50
90.0
 51
270.0
  0
ARC
  5
5F1
330
1F
100
AcDbEntity
  8
0
  6
Continuous
 62
     7
100
AcDbCircle
 10
1987.9367050277
 20
228.5497085897
 30
0.0
 40
3.250000000000028
100
AcDbArc
 50
270.0
 51
90.0
  0
ARC
  5
5F2
330
1F
100
AcDbEntity
  8
0
  6
Continuous
 62
     7
100
AcDbCircle
 10
1987.9367050277
 20
228.5497085897
 30
0.0
 40
3.250000000000028
100
AcDbArc
 50
90.0
 51
270.0
  0
ARC
  5
5F3
330
1F
100
AcDbEntity
  8
0
  6
Continuous
 62
     7
100
AcDbCircle
 10
1987.9367050277
 20
108.5494545519
 30
0.0
 40
3.25
100
AcDbArc
 50
270.0
 51
90.0
  0
ARC
  5
5F4
330
1F
100
AcDbEntity
  8
0
  6
Continuous
 62
     7
100
AcDbCircle
 10
1987.9367050277
 20
108.5494545519
 30
0.0
 40
3.25
100
AcDbArc
 50
90.0
 51
270.0
  0
ARC
  5
5F5
330
1F
100
AcDbEntity
  8
0
  6
Continuous
 62
     7
100
AcDbCircle
 10
1887.9367050277
 20
228.5497085897
 30
0.0
 40
3.250000000000028
100
AcDbArc
 50
270.0
 51
90.0
  0
ARC
  5
5F6
330
1F
100
AcDbEntity
  8
0
  6
Continuous
 62
     7
100
AcDbCircle
 10
1887.9367050277
 20
228.5497085897
 30
0.0
 40
3.250000000000028
100
AcDbArc
 50
90.0
 51
270.0
  0
ARC
  5
5F7
330
1F
100
AcDbEntity
  8
0
  6
Continuous
 62
     7
100
AcDbCircle
 10
1887.9367050277
 20
108.5494545519
 30
0.0
 40
3.25
100
AcDbArc
 50
270.0
 51
90.0
  0
ARC
  5
5F8
330
1F
100
AcDbEntity
  8
0
  6
Continuous
 62
     7
100
AcDbCircle
 10
1887.9367050277
 20
108.5494545519
 30
0.0
 40
3.25
100
AcDbArc
 50
90.0
 51
270.0
  0
ARC
  5
5F9
330
1F
100
AcDbEntity
  8
0
  6
Continuous
 62
     7
100
AcDbCircle
 10
1787.9367050277
 20
228.5497085897
 30
0.0
 40
3.250000000000028
100
AcDbArc
 50
270.0
 51
90.0
  0
ARC
  5
5FA
330
1F
100
AcDbEntity
  8
0
  6
Continuous
 62
     7
100
AcDbCircle
 10
1787.9367050277
 20
228.5497085897
 30
0.0
 40
3.250000000000028
100
AcDbArc
 50
90.0
 51
270.0
  0
ARC
  5
5FB
330
1F
100
AcDbEntity
  8
0
  6
Continuous
 62
     7
100
AcDbCircle
 10
1787.9367050277
 20
108.5494545519
 30
0.0
 40
3.25
100
AcDbArc
 50
270.0
 51
90.0
  0
ARC
  5
5FC
330
1F
100
AcDbEntity
  8
0
  6
Continuous
 62
     7
100
AcDbCircle
 10
1787.9367050277
 20
108.5494545519
 30
0.0
 40
3.25
100
AcDbArc
 50
90.0
 51
270.0
  0
ARC
  5
5FD
330
1F
100
AcDbEntity
  8
0
  6
Continuous
 62
     7
100
AcDbCircle
 10
1687.9367050277
 20
228.5497085897
 30
0.0
 40
3.250000000000057
100
AcDbArc
 50
270.0
 51
90.0
  0
ARC
  5
5FE
330
1F
100
AcDbEntity
  8
0
  6
Continuous
 62
     7
100
AcDbCircle
 10
1687.9367050277
 20
228.5497085897
 30
0.0
 40
3.250000000000057
100
AcDbArc
 50
90.0
 51
270.0
  0
ARC
  5
5FF
330
1F
100
AcDbEntity
  8
0
  6
Continuous
 62
     7
100
AcDbCircle
 10
1687.9367050277
 20
108.5494545519
 30
0.0
 40
3.25
100
AcDbArc
 50
270.0
 51
90.0
  0
ARC
  5
600
330
1F
100
AcDbEntity
  8
0
  6
Continuous
 62
     7
100
AcDbCircle
 10
1687.9367050277
 20
108.5494545519
 30
0.0
 40
3.25
100
AcDbArc
 50
90.0
 51
270.0
  0
ARC
  5
601
330
1F
100
AcDbEntity
  8
0
  6
Continuous
 62
     7
100
AcDbCircle
 10
2187.9367050277
 20
228.5497085897
 30
0.0
 40
3.250000000000028
100
AcDbArc
 50
270.0
 51
90.0
  0
ARC
  5
602
330
1F
100
AcDbEntity
  8
0
  6
Continuous
 62
     7
100
AcDbCircle
 10
2187.9367050277
 20
228.5497085897
 30
0.0
 40
3.250000000000028
100
AcDbArc
 50
90.0
 51
270.0
  0
ARC
  5
603
330
1F
100
AcDbEntity
  8
0
  6
Continuous
 62
     7
100
AcDbCircle
 10
2187.9367050277
 20
108.5494545519
 30
0.0
 40
3.250000000000213
100
AcDbArc
 50
270.0
 51
90.0
  0
ARC
  5
604
330
1F
100
AcDbEntity
  8
0
  6
Continuous
 62
     7
100
AcDbCircle
 10
2187.9367050277
 20
108.5494545519
 30
0.0
 40
3.250000000000213
100
AcDbArc
 50
90.0
 51
270.0
  0
ARC
  5
605
330
1F
100
AcDbEntity
  8
0
  6
Continuous
 62
     7
100
AcDbCircle
 10
2287.9367050277
 20
228.5497085897
 30
0.0
 40
3.250000000000028
100
AcDbArc
 50
270.0
 51
90.0
  0
ARC
  5
606
330
1F
100
AcDbEntity
  8
0
  6
Continuous
 62
     7
100
AcDbCircle
 10
2287.9367050277
 20
228.5497085897
 30
0.0
 40
3.250000000000028
100
AcDbArc
 50
90.0
 51
270.0
  0
ARC
  5
607
330
1F
100
AcDbEntity
  8
0
  6
Continuous
 62
     7
100
AcDbCircle
 10
2287.9367050277
 20
108.5494545519
 30
0.0
 40
3.250000000000014
100
AcDbArc
 50
270.0
 51
90.0
  0
ARC
  5
608
330
1F
100
AcDbEntity
  8
0
  6
Continuous
 62
     7
100
AcDbCircle
 10
2287.9367050277
 20
108.5494545519
 30
0.0
 40
3.250000000000014
100
AcDbArc
 50
90.0
 51
270.0
  0
ARC
  5
609
330
1F
100
AcDbEntity
  8
0
  6
Continuous
 62
     7
100
AcDbCircle
 10
2387.9367050277
 20
228.5497085897
 30
0.0
 40
3.250000000000028
100
AcDbArc
 50
270.0
 51
90.0
  0
ARC
  5
60A
330
1F
100
AcDbEntity
  8
0
  6
Continuous
 62
     7
100
AcDbCircle
 10
2387.9367050277
 20
228.5497085897
 30
0.0
 40
3.250000000000028
100
AcDbArc
 50
90.0
 51
270.0
  0
ARC
  5
60B
330
1F
100
AcDbEntity
  8
0
  6
Continuous
 62
     7
100
AcDbCircle
 10
2387.9367050277
 20
108.5494545519
 30
0.0
 40
3.250000000000199
100
AcDbArc
 50
270.0
 51
90.0
  0
ARC
  5
60C
330
1F
100
AcDbEntity
  8
0
  6
Continuous
 62
     7
100
AcDbCircle
 10
2387.9367050277
 20
108.5494545519
 30
0.0
 40
3.250000000000199
100
AcDbArc
 50
90.0
 51
270.0
  0
ARC
  5
60D
330
1F
100
AcDbEntity
  8
0
  6
Continuous
 62
     7
100
AcDbCircle
 10
2487.9367050277
 20
228.5497085897
 30
0.0
 40
3.250000000000028
100
AcDbArc
 50
270.0
 51
90.0
  0
ARC
  5
60E
330
1F
100
AcDbEntity
  8
0
  6
Continuous
 62
     7
100
AcDbCircle
 10
2487.9367050277
 20
228.5497085897
 30
0.0
 40
3.250000000000028
100
AcDbArc
 50
90.0
 51
270.0
  0
ARC
  5
60F
330
1F
100
AcDbEntity
  8
0
  6
Continuous
 62
     7
100
AcDbCircle
 10
2487.9367050277
 20
108.5494545519
 30
0.0
 40
3.25
100
AcDbArc
 50
270.0
 51
90.0
  0
ARC
  5
610
330
1F
100
AcDbEntity
  8
0
  6
Continuous
 62
     7
100
AcDbCircle
 10
2487.9367050277
 20
108.5494545519
 30
0.0
 40
3.25
100
AcDbArc
 50
90.0
 51
270.0
  0
ARC
  5
611
330
1F
100
AcDbEntity
  8
0
  6
Continuous
 62
     7
100
AcDbCircle
 10
2237.9367050277
 20
108.5494545519
 30
0.0
 40
2.600000000000023
100
AcDbArc
 50
270.0
 51
90.0
  0
ARC
  5
612
330
1F
100
AcDbEntity
  8
0
  6
Continuous
 62
     7
100
AcDbCircle
 10
2237.9367050277
 20
108.5494545519
 30
0.0
 40
2.600000000000023
100
AcDbArc
 50
90.0
 51
270.0
  0
ARC
  5
613
330
1F
100
AcDbEntity
  8
0
  6
Continuous
 62
     7
100
AcDbCircle
 10
2237.9367050277
 20
228.5497085897
 30
0.0
 40
2.599999999999994
100
AcDbArc
 50
270.0
 51
90.0
  0
ARC
  5
614
330
1F
100
AcDbEntity
  8
0
  6
Continuous
 62
     7
100
AcDbCircle
 10
2237.9367050277
 20
228.5497085897
 30
0.0
 40
2.599999999999994
100
AcDbArc
 50
90.0
 51
270.0
  0
ARC
  5
615
330
1F
100
AcDbEntity
  8
0
  6
Continuous
 62
     7
100
AcDbCircle
 10
1937.9367050277
 20
108.5494545519
 30
0.0
 40
2.600000000000009
100
AcDbArc
 50
270.0
 51
90.0
  0
ARC
  5
616
330
1F
100
AcDbEntity
  8
0
  6
Continuous
 62
     7
100
AcDbCircle
 10
1937.9367050277
 20
108.5494545519
 30
0.0
 40
2.600000000000009
100
AcDbArc
 50
90.0
 51
270.0
  0
ARC
  5
617
330
1F
100
AcDbEntity
  8
0
  6
Continuous
 62
     7
100
AcDbCircle
 10
1937.9367050277
 20
228.5497085897
 30
0.0
 40
2.600000000000023
100
AcDbArc
 50
270.0
 51
90.0
  0
ARC
  5
618
330
1F
100
AcDbEntity
  8
0
  6
Continuous
 62
     7
100
AcDbCircle
 10
1937.9367050277
 20
228.5497085897
 30
0.0
 40
2.600000000000023
100
AcDbArc
 50
90.0
 51
270.0
  0
ARC
  5
619
330
1F
100
AcDbEntity
  8
0
  6
Continuous
 62
     7
100
AcDbCircle
 10
1837.9367050277
 20
108.5494545519
 30
0.0
 40
2.600000000000009
100
AcDbArc
 50
270.0
 51
90.0
  0
ARC
  5
61A
330
1F
100
AcDbEntity
  8
0
  6
Continuous
 62
     7
100
AcDbCircle
 10
1837.9367050277
 20
108.5494545519
 30
0.0
 40
2.600000000000009
100
AcDbArc
 50
90.0
 51
270.0
  0
ARC
  5
61B
330
1F
100
AcDbEntity
  8
0
  6
Continuous
 62
     7
100
AcDbCircle
 10
1837.9367050277
 20
228.5497085897
 30
0.0
 40
2.599999999999994
100
AcDbArc
 50
270.0
 51
90.0
  0
ARC
  5
61C
330
1F
100
AcDbEntity
  8
0
  6
Continuous
 62
     7
100
AcDbCircle
 10
1837.9367050277
 20
228.5497085897
 30
0.0
 40
2.599999999999994
100
AcDbArc
 50
90.0
 51
270.0
  0
ARC
  5
61D
330
1F
100
AcDbEntity
  8
0
  6
Continuous
 62
     7
100
AcDbCircle
 10
2337.9367050277
 20
108.5494545519
 30
0.0
 40
2.600000000000009
100
AcDbArc
 50
270.0
 51
90.0
  0
ARC
  5
61E
330
1F
100
AcDbEntity
  8
0
  6
Continuous
 62
     7
100
AcDbCircle
 10
2337.9367050277
 20
108.5494545519
 30
0.0
 40
2.600000000000009
100
AcDbArc
 50
90.0
 51
270.0
  0
ARC
  5
61F
330
1F
100
AcDbEntity
  8
0
  6
Continuous
 62
     7
100
AcDbCircle
 10
2337.9367050277
 20
228.5497085897
 30
0.0
 40
2.599999999999994
100
AcDbArc
 50
270.0
 51
90.0
  0
ARC
  5
620
330
1F
100
AcDbEntity
  8
0
  6
Continuous
 62
     7
100
AcDbCircle
 10
2337.9367050277
 20
228.5497085897
 30
0.0
 40
2.599999999999994
100
AcDbArc
 50
90.0
 51
270.0
  0
ARC
  5
621
330
1F
100
AcDbEntity
  8
0
  6
Continuous
 62
     7
100
AcDbCircle
 10
1737.9367050277
 20
228.5495815708
 30
0.0
 40
2.599999999999994
100
AcDbArc
 50
270.0
 51
90.0
  0
ARC
  5
622
330
1F
100
AcDbEntity
  8
0
  6
Continuous
 62
     7
100
AcDbCircle
 10
1737.9367050277
 20
228.5495815708
 30
0.0
 40
2.599999999999994
100
AcDbArc
 50
90.0
 51
270.0
  0
ARC
  5
623
330
1F
100
AcDbEntity
  8
0
  6
Continuous
 62
     7
100
AcDbCircle
 10
2437.9367050277
 20
108.5495815708
 30
0.0
 40
2.59999999999998
100
AcDbArc
 50
270.0
 51
90.0
  0
ARC
  5
624
330
1F
100
AcDbEntity
  8
0
  6
Continuous
 62
     7
100
AcDbCircle
 10
2437.9367050277
 20
108.5495815708
 30
0.0
 40
2.59999999999998
100
AcDbArc
 50
90.0
 51
270.0
  0
ARC
  5
625
330
1F
100
AcDbEntity
  8
0
  6
Continuous
 62
     7
100
AcDbCircle
 10
2437.9367050277
 20
228.5495815708
 30
0.0
 40
2.599999999999994
100
AcDbArc
 50
270.0
 51
90.0
  0
ARC
  5
626
330
1F
100
AcDbEntity
  8
0
  6
Continuous
 62
     7
100
AcDbCircle
 10
2437.9367050277
 20
228.5495815708
 30
0.0
 40
2.599999999999994
100
AcDbArc
 50
90.0
 51
270.0
  0
ARC
  5
627
330
1F
100
AcDbEntity
  8
0
  6
Continuous
 62
     7
100
AcDbCircle
 10
1737.9367050277
 20
108.5495815708
 30
0.0
 40
2.600000000000023
100
AcDbArc
 50
270.0
 51
90.0
  0
ARC
  5
628
330
1F
100
AcDbEntity
  8
0
  6
Continuous
 62
     7
100
AcDbCircle
 10
1737.9367050277
 20
108.5495815708
 30
0.0
 40
2.600000000000023
100
AcDbArc
 50
90.0
 51
270.0
  0
LINE
  5
629
330
1F
100
AcDbEntity
  8
0
  6
Continuous
 62
     7
100
AcDbLine
 10
1634.9367050277
 20
129.7994545519
 30
0.0
 11
1634.9367050277
 21
203.8463392293
 31
0.0
  0
LINE
  5
62A
330
1F
100
AcDbEntity
  8
0
  6
Continuous
 62
     7
100
AcDbLine
 10
1634.9367050277
 20
229.7997085897
 30
0.0
 11
1634.9367050277
 21
234.4466958878
 31
0.0
  0
LINE
  5
62B
330
1F
100
AcDbEntity
  8
0
  6
Continuous
 62
     7
100
AcDbLine
 10
1637.4367050277
 20
234.4466958878
 30
0.0
 11
1634.9367050277
 21
234.4466958878
 31
0.0
  0
LINE
  5
62C
330
1F
100
AcDbEntity
  8
0
  6
Continuous
 62
     7
100
AcDbLine
 10
1637.4367050277
 20
235.4466958878
 30
0.0
 11
1637.4367050277
 21
234.4466958878
 31
0.0
  0
LINE
  5
62D
330
1F
100
AcDbEntity
  8
0
  6
Continuous
 62
     7
100
AcDbLine
 10
1635.9367050277
 20
235.4466958878
 30
0.0
 11
1637.4367050277
 21
235.4466958878
 31
0.0
  0
LINE
  5
62E
330
1F
100
AcDbEntity
  8
0
  6
Continuous
 62
     7
100
AcDbLine
 10
1635.9367050277
 20
239.0495815708
 30
0.0
 11
1635.9367050277
 21
235.4466958878
 31
0.0
  0
LINE
  5
62F
330
1F
100
AcDbEntity
  8
0
  6
Continuous
 62
     7
100
AcDbLine
 10
1635.9367050277
 20
239.0495815708
 30
0.0
 11
1635.9367050277
 21
241.3797085897
 31
0.0
  0
LINE
  5
630
330
1F
100
AcDbEntity
  8
0
  6
Continuous
 62
     7
100
AcDbLine
 10
2539.9367050277
 20
241.3797085897
 30
0.0
 11
1635.9367050277
 21
241.3797085897
 31
0.0
  0
LINE
  5
631
330
1F
100
AcDbEntity
  8
0
  6
Continuous
 62
     7
100
AcDbLine
 10
2539.9367050277
 20
239.0495815708
 30
0.0
 11
2539.9367050277
 21
241.3797085897
 31
0.0
  0
LINE
  5
632
330
1F
100
AcDbEntity
  8
0
  6
Continuous
 62
     7
100
AcDbLine
 10
2539.9367050277
 20
235.4466958878
 30
0.0
 11
2539.9367050277
 21
239.0495815708
 31
0.0
  0
LINE
  5
633
330
1F
100
AcDbEntity
  8
0
  6
Continuous
 62
     7
100
AcDbLine
 10
2538.4367050277
 20
235.4466958878
 30
0.0
 11
2539.9367050277
 21
235.4466958878
 31
0.0
  0
LINE
  5
634
330
1F
100
AcDbEntity
  8
0
  6
Continuous
 62
     7
100
AcDbLine
 10
2538.4367050277
 20
234.4466958878
 30
0.0
 11
2538.4367050277
 21
235.4466958878
 31
0.0
  0
LINE
  5
635
330
1F
100
AcDbEntity
  8
0
  6
Continuous
 62
     7
100
AcDbLine
 10
2538.4367050277
 20
234.4466958878
 30
0.0
 11
2540.9367050277
 21
234.4466958878
 31
0.0
  0
LINE
  5
636
330
1F
100
AcDbEntity
  8
0
  6
Continuous
 62
     7
100
AcDbLine
 10
2540.9367050277
 20
234.4466958878
 30
0.0
 11
2540.9367050277
 21
233.25307795
 31
0.0
  0
LINE
  5
637
330
1F
100
AcDbEntity
  8
0
  6
Continuous
 62
     7
100
AcDbLine
 10
2540.9367050277
 20
207.2997085897
 30
0.0
 11
2540.9367050277
 21
133.4080800209
 31
0.0
  0
LINE
  5
638
330
1F
100
AcDbEntity
  8
0
  6
Continuous
 62
     7
100
AcDbLine
 10
2540.9367050277
 20
107.4547106606
 30
0.0
 11
2540.9367050277
 21
102.6524672537
 31
0.0
  0
LINE
  5
639
330
1F
100
AcDbEntity
  8
0
  6
Continuous
 62
     7
100
AcDbLine
 10
2538.4367050277
 20
102.6524672537
 30
0.0
 11
2540.9367050277
 21
102.6524672537
 31
0.0
  0
LINE
  5
63A
330
1F
100
AcDbEntity
  8
0
  6
Continuous
 62
     7
100
AcDbLine
 10
2538.4367050277
 20
101.6524672537
 30
0.0
 11
2538.4367050277
 21
102.6524672537
 31
0.0
  0
LINE
  5
63B
330
1F
100
AcDbEntity
  8
0
  6
Continuous
 62
     7
100
AcDbLine
 10
2539.9367050277
 20
101.6524672537
 30
0.0
 11
2538.4367050277
 21
101.6524672537
 31
0.0
  0
LINE
  5
63C
330
1F
100
AcDbEntity
  8
0
  6
Continuous
 62
     7
100
AcDbLine
 10
2539.9367050277
 20
98.0495815708
 30
0.0
 11
2539.9367050277
 21
101.6524672537
 31
0.0
  0
LINE
  5
63D
330
1F
100
AcDbEntity
  8
0
  6
Continuous
 62
     7
100
AcDbLine
 10
2539.9367050277
 20
98.0495815708
 30
0.0
 11
2539.9367050277
 21
95.7194545519
 31
0.0
  0
LINE
  5
63E
330
1F
100
AcDbEntity
  8
0
  6
Continuous
 62
     7
100
AcDbLine
 10
1635.9367050277
 20
95.7194545519
 30
0.0
 11
2539.9367050277
 21
95.7194545519
 31
0.0
  0
LINE
  5
63F
330
1F
100
AcDbEntity
  8
0
  6
Continuous
 62
     7
100
AcDbLine
 10
1635.9367050277
 20
98.0495815708
 30
0.0
 11
1635.9367050277
 21
95.7194545519
 31
0.0
  0
LINE
  5
640
330
1F
100
AcDbEntity
  8
0
  6
Continuous
 62
     7
100
AcDbLine
 10
1635.9367050277
 20
101.6524672537
 30
0.0
 11
1635.9367050277
 21
98.0495815708
 31
0.0
  0
LINE
  5
641
330
1F
100
AcDbEntity
  8
0
  6
Continuous
 62
     7
100
AcDbLine
 10
1637.4367050277
 20
101.6524672537
 30
0.0
 11
1635.9367050277
 21
101.6524672537
 31
0.0
  0
LINE
  5
642
330
1F
100
AcDbEntity
  8
0
  6
Continuous
 62
     7
100
AcDbLine
 10
1637.4367050277
 20
102.6524672537
 30
0.0
 11
1637.4367050277
 21
101.6524672537
 31
0.0
  0
LINE
  5
643
330
1F
100
AcDbEntity
  8
0
  6
Continuous
 62
     7
100
AcDbLine
 10
1637.4367050277
 20
102.6524672537
 30
0.0
 11
1634.9367050277
 21
102.6524672537
 31
0.0
  0
LINE
  5
644
330
1F
100
AcDbEntity
  8
0
  6
Continuous
 62
     7
100
AcDbLine
 10
1634.9367050277
 20
102.6524672537
 30
0.0
 11
1634.9367050277
 21
103.8460851915
 31
0.0
  0
LINE
  5
645
330
1F
100
AcDbEntity
  8
0
  6
Continuous
 62
     7
100
AcDbLine
 10
2539.9367050277
 20
94.7194545519
 30
0.0
 11
1635.9367050277
 21
94.7194545519
 31
0.0
  0
LINE
  5
646
330
1F
100
AcDbEntity
  8
0
  6
Continuous
 62
     7
100
AcDbLine
 10
2539.9367050277
 20
95.7194545519
 30
0.0
 11
2539.9367050277
 21
94.7194545519
 31
0.0
  0
LINE
  5
647
330
1F
100
AcDbEntity
  8
0
  6
Continuous
 62
     7
100
AcDbLine
 10
1635.9367050277
 20
94.7194545519
 30
0.0
 11
1635.9367050277
 21
95.7194545519
 31
0.0
  0
LINE
  5
648
330
1F
100
AcDbEntity
  8
0
  6
Continuous
 62
     7
100
AcDbLine
 10
1635.9367050277
 20
242.3797085897
 30
0.0
 11
2539.9367050277
 21
242.3797085897
 31
0.0
  0
LINE
  5
649
330
1F
100
AcDbEntity
  8
0
  6
Continuous
 62
     7
100
AcDbLine
 10
2539.9367050277
 20
242.3797085897
 30
0.0
 11
2539.9367050277
 21
241.3797085897
 31
0.0
  0
LINE
  5
64A
330
1F
100
AcDbEntity
  8
0
  6
Continuous
 62
     7
100
AcDbLine
 10
1635.9367050277
 20
241.3797085897
 30
0.0
 11
1635.9367050277
 21
242.3797085897
 31
0.0
  0
LINE
  5
64B
330
1F
100
AcDbEntity
  8
0
  6
Continuous
 62
     7
100
AcDbLine
 10
1638.7766976367
 20
218.6273366441
 30
0.0
 11
1638.7766976367
 21
224.5273366441
 31
0.0
  0
LINE
  5
64C
330
1F
100
AcDbEntity
  8
0
  6
Continuous
 62
     7
100
AcDbLine
 10
1638.7766976367
 20
212.7273366441
 30
0.0
 11
1638.7766976367
 21
218.6273366441
 31
0.0
  0
LINE
  5
64D
330
1F
100
AcDbEntity
  8
0
  6
Continuous
 62
     7
100
AcDbLine
 10
1640.107068763
 20
218.6273366441
 30
0.0
 11
1640.107068763
 21
223.7202382723
 31
0.0
  0
LINE
  5
64E
330
1F
100
AcDbEntity
  8
0
  6
Continuous
 62
     7
100
AcDbLine
 10
1640.107068763
 20
213.5344350158
 30
0.0
 11
1640.107068763
 21
218.6273366441
 31
0.0
  0
LINE
  5
64F
330
1F
100
AcDbEntity
  8
0
  6
Continuous
 62
     7
100
AcDbLine
 10
2537.0967124186
 20
124.5270826062
 30
0.0
 11
2537.0967124186
 21
118.6270826062
 31
0.0
  0
LINE
  5
650
330
1F
100
AcDbEntity
  8
0
  6
Continuous
 62
     7
100
AcDbLine
 10
2535.7663412924
 20
123.7199842345
 30
0.0
 11
2535.7663412924
 21
118.6270826062
 31
0.0
  0
LINE
  5
651
330
1F
100
AcDbEntity
  8
0
  6
Continuous
 62
     7
100
AcDbLine
 10
2537.0967124186
 20
118.6270826062
 30
0.0
 11
2537.0967124186
 21
112.7270826062
 31
0.0
  0
LINE
  5
652
330
1F
100
AcDbEntity
  8
0
  6
Continuous
 62
     7
100
AcDbLine
 10
2535.7663412924
 20
118.6270826062
 30
0.0
 11
2535.7663412924
 21
113.534180978
 31
0.0
  0
LINE
  5
653
330
1F
100
AcDbEntity
  8
0
  6
Continuous
 62
     7
100
AcDbLine
 10
1638.7766976367
 20
112.7270826062
 30
0.0
 11
1638.7766976367
 21
118.6270826062
 31
0.0
  0
LINE
  5
654
330
1F
100
AcDbEntity
  8
0
  6
Continuous
 62
     7
100
AcDbLine
 10
1638.7766976367
 20
118.6270826062
 30
0.0
 11
1638.7766976367
 21
124.5270826062
 31
0.0
  0
LINE
  5
655
330
1F
100
AcDbEntity
  8
0
  6
Continuous
 62
     7
100
AcDbLine
 10
1640.107068763
 20
113.534180978
 30
0.0
 11
1640.107068763
 21
118.6270826062
 31
0.0
  0
LINE
  5
656
330
1F
100
AcDbEntity
  8
0
  6
Continuous
 62
     7
100
AcDbLine
 10
1640.107068763
 20
118.6270826062
 30
0.0
 11
1640.107068763
 21
123.7199842345
 31
0.0
  0
LINE
  5
657
330
1F
100
AcDbEntity
  8
0
  6
Continuous
 62
     7
100
AcDbLine
 10
2537.0967124186
 20
224.3720805353
 30
0.0
 11
2537.0967124186
 21
218.4720805353
 31
0.0
  0
LINE
  5
658
330
1F
100
AcDbEntity
  8
0
  6
Continuous
 62
     7
100
AcDbLine
 10
2535.7663412924
 20
223.5649821636
 30
0.0
 11
2535.7663412924
 21
218.4720805353
 31
0.0
  0
LINE
  5
659
330
1F
100
AcDbEntity
  8
0
  6
Continuous
 62
     7
100
AcDbLine
 10
2537.0967124186
 20
218.4720805353
 30
0.0
 11
2537.0967124186
 21
212.5720805353
 31
0.0
  0
LINE
  5
65A
330
1F
100
AcDbEntity
  8
0
  6
Continuous
 62
     7
100
AcDbLine
 10
2535.7663412924
 20
218.4720805353
 30
0.0
 11
2535.7663412924
 21
213.3791789071
 31
0.0
  0
LINE
  5
65B
330
1F
100
AcDbEntity
  8
0
  6
Continuous
 62
     7
100
AcDbLine
 10
1640.7670761539
 20
214.8016492065
 30
0.0
 11
1640.7670761539
 21
218.6273366441
 31
0.0
  0
LINE
  5
65C
330
1F
100
AcDbEntity
  8
0
  6
Continuous
 62
     7
100
AcDbLine
 10
1640.7670761539
 20
218.6273366441
 30
0.0
 11
1640.7670761539
 21
222.4530240817
 31
0.0
  0
LINE
  5
65D
330
1F
100
AcDbEntity
  8
0
  6
Continuous
 62
     7
100
AcDbLine
 10
2535.1063339014
 20
122.4527700438
 30
0.0
 11
2535.1063339014
 21
118.6270826062
 31
0.0
  0
LINE
  5
65E
330
1F
100
AcDbEntity
  8
0
  6
Continuous
 62
     7
100
AcDbLine
 10
2535.1063339014
 20
118.6270826062
 30
0.0
 11
2535.1063339014
 21
114.8013951686
 31
0.0
  0
LINE
  5
65F
330
1F
100
AcDbEntity
  8
0
  6
Continuous
 62
     7
100
AcDbLine
 10
1640.7670761539
 20
118.6270826062
 30
0.0
 11
1640.7670761539
 21
122.4527700438
 31
0.0
  0
LINE
  5
660
330
1F
100
AcDbEntity
  8
0
  6
Continuous
 62
     7
100
AcDbLine
 10
1640.7670761539
 20
114.8013951686
 30
0.0
 11
1640.7670761539
 21
118.6270826062
 31
0.0
  0
LINE
  5
661
330
1F
100
AcDbEntity
  8
0
  6
Continuous
 62
     7
100
AcDbLine
 10
2535.1063339014
 20
218.4720805353
 30
0.0
 11
2535.1063339014
 21
214.6463930977
 31
0.0
  0
LINE
  5
662
330
1F
100
AcDbEntity
  8
0
  6
Continuous
 62
     7
100
AcDbLine
 10
2535.1063339014
 20
222.2977679729
 30
0.0
 11
2535.1063339014
 21
218.4720805353
 31
0.0
  0
LINE
  5
663
330
1F
100
AcDbEntity
  8
0
  6
Continuous
 62
     7
100
AcDbLine
 10
1627.2367050277
 20
218.6273366441
 30
0.0
 11
1633.9367050277
 21
218.6273366441
 31
0.0
  0
LINE
  5
664
330
1F
100
AcDbEntity
  8
0
  6
Continuous
 62
     7
100
AcDbLine
 10
2548.6367050277
 20
118.6270826062
 30
0.0
 11
2541.9367050277
 21
118.6270826062
 31
0.0
  0
LINE
  5
665
330
1F
100
AcDbEntity
  8
0
  6
Continuous
 62
     7
100
AcDbLine
 10
1627.2367050277
 20
118.6270826062
 30
0.0
 11
1633.9367050277
 21
118.6270826062
 31
0.0
  0
LINE
  5
666
330
1F
100
AcDbEntity
  8
0
  6
Continuous
 62
     7
100
AcDbLine
 10
2548.6367050277
 20
218.4720805353
 30
0.0
 11
2541.9367050277
 21
218.4720805353
 31
0.0
  0
ENDSEC
  0
SECTION
  2
OBJECTS
  0
DICTIONARY
  5
C
330
0
100
AcDbDictionary
281
     1
  3
ACAD_GROUP
350
D
  3
ACAD_LAYOUT
350
1A
  3
ACAD_MLINESTYLE
350
17
  3
ACAD_PLOTSETTINGS
350
19
  3
ACAD_PLOTSTYLENAME
350
E
  3
ACAD_SCALELIST
350
47
  3
DWGPROPS
350
667
  0
DICTIONARY
  5
D
102
{ACAD_REACTORS
330
C
102
}
330
C
100
AcDbDictionary
281
     1
  0
DICTIONARY
  5
1A
102
{ACAD_REACTORS
330
C
102
}
330
C
100
AcDbDictionary
281
     1
  3
Layout1
350
1E
  3
Layout2
350
26
  3
Model
350
22
  0
DICTIONARY
  5
17
102
{ACAD_REACTORS
330
C
102
}
330
C
100
AcDbDictionary
281
     1
  3
Standard
350
18
  0
DICTIONARY
  5
19
102
{ACAD_REACTORS
330
C
102
}
330
C
100
AcDbDictionary
281
     1
  0
ACDBDICTIONARYWDFLT
  5
E
102
{ACAD_REACTORS
330
C
102
}
330
C
100
AcDbDictionary
281
     1
  3
Normal
350
F
100
AcDbDictionaryWithDefault
340
F
  0
DICTIONARY
  5
47
102
{ACAD_REACTORS
330
C
102
}
330
C
100
AcDbDictionary
281
     1
  3
A0
350
48
  3
A1
350
49
  3
A2
350
4A
  3
A3
350
4B
  3
A4
350
4C
  3
A5
350
4D
  3
A6
350
4E
  3
A7
350
4F
  3
A8
350
50
  3
A9
350
51
  3
B0
350
52
  3
B1
350
53
  3
B2
350
54
  3
B3
350
55
  3
B4
350
56
  3
B5
350
57
  3
B6
350
58
  0
XRECORD
  5
667
102
{ACAD_REACTORS
330
C
102
}
330
C
100
AcDbXrecord
280
     1
  1
DWGPROPS COOKIE
  2

  3

  4

  6

  7

  8
moskovchenkovapa
  9

300
=
301
=
302
=
303
=
304
=
305
=
306
=
307
=
308
=
309
=
 40
0.0
 41
2460697.544643275
 42
2460697.544643797
  1

 90
        0
  0
LAYOUT
  5
1E
102
{ACAD_REACTORS
330
1A
102
}
330
1A
100
AcDbPlotSettings
  1

  2
none_device
  4

  6

 40
0.0
 41
0.0
 42
0.0
 43
0.0
 44
0.0
 45
0.0
 46
0.0
 47
0.0
 48
0.0
 49
0.0
140
0.0
141
0.0
142
1.0
143
1.0
 70
   688
 72
     1
 73
     0
 74
     5
  7

 75
    16
147
1.0
148
0.0
149
0.0
100
AcDbLayout
  1
Layout1
 70
     1
 71
     1
 10
0.0
 20
0.0
 11
420.0
 21
297.0
 12
0.0
 22
0.0
 32
0.0
 14
1.0000000000E+20
 24
1.0000000000E+20
 34
1.0000000000E+20
 15
-1.0000000000E+20
 25
-1.0000000000E+20
 35
-1.0000000000E+20
146
0.0
 13
0.0
 23
0.0
 33
0.0
 16
1.0
 26
0.0
 36
0.0
 17
0.0
 27
1.0
 37
0.0
 76
     0
330
1B
  0
LAYOUT
  5
26
102
{ACAD_REACTORS
330
1A
102
}
330
1A
100
AcDbPlotSettings
  1

  2
none_device
  4

  6

 40
0.0
 41
0.0
 42
0.0
 43
0.0
 44
0.0
 45
0.0
 46
0.0
 47
0.0
 48
0.0
 49
0.0
140
0.0
141
0.0
142
1.0
143
1.0
 70
   688
 72
     1
 73
     0
 74
     5
  7

 75
    16
147
1.0
148
0.0
149
0.0
100
AcDbLayout
  1
Layout2
 70
     1
 71
     2
 10
0.0
 20
0.0
 11
0.0
 21
0.0
 12
0.0
 22
0.0
 32
0.0
 14
0.0
 24
0.0
 34
0.0
 15
0.0
 25
0.0
 35
0.0
146
0.0
 13
0.0
 23
0.0
 33
0.0
 16
1.0
 26
0.0
 36
0.0
 17
0.0
 27
1.0
 37
0.0
 76
     0
330
23
  0
LAYOUT
  5
22
102
{ACAD_REACTORS
330
1A
102
}
330
1A
100
AcDbPlotSettings
  1

  2
none_device
  4
Letter_(8.50_x_11.00_Inches)
  6

 40
6.35
 41
6.35
 42
6.35000508
 43
6.35000508
 44
215.9
 45
279.4
 46
0.0
 47
0.0
 48
0.0
 49
0.0
140
0.0
141
0.0
142
1.0
143
1.0
 70
  1712
 72
     1
 73
     0
 74
     0
  7

 75
     0
147
1.0
148
0.0
149
0.0
100
AcDbLayout
  1
Model
 70
     1
 71
     0
 10
0.0
 20
0.0
 11
420.0
 21
297.0
 12
0.0
 22
0.0
 32
0.0
 14
0.0
 24
0.0
 34
0.0
 15
420.0
 25
297.0
 35
0.0
146
0.0
 13
0.0
 23
0.0
 33
0.0
 16
1.0
 26
0.0
 36
0.0
 17
0.0
 27
1.0
 37
0.0
 76
     0
330
1F
331
29
  0
MLINESTYLE
  5
18
102
{ACAD_REACTORS
330
17
102
}
330
17
100
AcDbMlineStyle
  2
Standard
 70
     0
  3

 62
   256
 51
90.0
 52
90.0
 71
     2
 49
0.5
 62
   256
  6
BYLAYER
 49
-0.5
 62
   256
  6
BYLAYER
  0
ACDBPLACEHOLDER
  5
F
102
{ACAD_REACTORS
330
E
102
}
330
E
  0
SCALE
  5
48
102
{ACAD_REACTORS
330
47
102
}
330
47
100
AcDbScale
 70
     0
300
1:1
140
1.0
141
1.0
290
     1
  0
SCALE
  5
49
102
{ACAD_REACTORS
330
47
102
}
330
47
100
AcDbScale
 70
     0
300
1:2
140
1.0
141
2.0
290
     0
  0
SCALE
  5
4A
102
{ACAD_REACTORS
330
47
102
}
330
47
100
AcDbScale
 70
     0
300
1:4
140
1.0
141
4.0
290
     0
  0
SCALE
  5
4B
102
{ACAD_REACTORS
330
47
102
}
330
47
100
AcDbScale
 70
     0
300
1:5
140
1.0
141
5.0
290
     0
  0
SCALE
  5
4C
102
{ACAD_REACTORS
330
47
102
}
330
47
100
AcDbScale
 70
     0
300
1:8
140
1.0
141
8.0
290
     0
  0
SCALE
  5
4D
102
{ACAD_REACTORS
330
47
102
}
330
47
100
AcDbScale
 70
     0
300
1:10
140
1.0
141
10.0
290
     0
  0
SCALE
  5
4E
102
{ACAD_REACTORS
330
47
102
}
330
47
100
AcDbScale
 70
     0
300
1:16
140
1.0
141
16.0
290
     0
  0
SCALE
  5
4F
102
{ACAD_REACTORS
330
47
102
}
330
47
100
AcDbScale
 70
     0
300
1:20
140
1.0
141
20.0
290
     0
  0
SCALE
  5
50
102
{ACAD_REACTORS
330
47
102
}
330
47
100
AcDbScale
 70
     0
300
1:30
140
1.0
141
30.0
290
     0
  0
SCALE
  5
51
102
{ACAD_REACTORS
330
47
102
}
330
47
100
AcDbScale
 70
     0
300
1:40
140
1.0
141
40.0
290
     0
  0
SCALE
  5
52
102
{ACAD_REACTORS
330
47
102
}
330
47
100
AcDbScale
 70
     0
300
1:50
140
1.0
141
50.0
290
     0
  0
SCALE
  5
53
102
{ACAD_REACTORS
330
47
102
}
330
47
100
AcDbScale
 70
     0
300
1:100
140
1.0
141
100.0
290
     0
  0
SCALE
  5
54
102
{ACAD_REACTORS
330
47
102
}
330
47
100
AcDbScale
 70
     0
300
2:1
140
2.0
141
1.0
290
     0
  0
SCALE
  5
55
102
{ACAD_REACTORS
330
47
102
}
330
47
100
AcDbScale
 70
     0
300
4:1
140
4.0
141
1.0
290
     0
  0
SCALE
  5
56
102
{ACAD_REACTORS
330
47
102
}
330
47
100
AcDbScale
 70
     0
300
8:1
140
8.0
141
1.0
290
     0
  0
SCALE
  5
57
102
{ACAD_REACTORS
330
47
102
}
330
47
100
AcDbScale
 70
     0
300
10:1
140
10.0
141
1.0
290
     0
  0
SCALE
  5
58
102
{ACAD_REACTORS
330
47
102
}
330
47
100
AcDbScale
 70
     0
300
100:1
140
100.0
141
1.0
290
     0
  0
ENDSEC
  0
EOF
