ISO-10303-21;
HEADER;
FILE_DESCRIPTION (( 'STEP AP214' ),
    '1' );
FILE_NAME ('FO-00D-WF-M10-020 FORMAT Øàéáà Ì10 óñèëåí. óâåëè÷åí. DIN7349 (20øò_óïàê) IEK.STEP',
    '2024-07-03T11:20:45',
    ( '' ),
    ( '' ),
    'SwSTEP 2.0',
    'SolidWorks 2022',
    '' );
FILE_SCHEMA (( 'AUTOMOTIVE_DESIGN' ));
ENDSEC;

DATA;
#1 = PLANE ( 'NONE',  #48 ) ;
#2 = CIRCLE ( 'NONE', #91, 12.50000000000000000 ) ;
#3 = CIRCLE ( 'NONE', #119, 5.250000000000000000 ) ;
#4 = CARTESIAN_POINT ( 'NONE',  ( 5.250000000000000000, 6.429395695523604153E-16, 0.000000000000000000 ) ) ;
#5 = ORIENTED_EDGE ( 'NONE', *, *, #13, .T. ) ;
#6 = DIRECTION ( 'NONE',  ( -0.000000000000000000, -0.000000000000000000, -1.000000000000000000 ) ) ;
#7 = CARTESIAN_POINT ( 'NONE',  ( -12.50000000000000000, 0.000000000000000000, 4.000000000000000000 ) ) ;
#8 = FACE_OUTER_BOUND ( 'NONE', #44, .T. ) ;
#9 = EDGE_CURVE ( 'NONE', #143, #23, #2, .T. ) ;
#10 = MECHANICAL_DESIGN_GEOMETRIC_PRESENTATION_REPRESENTATION (  '', ( #29 ), #64 ) ;
#11 =( NAMED_UNIT ( * ) PLANE_ANGLE_UNIT ( ) SI_UNIT ( $, .RADIAN. ) );
#12 = DIRECTION ( 'NONE',  ( 1.000000000000000000, 0.000000000000000000, 0.000000000000000000 ) ) ;
#13 = EDGE_CURVE ( 'NONE', #122, #130, #167, .T. ) ;
#14 = ORIENTED_EDGE ( 'NONE', *, *, #102, .F. ) ;
#15 = ADVANCED_FACE ( 'NONE', ( #27 ), #81, .F. ) ;
#16 = AXIS2_PLACEMENT_3D ( 'NONE', #100, #201, #200 ) ;
#17 = AXIS2_PLACEMENT_3D ( 'NONE', #113, #67, #149 ) ;
#18 = EDGE_LOOP ( 'NONE', ( #208, #198, #63, #41 ) ) ;
#19 = ADVANCED_FACE ( 'NONE', ( #166 ), #197, .T. ) ;
#20 = ORIENTED_EDGE ( 'NONE', *, *, #171, .T. ) ;
#21 = PRODUCT_RELATED_PRODUCT_CATEGORY ( 'part', '', ( #25 ) ) ;
#22 = CARTESIAN_POINT ( 'NONE',  ( 0.000000000000000000, 0.000000000000000000, 4.000000000000000000 ) ) ;
#23 = VERTEX_POINT ( 'NONE', #96 ) ;
#24 = CARTESIAN_POINT ( 'NONE',  ( 0.000000000000000000, 0.000000000000000000, 4.000000000000000000 ) ) ;
#25 = PRODUCT ( 'FO-00D-WF-M10-020 FORMAT \X2\04280430043904310430\X0\ \X2\041c\X0\10 \X2\044304410438043b0435043d\X0\. \X2\044304320435043b043804470435043d\X0\. DIN7349 (20\X2\04480442\X0\_\X2\0443043f0430043a\X0\) IEK', 'FO-00D-WF-M10-020 FORMAT \X2\04280430043904310430\X0\ \X2\041c\X0\10 \X2\044304410438043b0435043d\X0\. \X2\044304320435043b043804470435043d\X0\. DIN7349 (20\X2\04480442\X0\_\X2\0443043f0430043a\X0\) IEK', '', ( #141 ) ) ;
#26 = PRODUCT_DEFINITION_CONTEXT ( 'detailed design', #159, 'design' ) ;
#27 = FACE_OUTER_BOUND ( 'NONE', #173, .T. ) ;
#28 = CIRCLE ( 'NONE', #39, 12.50000000000000000 ) ;
#29 = STYLED_ITEM ( 'NONE', ( #192 ), #115 ) ;
#30 = VECTOR ( 'NONE', #6, 1000.000000000000000 ) ;
#31 = CARTESIAN_POINT ( 'NONE',  ( 0.000000000000000000, 0.000000000000000000, 4.000000000000000000 ) ) ;
#32 = DIRECTION ( 'NONE',  ( 0.000000000000000000, 0.000000000000000000, 1.000000000000000000 ) ) ;
#33 = DIRECTION ( 'NONE',  ( 1.000000000000000000, 0.000000000000000000, 0.000000000000000000 ) ) ;
#34 = CARTESIAN_POINT ( 'NONE',  ( 0.000000000000000000, 0.000000000000000000, 4.000000000000000000 ) ) ;
#35 = SHAPE_DEFINITION_REPRESENTATION ( #180, #115 ) ;
#36 = ORIENTED_EDGE ( 'NONE', *, *, #79, .T. ) ;
#37 = ADVANCED_FACE ( 'NONE', ( #54, #127 ), #1, .F. ) ;
#38 = VECTOR ( 'NONE', #204, 1000.000000000000000 ) ;
#39 = AXIS2_PLACEMENT_3D ( 'NONE', #154, #152, #116 ) ;
#40 = CARTESIAN_POINT ( 'NONE',  ( 0.000000000000000000, 0.000000000000000000, 0.000000000000000000 ) ) ;
#41 = ORIENTED_EDGE ( 'NONE', *, *, #132, .F. ) ;
#42 = CARTESIAN_POINT ( 'NONE',  ( 0.000000000000000000, 0.000000000000000000, 0.000000000000000000 ) ) ;
#43 = EDGE_LOOP ( 'NONE', ( #20, #36 ) ) ;
#44 = EDGE_LOOP ( 'NONE', ( #165, #194, #142, #66 ) ) ;
#45 =( LENGTH_UNIT ( ) NAMED_UNIT ( * ) SI_UNIT ( .MILLI., .METRE. ) );
#46 = DIRECTION ( 'NONE',  ( -1.000000000000000000, 0.000000000000000000, 0.000000000000000000 ) ) ;
#47 = PLANE ( 'NONE',  #16 ) ;
#48 = AXIS2_PLACEMENT_3D ( 'NONE', #42, #145, #84 ) ;
#49 = FACE_OUTER_BOUND ( 'NONE', #18, .T. ) ;
#50 =( LENGTH_UNIT ( ) NAMED_UNIT ( * ) SI_UNIT ( .MILLI., .METRE. ) );
#51 = FILL_AREA_STYLE_COLOUR ( '', #183 ) ;
#52 = EDGE_CURVE ( 'NONE', #122, #211, #153, .T. ) ;
#53 = VERTEX_POINT ( 'NONE', #4 ) ;
#54 = FACE_OUTER_BOUND ( 'NONE', #185, .T. ) ;
#55 = PRODUCT_DEFINITION ( 'UNKNOWN', '', #80, #26 ) ;
#56 = CARTESIAN_POINT ( 'NONE',  ( 12.50000000000000000, 1.530808498934191521E-15, 0.000000000000000000 ) ) ;
#57 = CARTESIAN_POINT ( 'NONE',  ( 0.000000000000000000, 0.000000000000000000, 0.000000000000000000 ) ) ;
#58 = MANIFOLD_SOLID_BREP ( 'Áîáûøêà-Âûòÿíóòü1', #179 ) ;
#59 = LINE ( 'NONE', #101, #30 ) ;
#60 = CARTESIAN_POINT ( 'NONE',  ( 12.50000000000000000, 1.530808498934191521E-15, 4.000000000000000000 ) ) ;
#61 = SURFACE_SIDE_STYLE ('',( #191 ) ) ;
#62 = ORIENTED_EDGE ( 'NONE', *, *, #72, .T. ) ;
#63 = ORIENTED_EDGE ( 'NONE', *, *, #162, .T. ) ;
#64 =( GEOMETRIC_REPRESENTATION_CONTEXT ( 3 ) GLOBAL_UNCERTAINTY_ASSIGNED_CONTEXT ( ( #213 ) ) GLOBAL_UNIT_ASSIGNED_CONTEXT ( ( #50, #11, #103 ) ) REPRESENTATION_CONTEXT ( 'NONE', 'WORKASPACE' ) );
#65 =( LENGTH_UNIT ( ) NAMED_UNIT ( * ) SI_UNIT ( .MILLI., .METRE. ) );
#66 = ORIENTED_EDGE ( 'NONE', *, *, #13, .F. ) ;
#67 = DIRECTION ( 'NONE',  ( 0.000000000000000000, 0.000000000000000000, 1.000000000000000000 ) ) ;
#68 =( GEOMETRIC_REPRESENTATION_CONTEXT ( 3 ) GLOBAL_UNCERTAINTY_ASSIGNED_CONTEXT ( ( #112 ) ) GLOBAL_UNIT_ASSIGNED_CONTEXT ( ( #65, #73, #134 ) ) REPRESENTATION_CONTEXT ( 'NONE', 'WORKASPACE' ) );
#69 = FILL_AREA_STYLE ('',( #182 ) ) ;
#70 = EDGE_CURVE ( 'NONE', #82, #160, #195, .T. ) ;
#71 = CARTESIAN_POINT ( 'NONE',  ( 5.250000000000000000, 6.429395695523604153E-16, 4.000000000000000000 ) ) ;
#72 = EDGE_CURVE ( 'NONE', #211, #122, #190, .T. ) ;
#73 =( NAMED_UNIT ( * ) PLANE_ANGLE_UNIT ( ) SI_UNIT ( $, .RADIAN. ) );
#74 = DIRECTION ( 'NONE',  ( 1.000000000000000000, 0.000000000000000000, 0.000000000000000000 ) ) ;
#75 = AXIS2_PLACEMENT_3D ( 'NONE', #189, #188, #170 ) ;
#76 = ORIENTED_EDGE ( 'NONE', *, *, #132, .T. ) ;
#77 = AXIS2_PLACEMENT_3D ( 'NONE', #109, #186, #85 ) ;
#78 = ORIENTED_EDGE ( 'NONE', *, *, #79, .F. ) ;
#79 = EDGE_CURVE ( 'NONE', #53, #130, #3, .T. ) ;
#80 = PRODUCT_DEFINITION_FORMATION_WITH_SPECIFIED_SOURCE ( 'ANY', '', #25, .NOT_KNOWN. ) ;
#81 = CYLINDRICAL_SURFACE ( 'NONE', #77, 5.250000000000000000 ) ;
#82 = VERTEX_POINT ( 'NONE', #168 ) ;
#83 = DIRECTION ( 'NONE',  ( -0.000000000000000000, -0.000000000000000000, -1.000000000000000000 ) ) ;
#84 = DIRECTION ( 'NONE',  ( 1.000000000000000000, 0.000000000000000000, -0.000000000000000000 ) ) ;
#85 = DIRECTION ( 'NONE',  ( -1.000000000000000000, 0.000000000000000000, 0.000000000000000000 ) ) ;
#86 = DIRECTION ( 'NONE',  ( 0.000000000000000000, 0.000000000000000000, 1.000000000000000000 ) ) ;
#87 = DIRECTION ( 'NONE',  ( -0.000000000000000000, -0.000000000000000000, -1.000000000000000000 ) ) ;
#88 = DIRECTION ( 'NONE',  ( -0.000000000000000000, -0.000000000000000000, -1.000000000000000000 ) ) ;
#89 = DIRECTION ( 'NONE',  ( 1.000000000000000000, 0.000000000000000000, 0.000000000000000000 ) ) ;
#90 = ORIENTED_EDGE ( 'NONE', *, *, #9, .T. ) ;
#91 = AXIS2_PLACEMENT_3D ( 'NONE', #24, #95, #164 ) ;
#92 = AXIS2_PLACEMENT_3D ( 'NONE', #187, #86, #89 ) ;
#93 = SURFACE_STYLE_USAGE ( .BOTH. , #61 ) ;
#94 = SURFACE_SIDE_STYLE ('',( #131 ) ) ;
#95 = DIRECTION ( 'NONE',  ( 0.000000000000000000, 0.000000000000000000, 1.000000000000000000 ) ) ;
#96 = CARTESIAN_POINT ( 'NONE',  ( -12.50000000000000000, 0.000000000000000000, 4.000000000000000000 ) ) ;
#97 = EDGE_LOOP ( 'NONE', ( #126, #90 ) ) ;
#98 = CARTESIAN_POINT ( 'NONE',  ( 5.250000000000000000, 6.429395695523604153E-16, 4.000000000000000000 ) ) ;
#99 = DIRECTION ( 'NONE',  ( 0.000000000000000000, 0.000000000000000000, 1.000000000000000000 ) ) ;
#100 = CARTESIAN_POINT ( 'NONE',  ( 0.000000000000000000, 0.000000000000000000, 4.000000000000000000 ) ) ;
#101 = CARTESIAN_POINT ( 'NONE',  ( 12.50000000000000000, 1.530808498934191521E-15, 4.000000000000000000 ) ) ;
#102 = EDGE_CURVE ( 'NONE', #211, #53, #136, .T. ) ;
#103 =( NAMED_UNIT ( * ) SI_UNIT ( $, .STERADIAN. ) SOLID_ANGLE_UNIT ( ) );
#104 = DIRECTION ( 'NONE',  ( 0.000000000000000000, 0.000000000000000000, 1.000000000000000000 ) ) ;
#105 = VECTOR ( 'NONE', #135, 1000.000000000000000 ) ;
#106 = CARTESIAN_POINT ( 'NONE',  ( 0.000000000000000000, 0.000000000000000000, 0.000000000000000000 ) ) ;
#107 = AXIS2_PLACEMENT_3D ( 'NONE', #40, #99, #33 ) ;
#108 = ORIENTED_EDGE ( 'NONE', *, *, #178, .F. ) ;
#109 = CARTESIAN_POINT ( 'NONE',  ( 0.000000000000000000, 0.000000000000000000, 4.000000000000000000 ) ) ;
#110 = UNCERTAINTY_MEASURE_WITH_UNIT (LENGTH_MEASURE( 1.000000000000000082E-05 ), #45, 'distance_accuracy_value', 'NONE');
#111 = SURFACE_STYLE_USAGE ( .BOTH. , #94 ) ;
#112 = UNCERTAINTY_MEASURE_WITH_UNIT (LENGTH_MEASURE( 1.000000000000000082E-05 ), #65, 'distance_accuracy_value', 'NONE');
#113 = CARTESIAN_POINT ( 'NONE',  ( 0.000000000000000000, 0.000000000000000000, 4.000000000000000000 ) ) ;
#114 = CYLINDRICAL_SURFACE ( 'NONE', #148, 12.50000000000000000 ) ;
#115 = ADVANCED_BREP_SHAPE_REPRESENTATION ( 'FO-00D-WF-M10-020 FORMAT \X2\04280430043904310430\X0\ \X2\041c\X0\10 \X2\044304410438043b0435043d\X0\. \X2\044304320435043b043804470435043d\X0\. DIN7349 (20\X2\04480442\X0\_\X2\0443043f0430043a\X0\) IEK', ( #58, #125 ), #158 ) ;
#116 = DIRECTION ( 'NONE',  ( 1.000000000000000000, 0.000000000000000000, 0.000000000000000000 ) ) ;
#117 = CARTESIAN_POINT ( 'NONE',  ( -5.250000000000000000, 0.000000000000000000, 4.000000000000000000 ) ) ;
#118 = COLOUR_RGB ( '',1.000000000000000000, 1.000000000000000000, 1.000000000000000000 ) ;
#119 = AXIS2_PLACEMENT_3D ( 'NONE', #57, #32, #74 ) ;
#120 = CARTESIAN_POINT ( 'NONE',  ( 0.000000000000000000, 0.000000000000000000, 4.000000000000000000 ) ) ;
#121 = APPLICATION_PROTOCOL_DEFINITION ( 'draft international standard', 'automotive_design', 1998, #150 ) ;
#122 = VERTEX_POINT ( 'NONE', #117 ) ;
#123 =( NAMED_UNIT ( * ) SI_UNIT ( $, .STERADIAN. ) SOLID_ANGLE_UNIT ( ) );
#124 = ORIENTED_EDGE ( 'NONE', *, *, #70, .T. ) ;
#125 = AXIS2_PLACEMENT_3D ( 'NONE', #106, #104, #12 ) ;
#126 = ORIENTED_EDGE ( 'NONE', *, *, #202, .T. ) ;
#127 = FACE_BOUND ( 'NONE', #43, .T. ) ;
#128 = CIRCLE ( 'NONE', #138, 12.50000000000000000 ) ;
#129 = STYLED_ITEM ( 'NONE', ( #199 ), #58 ) ;
#130 = VERTEX_POINT ( 'NONE', #133 ) ;
#131 = SURFACE_STYLE_FILL_AREA ( #69 ) ;
#132 = EDGE_CURVE ( 'NONE', #23, #82, #206, .T. ) ;
#133 = CARTESIAN_POINT ( 'NONE',  ( -5.250000000000000000, 0.000000000000000000, 0.000000000000000000 ) ) ;
#134 =( NAMED_UNIT ( * ) SI_UNIT ( $, .STERADIAN. ) SOLID_ANGLE_UNIT ( ) );
#135 = DIRECTION ( 'NONE',  ( -0.000000000000000000, -0.000000000000000000, -1.000000000000000000 ) ) ;
#136 = LINE ( 'NONE', #71, #38 ) ;
#137 = FACE_BOUND ( 'NONE', #146, .T. ) ;
#138 = AXIS2_PLACEMENT_3D ( 'NONE', #120, #175, #156 ) ;
#139 = CIRCLE ( 'NONE', #75, 5.250000000000000000 ) ;
#140 = ORIENTED_EDGE ( 'NONE', *, *, #52, .F. ) ;
#141 = PRODUCT_CONTEXT ( 'NONE', #150, 'mechanical' ) ;
#142 = ORIENTED_EDGE ( 'NONE', *, *, #171, .F. ) ;
#143 = VERTEX_POINT ( 'NONE', #60 ) ;
#144 = ORIENTED_EDGE ( 'NONE', *, *, #202, .F. ) ;
#145 = DIRECTION ( 'NONE',  ( 0.000000000000000000, 0.000000000000000000, 1.000000000000000000 ) ) ;
#146 = EDGE_LOOP ( 'NONE', ( #140, #212 ) ) ;
#147 = DIRECTION ( 'NONE',  ( -0.000000000000000000, -0.000000000000000000, -1.000000000000000000 ) ) ;
#148 = AXIS2_PLACEMENT_3D ( 'NONE', #31, #87, #46 ) ;
#149 = DIRECTION ( 'NONE',  ( 1.000000000000000000, 0.000000000000000000, 0.000000000000000000 ) ) ;
#150 = APPLICATION_CONTEXT ( 'automotive_design' ) ;
#151 = ADVANCED_FACE ( 'NONE', ( #49 ), #114, .T. ) ;
#152 = DIRECTION ( 'NONE',  ( 0.000000000000000000, 0.000000000000000000, 1.000000000000000000 ) ) ;
#153 = CIRCLE ( 'NONE', #17, 5.250000000000000000 ) ;
#154 = CARTESIAN_POINT ( 'NONE',  ( 0.000000000000000000, 0.000000000000000000, 0.000000000000000000 ) ) ;
#155 = ADVANCED_FACE ( 'NONE', ( #174, #137 ), #47, .T. ) ;
#156 = DIRECTION ( 'NONE',  ( 1.000000000000000000, 0.000000000000000000, 0.000000000000000000 ) ) ;
#157 = DIRECTION ( 'NONE',  ( -1.000000000000000000, 0.000000000000000000, 0.000000000000000000 ) ) ;
#158 =( GEOMETRIC_REPRESENTATION_CONTEXT ( 3 ) GLOBAL_UNCERTAINTY_ASSIGNED_CONTEXT ( ( #110 ) ) GLOBAL_UNIT_ASSIGNED_CONTEXT ( ( #45, #169, #123 ) ) REPRESENTATION_CONTEXT ( 'NONE', 'WORKASPACE' ) );
#159 = APPLICATION_CONTEXT ( 'automotive_design' ) ;
#160 = VERTEX_POINT ( 'NONE', #56 ) ;
#161 = MECHANICAL_DESIGN_GEOMETRIC_PRESENTATION_REPRESENTATION (  '', ( #129 ), #68 ) ;
#162 = EDGE_CURVE ( 'NONE', #160, #82, #28, .T. ) ;
#163 = ORIENTED_EDGE ( 'NONE', *, *, #70, .F. ) ;
#164 = DIRECTION ( 'NONE',  ( 1.000000000000000000, 0.000000000000000000, 0.000000000000000000 ) ) ;
#165 = ORIENTED_EDGE ( 'NONE', *, *, #52, .T. ) ;
#166 = FACE_OUTER_BOUND ( 'NONE', #181, .T. ) ;
#167 = LINE ( 'NONE', #196, #172 ) ;
#168 = CARTESIAN_POINT ( 'NONE',  ( -12.50000000000000000, 0.000000000000000000, 0.000000000000000000 ) ) ;
#169 =( NAMED_UNIT ( * ) PLANE_ANGLE_UNIT ( ) SI_UNIT ( $, .RADIAN. ) );
#170 = DIRECTION ( 'NONE',  ( 1.000000000000000000, 0.000000000000000000, 0.000000000000000000 ) ) ;
#171 = EDGE_CURVE ( 'NONE', #130, #53, #139, .T. ) ;
#172 = VECTOR ( 'NONE', #83, 1000.000000000000000 ) ;
#173 = EDGE_LOOP ( 'NONE', ( #14, #62, #5, #78 ) ) ;
#174 = FACE_OUTER_BOUND ( 'NONE', #97, .T. ) ;
#175 = DIRECTION ( 'NONE',  ( 0.000000000000000000, 0.000000000000000000, 1.000000000000000000 ) ) ;
#176 = APPLICATION_PROTOCOL_DEFINITION ( 'draft international standard', 'automotive_design', 1998, #159 ) ;
#177 = ORIENTED_EDGE ( 'NONE', *, *, #162, .F. ) ;
#178 = EDGE_CURVE ( 'NONE', #143, #160, #59, .T. ) ;
#179 = CLOSED_SHELL ( 'NONE', ( #210, #151, #155, #37, #19, #15 ) ) ;
#180 = PRODUCT_DEFINITION_SHAPE ( 'NONE', 'NONE',  #55 ) ;
#181 = EDGE_LOOP ( 'NONE', ( #108, #144, #76, #124 ) ) ;
#182 = FILL_AREA_STYLE_COLOUR ( '', #118 ) ;
#183 = COLOUR_RGB ( '',1.000000000000000000, 1.000000000000000000, 1.000000000000000000 ) ;
#184 = PRESENTATION_LAYER_ASSIGNMENT (  '', '', ( #129 ) ) ;
#185 = EDGE_LOOP ( 'NONE', ( #163, #177 ) ) ;
#186 = DIRECTION ( 'NONE',  ( -0.000000000000000000, -0.000000000000000000, -1.000000000000000000 ) ) ;
#187 = CARTESIAN_POINT ( 'NONE',  ( 0.000000000000000000, 0.000000000000000000, 4.000000000000000000 ) ) ;
#188 = DIRECTION ( 'NONE',  ( 0.000000000000000000, 0.000000000000000000, 1.000000000000000000 ) ) ;
#189 = CARTESIAN_POINT ( 'NONE',  ( 0.000000000000000000, 0.000000000000000000, 0.000000000000000000 ) ) ;
#190 = CIRCLE ( 'NONE', #92, 5.250000000000000000 ) ;
#191 = SURFACE_STYLE_FILL_AREA ( #207 ) ;
#192 = PRESENTATION_STYLE_ASSIGNMENT (( #93 ) ) ;
#193 = PRESENTATION_LAYER_ASSIGNMENT (  '', '', ( #29 ) ) ;
#194 = ORIENTED_EDGE ( 'NONE', *, *, #102, .T. ) ;
#195 = CIRCLE ( 'NONE', #107, 12.50000000000000000 ) ;
#196 = CARTESIAN_POINT ( 'NONE',  ( -5.250000000000000000, 0.000000000000000000, 4.000000000000000000 ) ) ;
#197 = CYLINDRICAL_SURFACE ( 'NONE', #209, 12.50000000000000000 ) ;
#198 = ORIENTED_EDGE ( 'NONE', *, *, #178, .T. ) ;
#199 = PRESENTATION_STYLE_ASSIGNMENT (( #111 ) ) ;
#200 = DIRECTION ( 'NONE',  ( 1.000000000000000000, 0.000000000000000000, -0.000000000000000000 ) ) ;
#201 = DIRECTION ( 'NONE',  ( 0.000000000000000000, 0.000000000000000000, 1.000000000000000000 ) ) ;
#202 = EDGE_CURVE ( 'NONE', #23, #143, #128, .T. ) ;
#203 = CYLINDRICAL_SURFACE ( 'NONE', #205, 5.250000000000000000 ) ;
#204 = DIRECTION ( 'NONE',  ( -0.000000000000000000, -0.000000000000000000, -1.000000000000000000 ) ) ;
#205 = AXIS2_PLACEMENT_3D ( 'NONE', #34, #88, #157 ) ;
#206 = LINE ( 'NONE', #7, #105 ) ;
#207 = FILL_AREA_STYLE ('',( #51 ) ) ;
#208 = ORIENTED_EDGE ( 'NONE', *, *, #9, .F. ) ;
#209 = AXIS2_PLACEMENT_3D ( 'NONE', #22, #147, #214 ) ;
#210 = ADVANCED_FACE ( 'NONE', ( #8 ), #203, .F. ) ;
#211 = VERTEX_POINT ( 'NONE', #98 ) ;
#212 = ORIENTED_EDGE ( 'NONE', *, *, #72, .F. ) ;
#213 = UNCERTAINTY_MEASURE_WITH_UNIT (LENGTH_MEASURE( 1.000000000000000082E-05 ), #50, 'distance_accuracy_value', 'NONE');
#214 = DIRECTION ( 'NONE',  ( -1.000000000000000000, 0.000000000000000000, 0.000000000000000000 ) ) ;
ENDSEC;
END-ISO-10303-21;
