ISO-10303-21;
HEADER;
FILE_DESCRIPTION (( 'STEP AP203' ),
    '1' );
FILE_NAME ('CTR10-040-K02-100-1 Òðóáà ãëàäêàÿ æåñòêàÿ ÏÍÄ d40 ÈÝÊ ÷åðíàÿ (100ì).STEP',
    '2016-05-17T06:40:51',
    ( '' ),
    ( '' ),
    'SwSTEP 2.0',
    'SolidWorks 2014',
    '' );
FILE_SCHEMA (( 'CONFIG_CONTROL_DESIGN' ));
ENDSEC;

DATA;
#1 = AXIS2_PLACEMENT_3D ( 'NONE', #97, #14, #145 ) ;
#2 = ORIENTED_EDGE ( 'NONE', *, *, #46, .T. ) ;
#3 = DIRECTION ( 'NONE',  ( 0.0000000000000000000, 0.0000000000000000000, 1.000000000000000000 ) ) ;
#4 = EDGE_LOOP ( 'NONE', ( #91 ) ) ;
#5 = COORDINATED_UNIVERSAL_TIME_OFFSET ( 3, 0, .AHEAD. ) ;
#6 = EDGE_LOOP ( 'NONE', ( #138 ) ) ;
#7 =( GEOMETRIC_REPRESENTATION_CONTEXT ( 3 ) GLOBAL_UNCERTAINTY_ASSIGNED_CONTEXT ( ( #127 ) ) GLOBAL_UNIT_ASSIGNED_CONTEXT ( ( #126, #141, #24 ) ) REPRESENTATION_CONTEXT ( 'NONE', 'WORKASPACE' ) );
#8 = EDGE_LOOP ( 'NONE', ( #162 ) ) ;
#9 = DIRECTION ( 'NONE',  ( 1.000000000000000000, 0.0000000000000000000, 0.0000000000000000000 ) ) ;
#10 = ORGANIZATION ( 'UNSPECIFIED', 'UNSPECIFIED', '' ) ;
#11 = CIRCLE ( 'NONE', #39, 17.60000000000000100 ) ;
#12 = PLANE ( 'NONE',  #21 ) ;
#13 = COORDINATED_UNIVERSAL_TIME_OFFSET ( 3, 0, .AHEAD. ) ;
#14 = DIRECTION ( 'NONE',  ( -0.0000000000000000000, -0.0000000000000000000, -1.000000000000000000 ) ) ;
#15 = DATE_AND_TIME ( #139, #71 ) ;
#16 = FACE_OUTER_BOUND ( 'NONE', #156, .T. ) ;
#17 = PERSON_AND_ORGANIZATION ( #102, #10 ) ;
#18 = CARTESIAN_POINT ( 'NONE',  ( 0.0000000000000000000, 0.0000000000000000000, 2000.000000000000000 ) ) ;
#19 = CYLINDRICAL_SURFACE ( 'NONE', #1, 20.00000000000000000 ) ;
#20 = DATE_AND_TIME ( #52, #158 ) ;
#21 = AXIS2_PLACEMENT_3D ( 'NONE', #58, #133, #124 ) ;
#22 = LOCAL_TIME ( 9, 40, 51.00000000000000000, #38 ) ;
#23 = AXIS2_PLACEMENT_3D ( 'NONE', #74, #80, #83 ) ;
#24 =( NAMED_UNIT ( * ) SI_UNIT ( $, .STERADIAN. ) SOLID_ANGLE_UNIT ( ) );
#25 = AXIS2_PLACEMENT_3D ( 'NONE', #132, #131, #37 ) ;
#26 = PERSON_AND_ORGANIZATION_ROLE ( 'design_owner' ) ;
#27 = PLANE ( 'NONE',  #33 ) ;
#28 = FACE_OUTER_BOUND ( 'NONE', #123, .T. ) ;
#29 = PERSON_AND_ORGANIZATION_ROLE ( 'creator' ) ;
#30 = APPROVAL_DATE_TIME ( #15, #57 ) ;
#31 = DIRECTION ( 'NONE',  ( 0.0000000000000000000, 0.0000000000000000000, 1.000000000000000000 ) ) ;
#32 = AXIS2_PLACEMENT_3D ( 'NONE', #75, #79, #76 ) ;
#33 = AXIS2_PLACEMENT_3D ( 'NONE', #42, #3, #169 ) ;
#34 = APPLICATION_CONTEXT ( 'configuration controlled 3d designs of mechanical parts and assemblies' ) ;
#35 = PERSON_AND_ORGANIZATION ( #102, #10 ) ;
#36 = AXIS2_PLACEMENT_3D ( 'NONE', #87, #107, #81 ) ;
#37 = DIRECTION ( 'NONE',  ( 1.000000000000000000, 0.0000000000000000000, 0.0000000000000000000 ) ) ;
#38 = COORDINATED_UNIVERSAL_TIME_OFFSET ( 3, 0, .AHEAD. ) ;
#39 = AXIS2_PLACEMENT_3D ( 'NONE', #18, #41, #9 ) ;
#40 = APPROVAL_STATUS ( 'not_yet_approved' ) ;
#41 = DIRECTION ( 'NONE',  ( 0.0000000000000000000, 0.0000000000000000000, 1.000000000000000000 ) ) ;
#42 = CARTESIAN_POINT ( 'NONE',  ( 0.0000000000000000000, 0.0000000000000000000, 0.0000000000000000000 ) ) ;
#43 = ORIENTED_EDGE ( 'NONE', *, *, #54, .T. ) ;
#44 = ORIENTED_EDGE ( 'NONE', *, *, #54, .F. ) ;
#45 = VERTEX_POINT ( 'NONE', #68 ) ;
#46 = EDGE_CURVE ( 'NONE', #125, #125, #11, .T. ) ;
#47 = ADVANCED_FACE ( 'NONE', ( #28, #142 ), #27, .F. ) ;
#48 = CALENDAR_DATE ( 2016, 17, 5 ) ;
#49 = PERSON_AND_ORGANIZATION ( #102, #10 ) ;
#50 = EDGE_CURVE ( 'NONE', #45, #45, #89, .T. ) ;
#51 = DESIGN_CONTEXT ( 'detailed design', #34, 'design' ) ;
#52 = CALENDAR_DATE ( 2016, 17, 5 ) ;
#53 = EDGE_LOOP ( 'NONE', ( #2 ) ) ;
#54 = EDGE_CURVE ( 'NONE', #88, #88, #152, .T. ) ;
#55 = COORDINATED_UNIVERSAL_TIME_OFFSET ( 3, 0, .AHEAD. ) ;
#56 = SECURITY_CLASSIFICATION ( '', '', #168 ) ;
#57 = APPROVAL ( #40, 'UNSPECIFIED' ) ;
#58 = CARTESIAN_POINT ( 'NONE',  ( 0.0000000000000000000, 0.0000000000000000000, 2000.000000000000000 ) ) ;
#59 = PERSON_AND_ORGANIZATION ( #102, #10 ) ;
#60 = CC_DESIGN_PERSON_AND_ORGANIZATION_ASSIGNMENT ( #67, #150, ( #93 ) ) ;
#61 = EDGE_LOOP ( 'NONE', ( #147 ) ) ;
#62 = CARTESIAN_POINT ( 'NONE',  ( 0.0000000000000000000, 0.0000000000000000000, 0.0000000000000000000 ) ) ;
#63 = MANIFOLD_SOLID_BREP ( 'Áîáûøêà-Âûòÿíóòü1', #143 ) ;
#64 = APPROVAL ( #148, 'UNSPECIFIED' ) ;
#65 = ADVANCED_FACE ( 'NONE', ( #85, #78 ), #114, .F. ) ;
#66 = CC_DESIGN_APPROVAL ( #108, ( #56 ) ) ;
#67 = PERSON_AND_ORGANIZATION ( #102, #10 ) ;
#68 = CARTESIAN_POINT ( 'NONE',  ( 17.60000000000000100, 0.0000000000000000000, 0.0000000000000000000 ) ) ;
#69 = PRODUCT_RELATED_PRODUCT_CATEGORY ( 'detail', '', ( #154 ) ) ;
#70 = CARTESIAN_POINT ( 'NONE',  ( 17.60000000000000100, 0.0000000000000000000, 2000.000000000000000 ) ) ;
#71 = LOCAL_TIME ( 9, 40, 51.00000000000000000, #5 ) ;
#72 = EDGE_CURVE ( 'NONE', #112, #112, #155, .T. ) ;
#73 = APPROVAL_PERSON_ORGANIZATION ( #35, #57, #140 ) ;
#74 = CARTESIAN_POINT ( 'NONE',  ( 0.0000000000000000000, 0.0000000000000000000, 2000.000000000000000 ) ) ;
#75 = CARTESIAN_POINT ( 'NONE',  ( 0.0000000000000000000, 0.0000000000000000000, 2000.000000000000000 ) ) ;
#76 = DIRECTION ( 'NONE',  ( 1.000000000000000000, 0.0000000000000000000, 0.0000000000000000000 ) ) ;
#77 = APPROVAL_DATE_TIME ( #164, #64 ) ;
#78 = FACE_OUTER_BOUND ( 'NONE', #4, .T. ) ;
#79 = DIRECTION ( 'NONE',  ( 0.0000000000000000000, 0.0000000000000000000, 1.000000000000000000 ) ) ;
#80 = DIRECTION ( 'NONE',  ( -0.0000000000000000000, -0.0000000000000000000, -1.000000000000000000 ) ) ;
#81 = DIRECTION ( 'NONE',  ( 1.000000000000000000, 0.0000000000000000000, 0.0000000000000000000 ) ) ;
#82 = LOCAL_TIME ( 9, 40, 51.00000000000000000, #13 ) ;
#83 = DIRECTION ( 'NONE',  ( -1.000000000000000000, 0.0000000000000000000, 0.0000000000000000000 ) ) ;
#84 = SHAPE_DEFINITION_REPRESENTATION ( #146, #153 ) ;
#85 = FACE_OUTER_BOUND ( 'NONE', #53, .T. ) ;
#86 = PERSON_AND_ORGANIZATION_ROLE ( 'classification_officer' ) ;
#87 = CARTESIAN_POINT ( 'NONE',  ( 0.0000000000000000000, 0.0000000000000000000, 0.0000000000000000000 ) ) ;
#88 = VERTEX_POINT ( 'NONE', #96 ) ;
#89 = CIRCLE ( 'NONE', #36, 17.60000000000000100 ) ;
#90 = AXIS2_PLACEMENT_3D ( 'NONE', #62, #31, #119 ) ;
#91 = ORIENTED_EDGE ( 'NONE', *, *, #50, .F. ) ;
#92 = FACE_BOUND ( 'NONE', #8, .T. ) ;
#93 = PRODUCT_DEFINITION_FORMATION_WITH_SPECIFIED_SOURCE ( 'ANY', '', #154, .NOT_KNOWN. ) ;
#94 = ADVANCED_FACE ( 'NONE', ( #16, #92 ), #12, .T. ) ;
#95 = CC_DESIGN_PERSON_AND_ORGANIZATION_ASSIGNMENT ( #167, #29, ( #93 ) ) ;
#96 = CARTESIAN_POINT ( 'NONE',  ( 20.00000000000000000, 0.0000000000000000000, 2000.000000000000000 ) ) ;
#97 = CARTESIAN_POINT ( 'NONE',  ( 0.0000000000000000000, 0.0000000000000000000, 2000.000000000000000 ) ) ;
#98 = CC_DESIGN_PERSON_AND_ORGANIZATION_ASSIGNMENT ( #118, #165, ( #117 ) ) ;
#99 = CARTESIAN_POINT ( 'NONE',  ( 20.00000000000000000, 0.0000000000000000000, 0.0000000000000000000 ) ) ;
#100 = APPROVAL_PERSON_ORGANIZATION ( #130, #108, #160 ) ;
#101 = CC_DESIGN_APPROVAL ( #64, ( #117 ) ) ;
#102 = PERSON ( 'UNSPECIFIED', 'UNSPECIFIED', 'UNSPECIFIED', ('UNSPECIFIED'), ('UNSPECIFIED'), ('UNSPECIFIED') ) ;
#103 = CALENDAR_DATE ( 2016, 17, 5 ) ;
#104 = APPLICATION_PROTOCOL_DEFINITION ( 'international standard', 'config_control_design', 1994, #34 ) ;
#105 = CC_DESIGN_DATE_AND_TIME_ASSIGNMENT ( #135, #106, ( #56 ) ) ;
#106 = DATE_TIME_ROLE ( 'classification_date' ) ;
#107 = DIRECTION ( 'NONE',  ( 0.0000000000000000000, 0.0000000000000000000, 1.000000000000000000 ) ) ;
#108 = APPROVAL ( #166, 'UNSPECIFIED' ) ;
#109 = CC_DESIGN_DATE_AND_TIME_ASSIGNMENT ( #115, #159, ( #117 ) ) ;
#110 = MECHANICAL_CONTEXT ( 'NONE', #144, 'mechanical' ) ;
#111 = FACE_OUTER_BOUND ( 'NONE', #6, .T. ) ;
#112 = VERTEX_POINT ( 'NONE', #99 ) ;
#113 = EDGE_LOOP ( 'NONE', ( #44 ) ) ;
#114 = CYLINDRICAL_SURFACE ( 'NONE', #23, 17.60000000000000100 ) ;
#115 = DATE_AND_TIME ( #116, #82 ) ;
#116 = CALENDAR_DATE ( 2016, 17, 5 ) ;
#117 = PRODUCT_DEFINITION ( 'UNKNOWN', '', #93, #51 ) ;
#118 = PERSON_AND_ORGANIZATION ( #102, #10 ) ;
#119 = DIRECTION ( 'NONE',  ( 1.000000000000000000, 0.0000000000000000000, 0.0000000000000000000 ) ) ;
#120 = FACE_OUTER_BOUND ( 'NONE', #113, .T. ) ;
#121 = CC_DESIGN_PERSON_AND_ORGANIZATION_ASSIGNMENT ( #17, #26, ( #154 ) ) ;
#122 = CC_DESIGN_APPROVAL ( #57, ( #93 ) ) ;
#123 = EDGE_LOOP ( 'NONE', ( #149 ) ) ;
#124 = DIRECTION ( 'NONE',  ( 1.000000000000000000, 0.0000000000000000000, -0.0000000000000000000 ) ) ;
#125 = VERTEX_POINT ( 'NONE', #70 ) ;
#126 =( LENGTH_UNIT ( ) NAMED_UNIT ( * ) SI_UNIT ( .MILLI., .METRE. ) );
#127 = UNCERTAINTY_MEASURE_WITH_UNIT (LENGTH_MEASURE( 1.000000000000000100E-005 ), #126, 'distance_accuracy_value', 'NONE');
#128 = CC_DESIGN_PERSON_AND_ORGANIZATION_ASSIGNMENT ( #59, #86, ( #56 ) ) ;
#129 = APPLICATION_PROTOCOL_DEFINITION ( 'international standard', 'config_control_design', 1994, #144 ) ;
#130 = PERSON_AND_ORGANIZATION ( #102, #10 ) ;
#131 = DIRECTION ( 'NONE',  ( 0.0000000000000000000, 0.0000000000000000000, 1.000000000000000000 ) ) ;
#132 = CARTESIAN_POINT ( 'NONE',  ( 0.0000000000000000000, 0.0000000000000000000, 0.0000000000000000000 ) ) ;
#133 = DIRECTION ( 'NONE',  ( 0.0000000000000000000, 0.0000000000000000000, 1.000000000000000000 ) ) ;
#134 = COORDINATED_UNIVERSAL_TIME_OFFSET ( 3, 0, .AHEAD. ) ;
#135 = DATE_AND_TIME ( #103, #163 ) ;
#136 = CC_DESIGN_SECURITY_CLASSIFICATION ( #56, ( #93 ) ) ;
#137 = APPROVAL_PERSON_ORGANIZATION ( #49, #64, #157 ) ;
#138 = ORIENTED_EDGE ( 'NONE', *, *, #72, .T. ) ;
#139 = CALENDAR_DATE ( 2016, 17, 5 ) ;
#140 = APPROVAL_ROLE ( '' ) ;
#141 =( NAMED_UNIT ( * ) PLANE_ANGLE_UNIT ( ) SI_UNIT ( $, .RADIAN. ) );
#142 = FACE_BOUND ( 'NONE', #61, .T. ) ;
#143 = CLOSED_SHELL ( 'NONE', ( #94, #47, #161, #65 ) ) ;
#144 = APPLICATION_CONTEXT ( 'configuration controlled 3d designs of mechanical parts and assemblies' ) ;
#145 = DIRECTION ( 'NONE',  ( -1.000000000000000000, 0.0000000000000000000, 0.0000000000000000000 ) ) ;
#146 = PRODUCT_DEFINITION_SHAPE ( 'NONE', 'NONE',  #117 ) ;
#147 = ORIENTED_EDGE ( 'NONE', *, *, #50, .T. ) ;
#148 = APPROVAL_STATUS ( 'not_yet_approved' ) ;
#149 = ORIENTED_EDGE ( 'NONE', *, *, #72, .F. ) ;
#150 = PERSON_AND_ORGANIZATION_ROLE ( 'design_supplier' ) ;
#151 = APPROVAL_DATE_TIME ( #20, #108 ) ;
#152 = CIRCLE ( 'NONE', #32, 20.00000000000000000 ) ;
#153 = ADVANCED_BREP_SHAPE_REPRESENTATION ( 'CTR10-040-K02-100-1 T¨ºñð óûðôúð  öõ¸ªúð  ¦=- d40 L¦¦ ¢õ¨ýð  (100ü)', ( #63, #90 ), #7 ) ;
#154 = PRODUCT ( 'CTR10-040-K02-100-1 Òðóáà ãëàäêàÿ æåñòêàÿ ÏÍÄ d40 ÈÝÊ ÷åðíàÿ (100ì)', 'CTR10-040-K02-100-1 Òðóáà ãëàäêàÿ æåñòêàÿ ÏÍÄ d40 ÈÝÊ ÷åðíàÿ (100ì)', '', ( #110 ) ) ;
#155 = CIRCLE ( 'NONE', #25, 20.00000000000000000 ) ;
#156 = EDGE_LOOP ( 'NONE', ( #43 ) ) ;
#157 = APPROVAL_ROLE ( '' ) ;
#158 = LOCAL_TIME ( 9, 40, 51.00000000000000000, #55 ) ;
#159 = DATE_TIME_ROLE ( 'creation_date' ) ;
#160 = APPROVAL_ROLE ( '' ) ;
#161 = ADVANCED_FACE ( 'NONE', ( #120, #111 ), #19, .T. ) ;
#162 = ORIENTED_EDGE ( 'NONE', *, *, #46, .F. ) ;
#163 = LOCAL_TIME ( 9, 40, 51.00000000000000000, #134 ) ;
#164 = DATE_AND_TIME ( #48, #22 ) ;
#165 = PERSON_AND_ORGANIZATION_ROLE ( 'creator' ) ;
#166 = APPROVAL_STATUS ( 'not_yet_approved' ) ;
#167 = PERSON_AND_ORGANIZATION ( #102, #10 ) ;
#168 = SECURITY_CLASSIFICATION_LEVEL ( 'unclassified' ) ;
#169 = DIRECTION ( 'NONE',  ( 1.000000000000000000, 0.0000000000000000000, -0.0000000000000000000 ) ) ;
ENDSEC;
END-ISO-10303-21;
