ISO-10303-21;
HEADER;
FILE_DESCRIPTION (( 'STEP AP203' ),
    '1' );
FILE_NAME ('CLP1K-050-3-M-HDZ Êðûøêà íà ëîòîê îñí. 050 IEK HDZ.STEP',
    '2016-02-05T12:06:16',
    ( '' ),
    ( '' ),
    'SwSTEP 2.0',
    'SolidWorks 2014',
    '' );
FILE_SCHEMA (( 'CONFIG_CONTROL_DESIGN' ));
ENDSEC;

DATA;
#1 = ORIENTED_EDGE ( 'NONE', *, *, #142, .T. ) ;
#2 = LINE ( 'NONE', #328, #294 ) ;
#3 = CARTESIAN_POINT ( 'NONE',  ( 1492.500000000000000, -16.14999999999999900, 49.70000000000006000 ) ) ;
#4 = EDGE_CURVE ( 'NONE', #214, #293, #357, .T. ) ;
#5 = VECTOR ( 'NONE', #303, 1000.000000000000000 ) ;
#6 = DIRECTION ( 'NONE',  ( 1.000000000000000000, 0.0000000000000000000, 0.0000000000000000000 ) ) ;
#7 = VERTEX_POINT ( 'NONE', #193 ) ;
#8 = VERTEX_POINT ( 'NONE', #30 ) ;
#9 = DIRECTION ( 'NONE',  ( 1.000000000000000000, -0.0000000000000000000, -0.0000000000000000000 ) ) ;
#10 = CC_DESIGN_DATE_AND_TIME_ASSIGNMENT ( #29, #203, ( #335 ) ) ;
#11 = EDGE_CURVE ( 'NONE', #351, #124, #2, .T. ) ;
#12 = ORIENTED_EDGE ( 'NONE', *, *, #217, .F. ) ;
#13 = ORIENTED_EDGE ( 'NONE', *, *, #104, .F. ) ;
#14 = DIRECTION ( 'NONE',  ( 0.0000000000000000000, -1.000000000000000000, 3.437222986455592900E-015 ) ) ;
#15 =( GEOMETRIC_REPRESENTATION_CONTEXT ( 3 ) GLOBAL_UNCERTAINTY_ASSIGNED_CONTEXT ( ( #18 ) ) GLOBAL_UNIT_ASSIGNED_CONTEXT ( ( #115, #226, #60 ) ) REPRESENTATION_CONTEXT ( 'NONE', 'WORKASPACE' ) );
#16 = VECTOR ( 'NONE', #14, 1000.000000000000000 ) ;
#17 = CARTESIAN_POINT ( 'NONE',  ( -1492.500000000000000, 0.6999999999999999600, 48.00000000000000000 ) ) ;
#18 = UNCERTAINTY_MEASURE_WITH_UNIT (LENGTH_MEASURE( 1.000000000000000100E-005 ), #115, 'distance_accuracy_value', 'NONE');
#19 = LINE ( 'NONE', #270, #162 ) ;
#20 = CARTESIAN_POINT ( 'NONE',  ( 1492.500000000000000, -16.14999999999999900, -1.700000000000056600 ) ) ;
#21 = CARTESIAN_POINT ( 'NONE',  ( 1492.500000000000000, 0.6999999999999999600, 48.00000000000000000 ) ) ;
#22 = VECTOR ( 'NONE', #85, 1000.000000000000000 ) ;
#23 = DIRECTION ( 'NONE',  ( 1.000000000000000000, 0.0000000000000000000, 0.0000000000000000000 ) ) ;
#24 = ORIENTED_EDGE ( 'NONE', *, *, #310, .F. ) ;
#25 = ADVANCED_FACE ( 'NONE', ( #218 ), #179, .T. ) ;
#26 = DIRECTION ( 'NONE',  ( 0.0000000000000000000, -3.491481338843133400E-015, 1.000000000000000000 ) ) ;
#27 = APPROVAL ( #40, 'UNSPECIFIED' ) ;
#28 = LINE ( 'NONE', #87, #316 ) ;
#29 = DATE_AND_TIME ( #101, #171 ) ;
#30 = CARTESIAN_POINT ( 'NONE',  ( -1492.500000000000000, -16.14999999999999900, -1.700000000000056600 ) ) ;
#31 = EDGE_CURVE ( 'NONE', #293, #351, #144, .T. ) ;
#32 = CARTESIAN_POINT ( 'NONE',  ( -1492.500000000000000, 0.6999999999999999600, 48.00000000000000000 ) ) ;
#33 = PERSON_AND_ORGANIZATION ( #275, #343 ) ;
#34 = AXIS2_PLACEMENT_3D ( 'NONE', #20, #213, #48 ) ;
#35 = EDGE_LOOP ( 'NONE', ( #84, #212, #52, #297 ) ) ;
#36 = LINE ( 'NONE', #17, #109 ) ;
#37 = ORIENTED_EDGE ( 'NONE', *, *, #356, .F. ) ;
#38 = PLANE ( 'NONE',  #133 ) ;
#39 = PERSON_AND_ORGANIZATION ( #275, #343 ) ;
#40 = APPROVAL_STATUS ( 'not_yet_approved' ) ;
#41 = FACE_OUTER_BOUND ( 'NONE', #75, .T. ) ;
#42 = PLANE ( 'NONE',  #208 ) ;
#43 = COORDINATED_UNIVERSAL_TIME_OFFSET ( 3, 0, .AHEAD. ) ;
#44 = LINE ( 'NONE', #206, #256 ) ;
#45 = DIRECTION ( 'NONE',  ( 0.0000000000000000000, -1.000000000000000000, 3.491481338843133400E-015 ) ) ;
#46 = LOCAL_TIME ( 15, 6, 16.00000000000000000, #119 ) ;
#47 = CC_DESIGN_APPROVAL ( #27, ( #335 ) ) ;
#48 = DIRECTION ( 'NONE',  ( 0.0000000000000000000, 3.491481338843133400E-015, -1.000000000000000000 ) ) ;
#49 = ORIENTED_EDGE ( 'NONE', *, *, #69, .T. ) ;
#50 = EDGE_CURVE ( 'NONE', #178, #124, #80, .T. ) ;
#51 = CARTESIAN_POINT ( 'NONE',  ( 1492.500000000000000, -16.15000000000000200, 49.00000000000005700 ) ) ;
#52 = ORIENTED_EDGE ( 'NONE', *, *, #173, .T. ) ;
#53 = DIRECTION ( 'NONE',  ( -0.0000000000000000000, 0.0000000000000000000, -1.000000000000000000 ) ) ;
#54 = ADVANCED_FACE ( 'NONE', ( #151 ), #64, .F. ) ;
#55 = PERSON_AND_ORGANIZATION_ROLE ( 'design_owner' ) ;
#56 = DIRECTION ( 'NONE',  ( 0.0000000000000000000, 1.000000000000000000, -3.437222986455592900E-015 ) ) ;
#57 = LINE ( 'NONE', #181, #347 ) ;
#58 = ORIENTED_EDGE ( 'NONE', *, *, #123, .T. ) ;
#59 = ORIENTED_EDGE ( 'NONE', *, *, #301, .T. ) ;
#60 =( NAMED_UNIT ( * ) SI_UNIT ( $, .STERADIAN. ) SOLID_ANGLE_UNIT ( ) );
#61 = EDGE_LOOP ( 'NONE', ( #366, #207, #12, #198 ) ) ;
#62 = DIRECTION ( 'NONE',  ( 0.0000000000000000000, 0.0000000000000000000, -1.000000000000000000 ) ) ;
#63 = AXIS2_PLACEMENT_3D ( 'NONE', #209, #45, #362 ) ;
#64 = PLANE ( 'NONE',  #96 ) ;
#65 = CARTESIAN_POINT ( 'NONE',  ( -1492.500000000000000, -16.15000000000000200, 49.00000000000005700 ) ) ;
#66 = DIRECTION ( 'NONE',  ( 0.0000000000000000000, 3.491481338843133700E-015, -1.000000000000000000 ) ) ;
#67 = CC_DESIGN_SECURITY_CLASSIFICATION ( #335, ( #235 ) ) ;
#68 = EDGE_LOOP ( 'NONE', ( #229, #349, #257, #59 ) ) ;
#69 = EDGE_CURVE ( 'NONE', #288, #178, #97, .T. ) ;
#70 = LINE ( 'NONE', #315, #313 ) ;
#71 = CALENDAR_DATE ( 2016, 5, 2 ) ;
#72 = FACE_OUTER_BOUND ( 'NONE', #154, .T. ) ;
#73 = DIRECTION ( 'NONE',  ( 0.0000000000000000000, -1.000000000000000000, 0.0000000000000000000 ) ) ;
#74 = LINE ( 'NONE', #187, #170 ) ;
#75 = EDGE_LOOP ( 'NONE', ( #333, #24, #129, #298 ) ) ;
#76 = ORIENTED_EDGE ( 'NONE', *, *, #11, .T. ) ;
#77 = DIRECTION ( 'NONE',  ( 0.0000000000000000000, -3.437222986455592900E-015, -1.000000000000000000 ) ) ;
#78 = VERTEX_POINT ( 'NONE', #334 ) ;
#79 = CARTESIAN_POINT ( 'NONE',  ( 1492.500000000000000, 0.0000000000000000000, 49.00000000000000000 ) ) ;
#80 = LINE ( 'NONE', #146, #91 ) ;
#81 = LINE ( 'NONE', #3, #5 ) ;
#82 = APPROVAL_ROLE ( '' ) ;
#83 = VERTEX_POINT ( 'NONE', #137 ) ;
#84 = ORIENTED_EDGE ( 'NONE', *, *, #356, .T. ) ;
#85 = DIRECTION ( 'NONE',  ( 0.0000000000000000000, -3.491481338843133400E-015, 1.000000000000000000 ) ) ;
#86 = APPLICATION_PROTOCOL_DEFINITION ( 'international standard', 'config_control_design', 1994, #247 ) ;
#87 = CARTESIAN_POINT ( 'NONE',  ( -1493.489949493661000, 0.7000000000000001800, -1.700000000000000200 ) ) ;
#88 = PRODUCT_RELATED_PRODUCT_CATEGORY ( 'detail', '', ( #304 ) ) ;
#89 = CARTESIAN_POINT ( 'NONE',  ( -1492.500000000000000, 1.649867033498684800E-013, 49.00000000000000000 ) ) ;
#90 = ORIENTED_EDGE ( 'NONE', *, *, #318, .T. ) ;
#91 = VECTOR ( 'NONE', #312, 1000.000000000000000 ) ;
#92 = EDGE_CURVE ( 'NONE', #7, #83, #158, .T. ) ;
#93 = VECTOR ( 'NONE', #192, 1000.000000000000000 ) ;
#94 = PLANE ( 'NONE',  #242 ) ;
#95 = DESIGN_CONTEXT ( 'detailed design', #247, 'design' ) ;
#96 = AXIS2_PLACEMENT_3D ( 'NONE', #344, #255, #246 ) ;
#97 = LINE ( 'NONE', #278, #22 ) ;
#98 = DATE_AND_TIME ( #166, #244 ) ;
#99 = EDGE_LOOP ( 'NONE', ( #321, #169, #263, #130 ) ) ;
#100 = FACE_OUTER_BOUND ( 'NONE', #147, .T. ) ;
#101 = CALENDAR_DATE ( 2016, 5, 2 ) ;
#102 = DIRECTION ( 'NONE',  ( 0.0000000000000000000, -3.437222986455592900E-015, -1.000000000000000000 ) ) ;
#103 = ADVANCED_FACE ( 'NONE', ( #234 ), #38, .T. ) ;
#104 = EDGE_CURVE ( 'NONE', #288, #83, #70, .T. ) ;
#105 = DATE_TIME_ROLE ( 'creation_date' ) ;
#106 = APPROVAL_DATE_TIME ( #174, #159 ) ;
#107 = AXIS2_PLACEMENT_3D ( 'NONE', #196, #190, #23 ) ;
#108 = ORIENTED_EDGE ( 'NONE', *, *, #232, .F. ) ;
#109 = VECTOR ( 'NONE', #210, 1000.000000000000000 ) ;
#110 = EDGE_LOOP ( 'NONE', ( #248, #340, #322, #108, #139, #285, #221, #90 ) ) ;
#111 = MANIFOLD_SOLID_BREP ( 'Áîáûøêà-Âûòÿíóòü1', #289 ) ;
#112 = PERSON_AND_ORGANIZATION ( #275, #343 ) ;
#113 = DIRECTION ( 'NONE',  ( -0.0000000000000000000, -0.0000000000000000000, -1.000000000000000000 ) ) ;
#114 = LINE ( 'NONE', #350, #16 ) ;
#115 =( LENGTH_UNIT ( ) NAMED_UNIT ( * ) SI_UNIT ( .MILLI., .METRE. ) );
#116 = CARTESIAN_POINT ( 'NONE',  ( -1492.500000000000000, -16.15000000000000200, -1.000000000000056400 ) ) ;
#117 = APPROVAL_PERSON_ORGANIZATION ( #186, #159, #82 ) ;
#118 = VECTOR ( 'NONE', #280, 1000.000000000000000 ) ;
#119 = COORDINATED_UNIVERSAL_TIME_OFFSET ( 3, 0, .AHEAD. ) ;
#120 = CARTESIAN_POINT ( 'NONE',  ( 0.0000000000000000000, -16.15000000000000200, -1.000000000000056400 ) ) ;
#121 = VECTOR ( 'NONE', #309, 1000.000000000000000 ) ;
#122 = VERTEX_POINT ( 'NONE', #346 ) ;
#123 = EDGE_CURVE ( 'NONE', #7, #78, #338, .T. ) ;
#124 = VERTEX_POINT ( 'NONE', #182 ) ;
#125 = CC_DESIGN_PERSON_AND_ORGANIZATION_ASSIGNMENT ( #265, #55, ( #304 ) ) ;
#126 = DIRECTION ( 'NONE',  ( -1.000000000000000000, 0.0000000000000000000, 0.0000000000000000000 ) ) ;
#127 = LINE ( 'NONE', #243, #296 ) ;
#128 = CARTESIAN_POINT ( 'NONE',  ( -1492.500000000000000, 0.0000000000000000000, 48.00000000000000000 ) ) ;
#129 = ORIENTED_EDGE ( 'NONE', *, *, #318, .F. ) ;
#130 = ORIENTED_EDGE ( 'NONE', *, *, #31, .T. ) ;
#131 = CARTESIAN_POINT ( 'NONE',  ( -1492.500000000000000, -16.14999999999999900, -1.700000000000056600 ) ) ;
#132 = ORIENTED_EDGE ( 'NONE', *, *, #197, .T. ) ;
#133 = AXIS2_PLACEMENT_3D ( 'NONE', #230, #66, #261 ) ;
#134 = PLANE ( 'NONE',  #365 ) ;
#135 = APPROVAL_ROLE ( '' ) ;
#136 = ADVANCED_FACE ( 'NONE', ( #184 ), #239, .T. ) ;
#137 = CARTESIAN_POINT ( 'NONE',  ( 1492.500000000000000, 0.7000000000000001800, -1.700000000000000200 ) ) ;
#138 = CARTESIAN_POINT ( 'NONE',  ( -1492.500000000000000, 0.7000000000000086200, 49.69999999999999600 ) ) ;
#139 = ORIENTED_EDGE ( 'NONE', *, *, #352, .F. ) ;
#140 = ORIENTED_EDGE ( 'NONE', *, *, #31, .F. ) ;
#141 = DIRECTION ( 'NONE',  ( -1.000000000000000000, -0.0000000000000000000, -0.0000000000000000000 ) ) ;
#142 = EDGE_CURVE ( 'NONE', #78, #274, #325, .T. ) ;
#143 = LOCAL_TIME ( 15, 6, 16.00000000000000000, #163 ) ;
#144 = LINE ( 'NONE', #165, #225 ) ;
#145 = VECTOR ( 'NONE', #311, 1000.000000000000000 ) ;
#146 = CARTESIAN_POINT ( 'NONE',  ( 1492.500000000000000, 0.0000000000000000000, -1.000000000000000000 ) ) ;
#147 = EDGE_LOOP ( 'NONE', ( #245, #355, #132, #49 ) ) ;
#148 = EDGE_LOOP ( 'NONE', ( #205, #367, #13, #204 ) ) ;
#149 = PRODUCT_DEFINITION ( 'UNKNOWN', '', #235, #95 ) ;
#150 = DIRECTION ( 'NONE',  ( -0.0000000000000000000, 1.000000000000000000, 3.491481338843133700E-015 ) ) ;
#151 = FACE_OUTER_BOUND ( 'NONE', #35, .T. ) ;
#152 = DIRECTION ( 'NONE',  ( 0.0000000000000000000, -3.491481338843133400E-015, -1.000000000000000000 ) ) ;
#153 = DIRECTION ( 'NONE',  ( -1.000000000000000000, 0.0000000000000000000, 0.0000000000000000000 ) ) ;
#154 = EDGE_LOOP ( 'NONE', ( #272, #37, #195, #140 ) ) ;
#155 = EDGE_CURVE ( 'NONE', #351, #274, #114, .T. ) ;
#156 = CARTESIAN_POINT ( 'NONE',  ( -1492.500000000000000, 5.127050073817270800E-016, 49.00000000000000000 ) ) ;
#157 = PERSON_AND_ORGANIZATION_ROLE ( 'design_supplier' ) ;
#158 = LINE ( 'NONE', #161, #93 ) ;
#159 = APPROVAL ( #241, 'UNSPECIFIED' ) ;
#160 = ADVANCED_FACE ( 'NONE', ( #72 ), #42, .T. ) ;
#161 = CARTESIAN_POINT ( 'NONE',  ( 1492.500000000000000, 0.6999999999999999600, 48.00000000000000000 ) ) ;
#162 = VECTOR ( 'NONE', #141, 1000.000000000000000 ) ;
#163 = COORDINATED_UNIVERSAL_TIME_OFFSET ( 3, 0, .AHEAD. ) ;
#164 = AXIS2_PLACEMENT_3D ( 'NONE', #267, #102, #300 ) ;
#165 = CARTESIAN_POINT ( 'NONE',  ( 0.0000000000000000000, 2.465190328815661900E-029, 49.00000000000000000 ) ) ;
#166 = CALENDAR_DATE ( 2016, 5, 2 ) ;
#167 = ORIENTED_EDGE ( 'NONE', *, *, #69, .F. ) ;
#168 = CARTESIAN_POINT ( 'NONE',  ( 1492.500000000000000, -16.15000000000000200, -1.000000000000056400 ) ) ;
#169 = ORIENTED_EDGE ( 'NONE', *, *, #252, .T. ) ;
#170 = VECTOR ( 'NONE', #26, 1000.000000000000000 ) ;
#171 = LOCAL_TIME ( 15, 6, 16.00000000000000000, #250 ) ;
#172 = LINE ( 'NONE', #216, #281 ) ;
#173 = EDGE_CURVE ( 'NONE', #292, #178, #307, .T. ) ;
#174 = DATE_AND_TIME ( #254, #329 ) ;
#175 = VERTEX_POINT ( 'NONE', #345 ) ;
#176 = LINE ( 'NONE', #249, #118 ) ;
#177 = CC_DESIGN_APPROVAL ( #159, ( #149 ) ) ;
#178 = VERTEX_POINT ( 'NONE', #168 ) ;
#179 = PLANE ( 'NONE',  #63 ) ;
#180 = APPROVAL_DATE_TIME ( #260, #258 ) ;
#181 = CARTESIAN_POINT ( 'NONE',  ( 0.0000000000000000000, -16.15000000000000200, 49.00000000000005700 ) ) ;
#182 = CARTESIAN_POINT ( 'NONE',  ( 1492.500000000000000, -3.851859888774471700E-031, -1.000000000000000000 ) ) ;
#183 = PLANE ( 'NONE',  #34 ) ;
#184 = FACE_OUTER_BOUND ( 'NONE', #99, .T. ) ;
#185 = SHAPE_DEFINITION_REPRESENTATION ( #358, #326 ) ;
#186 = PERSON_AND_ORGANIZATION ( #275, #343 ) ;
#187 = CARTESIAN_POINT ( 'NONE',  ( -1492.500000000000000, -16.14999999999999900, -1.700000000000056600 ) ) ;
#188 = PERSON_AND_ORGANIZATION_ROLE ( 'classification_officer' ) ;
#189 = VECTOR ( 'NONE', #9, 1000.000000000000000 ) ;
#190 = DIRECTION ( 'NONE',  ( 0.0000000000000000000, 0.0000000000000000000, 1.000000000000000000 ) ) ;
#191 = APPROVAL_PERSON_ORGANIZATION ( #266, #258, #135 ) ;
#192 = DIRECTION ( 'NONE',  ( -0.0000000000000000000, -0.0000000000000000000, -1.000000000000000000 ) ) ;
#193 = CARTESIAN_POINT ( 'NONE',  ( 1492.500000000000000, 0.7000000000000086200, 49.69999999999999600 ) ) ;
#194 = VECTOR ( 'NONE', #302, 1000.000000000000000 ) ;
#195 = ORIENTED_EDGE ( 'NONE', *, *, #11, .F. ) ;
#196 = CARTESIAN_POINT ( 'NONE',  ( 0.0000000000000000000, 0.0000000000000000000, 0.0000000000000000000 ) ) ;
#197 = EDGE_CURVE ( 'NONE', #8, #288, #44, .T. ) ;
#198 = ORIENTED_EDGE ( 'NONE', *, *, #310, .T. ) ;
#199 = PLANE ( 'NONE',  #319 ) ;
#200 = ORIENTED_EDGE ( 'NONE', *, *, #92, .F. ) ;
#201 = CC_DESIGN_PERSON_AND_ORGANIZATION_ASSIGNMENT ( #33, #276, ( #149 ) ) ;
#202 = LINE ( 'NONE', #131, #194 ) ;
#203 = DATE_TIME_ROLE ( 'classification_date' ) ;
#204 = ORIENTED_EDGE ( 'NONE', *, *, #197, .F. ) ;
#205 = ORIENTED_EDGE ( 'NONE', *, *, #273, .F. ) ;
#206 = CARTESIAN_POINT ( 'NONE',  ( 1492.500000000000000, -16.14999999999999900, -1.700000000000056600 ) ) ;
#207 = ORIENTED_EDGE ( 'NONE', *, *, #339, .F. ) ;
#208 = AXIS2_PLACEMENT_3D ( 'NONE', #233, #73, #264 ) ;
#209 = CARTESIAN_POINT ( 'NONE',  ( 1492.500000000000000, -16.14999999999999900, 49.70000000000006000 ) ) ;
#210 = DIRECTION ( 'NONE',  ( -0.0000000000000000000, -0.0000000000000000000, -1.000000000000000000 ) ) ;
#211 = DIRECTION ( 'NONE',  ( -0.0000000000000000000, -1.000000000000000000, 3.437222986455592900E-015 ) ) ;
#212 = ORIENTED_EDGE ( 'NONE', *, *, #232, .T. ) ;
#213 = DIRECTION ( 'NONE',  ( 0.0000000000000000000, -1.000000000000000000, -3.491481338843133400E-015 ) ) ;
#214 = VERTEX_POINT ( 'NONE', #65 ) ;
#215 = ADVANCED_FACE ( 'NONE', ( #332 ), #94, .T. ) ;
#216 = CARTESIAN_POINT ( 'NONE',  ( -1492.500000000000000, 0.0000000000000000000, -1.000000000000000000 ) ) ;
#217 = EDGE_CURVE ( 'NONE', #348, #360, #36, .T. ) ;
#218 = FACE_OUTER_BOUND ( 'NONE', #68, .T. ) ;
#219 = LINE ( 'NONE', #253, #145 ) ;
#220 = DIRECTION ( 'NONE',  ( 1.000000000000000000, 0.0000000000000000000, -0.0000000000000000000 ) ) ;
#221 = ORIENTED_EDGE ( 'NONE', *, *, #301, .F. ) ;
#222 = ORIENTED_EDGE ( 'NONE', *, *, #155, .F. ) ;
#223 = MECHANICAL_CONTEXT ( 'NONE', #368, 'mechanical' ) ;
#224 = CC_DESIGN_DATE_AND_TIME_ASSIGNMENT ( #98, #105, ( #149 ) ) ;
#225 = VECTOR ( 'NONE', #6, 1000.000000000000000 ) ;
#226 =( NAMED_UNIT ( * ) PLANE_ANGLE_UNIT ( ) SI_UNIT ( $, .RADIAN. ) );
#227 = DIRECTION ( 'NONE',  ( 0.0000000000000000000, -1.000000000000000000, 0.0000000000000000000 ) ) ;
#228 = ADVANCED_FACE ( 'NONE', ( #41 ), #354, .F. ) ;
#229 = ORIENTED_EDGE ( 'NONE', *, *, #252, .F. ) ;
#230 = CARTESIAN_POINT ( 'NONE',  ( 0.0000000000000000000, 2.444036937190193300E-015, -1.700000000000000200 ) ) ;
#231 = APPROVAL_ROLE ( '' ) ;
#232 = EDGE_CURVE ( 'NONE', #122, #292, #172, .T. ) ;
#233 = CARTESIAN_POINT ( 'NONE',  ( -1492.500000000000000, 0.0000000000000000000, 48.00000000000000000 ) ) ;
#234 = FACE_OUTER_BOUND ( 'NONE', #148, .T. ) ;
#235 = PRODUCT_DEFINITION_FORMATION_WITH_SPECIFIED_SOURCE ( 'ANY', '', #304, .NOT_KNOWN. ) ;
#236 = CARTESIAN_POINT ( 'NONE',  ( 0.0000000000000000000, 1.674307402870586800E-013, 49.70000000000000300 ) ) ;
#237 = LINE ( 'NONE', #240, #121 ) ;
#238 = APPROVAL_PERSON_ORGANIZATION ( #317, #27, #231 ) ;
#239 = PLANE ( 'NONE',  #164 ) ;
#240 = CARTESIAN_POINT ( 'NONE',  ( -1492.500000000000000, 0.0000000000000000000, 48.00000000000000000 ) ) ;
#241 = APPROVAL_STATUS ( 'not_yet_approved' ) ;
#242 = AXIS2_PLACEMENT_3D ( 'NONE', #128, #126, #323 ) ;
#243 = CARTESIAN_POINT ( 'NONE',  ( -1493.489949493661000, 0.7000000000000086200, 49.69999999999999600 ) ) ;
#244 = LOCAL_TIME ( 15, 6, 16.00000000000000000, #320 ) ;
#245 = ORIENTED_EDGE ( 'NONE', *, *, #173, .F. ) ;
#246 = DIRECTION ( 'NONE',  ( 0.0000000000000000000, 1.000000000000000000, 3.491481338843133700E-015 ) ) ;
#247 = APPLICATION_CONTEXT ( 'configuration controlled 3d designs of mechanical parts and assemblies' ) ;
#248 = ORIENTED_EDGE ( 'NONE', *, *, #217, .T. ) ;
#249 = CARTESIAN_POINT ( 'NONE',  ( -1492.500000000000000, -16.14999999999999900, 49.70000000000006000 ) ) ;
#250 = COORDINATED_UNIVERSAL_TIME_OFFSET ( 3, 0, .AHEAD. ) ;
#251 = VECTOR ( 'NONE', #152, 1000.000000000000000 ) ;
#252 = EDGE_CURVE ( 'NONE', #274, #214, #57, .T. ) ;
#253 = CARTESIAN_POINT ( 'NONE',  ( -1492.500000000000000, -16.14999999999999900, 49.70000000000006000 ) ) ;
#254 = CALENDAR_DATE ( 2016, 5, 2 ) ;
#255 = DIRECTION ( 'NONE',  ( 0.0000000000000000000, 3.491481338843133700E-015, -1.000000000000000000 ) ) ;
#256 = VECTOR ( 'NONE', #259, 1000.000000000000000 ) ;
#257 = ORIENTED_EDGE ( 'NONE', *, *, #295, .T. ) ;
#258 = APPROVAL ( #305, 'UNSPECIFIED' ) ;
#259 = DIRECTION ( 'NONE',  ( 1.000000000000000000, 0.0000000000000000000, 0.0000000000000000000 ) ) ;
#260 = DATE_AND_TIME ( #336, #46 ) ;
#261 = DIRECTION ( 'NONE',  ( 0.0000000000000000000, 1.000000000000000000, 3.491481338843133700E-015 ) ) ;
#262 = VECTOR ( 'NONE', #211, 1000.000000000000000 ) ;
#263 = ORIENTED_EDGE ( 'NONE', *, *, #4, .T. ) ;
#264 = DIRECTION ( 'NONE',  ( 0.0000000000000000000, -0.0000000000000000000, -1.000000000000000000 ) ) ;
#265 = PERSON_AND_ORGANIZATION ( #275, #343 ) ;
#266 = PERSON_AND_ORGANIZATION ( #275, #343 ) ;
#267 = CARTESIAN_POINT ( 'NONE',  ( 0.0000000000000000000, 1.649867033498684800E-013, 49.00000000000000000 ) ) ;
#268 = FACE_OUTER_BOUND ( 'NONE', #61, .T. ) ;
#269 = EDGE_LOOP ( 'NONE', ( #76, #308, #167, #282, #200, #58, #1, #222 ) ) ;
#270 = CARTESIAN_POINT ( 'NONE',  ( 0.0000000000000000000, -3.851859888774471700E-031, -1.000000000000000000 ) ) ;
#271 = DIRECTION ( 'NONE',  ( -0.0000000000000000000, -1.000000000000000000, -3.491481338843133700E-015 ) ) ;
#272 = ORIENTED_EDGE ( 'NONE', *, *, #352, .T. ) ;
#273 = EDGE_CURVE ( 'NONE', #360, #8, #202, .T. ) ;
#274 = VERTEX_POINT ( 'NONE', #51 ) ;
#275 = PERSON ( 'UNSPECIFIED', 'UNSPECIFIED', 'UNSPECIFIED', ('UNSPECIFIED'), ('UNSPECIFIED'), ('UNSPECIFIED') ) ;
#276 = PERSON_AND_ORGANIZATION_ROLE ( 'creator' ) ;
#277 = ADVANCED_FACE ( 'NONE', ( #268 ), #199, .F. ) ;
#278 = CARTESIAN_POINT ( 'NONE',  ( 1492.500000000000000, -16.14999999999999900, -1.700000000000056600 ) ) ;
#279 = CC_DESIGN_APPROVAL ( #258, ( #235 ) ) ;
#280 = DIRECTION ( 'NONE',  ( -0.0000000000000000000, 1.000000000000000000, -3.437222986455592900E-015 ) ) ;
#281 = VECTOR ( 'NONE', #271, 1000.000000000000000 ) ;
#282 = ORIENTED_EDGE ( 'NONE', *, *, #104, .T. ) ;
#283 = VECTOR ( 'NONE', #56, 1000.000000000000000 ) ;
#284 = APPROVAL_DATE_TIME ( #359, #27 ) ;
#285 = ORIENTED_EDGE ( 'NONE', *, *, #4, .F. ) ;
#286 = CARTESIAN_POINT ( 'NONE',  ( 1492.500000000000000, -16.14999999999999900, -1.700000000000056600 ) ) ;
#287 = AXIS2_PLACEMENT_3D ( 'NONE', #236, #77, #290 ) ;
#288 = VERTEX_POINT ( 'NONE', #286 ) ;
#289 = CLOSED_SHELL ( 'NONE', ( #277, #215, #160, #306, #342, #103, #54, #25, #228, #136 ) ) ;
#290 = DIRECTION ( 'NONE',  ( 0.0000000000000000000, 1.000000000000000000, -3.437222986455592900E-015 ) ) ;
#291 = CARTESIAN_POINT ( 'NONE',  ( 1492.500000000000000, 2.444036937190193300E-015, 49.70000000000000300 ) ) ;
#292 = VERTEX_POINT ( 'NONE', #116 ) ;
#293 = VERTEX_POINT ( 'NONE', #156 ) ;
#294 = VECTOR ( 'NONE', #113, 1000.000000000000000 ) ;
#295 = EDGE_CURVE ( 'NONE', #78, #175, #81, .T. ) ;
#296 = VECTOR ( 'NONE', #363, 1000.000000000000000 ) ;
#297 = ORIENTED_EDGE ( 'NONE', *, *, #50, .T. ) ;
#298 = ORIENTED_EDGE ( 'NONE', *, *, #295, .F. ) ;
#299 = CC_DESIGN_PERSON_AND_ORGANIZATION_ASSIGNMENT ( #112, #330, ( #235 ) ) ;
#300 = DIRECTION ( 'NONE',  ( 0.0000000000000000000, 1.000000000000000000, -3.437222986455592900E-015 ) ) ;
#301 = EDGE_CURVE ( 'NONE', #175, #214, #219, .T. ) ;
#302 = DIRECTION ( 'NONE',  ( 0.0000000000000000000, -1.000000000000000000, -3.491481338843133700E-015 ) ) ;
#303 = DIRECTION ( 'NONE',  ( -1.000000000000000000, -0.0000000000000000000, -0.0000000000000000000 ) ) ;
#304 = PRODUCT ( 'CLP1K-050-3-M-HDZ Êðûøêà íà ëîòîê îñí. 050 IEK HDZ', 'CLP1K-050-3-M-HDZ Êðûøêà íà ëîòîê îñí. 050 IEK HDZ', '', ( #223 ) ) ;
#305 = APPROVAL_STATUS ( 'not_yet_approved' ) ;
#306 = ADVANCED_FACE ( 'NONE', ( #361 ), #134, .T. ) ;
#307 = LINE ( 'NONE', #120, #189 ) ;
#308 = ORIENTED_EDGE ( 'NONE', *, *, #50, .F. ) ;
#309 = DIRECTION ( 'NONE',  ( -0.0000000000000000000, -0.0000000000000000000, -1.000000000000000000 ) ) ;
#310 = EDGE_CURVE ( 'NONE', #348, #7, #127, .T. ) ;
#311 = DIRECTION ( 'NONE',  ( 0.0000000000000000000, -3.491481338843133400E-015, -1.000000000000000000 ) ) ;
#312 = DIRECTION ( 'NONE',  ( -0.0000000000000000000, 1.000000000000000000, 3.491481338843133700E-015 ) ) ;
#313 = VECTOR ( 'NONE', #150, 1000.000000000000000 ) ;
#314 = CC_DESIGN_PERSON_AND_ORGANIZATION_ASSIGNMENT ( #39, #157, ( #235 ) ) ;
#315 = CARTESIAN_POINT ( 'NONE',  ( 1492.500000000000000, 2.444036937190193300E-015, -1.700000000000000200 ) ) ;
#316 = VECTOR ( 'NONE', #337, 1000.000000000000000 ) ;
#317 = PERSON_AND_ORGANIZATION ( #275, #343 ) ;
#318 = EDGE_CURVE ( 'NONE', #175, #348, #176, .T. ) ;
#319 = AXIS2_PLACEMENT_3D ( 'NONE', #32, #227, #62 ) ;
#320 = COORDINATED_UNIVERSAL_TIME_OFFSET ( 3, 0, .AHEAD. ) ;
#321 = ORIENTED_EDGE ( 'NONE', *, *, #155, .T. ) ;
#322 = ORIENTED_EDGE ( 'NONE', *, *, #327, .T. ) ;
#323 = DIRECTION ( 'NONE',  ( 0.0000000000000000000, 0.0000000000000000000, 1.000000000000000000 ) ) ;
#324 = PERSON_AND_ORGANIZATION ( #275, #343 ) ;
#325 = LINE ( 'NONE', #369, #251 ) ;
#326 = ADVANCED_BREP_SHAPE_REPRESENTATION ( 'CLP1K-050-3-M-HDZ ¦¨v°úð ýð ûþªþú þ¸ý. 050 IEK HDZ', ( #111, #107 ), #15 ) ;
#327 = EDGE_CURVE ( 'NONE', #8, #292, #74, .T. ) ;
#328 = CARTESIAN_POINT ( 'NONE',  ( 1492.500000000000000, 0.0000000000000000000, 48.00000000000000000 ) ) ;
#329 = LOCAL_TIME ( 15, 6, 16.00000000000000000, #43 ) ;
#330 = PERSON_AND_ORGANIZATION_ROLE ( 'creator' ) ;
#331 = APPLICATION_PROTOCOL_DEFINITION ( 'international standard', 'config_control_design', 1994, #368 ) ;
#332 = FACE_OUTER_BOUND ( 'NONE', #110, .T. ) ;
#333 = ORIENTED_EDGE ( 'NONE', *, *, #123, .F. ) ;
#334 = CARTESIAN_POINT ( 'NONE',  ( 1492.500000000000000, -16.14999999999999900, 49.70000000000006000 ) ) ;
#335 = SECURITY_CLASSIFICATION ( '', '', #364 ) ;
#336 = CALENDAR_DATE ( 2016, 5, 2 ) ;
#337 = DIRECTION ( 'NONE',  ( 1.000000000000000000, 0.0000000000000000000, 0.0000000000000000000 ) ) ;
#338 = LINE ( 'NONE', #291, #262 ) ;
#339 = EDGE_CURVE ( 'NONE', #360, #83, #28, .T. ) ;
#340 = ORIENTED_EDGE ( 'NONE', *, *, #273, .T. ) ;
#341 = CARTESIAN_POINT ( 'NONE',  ( -1492.500000000000000, 0.7000000000000001800, -1.700000000000000200 ) ) ;
#342 = ADVANCED_FACE ( 'NONE', ( #100 ), #183, .T. ) ;
#343 = ORGANIZATION ( 'UNSPECIFIED', 'UNSPECIFIED', '' ) ;
#344 = CARTESIAN_POINT ( 'NONE',  ( 0.0000000000000000000, 0.0000000000000000000, -1.000000000000000000 ) ) ;
#345 = CARTESIAN_POINT ( 'NONE',  ( -1492.500000000000000, -16.14999999999999900, 49.70000000000006000 ) ) ;
#346 = CARTESIAN_POINT ( 'NONE',  ( -1492.500000000000000, 0.0000000000000000000, -1.000000000000000000 ) ) ;
#347 = VECTOR ( 'NONE', #153, 1000.000000000000000 ) ;
#348 = VERTEX_POINT ( 'NONE', #138 ) ;
#349 = ORIENTED_EDGE ( 'NONE', *, *, #142, .F. ) ;
#350 = CARTESIAN_POINT ( 'NONE',  ( 1492.500000000000000, 1.649867033498684800E-013, 49.00000000000000000 ) ) ;
#351 = VERTEX_POINT ( 'NONE', #79 ) ;
#352 = EDGE_CURVE ( 'NONE', #293, #122, #237, .T. ) ;
#353 = CC_DESIGN_PERSON_AND_ORGANIZATION_ASSIGNMENT ( #324, #188, ( #335 ) ) ;
#354 = PLANE ( 'NONE',  #287 ) ;
#355 = ORIENTED_EDGE ( 'NONE', *, *, #327, .F. ) ;
#356 = EDGE_CURVE ( 'NONE', #124, #122, #19, .T. ) ;
#357 = LINE ( 'NONE', #89, #283 ) ;
#358 = PRODUCT_DEFINITION_SHAPE ( 'NONE', 'NONE',  #149 ) ;
#359 = DATE_AND_TIME ( #71, #143 ) ;
#360 = VERTEX_POINT ( 'NONE', #341 ) ;
#361 = FACE_OUTER_BOUND ( 'NONE', #269, .T. ) ;
#362 = DIRECTION ( 'NONE',  ( 0.0000000000000000000, -3.491481338843133400E-015, -1.000000000000000000 ) ) ;
#363 = DIRECTION ( 'NONE',  ( 1.000000000000000000, 0.0000000000000000000, 0.0000000000000000000 ) ) ;
#364 = SECURITY_CLASSIFICATION_LEVEL ( 'unclassified' ) ;
#365 = AXIS2_PLACEMENT_3D ( 'NONE', #21, #220, #53 ) ;
#366 = ORIENTED_EDGE ( 'NONE', *, *, #92, .T. ) ;
#367 = ORIENTED_EDGE ( 'NONE', *, *, #339, .T. ) ;
#368 = APPLICATION_CONTEXT ( 'configuration controlled 3d designs of mechanical parts and assemblies' ) ;
#369 = CARTESIAN_POINT ( 'NONE',  ( 1492.500000000000000, -16.14999999999999900, 49.70000000000006000 ) ) ;
ENDSEC;
END-ISO-10303-21;
