  0
SECTION
  2
HEADER
  9
$ACADVER
  1
AC1032
  9
$ACADMAINTVER
 90
       55
  9
$DWGCODEPAGE
  3
ANSI_1251
  9
$LASTSAVEDBY
  1
rachkov
  9
$REQUIREDVERSIONS
160
                 0
  9
$INSBASE
 10
0.0
 20
0.0
 30
0.0
  9
$EXTMIN
 10
0.0
 20
0.0
 30
0.0
  9
$EXTMAX
 10
90.0
 20
110.0
 30
0.0
  9
$LIMMIN
 10
0.0
 20
0.0
  9
$LIMMAX
 10
90.0
 20
110.0
  9
$ORTHOMODE
 70
     0
  9
$REGENMODE
 70
     1
  9
$FILLMODE
 70
     1
  9
$QTEXTMODE
 70
     0
  9
$MIRRTEXT
 70
     1
  9
$LTSCALE
 40
1.0
  9
$ATTMODE
 70
     1
  9
$TEXTSIZE
 40
2.47
  9
$TRACEWID
 40
1.0
  9
$TEXTSTYLE
  7
STANDARD
  9
$CLAYER
  8
0
  9
$CELTYPE
  6
ByLayer
  9
$CECOLOR
 62
   256
  9
$CELTSCALE
 40
1.0
  9
$DISPSILH
 70
     0
  9
$DIMSCALE
 40
1.0
  9
$DIMASZ
 40
2.0
  9
$DIMEXO
 40
0.0
  9
$DIMDLI
 40
3.75
  9
$DIMRND
 40
0.0
  9
$DIMDLE
 40
0.0
  9
$DIMEXE
 40
1.0
  9
$DIMTP
 40
0.0
  9
$DIMTM
 40
0.0
  9
$DIMTXT
 40
2.47
  9
$DIMCEN
 40
2.5
  9
$DIMTSZ
 40
0.0
  9
$DIMTOL
 70
     0
  9
$DIMLIM
 70
     0
  9
$DIMTIH
 70
     1
  9
$DIMTOH
 70
     1
  9
$DIMSE1
 70
     0
  9
$DIMSE2
 70
     0
  9
$DIMTAD
 70
     1
  9
$DIMZIN
 70
     0
  9
$DIMBLK
  1

  9
$DIMASO
 70
     1
  9
$DIMSHO
 70
     1
  9
$DIMPOST
  1

  9
$DIMAPOST
  1

  9
$DIMALT
 70
     0
  9
$DIMALTD
 70
     3
  9
$DIMALTF
 40
0.0393700787
  9
$DIMLFAC
 40
1.0
  9
$DIMTOFL
 70
     1
  9
$DIMTVP
 40
0.0
  9
$DIMTIX
 70
     0
  9
$DIMSOXD
 70
     0
  9
$DIMSAH
 70
     0
  9
$DIMBLK1
  1

  9
$DIMBLK2
  1

  9
$DIMSTYLE
  2
ISO-25
  9
$DIMCLRD
 70
     0
  9
$DIMCLRE
 70
     0
  9
$DIMCLRT
 70
     0
  9
$DIMTFAC
 40
1.0
  9
$DIMGAP
 40
2.0
  9
$DIMJUST
 70
     0
  9
$DIMSD1
 70
     0
  9
$DIMSD2
 70
     0
  9
$DIMTOLJ
 70
     0
  9
$DIMTZIN
 70
     0
  9
$DIMALTZ
 70
     0
  9
$DIMALTTZ
 70
     0
  9
$DIMUPT
 70
     0
  9
$DIMDEC
 70
     1
  9
$DIMTDEC
 70
     1
  9
$DIMALTU
 70
     2
  9
$DIMALTTD
 70
     3
  9
$DIMTXSTY
  7
STANDARD
  9
$DIMAUNIT
 70
     0
  9
$DIMADEC
 70
     1
  9
$DIMALTRND
 40
0.0
  9
$DIMAZIN
 70
     0
  9
$DIMDSEP
 70
    44
  9
$DIMATFIT
 70
     3
  9
$DIMFRAC
 70
     0
  9
$DIMLDRBLK
  1

  9
$DIMLUNIT
 70
     2
  9
$DIMLWD
 70
    -2
  9
$DIMLWE
 70
    -2
  9
$DIMTMOVE
 70
     0
  9
$DIMFXL
 40
1.0
  9
$DIMFXLON
 70
     0
  9
$DIMJOGANG
 40
0.7853981634
  9
$DIMTFILL
 70
     0
  9
$DIMTFILLCLR
 70
     0
  9
$DIMARCSYM
 70
     0
  9
$DIMLTYPE
  6

  9
$DIMLTEX1
  6

  9
$DIMLTEX2
  6

  9
$DIMTXTDIRECTION
 70
     0
  9
$LUNITS
 70
     2
  9
$LUPREC
 70
     1
  9
$SKETCHINC
 40
1.0
  9
$FILLETRAD
 40
0.0
  9
$AUNITS
 70
     0
  9
$AUPREC
 70
     1
  9
$MENU
  1
.
  9
$ELEVATION
 40
0.0
  9
$PELEVATION
 40
0.0
  9
$THICKNESS
 40
0.0
  9
$LIMCHECK
 70
     0
  9
$CHAMFERA
 40
0.0
  9
$CHAMFERB
 40
0.0
  9
$CHAMFERC
 40
0.0
  9
$CHAMFERD
 40
0.0
  9
$SKPOLY
 70
     0
  9
$TDCREATE
 40
2460717.715828067
  9
$TDUCREATE
 40
2460717.590828067
  9
$TDUPDATE
 40
2460717.715828588
  9
$TDUUPDATE
 40
2460717.590828588
  9
$TDINDWG
 40
0.0000000116
  9
$TDUSRTIMER
 40
0.0000000116
  9
$USRTIMER
 70
     1
  9
$ANGBASE
 50
0.0
  9
$ANGDIR
 70
     0
  9
$PDMODE
 70
     0
  9
$PDSIZE
 40
-1.0
  9
$PLINEWID
 40
0.0
  9
$SPLFRAME
 70
     0
  9
$SPLINETYPE
 70
     6
  9
$SPLINESEGS
 70
     8
  9
$HANDSEED
  5
485
  9
$SURFTAB1
 70
     6
  9
$SURFTAB2
 70
     6
  9
$SURFTYPE
 70
     6
  9
$SURFU
 70
     6
  9
$SURFV
 70
     6
  9
$UCSBASE
  2

  9
$UCSNAME
  2

  9
$UCSORG
 10
0.0
 20
0.0
 30
0.0
  9
$UCSXDIR
 10
1.0
 20
0.0
 30
0.0
  9
$UCSYDIR
 10
0.0
 20
1.0
 30
0.0
  9
$UCSORTHOREF
  2

  9
$UCSORTHOVIEW
 70
     0
  9
$UCSORGTOP
 10
0.0
 20
0.0
 30
0.0
  9
$UCSORGBOTTOM
 10
0.0
 20
0.0
 30
0.0
  9
$UCSORGLEFT
 10
0.0
 20
0.0
 30
0.0
  9
$UCSORGRIGHT
 10
0.0
 20
0.0
 30
0.0
  9
$UCSORGFRONT
 10
0.0
 20
0.0
 30
0.0
  9
$UCSORGBACK
 10
0.0
 20
0.0
 30
0.0
  9
$PUCSBASE
  2

  9
$PUCSNAME
  2

  9
$PUCSORG
 10
0.0
 20
0.0
 30
0.0
  9
$PUCSXDIR
 10
1.0
 20
0.0
 30
0.0
  9
$PUCSYDIR
 10
0.0
 20
1.0
 30
0.0
  9
$PUCSORTHOREF
  2

  9
$PUCSORTHOVIEW
 70
     0
  9
$PUCSORGTOP
 10
0.0
 20
0.0
 30
0.0
  9
$PUCSORGBOTTOM
 10
0.0
 20
0.0
 30
0.0
  9
$PUCSORGLEFT
 10
0.0
 20
0.0
 30
0.0
  9
$PUCSORGRIGHT
 10
0.0
 20
0.0
 30
0.0
  9
$PUCSORGFRONT
 10
0.0
 20
0.0
 30
0.0
  9
$PUCSORGBACK
 10
0.0
 20
0.0
 30
0.0
  9
$USERI1
 70
     0
  9
$USERI2
 70
     0
  9
$USERI3
 70
     0
  9
$USERI4
 70
     0
  9
$USERI5
 70
     0
  9
$USERR1
 40
0.0
  9
$USERR2
 40
0.0
  9
$USERR3
 40
0.0
  9
$USERR4
 40
0.0
  9
$USERR5
 40
0.0
  9
$WORLDVIEW
 70
     1
  9
$SHADEDGE
 70
     3
  9
$SHADEDIF
 70
    70
  9
$TILEMODE
 70
     1
  9
$MAXACTVP
 70
    64
  9
$PINSBASE
 10
0.0
 20
0.0
 30
0.0
  9
$PLIMCHECK
 70
     0
  9
$PEXTMIN
 10
1.0000000000E+20
 20
1.0000000000E+20
 30
1.0000000000E+20
  9
$PEXTMAX
 10
-1.0000000000E+20
 20
-1.0000000000E+20
 30
-1.0000000000E+20
  9
$PLIMMIN
 10
0.0
 20
0.0
  9
$PLIMMAX
 10
420.0
 20
297.0
  9
$UNITMODE
 70
     0
  9
$VISRETAIN
 70
     1
  9
$PLINEGEN
 70
     0
  9
$PSLTSCALE
 70
     1
  9
$TREEDEPTH
 70
  3020
  9
$CMLSTYLE
  2
Standard
  9
$CMLJUST
 70
     0
  9
$CMLSCALE
 40
20.0
  9
$PROXYGRAPHICS
 70
     1
  9
$MEASUREMENT
 70
     1
  9
$CELWEIGHT
370
    -1
  9
$ENDCAPS
280
     0
  9
$JOINSTYLE
280
     0
  9
$LWDISPLAY
290
     1
  9
$INSUNITS
 70
     4
  9
$HYPERLINKBASE
  1

  9
$STYLESHEET
  1

  9
$XEDIT
290
     1
  9
$CEPSNTYPE
380
     0
  9
$PSTYLEMODE
290
     1
  9
$FINGERPRINTGUID
  2
{e416e9ba-74c0-491c-bbfb-07ef7346b316}
  9
$VERSIONGUID
  2
{FAEB1C32-E019-11D5-929B-00C0DF256EC4}
  9
$EXTNAMES
290
     1
  9
$PSVPSCALE
 40
0.0
  9
$OLESTARTUP
290
     0
  9
$SORTENTS
280
   127
  9
$INDEXCTL
280
     0
  9
$HIDETEXT
280
     1
  9
$XCLIPFRAME
280
     2
  9
$HALOGAP
280
     0
  9
$OBSCOLOR
 70
   257
  9
$OBSLTYPE
280
     0
  9
$INTERSECTIONDISPLAY
280
     0
  9
$INTERSECTIONCOLOR
 70
   257
  9
$DIMASSOC
280
     2
  9
$PROJECTNAME
  1

  9
$CAMERADISPLAY
290
     0
  9
$LENSLENGTH
 40
50.0
  9
$CAMERAHEIGHT
 40
0.0
  9
$STEPSPERSEC
 40
2.0
  9
$STEPSIZE
 40
6.0
  9
$3DDWFPREC
 40
2.0
  9
$PSOLWIDTH
 40
5.0
  9
$PSOLHEIGHT
 40
80.0
  9
$LOFTANG1
 40
1.5707963268
  9
$LOFTANG2
 40
1.5707963268
  9
$LOFTMAG1
 40
0.0
  9
$LOFTMAG2
 40
0.0
  9
$LOFTPARAM
 70
     7
  9
$LOFTNORMALS
280
     1
  9
$LATITUDE
 40
37.795
  9
$LONGITUDE
 40
-122.394
  9
$NORTHDIRECTION
 40
0.0
  9
$TIMEZONE
 70
 -8000
  9
$LIGHTGLYPHDISPLAY
280
     1
  9
$TILEMODELIGHTSYNCH
280
     1
  9
$CMATERIAL
347
44
  9
$SOLIDHIST
280
     0
  9
$SHOWHIST
280
     1
  9
$DWFFRAME
280
     2
  9
$DGNFRAME
280
     2
  9
$REALWORLDSCALE
290
     1
  9
$INTERFERECOLOR
 62
   256
  9
$CSHADOW
280
     0
  9
$SHADOWPLANELOCATION
 40
0.0
  0
ENDSEC
  0
SECTION
  2
CLASSES
  0
CLASS
  1
ACDBDICTIONARYWDFLT
  2
AcDbDictionaryWithDefault
  3
ObjectDBX Classes
 90
        0
 91
        3
280
     0
281
     0
  0
CLASS
  1
VISUALSTYLE
  2
AcDbVisualStyle
  3
ObjectDBX Classes
 90
     4095
 91
        3
280
     0
281
     0
  0
CLASS
  1
MATERIAL
  2
AcDbMaterial
  3
ObjectDBX Classes
 90
     1153
 91
        3
280
     0
281
     0
  0
CLASS
  1
SCALE
  2
AcDbScale
  3
ObjectDBX Classes
 90
     1153
 91
        3
280
     0
281
     0
  0
CLASS
  1
TABLESTYLE
  2
AcDbTableStyle
  3
ObjectDBX Classes
 90
     4095
 91
        3
280
     0
281
     0
  0
CLASS
  1
MLEADERSTYLE
  2
AcDbMLeaderStyle
  3
ACDB_MLEADERSTYLE_CLASS
 90
     4095
 91
        3
280
     0
281
     0
  0
CLASS
  1
SUN
  2
AcDbSun
  3
SCENEOE
 90
     1153
 91
        3
280
     0
281
     0
  0
CLASS
  1
DICTIONARYVAR
  2
AcDbDictionaryVar
  3
ObjectDBX Classes
 90
        0
 91
        3
280
     0
281
     0
  0
CLASS
  1
CELLSTYLEMAP
  2
AcDbCellStyleMap
  3
ObjectDBX Classes
 90
     1152
 91
        3
280
     0
281
     0
  0
ENDSEC
  0
SECTION
  2
TABLES
  0
TABLE
  2
VPORT
  5
8
330
0
100
AcDbSymbolTable
 70
     1
  0
VPORT
  5
29
330
8
100
AcDbSymbolTableRecord
100
AcDbViewportTableRecord
  2
*Active
 70
     0
 10
0.0
 20
0.0
 11
1.0
 21
1.0
 12
45.0
 22
55.0
 13
0.0
 23
0.0
 14
10.0
 24
10.0
 15
10.0
 25
10.0
 16
0.0
 26
0.0
 36
1.0
 17
0.0
 27
0.0
 37
0.0
 40
110.0
 41
0.8181818182
 42
50.0
 43
0.0
 44
0.0
 50
0.0
 51
0.0
 71
     0
 72
  2000
 73
     1
 74
     3
 75
     0
 76
     0
 77
     0
 78
     0
281
     0
 65
     1
110
0.0
120
0.0
130
0.0
111
1.0
121
0.0
131
0.0
112
0.0
122
1.0
132
0.0
 79
     0
146
0.0
348
2F
 60
     3
 61
     5
292
     1
282
     1
141
0.0
142
0.0
 63
   250
361
5D
  0
ENDTAB
  0
TABLE
  2
LTYPE
  5
5
330
0
100
AcDbSymbolTable
 70
     8
  0
LTYPE
  5
14
330
5
100
AcDbSymbolTableRecord
100
AcDbLinetypeTableRecord
  2
ByBlock
 70
     0
  3

 72
    65
 73
     0
 40
0.0
  0
LTYPE
  5
15
330
5
100
AcDbSymbolTableRecord
100
AcDbLinetypeTableRecord
  2
ByLayer
 70
     0
  3

 72
    65
 73
     0
 40
0.0
  0
LTYPE
  5
16
330
5
100
AcDbSymbolTableRecord
100
AcDbLinetypeTableRecord
  2
Continuous
 70
     0
  3
Solid line
 72
    65
 73
     0
 40
0.0
  0
LTYPE
  5
5E
330
5
100
AcDbSymbolTableRecord
100
AcDbLinetypeTableRecord
  2
SLD-Сплошная
 70
     0
  3
SolidWorks Line Style
 72
    65
 73
     0
 40
0.0
  0
LTYPE
  5
5F
330
5
100
AcDbSymbolTableRecord
100
AcDbLinetypeTableRecord
  2
SLD-Штриховая
 70
     0
  3
SolidWorks Line Style
 72
    65
 73
     2
 40
1.905
 49
1.27
 74
     0
 49
-0.635
 74
     0
  0
LTYPE
  5
60
330
5
100
AcDbSymbolTableRecord
100
AcDbLinetypeTableRecord
  2
SLD-Штрихпункт.-с-двумя-точками
 70
     0
  3
SolidWorks Line Style
 72
    65
 73
     6
 40
12.7
 49
6.35
 74
     0
 49
-1.27
 74
     0
 49
1.27
 74
     0
 49
-1.27
 74
     0
 49
1.27
 74
     0
 49
-1.27
 74
     0
  0
LTYPE
  5
61
330
5
100
AcDbSymbolTableRecord
100
AcDbLinetypeTableRecord
  2
SLD-Штрихпункт.-утолщ.
 70
     0
  3
SolidWorks Line Style
 72
    65
 73
     4
 40
10.16
 49
6.35
 74
     0
 49
-1.27
 74
     0
 49
1.27
 74
     0
 49
-1.27
 74
     0
  0
LTYPE
  5
62
330
5
100
AcDbSymbolTableRecord
100
AcDbLinetypeTableRecord
  2
SLD-Осевая
 70
     0
  3
SolidWorks Line Style
 72
    65
 73
     4
 40
19.05
 49
15.24
 74
     0
 49
-1.27
 74
     0
 49
1.27
 74
     0
 49
-1.27
 74
     0
  0
LTYPE
  5
63
330
5
100
AcDbSymbolTableRecord
100
AcDbLinetypeTableRecord
  2
SLD-Сшитая
 70
     0
  3
SolidWorks Line Style
 72
    65
 73
     2
 40
0.635
 49
0.0
 74
     0
 49
-0.635
 74
     0
  0
LTYPE
  5
64
330
5
100
AcDbSymbolTableRecord
100
AcDbLinetypeTableRecord
  2
SLD-Тонкая-Толстая
 70
     0
  3
SolidWorks Line Style
 72
    65
 73
     4
 40
2.54
 49
0.0
 74
     0
 49
-1.27
 74
     0
 49
0.0
 74
     0
 49
-1.27
 74
     0
  0
ENDTAB
  0
TABLE
  2
LAYER
  5
2
330
0
100
AcDbSymbolTable
 70
     3
  0
LAYER
  5
10
330
2
100
AcDbSymbolTableRecord
100
AcDbLayerTableRecord
  2
0
 70
     0
 62
     7
  6
Continuous
370
    -3
390
F
347
46
348
0
  0
LAYER
  5
65
330
2
100
AcDbSymbolTableRecord
100
AcDbLayerTableRecord
  2
SLD-0
 70
     0
 62
     7
  6
SLD-Сплошная
370
    25
390
F
347
46
348
0
  0
LAYER
  5
66
330
2
100
AcDbSymbolTableRecord
100
AcDbLayerTableRecord
  2
OSNOVA
 70
     0
 62
     5
  6
SLD-Сплошная
370
    -3
390
F
347
46
348
0
  0
ENDTAB
  0
TABLE
  2
STYLE
  5
3
330
0
100
AcDbSymbolTable
 70
     1
  0
STYLE
  5
11
330
3
100
AcDbSymbolTableRecord
100
AcDbTextStyleTableRecord
  2
STANDARD
 70
     0
 40
0.0
 41
1.0
 50
0.0
 71
     0
 42
2.47
  3
GOST type A
  4

1001
ACAD
1000
GOST TYPE A
1071
 16777472
  0
ENDTAB
  0
TABLE
  2
VIEW
  5
6
330
0
100
AcDbSymbolTable
 70
     0
  0
ENDTAB
  0
TABLE
  2
UCS
  5
7
330
0
100
AcDbSymbolTable
 70
     0
  0
ENDTAB
  0
TABLE
  2
APPID
  5
9
330
0
100
AcDbSymbolTable
 70
     1
  0
APPID
  5
12
330
9
100
AcDbSymbolTableRecord
100
AcDbRegAppTableRecord
  2
ACAD
 70
     0
  0
ENDTAB
  0
TABLE
  2
DIMSTYLE
  5
A
330
0
100
AcDbSymbolTable
 70
     1
100
AcDbDimStyleTable
  0
DIMSTYLE
105
27
330
A
100
AcDbSymbolTableRecord
100
AcDbDimStyleTableRecord
  2
ISO-25
 70
     0
 41
2.5
 42
0.625
 43
3.75
 44
1.25
 73
     0
 74
     0
 77
     1
 78
     8
140
2.5
141
2.5
143
0.0393700787
147
0.625
171
     3
172
     1
178
     0
271
     2
272
     2
274
     3
278
    44
283
     0
284
     8
340
11
  0
ENDTAB
  0
TABLE
  2
BLOCK_RECORD
  5
1
330
0
100
AcDbSymbolTable
 70
     1
  0
BLOCK_RECORD
  5
1F
330
1
100
AcDbSymbolTableRecord
100
AcDbBlockTableRecord
  2
*Model_Space
340
22
 70
     0
280
     1
281
     0
  0
BLOCK_RECORD
  5
1B
330
1
100
AcDbSymbolTableRecord
100
AcDbBlockTableRecord
  2
*Paper_Space
340
1E
 70
     0
280
     1
281
     0
  0
BLOCK_RECORD
  5
23
330
1
100
AcDbSymbolTableRecord
100
AcDbBlockTableRecord
  2
*Paper_Space0
340
26
 70
     0
280
     1
281
     0
  0
ENDTAB
  0
ENDSEC
  0
SECTION
  2
BLOCKS
  0
BLOCK
  5
20
330
1F
100
AcDbEntity
  8
0
100
AcDbBlockBegin
  2
*Model_Space
 70
     0
 10
0.0
 20
0.0
 30
0.0
  3
*Model_Space
  1

  0
ENDBLK
  5
21
330
1F
100
AcDbEntity
  8
0
100
AcDbBlockEnd
  0
BLOCK
  5
1C
330
1B
100
AcDbEntity
 67
     1
  8
0
100
AcDbBlockBegin
  2
*Paper_Space
 70
     0
 10
0.0
 20
0.0
 30
0.0
  3
*Paper_Space
  1

  0
ENDBLK
  5
1D
330
1B
100
AcDbEntity
 67
     1
  8
0
100
AcDbBlockEnd
  0
BLOCK
  5
24
330
23
100
AcDbEntity
  8
0
100
AcDbBlockBegin
  2
*Paper_Space0
 70
     0
 10
0.0
 20
0.0
 30
0.0
  3
*Paper_Space0
  1

  0
ENDBLK
  5
25
330
23
100
AcDbEntity
  8
0
100
AcDbBlockEnd
  0
ENDSEC
  0
SECTION
  2
ENTITIES
  0
LINE
  5
67
330
1F
100
AcDbEntity
  8
0
  6
SLD-Сплошная
 62
     7
370
    25
100
AcDbLine
 10
282.0232969422
 20
-254.0028567552
 30
0.0
 11
283.7232969422
 21
-254.0028567552
 31
0.0
  0
LINE
  5
68
330
1F
100
AcDbEntity
  8
0
  6
SLD-Сплошная
 62
     7
370
    25
100
AcDbLine
 10
277.7348795464
 20
-246.5750999417
 30
0.0
 11
282.0232969422
 21
-254.0028567552
 31
0.0
  0
LINE
  5
69
330
1F
100
AcDbEntity
  8
0
  6
SLD-Сплошная
 62
     7
370
    25
100
AcDbLine
 10
278.5848795464
 20
-245.1028567552
 30
0.0
 11
277.7348795464
 21
-246.5750999417
 31
0.0
  0
LINE
  5
6A
330
1F
100
AcDbEntity
  8
0
  6
SLD-Сплошная
 62
     7
370
    25
100
AcDbLine
 10
287.161714338
 20
-245.1028567552
 30
0.0
 11
278.5848795464
 21
-245.1028567552
 31
0.0
  0
LINE
  5
6B
330
1F
100
AcDbEntity
  8
0
  6
SLD-Сплошная
 62
     7
370
    25
100
AcDbLine
 10
288.011714338
 20
-246.5750999417
 30
0.0
 11
287.161714338
 21
-245.1028567552
 31
0.0
  0
LINE
  5
6C
330
1F
100
AcDbEntity
  8
0
  6
SLD-Сплошная
 62
     7
370
    25
100
AcDbLine
 10
283.7232969422
 20
-254.0028567552
 30
0.0
 11
288.011714338
 21
-246.5750999417
 31
0.0
  0
ARC
  5
6D
330
1F
100
AcDbEntity
  8
0
  6
SLD-Сплошная
 62
     7
370
    25
100
AcDbCircle
 10
282.8732969422
 20
-248.6028567552
 30
0.0
 40
11.6405989232415
100
AcDbArc
 50
180.0
 51
0.0
  0
ARC
  5
6E
330
1F
100
AcDbEntity
  8
0
  6
SLD-Сплошная
 62
     7
370
    25
100
AcDbCircle
 10
282.8732969422
 20
-248.6028567552
 30
0.0
 40
11.6405989232415
100
AcDbArc
 50
0.0
 51
180.0
  0
ARC
  5
6F
330
1F
100
AcDbEntity
  8
0
  6
SLD-Сплошная
 62
     7
370
    25
100
AcDbCircle
 10
282.8732969422
 20
-248.6028567552
 30
0.0
 40
8.000000000000057
100
AcDbArc
 50
0.0
 51
180.0
  0
ARC
  5
70
330
1F
100
AcDbEntity
  8
0
  6
SLD-Сплошная
 62
     7
370
    25
100
AcDbCircle
 10
282.8732969422
 20
-248.6028567552
 30
0.0
 40
8.000000000000057
100
AcDbArc
 50
180.0
 51
0.0
  0
ARC
  5
71
330
1F
100
AcDbEntity
  8
0
  6
SLD-Сплошная
 62
     7
370
    25
100
AcDbCircle
 10
282.8732969422
 20
-248.6028567552
 30
0.0
 40
13.95000000000005
100
AcDbArc
 50
180.0
 51
0.0
  0
ARC
  5
72
330
1F
100
AcDbEntity
  8
0
  6
SLD-Сплошная
 62
     7
370
    25
100
AcDbCircle
 10
282.8732969422
 20
-248.6028567552
 30
0.0
 40
13.95000000000005
100
AcDbArc
 50
0.0
 51
180.0
  0
LINE
  5
73
330
1F
100
AcDbEntity
  8
0
  6
SLD-Сплошная
 62
     7
370
    25
100
AcDbLine
 10
277.7348795464
 20
59.5249000583
 30
0.0
 11
282.0232969422
 21
52.0971432448
 31
0.0
  0
LINE
  5
74
330
1F
100
AcDbEntity
  8
0
  6
SLD-Сплошная
 62
     7
370
    25
100
AcDbLine
 10
278.5848795464
 20
60.9971432448
 30
0.0
 11
277.7348795464
 21
59.5249000583
 31
0.0
  0
LINE
  5
75
330
1F
100
AcDbEntity
  8
0
  6
SLD-Сплошная
 62
     7
370
    25
100
AcDbLine
 10
287.161714338
 20
60.9971432448
 30
0.0
 11
278.5848795464
 21
60.9971432448
 31
0.0
  0
LINE
  5
76
330
1F
100
AcDbEntity
  8
0
  6
SLD-Сплошная
 62
     7
370
    25
100
AcDbLine
 10
288.011714338
 20
59.5249000583
 30
0.0
 11
287.161714338
 21
60.9971432448
 31
0.0
  0
LINE
  5
77
330
1F
100
AcDbEntity
  8
0
  6
SLD-Сплошная
 62
     7
370
    25
100
AcDbLine
 10
282.0232969422
 20
52.0971432448
 30
0.0
 11
283.7232969422
 21
52.0971432448
 31
0.0
  0
LINE
  5
78
330
1F
100
AcDbEntity
  8
0
  6
SLD-Сплошная
 62
     7
370
    25
100
AcDbLine
 10
283.7232969422
 20
52.0971432448
 30
0.0
 11
288.011714338
 21
59.5249000583
 31
0.0
  0
ARC
  5
79
330
1F
100
AcDbEntity
  8
0
  6
SLD-Сплошная
 62
     7
370
    25
100
AcDbCircle
 10
282.8732969422
 20
57.4971432448
 30
0.0
 40
11.64059892324144
100
AcDbArc
 50
180.0
 51
0.0
  0
ARC
  5
7A
330
1F
100
AcDbEntity
  8
0
  6
SLD-Сплошная
 62
     7
370
    25
100
AcDbCircle
 10
282.8732969422
 20
57.4971432448
 30
0.0
 40
11.64059892324144
100
AcDbArc
 50
0.0
 51
180.0
  0
ARC
  5
7B
330
1F
100
AcDbEntity
  8
0
  6
SLD-Сплошная
 62
     7
370
    25
100
AcDbCircle
 10
282.8732969422
 20
57.4971432448
 30
0.0
 40
8.000000000000057
100
AcDbArc
 50
0.0
 51
180.0
  0
ARC
  5
7C
330
1F
100
AcDbEntity
  8
0
  6
SLD-Сплошная
 62
     7
370
    25
100
AcDbCircle
 10
282.8732969422
 20
57.4971432448
 30
0.0
 40
8.000000000000057
100
AcDbArc
 50
180.0
 51
0.0
  0
ARC
  5
7D
330
1F
100
AcDbEntity
  8
0
  6
SLD-Сплошная
 62
     7
370
    25
100
AcDbCircle
 10
282.8732969422
 20
57.4971432448
 30
0.0
 40
13.95000000000005
100
AcDbArc
 50
180.0
 51
0.0
  0
ARC
  5
7E
330
1F
100
AcDbEntity
  8
0
  6
SLD-Сплошная
 62
     7
370
    25
100
AcDbCircle
 10
282.8732969422
 20
57.4971432448
 30
0.0
 40
13.95000000000005
100
AcDbArc
 50
0.0
 51
180.0
  0
LINE
  5
7F
330
1F
100
AcDbEntity
  8
0
  6
SLD-Сплошная
 62
     7
370
    25
100
AcDbLine
 10
282.0232969422
 20
358.1790696666
 30
0.0
 11
283.7232969422
 21
358.1790696666
 31
0.0
  0
LINE
  5
80
330
1F
100
AcDbEntity
  8
0
  6
SLD-Сплошная
 62
     7
370
    25
100
AcDbLine
 10
277.7348795464
 20
365.6068264802
 30
0.0
 11
282.0232969422
 21
358.1790696666
 31
0.0
  0
LINE
  5
81
330
1F
100
AcDbEntity
  8
0
  6
SLD-Сплошная
 62
     7
370
    25
100
AcDbLine
 10
278.5848795464
 20
367.0790696666
 30
0.0
 11
277.7348795464
 21
365.6068264802
 31
0.0
  0
LINE
  5
82
330
1F
100
AcDbEntity
  8
0
  6
SLD-Сплошная
 62
     7
370
    25
100
AcDbLine
 10
287.161714338
 20
367.0790696666
 30
0.0
 11
278.5848795464
 21
367.0790696666
 31
0.0
  0
LINE
  5
83
330
1F
100
AcDbEntity
  8
0
  6
SLD-Сплошная
 62
     7
370
    25
100
AcDbLine
 10
288.011714338
 20
365.6068264802
 30
0.0
 11
287.161714338
 21
367.0790696666
 31
0.0
  0
LINE
  5
84
330
1F
100
AcDbEntity
  8
0
  6
SLD-Сплошная
 62
     7
370
    25
100
AcDbLine
 10
283.7232969422
 20
358.1790696666
 30
0.0
 11
288.011714338
 21
365.6068264802
 31
0.0
  0
ARC
  5
85
330
1F
100
AcDbEntity
  8
0
  6
SLD-Сплошная
 62
     7
370
    25
100
AcDbCircle
 10
282.8732969422
 20
363.5790696666
 30
0.0
 40
13.95000000000005
100
AcDbArc
 50
180.0
 51
0.0
  0
ARC
  5
86
330
1F
100
AcDbEntity
  8
0
  6
SLD-Сплошная
 62
     7
370
    25
100
AcDbCircle
 10
282.8732969422
 20
363.5790696666
 30
0.0
 40
11.6405989232415
100
AcDbArc
 50
180.0
 51
0.0
  0
ARC
  5
87
330
1F
100
AcDbEntity
  8
0
  6
SLD-Сплошная
 62
     7
370
    25
100
AcDbCircle
 10
282.8732969422
 20
363.5790696666
 30
0.0
 40
13.95000000000005
100
AcDbArc
 50
0.0
 51
180.0
  0
ARC
  5
88
330
1F
100
AcDbEntity
  8
0
  6
SLD-Сплошная
 62
     7
370
    25
100
AcDbCircle
 10
282.8732969422
 20
363.5790696666
 30
0.0
 40
11.6405989232415
100
AcDbArc
 50
0.0
 51
180.0
  0
ARC
  5
89
330
1F
100
AcDbEntity
  8
0
  6
SLD-Сплошная
 62
     7
370
    25
100
AcDbCircle
 10
282.8732969422
 20
363.5790696666
 30
0.0
 40
8.0
100
AcDbArc
 50
180.0
 51
0.0
  0
ARC
  5
8A
330
1F
100
AcDbEntity
  8
0
  6
SLD-Сплошная
 62
     7
370
    25
100
AcDbCircle
 10
282.8732969422
 20
363.5790696666
 30
0.0
 40
8.0
100
AcDbArc
 50
0.0
 51
180.0
  0
LINE
  5
8B
330
1F
100
AcDbEntity
  8
0
  6
SLD-Сплошная
 62
     7
370
    25
100
AcDbLine
 10
-254.3771933036
 20
-283.6956392175
 30
0.0
 11
-253.0162642607
 21
-283.6956392175
 31
0.0
  0
LINE
  5
8C
330
1F
100
AcDbEntity
  8
0
  6
SLD-Сплошная
 62
     7
370
    25
100
AcDbLine
 10
-254.3771933036
 20
-253.6956392175
 30
0.0
 11
-254.3771933036
 21
-283.6956392175
 31
0.0
  0
LINE
  5
8D
330
1F
100
AcDbEntity
  8
0
  6
SLD-Сплошная
 62
     7
370
    25
100
AcDbLine
 10
-253.0162642607
 20
-253.6956392175
 30
0.0
 11
-254.3771933036
 21
-253.6956392175
 31
0.0
  0
LINE
  5
8E
330
1F
100
AcDbEntity
  8
0
  6
SLD-Сплошная
 62
     7
370
    25
100
AcDbLine
 10
-254.3771933036
 20
-66.6956392175
 30
0.0
 11
-253.0162642607
 21
-66.6956392175
 31
0.0
  0
LINE
  5
8F
330
1F
100
AcDbEntity
  8
0
  6
SLD-Сплошная
 62
     7
370
    25
100
AcDbLine
 10
-254.3771933036
 20
-36.6956392175
 30
0.0
 11
-254.3771933036
 21
-66.6956392175
 31
0.0
  0
LINE
  5
90
330
1F
100
AcDbEntity
  8
0
  6
SLD-Сплошная
 62
     7
370
    25
100
AcDbLine
 10
-253.0162642607
 20
-36.6956392175
 30
0.0
 11
-254.3771933036
 21
-36.6956392175
 31
0.0
  0
LINE
  5
91
330
1F
100
AcDbEntity
  8
0
  6
SLD-Сплошная
 62
     7
370
    25
100
AcDbLine
 10
-253.0162642607
 20
181.4843607825
 30
0.0
 11
-254.3771933036
 21
181.4843607825
 31
0.0
  0
LINE
  5
92
330
1F
100
AcDbEntity
  8
0
  6
SLD-Сплошная
 62
     7
370
    25
100
AcDbLine
 10
-254.3771933036
 20
151.4843607825
 30
0.0
 11
-253.0162642607
 21
151.4843607825
 31
0.0
  0
LINE
  5
93
330
1F
100
AcDbEntity
  8
0
  6
SLD-Сплошная
 62
     7
370
    25
100
AcDbLine
 10
-254.3771933036
 20
181.4843607825
 30
0.0
 11
-254.3771933036
 21
151.4843607825
 31
0.0
  0
LINE
  5
94
330
1F
100
AcDbEntity
  8
0
  6
SLD-Сплошная
 62
     7
370
    25
100
AcDbLine
 10
-254.3771933036
 20
368.4843607825
 30
0.0
 11
-253.0162642607
 21
368.4843607825
 31
0.0
  0
LINE
  5
95
330
1F
100
AcDbEntity
  8
0
  6
SLD-Сплошная
 62
     7
370
    25
100
AcDbLine
 10
-253.0162642607
 20
398.4843607825
 30
0.0
 11
-254.3771933036
 21
398.4843607825
 31
0.0
  0
LINE
  5
96
330
1F
100
AcDbEntity
  8
0
  6
SLD-Сплошная
 62
     7
370
    25
100
AcDbLine
 10
-254.3771933036
 20
398.4843607825
 30
0.0
 11
-254.3771933036
 21
368.4843607825
 31
0.0
  0
ARC
  5
97
330
1F
100
AcDbEntity
  8
0
  6
SLD-Сплошная
 62
     7
370
    25
100
AcDbCircle
 10
329.0646640639
 20
-325.9560002688
 30
0.0
 40
16.55813274588354
100
AcDbArc
 50
270.0
 51
0.0
  0
LINE
  5
98
330
1F
100
AcDbEntity
  8
0
  6
SLD-Сплошная
 62
     7
370
    25
100
AcDbLine
 10
329.0646640639
 20
-342.5141330147
 30
0.0
 11
-234.3190704443
 21
-342.5141330147
 31
0.0
  0
ARC
  5
99
330
1F
100
AcDbEntity
  8
0
  6
SLD-Сплошная
 62
     7
370
    25
100
AcDbCircle
 10
-234.3190704443
 20
-322.4560002688
 30
0.0
 40
20.05813274588354
100
AcDbArc
 50
180.0
 51
270.0
  0
LINE
  5
9A
330
1F
100
AcDbEntity
  8
0
  6
SLD-Сплошная
 62
     7
370
    25
100
AcDbLine
 10
-254.3771484077
 20
-252.5296053927
 30
0.0
 11
-254.3771484077
 21
-253.6956392175
 31
0.0
  0
LINE
  5
9B
330
1F
100
AcDbEntity
  8
0
  6
SLD-Сплошная
 62
     7
370
    25
100
AcDbLine
 10
-254.3771484077
 20
-283.6956392175
 30
0.0
 11
-254.3771484077
 21
-284.9079803668
 31
0.0
  0
LINE
  5
9C
330
1F
100
AcDbEntity
  8
0
  6
SLD-Сплошная
 62
     7
370
    25
100
AcDbLine
 10
-254.3771484077
 20
-35.5296053927
 30
0.0
 11
-254.3771484077
 21
-36.6956392175
 31
0.0
  0
LINE
  5
9D
330
1F
100
AcDbEntity
  8
0
  6
SLD-Сплошная
 62
     7
370
    25
100
AcDbLine
 10
-254.3771484077
 20
-66.6956392175
 30
0.0
 11
-254.3771484077
 21
-67.9079803668
 31
0.0
  0
LINE
  5
9E
330
1F
100
AcDbEntity
  8
0
  6
SLD-Сплошная
 62
     7
370
    25
100
AcDbLine
 10
-254.3771484077
 20
182.6840631254
 30
0.0
 11
-254.3771484077
 21
181.4843607825
 31
0.0
  0
LINE
  5
9F
330
1F
100
AcDbEntity
  8
0
  6
SLD-Сплошная
 62
     7
370
    25
100
AcDbLine
 10
-254.3771484077
 20
151.4843607825
 30
0.0
 11
-254.3771484077
 21
150.3056881514
 31
0.0
  0
LINE
  5
A0
330
1F
100
AcDbEntity
  8
0
  6
SLD-Сплошная
 62
     7
370
    25
100
AcDbLine
 10
-254.3771484077
 20
399.6840631254
 30
0.0
 11
-254.3771484077
 21
398.4843607825
 31
0.0
  0
LINE
  5
A1
330
1F
100
AcDbEntity
  8
0
  6
SLD-Сплошная
 62
     7
370
    25
100
AcDbLine
 10
-254.3771484077
 20
368.4843607825
 30
0.0
 11
-254.3771484077
 21
367.3056881514
 31
0.0
  0
LWPOLYLINE
  5
A2
330
1F
100
AcDbEntity
  8
0
  6
SLD-Сплошная
 62
     7
370
    25
100
AcDbPolyline
 90
        3
 70
   128
 43
0.0
 10
-234.3190704443
 20
457.4877934072
 10
-235.3349981963
 20
457.4620489376
 10
-235.8631056689
 20
457.4282767253
  0
ARC
  5
A3
330
1F
100
AcDbEntity
  8
0
  6
SLD-Сплошная
 62
     7
370
    25
100
AcDbCircle
 10
-234.3190704443
 20
437.4296606613
 30
0.0
 40
20.05813274588354
100
AcDbArc
 50
98.2397559027
 51
180.0
  0
ARC
  5
A4
330
1F
100
AcDbEntity
  8
0
  6
SLD-Сплошная
 62
     7
370
    25
100
AcDbCircle
 10
329.0646640639
 20
440.9296606613
 30
0.0
 40
16.55813274588359
100
AcDbArc
 50
0.0
 51
86.9213655592
  0
LINE
  5
A5
330
1F
100
AcDbEntity
  8
0
  6
SLD-Сплошная
 62
     7
370
    25
100
AcDbLine
 10
345.6227968098
 20
440.9296606613
 30
0.0
 11
345.6227968098
 21
-325.9560002688
 31
0.0
  0
ELLIPSE
  5
A6
330
1F
100
AcDbEntity
  8
0
  6
SLD-Сплошная
 62
     7
370
    25
100
AcDbEllipse
 10
-85.8968423262
 20
-187.0500925788
 30
0.0
 11
-114.2160718355563
 21
-114.1773431870691
 31
-4.433786671143025E-12
210
2.208716415254792E-16
220
-3.905340269752338E-14
230
1.0
 40
0.2724482921
 41
6.017278943875897
 42
6.549263697380205
  0
LINE
  5
A7
330
1F
100
AcDbEntity
  8
0
  6
SLD-Сплошная
 62
     7
370
    25
100
AcDbLine
 10
-204.2732875263
 20
404.1134217587
 30
0.0
 11
-204.2732875264
 21
-289.0373390001
 31
0.0
  0
ELLIPSE
  5
A8
330
1F
100
AcDbEntity
  8
0
  6
SLD-Сплошная
 62
     7
370
    25
100
AcDbEllipse
 10
-85.8968423262
 20
302.1261753373
 30
0.0
 11
-114.2160718355358
 21
114.1773431870451
 31
4.433786671143025E-12
210
-2.208716415210521E-16
220
-3.905340269752713E-14
230
0.9999999999999998
 40
0.2724482921
 41
6.017106916978958
 42
6.549091670483264
  0
LINE
  5
A9
330
1F
100
AcDbEntity
  8
0
  6
SLD-Сплошная
 62
     7
370
    25
100
AcDbLine
 10
291.8101010024
 20
420.4680275476
 30
0.0
 11
-187.9139010558
 21
420.4680275476
 31
0.0
  0
ELLIPSE
  5
AA
330
1F
100
AcDbEntity
  8
0
  6
SLD-Сплошная
 62
     7
370
    25
100
AcDbEllipse
 10
189.8276344519
 20
302.1261753373
 30
0.0
 11
-114.1787807982264
 21
-114.1787807982233
 31
-4.433786671143025E-12
210
2.244457002564452E-16
220
-3.905641290244975E-14
230
0.9999999999999998
 40
0.2724910719
 41
2.875560466047676
 42
3.407624841134152
  0
LINE
  5
AB
330
1F
100
AcDbEntity
  8
0
  6
SLD-Сплошная
 62
     7
370
    25
100
AcDbLine
 10
308.1694866623
 20
404.108641888
 30
0.0
 11
308.1694866623
 21
374.7425893401
 31
0.0
  0
ARC
  5
AC
330
1F
100
AcDbEntity
  8
0
  6
SLD-Сплошная
 62
     7
370
    25
100
AcDbCircle
 10
282.8704330991
 20
363.6367007097
 30
0.0
 40
27.6293842397366
100
AcDbArc
 50
23.7007225971
 51
90.0
  0
ARC
  5
AD
330
1F
100
AcDbEntity
  8
0
  6
SLD-Сплошная
 62
     7
370
    25
100
AcDbCircle
 10
282.8704330991
 20
363.6367007097
 30
0.0
 40
27.62938423973657
100
AcDbArc
 50
90.0
 51
270.0
  0
ARC
  5
AE
330
1F
100
AcDbEntity
  8
0
  6
SLD-Сплошная
 62
     7
370
    25
100
AcDbCircle
 10
282.8704330991
 20
363.6367007097
 30
0.0
 40
27.62938423973659
100
AcDbArc
 50
270.0
 51
336.2992774029
  0
LINE
  5
AF
330
1F
100
AcDbEntity
  8
0
  6
SLD-Сплошная
 62
     7
370
    25
100
AcDbLine
 10
308.1694866623
 20
352.5308120792
 30
0.0
 11
308.1694866623
 21
68.6452706793
 31
0.0
  0
ARC
  5
B0
330
1F
100
AcDbEntity
  8
0
  6
SLD-Сплошная
 62
     7
370
    25
100
AcDbCircle
 10
282.8704330991
 20
57.5393820489
 30
0.0
 40
27.62938423972547
100
AcDbArc
 50
23.7007225969
 51
336.2992774031
  0
LINE
  5
B1
330
1F
100
AcDbEntity
  8
0
  6
SLD-Сплошная
 62
     7
370
    25
100
AcDbLine
 10
308.1694866623
 20
46.4334934186
 30
0.0
 11
308.1694866623
 21
-237.4547293208
 31
0.0
  0
ARC
  5
B2
330
1F
100
AcDbEntity
  8
0
  6
SLD-Сплошная
 62
     7
370
    25
100
AcDbCircle
 10
282.8704330991
 20
-248.5606179511
 30
0.0
 40
27.62938423972548
100
AcDbArc
 50
23.7007225967
 51
90.0
  0
ARC
  5
B3
330
1F
100
AcDbEntity
  8
0
  6
SLD-Сплошная
 62
     7
370
    25
100
AcDbCircle
 10
282.8704330991
 20
-248.5606179511
 30
0.0
 40
27.62938423972557
100
AcDbArc
 50
90.0
 51
270.0
  0
ARC
  5
B4
330
1F
100
AcDbEntity
  8
0
  6
SLD-Сплошная
 62
     7
370
    25
100
AcDbCircle
 10
282.8704330991
 20
-248.5606179511
 30
0.0
 40
27.62938423972557
100
AcDbArc
 50
270.0
 51
336.2992774033
  0
LINE
  5
B5
330
1F
100
AcDbEntity
  8
0
  6
SLD-Сплошная
 62
     7
370
    25
100
AcDbLine
 10
308.1694866624
 20
-259.6665065814
 30
0.0
 11
308.1694866624
 21
-289.0325591293
 31
0.0
  0
ELLIPSE
  5
B6
330
1F
100
AcDbEntity
  8
0
  6
SLD-Сплошная
 62
     7
370
    25
100
AcDbEllipse
 10
189.827634452
 20
-187.0500925788
 30
0.0
 11
-114.1787807982678
 21
114.1787807982466
 31
4.433786671143026E-12
210
-2.244457002588780E-16
220
-3.905641290244432E-14
230
1.0
 40
0.2724910719
 41
2.875560466045581
 42
3.407624841134087
  0
LINE
  5
B7
330
1F
100
AcDbEntity
  8
0
  6
SLD-Сплошная
 62
     7
370
    25
100
AcDbLine
 10
-187.9139010558
 20
-305.3919447891
 30
0.0
 11
291.8101010026
 21
-305.3919447891
 31
0.0
  0
LINE
  5
B8
330
1F
100
AcDbEntity
  8
0
  6
SLD-Сплошная
 62
     7
370
    25
100
AcDbLine
 10
313.0326813359
 20
441.6906078811
 30
0.0
 11
-209.1436800315
 21
441.6906078811
 31
0.0
  0
ELLIPSE
  5
B9
330
1F
100
AcDbEntity
  8
0
  6
SLD-Сплошная
 62
     7
370
    25
100
AcDbEllipse
 10
330.646379801
 20
442.9449206865
 30
0.0
 11
62.56686685685571
 21
0.3532423270555682
 31
0.0
210
0.0
220
0.0
230
0.9999999999999998
 40
0.0192361392
 41
4.426904665976443
 42
4.449564951900701
  0
SPLINE
  5
BA
330
1F
100
AcDbEntity
  8
0
  6
SLD-Сплошная
 62
     7
370
    25
100
AcDbSpline
210
0.0
220
0.0
230
1.0
 70
     8
 71
     3
 72
    30
 73
    26
 74
     0
 42
0.00000001
 43
0.00000001
 40
0.0
 40
0.0
 40
0.0
 40
0.0
 40
0.1249999999999856
 40
0.1249999999999856
 40
0.1874999999999833
 40
0.1874999999999833
 40
0.249999999999981
 40
0.249999999999981
 40
0.3749999999999764
 40
0.3749999999999764
 40
0.4374999999999741
 40
0.4374999999999741
 40
0.4999999999999718
 40
0.4999999999999718
 40
0.6249999999999671
 40
0.6249999999999671
 40
0.6874999999999727
 40
0.6874999999999727
 40
0.7499999999999781
 40
0.7499999999999781
 40
0.8124999999999836
 40
0.8124999999999836
 40
0.874999999999989
 40
0.874999999999989
 40
1.0
 40
1.0
 40
1.0
 40
1.0
 10
314.3975291448522
 20
441.6909299049458
 30
0.0
 10
315.3876232425286
 20
441.6913956295155
 30
0.0
 10
316.3611118267305
 20
441.5944164202722
 30
0.0
 10
317.7975342604935
 20
441.3088522036643
 30
0.0
 10
318.2723439686309
 20
441.1901432861689
 30
0.0
 10
319.2138006653668
 20
440.9046449878037
 30
0.0
 10
319.6815667940591
 20
440.7371024777259
 30
0.0
 10
321.0422047268199
 20
440.1726934248782
 30
0.0
 10
321.9028282545218
 20
439.7121893365982
 30
0.0
 10
323.1248319790654
 20
438.896245467003
 30
0.0
 10
323.5221153295167
 20
438.6019808901638
 30
0.0
 10
324.2856169861758
 20
437.975582955695
 30
0.0
 10
324.6490686323155
 20
437.6459942654608
 30
0.0
 10
325.6862026284098
 20
436.6095622943536
 30
0.0
 10
326.3071740924537
 20
435.8555110160782
 30
0.0
 10
327.1302004416369
 20
434.6273096687827
 30
0.0
 10
327.385585346332
 20
434.2021340656513
 30
0.0
 10
327.8487061703002
 20
433.3377833902625
 30
0.0
 10
328.0580099284148
 20
432.8963772917367
 30
0.0
 10
328.4327073371422
 20
431.9953280838515
 30
0.0
 10
328.5981010616158
 20
431.535685063701
 30
0.0
 10
328.8843014138377
 20
430.5978486197696
 30
0.0
 10
329.0055086887133
 20
430.1174150387418
 30
0.0
 10
329.2958783067809
 20
428.665136713916
 30
0.0
 10
329.3928547048419
 20
427.6860807634166
 30
0.0
 10
329.3923890194856
 20
426.6960700303125
 30
0.0
  0
ELLIPSE
  5
BB
330
1F
100
AcDbEntity
  8
0
  6
SLD-Сплошная
 62
     7
370
    25
100
AcDbEllipse
 10
330.646379801
 20
442.9449206865
 30
0.0
 11
0.3532423270567051
 21
62.56686685685594
 31
0.0
210
0.0
220
0.0
230
1.0
 40
0.0192361392
 41
1.833620355278711
 42
1.856280641203164
  0
ELLIPSE
  5
BC
330
1F
100
AcDbEntity
  8
0
  6
SLD-Сплошная
 62
     7
370
    25
100
AcDbEllipse
 10
-226.7573160134
 20
442.9388857309
 30
0.0
 11
-0.3530688111679866
 21
62.55603102998175
 31
0.0
210
0.0
220
0.0
230
1.0
 40
0.0192392307
 41
4.427034030307885
 42
4.449618249460107
  0
SPLINE
  5
BD
330
1F
100
AcDbEntity
  8
0
  6
SLD-Сплошная
 62
     7
370
    25
100
AcDbSpline
210
0.0
220
0.0
230
1.0
 70
     8
 71
     3
 72
    30
 73
    26
 74
     0
 42
0.00000001
 43
0.00000001
 40
0.0
 40
0.0
 40
0.0
 40
0.0
 40
0.1249999999999917
 40
0.1249999999999917
 40
0.1874999999999876
 40
0.1874999999999876
 40
0.2499999999999834
 40
0.2499999999999834
 40
0.3749999999999751
 40
0.3749999999999751
 40
0.437499999999972
 40
0.437499999999972
 40
0.4999999999999688
 40
0.4999999999999688
 40
0.62499999999997
 40
0.62499999999997
 40
0.6874999999999746
 40
0.6874999999999746
 40
0.749999999999979
 40
0.749999999999979
 40
0.8124999999999836
 40
0.8124999999999836
 40
0.8749999999999881
 40
0.8749999999999881
 40
1.0
 40
1.0
 40
1.0
 40
1.0
 10
-225.5033863514781
 20
426.6960678559324
 30
0.0
 10
-225.5038505635991
 20
427.6861626363966
 30
0.0
 10
-225.4068698013202
 20
428.6596509552649
 30
0.0
 10
-225.1213039540372
 20
430.0960722939444
 30
0.0
 10
-225.0025946027765
 20
430.5708815169743
 30
0.0
 10
-224.7170957301792
 20
431.5123370885076
 30
0.0
 10
-224.5495529478688
 20
431.9801029849247
 30
0.0
 10
-223.9851432001369
 20
433.3407405544372
 30
0.0
 10
-223.5246390860234
 20
434.2013636588475
 30
0.0
 10
-222.70869609001
 20
435.4233665506367
 30
0.0
 10
-222.4144323769268
 20
435.8206491093867
 30
0.0
 10
-221.7880341455073
 20
436.5841519204021
 30
0.0
 10
-221.4584454400744
 20
436.947603985828
 30
0.0
 10
-220.4220139025817
 20
437.9847388782008
 30
0.0
 10
-219.6679635491319
 20
438.605710455379
 30
0.0
 10
-218.439764864716
 20
439.428736671174
 30
0.0
 10
-218.0145891131065
 20
439.6841222537475
 30
0.0
 10
-217.1502386883773
 20
440.1472439432963
 30
0.0
 10
-216.7088328549686
 20
440.356548025289
 30
0.0
 10
-215.8077844425309
 20
440.7312459544991
 30
0.0
 10
-215.3481419526897
 20
440.8966398752881
 30
0.0
 10
-214.4103068169831
 20
441.1828405706814
 30
0.0
 10
-213.9298742095086
 20
441.3040479839393
 30
0.0
 10
-212.4775954063794
 20
441.5944186123573
 30
0.0
 10
-211.4985393246929
 20
441.6913953433631
 30
0.0
 10
-210.5085285503887
 20
441.6909298041097
 30
0.0
  0
ELLIPSE
  5
BE
330
1F
100
AcDbEntity
  8
0
  6
SLD-Сплошная
 62
     7
370
    25
100
AcDbEllipse
 10
-226.7633530159
 20
442.9449206865
 30
0.0
 11
62.57759452305215
 21
-0.353301520483683
 31
0.0
210
0.0
220
0.0
230
0.9999999999999999
 40
0.0192325639
 41
4.975265740087478
 42
4.997922477712879
  0
LINE
  5
BF
330
1F
100
AcDbEntity
  8
0
  6
SLD-Сплошная
 62
     7
370
    25
100
AcDbLine
 10
-225.503066502
 20
-310.2599193334
 30
0.0
 11
-225.503066502
 21
425.336002092
 31
0.0
  0
ELLIPSE
  5
C0
330
1F
100
AcDbEntity
  8
0
  6
SLD-Сплошная
 62
     7
370
    25
100
AcDbEllipse
 10
-226.7633530159
 20
-327.8688379278
 30
0.0
 11
62.57759452305219
 21
0.3533015204837398
 31
0.0
210
0.0
220
0.0
230
0.9999999999999999
 40
0.0192325639
 41
1.285262829466751
 42
1.307919567092071
  0
SPLINE
  5
C1
330
1F
100
AcDbEntity
  8
0
  6
SLD-Сплошная
 62
     7
370
    25
100
AcDbSpline
210
0.0
220
0.0
230
1.0
 70
     8
 71
     3
 72
    30
 73
    26
 74
     0
 42
0.00000001
 43
0.00000001
 40
0.0
 40
0.0
 40
0.0
 40
0.0
 40
0.1249999999999948
 40
0.1249999999999948
 40
0.1874999999999943
 40
0.1874999999999943
 40
0.2499999999999938
 40
0.2499999999999938
 40
0.3749999999999927
 40
0.3749999999999927
 40
0.4374999999999922
 40
0.4374999999999922
 40
0.4999999999999917
 40
0.4999999999999917
 40
0.6249999999999931
 40
0.6249999999999931
 40
0.6874999999999949
 40
0.6874999999999949
 40
0.7499999999999966
 40
0.7499999999999966
 40
0.8124999999999983
 40
0.8124999999999983
 40
0.8750000000000001
 40
0.8750000000000001
 40
1.0
 40
1.0
 40
1.0
 40
1.0
 10
-210.5085285503887
 20
-326.6148470454889
 30
0.0
 10
-211.4986226690787
 20
-326.6153126239338
 30
0.0
 10
-212.4721109614005
 20
-326.5183330891511
 30
0.0
 10
-213.9085327470106
 20
-326.2327682223743
 30
0.0
 10
-214.3833422029566
 20
-326.1140590596895
 30
0.0
 10
-215.3247983566144
 20
-325.8285602188311
 30
0.0
 10
-215.7925640319282
 20
-325.6610174636396
 30
0.0
 10
-217.153200510182
 20
-325.0966077428918
 30
0.0
 10
-218.0138231625183
 20
-324.6361031888814
 30
0.0
 10
-219.2358259221261
 20
-323.8201584578683
 30
0.0
 10
-219.6331091985664
 20
-323.5258933978172
 30
0.0
 10
-220.3966097338355
 20
-322.899495366313
 30
0.0
 10
-220.7600609295753
 20
-322.569906617086
 30
0.0
 10
-221.7971938735156
 20
-321.5334744170664
 30
0.0
 10
-222.4181650339787
 20
-320.7794229141661
 30
0.0
 10
-223.2411914238392
 20
-319.5512210961049
 30
0.0
 10
-223.4965761462234
 20
-319.1260457680538
 30
0.0
 10
-223.959696926957
 20
-318.2616955480437
 30
0.0
 10
-224.1690007751487
 20
-317.8202896786131
 30
0.0
 10
-224.5436985687039
 20
-316.9192409199729
 30
0.0
 10
-224.7090925881443
 20
-316.459598120082
 30
0.0
 10
-224.9952937168006
 20
-315.521762088127
 30
0.0
 10
-225.1165014718351
 20
-315.0413286616791
 30
0.0
 10
-225.4068725681327
 20
-313.5890519739758
 30
0.0
 10
-225.5038505245055
 20
-312.6099964971212
 30
0.0
 10
-225.5033863514781
 20
-311.6199850973115
 30
0.0
  0
ELLIPSE
  5
C2
330
1F
100
AcDbEntity
  8
0
  6
SLD-Сплошная
 62
     7
370
    25
100
AcDbEllipse
 10
-226.7573160134
 20
-327.8628029723
 30
0.0
 11
0.3530688111679581
 21
62.5560310299818
 31
0.0
210
0.0
220
0.0
230
1.0
 40
0.0192392307
 41
4.975159711309396
 42
4.997743930461606
  0
ARC
  5
C3
330
1F
100
AcDbEntity
  8
0
  6
SLD-Сплошная
 62
     7
370
    25
100
AcDbCircle
 10
282.8704330991
 20
363.6367007097
 30
0.0
 40
22.50000000000006
100
AcDbArc
 50
270.0
 51
90.0
  0
ELLIPSE
  5
C4
330
1F
100
AcDbEntity
  8
0
  6
SLD-Сплошная
 62
     7
370
    25
100
AcDbEllipse
 10
276.6094165029
 20
363.6367007097
 30
0.0
 11
33.52367082018918
 21
-1.796252036001533E-11
 31
0.0
210
0.0
220
0.0
230
1.0
 40
0.9824047989
 41
5.939224637979306
 42
6.627145976381123
  0
ARC
  5
C5
330
1F
100
AcDbEntity
  8
0
  6
SLD-Сплошная
 62
     7
370
    25
100
AcDbCircle
 10
282.8704330991
 20
363.6367007097
 30
0.0
 40
22.50000000000006
100
AcDbArc
 50
90.0
 51
270.0
  0
ELLIPSE
  5
C6
330
1F
100
AcDbEntity
  8
0
  6
SLD-Сплошная
 62
     7
370
    25
100
AcDbEllipse
 10
276.6094165029
 20
-248.5606179511
 30
0.0
 11
33.52367082018907
 21
1.793409865058493E-11
 31
0.0
210
0.0
220
0.0
230
1.0
 40
0.9824047989
 41
5.939224637983491
 42
6.627145976374837
  0
ELLIPSE
  5
C7
330
1F
100
AcDbEntity
  8
0
  6
SLD-Сплошная
 62
     7
370
    25
100
AcDbEllipse
 10
276.6094165029
 20
57.5393820489
 30
0.0
 11
33.52367082018338
 21
1.791278236851213E-11
 31
0.0
210
0.0
220
0.0
230
1.0
 40
0.9824047989
 41
5.93922463798126
 42
6.627145976377069
  0
LINE
  5
C8
330
1F
100
AcDbEntity
  8
0
  6
SLD-Сплошная
 62
     7
370
    25
100
AcDbLine
 10
329.3920669956
 20
425.3312222213
 30
0.0
 11
329.3920669956
 21
-310.2551394626
 31
0.0
  0
ARC
  5
C9
330
1F
100
AcDbEntity
  8
0
  6
SLD-Сплошная
 62
     7
370
    25
100
AcDbCircle
 10
282.8704330991
 20
-248.5606179511
 30
0.0
 40
22.50000000000009
100
AcDbArc
 50
270.0
 51
90.0
  0
ARC
  5
CA
330
1F
100
AcDbEntity
  8
0
  6
SLD-Сплошная
 62
     7
370
    25
100
AcDbCircle
 10
282.8704330991
 20
-248.5606179511
 30
0.0
 40
22.50000000000009
100
AcDbArc
 50
90.0
 51
270.0
  0
ELLIPSE
  5
CB
330
1F
100
AcDbEntity
  8
0
  6
SLD-Сплошная
 62
     7
370
    25
100
AcDbEllipse
 10
330.646379801
 20
-327.8688379277
 30
0.0
 11
-0.3532423270565346
 21
62.56686685684992
 31
0.0
210
0.0
220
0.0
230
1.0
 40
0.0192361392
 41
1.285312012386614
 42
1.30797229831258
  0
SPLINE
  5
CC
330
1F
100
AcDbEntity
  8
0
  6
SLD-Сплошная
 62
     7
370
    25
100
AcDbSpline
210
0.0
220
0.0
230
1.0
 70
     8
 71
     3
 72
    30
 73
    26
 74
     0
 42
0.00000001
 43
0.00000001
 40
0.0
 40
0.0
 40
0.0
 40
0.0
 40
0.1249999999999964
 40
0.1249999999999964
 40
0.1874999999999921
 40
0.1874999999999921
 40
0.2499999999999878
 40
0.2499999999999878
 40
0.3749999999999853
 40
0.3749999999999853
 40
0.4374999999999855
 40
0.4374999999999855
 40
0.4999999999999857
 40
0.4999999999999857
 40
0.624999999999986
 40
0.624999999999986
 40
0.6874999999999872
 40
0.6874999999999872
 40
0.7499999999999883
 40
0.7499999999999883
 40
0.8124999999999896
 40
0.8124999999999896
 40
0.8749999999999908
 40
0.8749999999999908
 40
1.0
 40
1.0
 40
1.0
 40
1.0
 10
329.3923890194852
 20
-311.6199872716908
 30
0.0
 10
329.3928547440551
 20
-312.6100813693672
 30
0.0
 10
329.2958755348111
 20
-313.583569953569
 30
0.0
 10
329.0103113182034
 20
-315.019992387332
 30
0.0
 10
328.8916024007078
 20
-315.4948020954694
 30
0.0
 10
328.6061041023425
 20
-316.4362587922054
 30
0.0
 10
328.4385615922649
 20
-316.9040249208979
 30
0.0
 10
327.8741525394172
 20
-318.2646628536586
 30
0.0
 10
327.4136484511373
 20
-319.1252863813607
 30
0.0
 10
326.5977045815423
 20
-320.3472901059044
 30
0.0
 10
326.3034400047032
 20
-320.7445734563558
 30
0.0
 10
325.6770420702343
 20
-321.5080751130151
 30
0.0
 10
325.3474533800004
 20
-321.8715267591548
 30
0.0
 10
324.3110214088929
 20
-322.9086607552493
 30
0.0
 10
323.5569701306178
 20
-323.5296322192931
 30
0.0
 10
322.3287687833223
 20
-324.3526585684764
 30
0.0
 10
321.9035931801907
 20
-324.6080434731714
 30
0.0
 10
321.0392425048021
 20
-325.0711642971397
 30
0.0
 10
320.5978364062761
 20
-325.2804680552544
 30
0.0
 10
319.696787198391
 20
-325.6551654639817
 30
0.0
 10
319.2371441782408
 20
-325.8205591884553
 30
0.0
 10
318.299307734309
 20
-326.1067595406774
 30
0.0
 10
317.8188741532813
 20
-326.227966815553
 30
0.0
 10
316.3665958284559
 20
-326.5183364336208
 30
0.0
 10
315.3875398779563
 20
-326.6153128316819
 30
0.0
 10
314.3975291448521
 20
-326.6148471463256
 30
0.0
  0
ELLIPSE
  5
CD
330
1F
100
AcDbEntity
  8
0
  6
SLD-Сплошная
 62
     7
370
    25
100
AcDbEllipse
 10
330.6463798011
 20
-327.8688379278
 30
0.0
 11
62.56686685686169
 21
-0.3532423270555683
 31
0.0
210
0.0
220
0.0
230
0.9999999999999998
 40
0.0192361392
 41
1.833620355280691
 42
1.856280641203282
  0
LINE
  5
CE
330
1F
100
AcDbEntity
  8
0
  6
SLD-Сплошная
 62
     7
370
    25
100
AcDbLine
 10
-209.1436800315
 20
-326.6145251225
 30
0.0
 11
313.032681336
 21
-326.6145251225
 31
0.0
  0
CIRCLE
  5
CF
330
1F
100
AcDbEntity
  8
0
  6
SLD-Сплошная
 62
     7
370
    25
100
AcDbCircle
 10
282.8704330991
 20
57.5393820489
 30
0.0
 40
22.50000000000003
  0
SPLINE
  5
D0
330
1F
100
AcDbEntity
  8
0
  6
SLD-Сплошная
 62
     7
370
    25
100
AcDbSpline
210
0.0
220
0.0
230
1.0
 70
     8
 71
     3
 72
    16
 73
    12
 74
     0
 42
0.00000001
 43
0.00000001
 40
0.0
 40
0.0
 40
0.0
 40
0.0
 40
0.25
 40
0.25
 40
0.375
 40
0.375
 40
0.5
 40
0.5
 40
0.75
 40
0.75
 40
1.0
 40
1.0
 40
1.0
 40
1.0
 10
-227.4534292416003
 20
428.6461107460502
 30
0.0
 10
-227.4588633947928
 20
429.8165279428013
 30
0.0
 10
-227.3299691129278
 20
430.9659500703088
 30
0.0
 10
-226.9430093404951
 20
432.6557085044342
 30
0.0
 10
-226.7813489209431
 20
433.2135391863367
 30
0.0
 10
-226.3912286034212
 20
434.3152318691755
 30
0.0
 10
-226.1663508125569
 20
434.8491155967449
 30
0.0
 10
-225.4063332103045
 20
436.401185011131
 30
0.0
 10
-224.7859605418679
 20
437.3714763157452
 30
0.0
 10
-223.3187330755829
 20
439.1699211174073
 30
0.0
 10
-222.4982524474205
 20
439.966440549875
 30
0.0
 10
-221.5949754038776
 20
440.664397493211
 30
0.0
  0
ELLIPSE
  5
D1
330
1F
100
AcDbEntity
  8
0
  6
SLD-Сплошная
 62
     7
370
    25
100
AcDbEllipse
 10
-212.3958302624
 20
428.5833716415
 30
0.0
 11
-6.077008058041287
 21
13.92998313489409
 31
0.0
210
0.0
220
0.0
230
0.9999999999999999
 40
0.9849612114
 41
5.877346312213501
 42
6.526127304345472
  0
ELLIPSE
  5
D2
330
1F
100
AcDbEntity
  8
0
  6
SLD-Сплошная
 62
     7
370
    25
100
AcDbEllipse
 10
-212.3958302624
 20
-313.5072888829
 30
0.0
 11
6.077008058041116
 21
13.92998313489414
 31
0.0
210
0.0
220
0.0
230
1.0
 40
0.9849612114
 41
2.898650656423882
 42
3.547431648555895
  0
SPLINE
  5
D3
330
1F
100
AcDbEntity
  8
0
  6
SLD-Сплошная
 62
     7
370
    25
100
AcDbSpline
210
0.0
220
0.0
230
1.0
 70
     8
 71
     3
 72
    16
 73
    12
 74
     0
 42
0.00000001
 43
0.00000001
 40
0.0
 40
0.0
 40
0.0
 40
0.0
 40
0.2500000000000026
 40
0.2500000000000026
 40
0.3750000000000039
 40
0.3750000000000039
 40
0.5000000000000052
 40
0.5000000000000052
 40
0.7500000000000026
 40
0.7500000000000026
 40
1.0
 40
1.0
 40
1.0
 40
1.0
 10
-227.4534292416003
 20
-313.5700279874295
 30
0.0
 10
-227.4588633947929
 20
-314.7404451841805
 30
0.0
 10
-227.3299691129279
 20
-315.8898673116881
 30
0.0
 10
-226.9430093404951
 20
-317.5796257458135
 30
0.0
 10
-226.7813489209431
 20
-318.137456427716
 30
0.0
 10
-226.3912286034214
 20
-319.2391491105548
 30
0.0
 10
-226.1663508125569
 20
-319.7730328381242
 30
0.0
 10
-225.4063332103044
 20
-321.3251022525102
 30
0.0
 10
-224.7859605418679
 20
-322.2953935571244
 30
0.0
 10
-223.3187330755829
 20
-324.0938383587865
 30
0.0
 10
-222.4982524474206
 20
-324.8903577912542
 30
0.0
 10
-221.5949754038778
 20
-325.5883147345901
 30
0.0
  0
SPLINE
  5
D4
330
1F
100
AcDbEntity
  8
0
  6
SLD-Сплошная
 62
     7
370
    25
100
AcDbSpline
210
0.0
220
0.0
230
1.0
 70
     8
 71
     3
 72
    30
 73
    26
 74
     0
 42
0.00000001
 43
0.00000001
 40
0.0
 40
0.0
 40
0.0
 40
0.0
 40
0.125000000000011
 40
0.125000000000011
 40
0.1875000000000127
 40
0.1875000000000127
 40
0.2500000000000144
 40
0.2500000000000144
 40
0.3750000000000164
 40
0.3750000000000164
 40
0.4375000000000164
 40
0.4375000000000164
 40
0.5000000000000164
 40
0.5000000000000164
 40
0.6250000000000114
 40
0.6250000000000114
 40
0.687500000000009
 40
0.687500000000009
 40
0.7500000000000064
 40
0.7500000000000064
 40
0.812500000000004
 40
0.812500000000004
 40
0.8750000000000016
 40
0.8750000000000016
 40
1.0
 40
1.0
 40
1.0
 40
1.0
 10
316.4516702166235
 20
-328.6689882180913
 30
0.0
 10
317.4427524902547
 20
-328.6693244169746
 30
0.0
 10
318.4170900346194
 20
-328.5720076771685
 30
0.0
 10
319.8546649246016
 20
-328.2857007619689
 30
0.0
 10
320.3298380767074
 20
-328.1667035330328
 30
0.0
 10
321.2719895385117
 20
-327.8805456847463
 30
0.0
 10
321.740058114831
 20
-327.7126397846045
 30
0.0
 10
323.1014969529546
 20
-327.147068245307
 30
0.0
 10
323.9625706476462
 20
-326.685667113483
 30
0.0
 10
325.1851334777583
 20
-325.8681559757119
 30
0.0
 10
325.5826201672443
 20
-325.5732973941996
 30
0.0
 10
326.3462711329203
 20
-324.9458125814485
 30
0.0
 10
326.7097708499985
 20
-324.6156590096688
 30
0.0
 10
327.746963316276
 20
-323.5774614911985
 30
0.0
 10
328.3678617431634
 20
-322.8221399998969
 30
0.0
 10
329.1905498872361
 20
-321.5918472629641
 30
0.0
 10
329.4457000405747
 20
-321.1660780762323
 30
0.0
 10
329.9083117231514
 20
-320.3005020020087
 30
0.0
 10
330.1173268212893
 20
-319.8584741997016
 30
0.0
 10
330.4913679029232
 20
-318.9561598560758
 30
0.0
 10
330.6563940169926
 20
-318.495873425547
 30
0.0
 10
330.9417650442114
 20
-317.5567235144396
 30
0.0
 10
331.0625877520995
 20
-317.0751323555967
 30
0.0
 10
331.3508833063012
 20
-315.6237199971187
 30
0.0
 10
331.4455574486766
 20
-314.650777337127
 30
0.0
 10
331.4451287042599
 20
-313.6727269564605
 30
0.0
  0
SPLINE
  5
D5
330
1F
100
AcDbEntity
  8
0
  6
SLD-Сплошная
 62
     7
370
    25
100
AcDbSpline
210
0.0
220
0.0
230
1.0
 70
     8
 71
     3
 72
    30
 73
    26
 74
     0
 42
0.00000001
 43
0.00000001
 40
0.0
 40
0.0
 40
0.0
 40
0.0
 40
0.1249999999999927
 40
0.1249999999999927
 40
0.1874999999999925
 40
0.1874999999999925
 40
0.2499999999999923
 40
0.2499999999999923
 40
0.374999999999993
 40
0.374999999999993
 40
0.4374999999999895
 40
0.4374999999999895
 40
0.4999999999999859
 40
0.4999999999999859
 40
0.6249999999999838
 40
0.6249999999999838
 40
0.6874999999999886
 40
0.6874999999999886
 40
0.7499999999999933
 40
0.7499999999999933
 40
0.8124999999999981
 40
0.8124999999999981
 40
0.8750000000000029
 40
0.8750000000000029
 40
1.0
 40
1.0
 40
1.0
 40
1.0
 10
316.4516702166235
 20
443.7450709767116
 30
0.0
 10
317.4427524902545
 20
443.7454071755947
 30
0.0
 10
318.4170900346195
 20
443.6480904357888
 30
0.0
 10
319.8546649246016
 20
443.3617835205891
 30
0.0
 10
320.3298380767075
 20
443.2427862916531
 30
0.0
 10
321.2719895385117
 20
442.9566284433665
 30
0.0
 10
321.740058114831
 20
442.7887225432247
 30
0.0
 10
323.1014969529544
 20
442.2231510039273
 30
0.0
 10
323.9625706476461
 20
441.7617498721032
 30
0.0
 10
325.1851334777583
 20
440.9442387343323
 30
0.0
 10
325.5826201672443
 20
440.6493801528201
 30
0.0
 10
326.3462711329203
 20
440.021895340069
 30
0.0
 10
326.7097708499984
 20
439.6917417682891
 30
0.0
 10
327.7469633162761
 20
438.653544249819
 30
0.0
 10
328.3678617431632
 20
437.8982227585175
 30
0.0
 10
329.1905498872359
 20
436.6679300215845
 30
0.0
 10
329.4457000405747
 20
436.2421608348528
 30
0.0
 10
329.9083117231511
 20
435.3765847606292
 30
0.0
 10
330.1173268212892
 20
434.9345569583219
 30
0.0
 10
330.4913679029232
 20
434.0322426146964
 30
0.0
 10
330.6563940169925
 20
433.5719561841674
 30
0.0
 10
330.9417650442114
 20
432.6328062730602
 30
0.0
 10
331.0625877520995
 20
432.1512151142175
 30
0.0
 10
331.3508833063012
 20
430.6998027557393
 30
0.0
 10
331.4455574486766
 20
429.7268600957477
 30
0.0
 10
331.4451287042599
 20
428.7488097150812
 30
0.0
  0
ELLIPSE
  5
D6
330
1F
100
AcDbEntity
  8
0
  6
SLD-Сплошная
 62
     7
370
    25
100
AcDbEllipse
 10
332.696102408
 20
444.8493383953
 30
0.0
 11
0.3476821707115505
 21
62.56133937252105
 31
0.0
210
0.0
220
0.0
230
0.9999999999999999
 40
0.0192128153
 41
1.831188016451401
 42
1.852369171457944
  0
LINE
  5
D7
330
1F
100
AcDbEntity
  8
0
  6
SLD-Сплошная
 62
     7
370
    25
100
AcDbLine
 10
331.4448480325
 20
427.4720300439
 30
0.0
 11
331.4448480325
 21
-312.3959472853
 31
0.0
  0
ELLIPSE
  5
D8
330
1F
100
AcDbEntity
  8
0
  6
SLD-Сплошная
 62
     7
370
    25
100
AcDbEllipse
 10
332.696102408
 20
-329.7732556367
 30
0.0
 11
-0.3476821707114937
 21
62.56133937252111
 31
0.0
210
0.0
220
0.0
230
0.9999999999999999
 40
0.0192128153
 41
1.289223482131916
 42
1.310404637138427
  0
ELLIPSE
  5
D9
330
1F
100
AcDbEntity
  8
0
  6
SLD-Сплошная
 62
     7
370
    25
100
AcDbEllipse
 10
-228.6705800712
 20
-316.537865426
 30
0.0
 11
0.3476821707112947
 21
62.56133937252093
 31
0.0
210
0.0
220
0.0
230
0.9999999999999999
 40
0.0192128153
 41
4.759952406809238
 42
4.993961825047694
  0
LINE
  5
DA
330
1F
100
AcDbEntity
  8
0
  6
SLD-Сплошная
 62
     7
370
    25
100
AcDbLine
 10
-227.4193256957
 20
-289.492479204
 30
0.0
 11
-227.4193256957
 21
-299.1605570747
 31
0.0
  0
LINE
  5
DB
330
1F
100
AcDbEntity
  8
0
  6
SLD-Сплошная
 62
     7
370
    25
100
AcDbLine
 10
-226.4064807961
 20
-288.4796343044
 30
0.0
 11
-227.4193256957
 21
-289.492479204
 31
0.0
  0
LINE
  5
DC
330
1F
100
AcDbEntity
  8
0
  6
SLD-Сплошная
 62
     7
370
    25
100
AcDbLine
 10
-226.4064807961
 20
-288.4796343044
 30
0.0
 11
-226.4064807961
 21
-248.7579514551
 31
0.0
  0
LINE
  5
DD
330
1F
100
AcDbEntity
  8
0
  6
SLD-Сплошная
 62
     7
370
    25
100
AcDbLine
 10
-226.4064807961
 20
-248.7579514551
 30
0.0
 11
-227.4193256957
 21
-247.7451065555
 31
0.0
  0
LINE
  5
DE
330
1F
100
AcDbEntity
  8
0
  6
SLD-Сплошная
 62
     7
370
    25
100
AcDbLine
 10
-227.4193256957
 20
-72.492479204
 30
0.0
 11
-227.4193256957
 21
-247.7451065555
 31
0.0
  0
LINE
  5
DF
330
1F
100
AcDbEntity
  8
0
  6
SLD-Сплошная
 62
     7
370
    25
100
AcDbLine
 10
-226.4064807961
 20
-71.4796343044
 30
0.0
 11
-227.4193256957
 21
-72.492479204
 31
0.0
  0
LINE
  5
E0
330
1F
100
AcDbEntity
  8
0
  6
SLD-Сплошная
 62
     7
370
    25
100
AcDbLine
 10
-226.4064807961
 20
-71.4796343044
 30
0.0
 11
-226.4064807961
 21
-31.7579514551
 31
0.0
  0
LINE
  5
E1
330
1F
100
AcDbEntity
  8
0
  6
SLD-Сплошная
 62
     7
370
    25
100
AcDbLine
 10
-226.4064807961
 20
-31.7579514551
 30
0.0
 11
-227.4193256957
 21
-30.7451065555
 31
0.0
  0
LINE
  5
E2
330
1F
100
AcDbEntity
  8
0
  6
SLD-Сплошная
 62
     7
370
    25
100
AcDbLine
 10
-227.4193256957
 20
-30.7451065555
 30
0.0
 11
-227.4193256957
 21
145.5211893142
 31
0.0
  0
LINE
  5
E3
330
1F
100
AcDbEntity
  8
0
  6
SLD-Сплошная
 62
     7
370
    25
100
AcDbLine
 10
-227.4193256957
 20
145.5211893142
 30
0.0
 11
-226.4064807961
 21
146.5340342137
 31
0.0
  0
LINE
  5
E4
330
1F
100
AcDbEntity
  8
0
  6
SLD-Сплошная
 62
     7
370
    25
100
AcDbLine
 10
-226.4064807961
 20
146.5340342137
 30
0.0
 11
-226.4064807961
 21
186.255717063
 31
0.0
  0
LINE
  5
E5
330
1F
100
AcDbEntity
  8
0
  6
SLD-Сплошная
 62
     7
370
    25
100
AcDbLine
 10
-227.4193256957
 20
187.2685619626
 30
0.0
 11
-226.4064807961
 21
186.255717063
 31
0.0
  0
LINE
  5
E6
330
1F
100
AcDbEntity
  8
0
  6
SLD-Сплошная
 62
     7
370
    25
100
AcDbLine
 10
-227.4193256957
 20
362.5211893142
 30
0.0
 11
-227.4193256957
 21
187.2685619626
 31
0.0
  0
LINE
  5
E7
330
1F
100
AcDbEntity
  8
0
  6
SLD-Сплошная
 62
     7
370
    25
100
AcDbLine
 10
-227.4193256957
 20
362.5211893142
 30
0.0
 11
-226.4064807961
 21
363.5340342137
 31
0.0
  0
LINE
  5
E8
330
1F
100
AcDbEntity
  8
0
  6
SLD-Сплошная
 62
     7
370
    25
100
AcDbLine
 10
-226.4064807961
 20
363.5340342137
 30
0.0
 11
-226.4064807961
 21
403.255717063
 31
0.0
  0
LINE
  5
E9
330
1F
100
AcDbEntity
  8
0
  6
SLD-Сплошная
 62
     7
370
    25
100
AcDbLine
 10
-227.4193256957
 20
404.2685619626
 30
0.0
 11
-226.4064807961
 21
403.255717063
 31
0.0
  0
LINE
  5
EA
330
1F
100
AcDbEntity
  8
0
  6
SLD-Сплошная
 62
     7
370
    25
100
AcDbLine
 10
-227.4193256957
 20
404.2685619626
 30
0.0
 11
-227.4193256957
 21
414.2366398333
 31
0.0
  0
ELLIPSE
  5
EB
330
1F
100
AcDbEntity
  8
0
  6
SLD-Сплошная
 62
     7
370
    25
100
AcDbEllipse
 10
-228.6705800712
 20
431.6139481847
 30
0.0
 11
-0.3476821707112947
 21
62.56133937252087
 31
0.0
210
0.0
220
0.0
230
0.9999999999999999
 40
0.0192128153
 41
4.430816135721777
 42
4.664825553960142
  0
LINE
  5
EC
330
1F
100
AcDbEntity
  8
0
  6
SLD-Сплошная
 62
     7
370
    25
100
AcDbLine
 10
-212.5625020922
 20
443.744903346
 30
0.0
 11
315.4656133828
 21
443.744903346
 31
0.0
  0
ELLIPSE
  5
ED
330
1F
100
AcDbEntity
  8
0
  6
SLD-Сплошная
 62
     7
370
    25
100
AcDbEllipse
 10
332.8429217342
 20
444.9961577215
 30
0.0
 11
62.56133937252332
 21
0.3476821707104705
 31
0.0
210
0.0
220
0.0
230
1.0
 40
0.0192128153
 41
4.430816135721709
 42
4.447185201348727
  0
ELLIPSE
  5
EE
330
1F
100
AcDbEntity
  8
0
  6
SLD-Сплошная
 62
     7
370
    25
100
AcDbEllipse
 10
332.8429217342
 20
-329.9200749628
 30
0.0
 11
62.56133937252321
 21
-0.3476821707104136
 31
0.0
210
0.0
220
0.0
230
1.0
 40
0.0192128153
 41
1.836000105830929
 42
1.852369171458056
  0
LINE
  5
EF
330
1F
100
AcDbEntity
  8
0
  6
SLD-Сплошная
 62
     7
370
    25
100
AcDbLine
 10
-212.5625020922
 20
-328.6688205873
 30
0.0
 11
315.4656133828
 21
-328.6688205873
 31
0.0
  0
LINE
  5
F0
330
1F
100
AcDbEntity
  8
0
  6
SLD-Сплошная
 62
     7
370
    25
100
AcDbLine
 10
-252.8366069699
 20
-248.7579514551
 30
0.0
 11
-226.4064807961
 21
-248.7579514551
 31
0.0
  0
LINE
  5
F1
330
1F
100
AcDbEntity
  8
0
  6
SLD-Сплошная
 62
     7
370
    25
100
AcDbLine
 10
-252.8366069699
 20
-288.4796343044
 30
0.0
 11
-226.4064807961
 21
-288.4796343044
 31
0.0
  0
LINE
  5
F2
330
1F
100
AcDbEntity
  8
0
  6
SLD-Сплошная
 62
     7
370
    25
100
AcDbLine
 10
-252.8366069699
 20
-248.7579514551
 30
0.0
 11
-252.8366069699
 21
-288.4796343044
 31
0.0
  0
LINE
  5
F3
330
1F
100
AcDbEntity
  8
0
  6
SLD-Сплошная
 62
     7
370
    25
100
AcDbLine
 10
-252.8366069699
 20
-248.7579514551
 30
0.0
 11
-254.1249176151
 21
-247.4696408099
 31
0.0
  0
LINE
  5
F4
330
1F
100
AcDbEntity
  8
0
  6
SLD-Сплошная
 62
     7
370
    25
100
AcDbLine
 10
-227.4193256957
 20
-247.7451065555
 30
0.0
 11
-254.1249176151
 21
-247.4696408099
 31
0.0
  0
LINE
  5
F5
330
1F
100
AcDbEntity
  8
0
  6
SLD-Сплошная
 62
     7
370
    25
100
AcDbLine
 10
-252.8366069699
 20
363.5340342137
 30
0.0
 11
-252.8366069699
 21
403.255717063
 31
0.0
  0
LINE
  5
F6
330
1F
100
AcDbEntity
  8
0
  6
SLD-Сплошная
 62
     7
370
    25
100
AcDbLine
 10
-254.1249176151
 20
362.2457235685
 30
0.0
 11
-252.8366069699
 21
363.5340342137
 31
0.0
  0
LINE
  5
F7
330
1F
100
AcDbEntity
  8
0
  6
SLD-Сплошная
 62
     7
370
    25
100
AcDbLine
 10
-254.1249176151
 20
362.2457235685
 30
0.0
 11
-254.1249176151
 21
187.5440277082
 31
0.0
  0
LINE
  5
F8
330
1F
100
AcDbEntity
  8
0
  6
SLD-Сплошная
 62
     7
370
    25
100
AcDbLine
 10
-254.1249176151
 20
187.5440277082
 30
0.0
 11
-252.8366069699
 21
186.255717063
 31
0.0
  0
LINE
  5
F9
330
1F
100
AcDbEntity
  8
0
  6
SLD-Сплошная
 62
     7
370
    25
100
AcDbLine
 10
-252.8366069699
 20
146.5340342137
 30
0.0
 11
-252.8366069699
 21
186.255717063
 31
0.0
  0
LINE
  5
FA
330
1F
100
AcDbEntity
  8
0
  6
SLD-Сплошная
 62
     7
370
    25
100
AcDbLine
 10
-254.1249176151
 20
145.2457235685
 30
0.0
 11
-252.8366069699
 21
146.5340342137
 31
0.0
  0
LINE
  5
FB
330
1F
100
AcDbEntity
  8
0
  6
SLD-Сплошная
 62
     7
370
    25
100
AcDbLine
 10
-254.1249176151
 20
-30.4696408099
 30
0.0
 11
-254.1249176151
 21
145.2457235685
 31
0.0
  0
LINE
  5
FC
330
1F
100
AcDbEntity
  8
0
  6
SLD-Сплошная
 62
     7
370
    25
100
AcDbLine
 10
-252.8366069699
 20
-31.7579514551
 30
0.0
 11
-254.1249176151
 21
-30.4696408099
 31
0.0
  0
LINE
  5
FD
330
1F
100
AcDbEntity
  8
0
  6
SLD-Сплошная
 62
     7
370
    25
100
AcDbLine
 10
-252.8366069699
 20
-31.7579514551
 30
0.0
 11
-252.8366069699
 21
-71.4796343044
 31
0.0
  0
LINE
  5
FE
330
1F
100
AcDbEntity
  8
0
  6
SLD-Сплошная
 62
     7
370
    25
100
AcDbLine
 10
-252.8366069699
 20
-71.4796343044
 30
0.0
 11
-254.1249176151
 21
-72.7679449496
 31
0.0
  0
LINE
  5
FF
330
1F
100
AcDbEntity
  8
0
  6
SLD-Сплошная
 62
     7
370
    25
100
AcDbLine
 10
-254.1249176151
 20
-72.7679449496
 30
0.0
 11
-254.1249176151
 21
-247.4696408099
 31
0.0
  0
LINE
  5
100
330
1F
100
AcDbEntity
  8
0
  6
SLD-Сплошная
 62
     7
370
    25
100
AcDbLine
 10
-252.8366069699
 20
-288.4796343044
 30
0.0
 11
-254.1249176151
 21
-289.7679449496
 31
0.0
  0
LINE
  5
101
330
1F
100
AcDbEntity
  8
0
  6
SLD-Сплошная
 62
     7
370
    25
100
AcDbLine
 10
-254.1249176151
 20
-289.7679449496
 30
0.0
 11
-254.1249176151
 21
-321.4992278079
 31
0.0
  0
LINE
  5
102
330
1F
100
AcDbEntity
  8
0
  6
SLD-Сплошная
 62
     7
370
    25
100
AcDbLine
 10
-254.3884065509
 20
-284.91923851
 30
0.0
 11
-254.3884065509
 21
-321.7627167438
 31
0.0
  0
LINE
  5
103
330
1F
100
AcDbEntity
  8
0
  6
SLD-Сплошная
 62
     7
370
    25
100
AcDbLine
 10
-254.3884065509
 20
-284.91923851
 30
0.0
 11
-253.1648072584
 21
-283.6956392175
 31
0.0
  0
LINE
  5
104
330
1F
100
AcDbEntity
  8
0
  6
SLD-Сплошная
 62
     7
370
    25
100
AcDbLine
 10
-253.0162642607
 20
-283.5470962198
 30
0.0
 11
-252.9900783391
 21
-283.5209102982
 31
0.0
  0
LINE
  5
105
330
1F
100
AcDbEntity
  8
0
  6
SLD-Сплошная
 62
     7
370
    25
100
AcDbLine
 10
-252.9900783391
 20
-253.9166754613
 30
0.0
 11
-252.9900783391
 21
-283.5209102982
 31
0.0
  0
LINE
  5
106
330
1F
100
AcDbEntity
  8
0
  6
SLD-Сплошная
 62
     7
370
    25
100
AcDbLine
 10
-254.3884065509
 20
-252.5183472495
 30
0.0
 11
-253.2111145829
 21
-253.6956392175
 31
0.0
  0
LINE
  5
107
330
1F
100
AcDbEntity
  8
0
  6
SLD-Сплошная
 62
     7
370
    25
100
AcDbLine
 10
-253.0162642607
 20
-253.8904895397
 30
0.0
 11
-252.9900783391
 21
-253.9166754613
 31
0.0
  0
LINE
  5
108
330
1F
100
AcDbEntity
  8
0
  6
SLD-Сплошная
 62
     7
370
    25
100
AcDbLine
 10
-254.3884065509
 20
-67.91923851
 30
0.0
 11
-254.3884065509
 21
-252.5183472495
 31
0.0
  0
LINE
  5
109
330
1F
100
AcDbEntity
  8
0
  6
SLD-Сплошная
 62
     7
370
    25
100
AcDbLine
 10
-254.3884065509
 20
-67.91923851
 30
0.0
 11
-253.1648072584
 21
-66.6956392175
 31
0.0
  0
LINE
  5
10A
330
1F
100
AcDbEntity
  8
0
  6
SLD-Сплошная
 62
     7
370
    25
100
AcDbLine
 10
-253.0162642607
 20
-66.5470962198
 30
0.0
 11
-252.9900783391
 21
-66.5209102982
 31
0.0
  0
LINE
  5
10B
330
1F
100
AcDbEntity
  8
0
  6
SLD-Сплошная
 62
     7
370
    25
100
AcDbLine
 10
-252.9900783391
 20
-36.9166754613
 30
0.0
 11
-252.9900783391
 21
-66.5209102982
 31
0.0
  0
LINE
  5
10C
330
1F
100
AcDbEntity
  8
0
  6
SLD-Сплошная
 62
     7
370
    25
100
AcDbLine
 10
-254.3884065509
 20
-35.5183472495
 30
0.0
 11
-253.2111145829
 21
-36.6956392175
 31
0.0
  0
LINE
  5
10D
330
1F
100
AcDbEntity
  8
0
  6
SLD-Сплошная
 62
     7
370
    25
100
AcDbLine
 10
-253.0162642607
 20
-36.8904895397
 30
0.0
 11
-252.9900783391
 21
-36.9166754613
 31
0.0
  0
LINE
  5
10E
330
1F
100
AcDbEntity
  8
0
  6
SLD-Сплошная
 62
     7
370
    25
100
AcDbLine
 10
-254.3884065509
 20
-35.5183472495
 30
0.0
 11
-254.3884065509
 21
150.2944300081
 31
0.0
  0
LINE
  5
10F
330
1F
100
AcDbEntity
  8
0
  6
SLD-Сплошная
 62
     7
370
    25
100
AcDbLine
 10
-254.3884065509
 20
150.2944300081
 30
0.0
 11
-253.1984757766
 21
151.4843607825
 31
0.0
  0
LINE
  5
110
330
1F
100
AcDbEntity
  8
0
  6
SLD-Сплошная
 62
     7
370
    25
100
AcDbLine
 10
-253.0162642607
 20
151.6665722984
 30
0.0
 11
-252.9900783391
 21
151.6927582199
 31
0.0
  0
LINE
  5
111
330
1F
100
AcDbEntity
  8
0
  6
SLD-Сплошная
 62
     7
370
    25
100
AcDbLine
 10
-252.9900783391
 20
181.2969930568
 30
0.0
 11
-252.9900783391
 21
151.6927582199
 31
0.0
  0
LINE
  5
112
330
1F
100
AcDbEntity
  8
0
  6
SLD-Сплошная
 62
     7
370
    25
100
AcDbLine
 10
-254.3884065509
 20
182.6953212686
 30
0.0
 11
-253.1774460648
 21
181.4843607825
 31
0.0
  0
LINE
  5
113
330
1F
100
AcDbEntity
  8
0
  6
SLD-Сплошная
 62
     7
370
    25
100
AcDbLine
 10
-253.0162642607
 20
181.3231789784
 30
0.0
 11
-252.9900783391
 21
181.2969930568
 31
0.0
  0
LINE
  5
114
330
1F
100
AcDbEntity
  8
0
  6
SLD-Сплошная
 62
     7
370
    25
100
AcDbLine
 10
-254.3884065509
 20
182.6953212686
 30
0.0
 11
-254.3884065509
 21
367.2944300081
 31
0.0
  0
LINE
  5
115
330
1F
100
AcDbEntity
  8
0
  6
SLD-Сплошная
 62
     7
370
    25
100
AcDbLine
 10
-254.3884065509
 20
367.2944300081
 30
0.0
 11
-253.1984757766
 21
368.4843607825
 31
0.0
  0
LINE
  5
116
330
1F
100
AcDbEntity
  8
0
  6
SLD-Сплошная
 62
     7
370
    25
100
AcDbLine
 10
-253.0162642607
 20
368.6665722984
 30
0.0
 11
-252.9900783391
 21
368.6927582199
 31
0.0
  0
LINE
  5
117
330
1F
100
AcDbEntity
  8
0
  6
SLD-Сплошная
 62
     7
370
    25
100
AcDbLine
 10
-252.9900783391
 20
398.2969930568
 30
0.0
 11
-252.9900783391
 21
368.6927582199
 31
0.0
  0
LINE
  5
118
330
1F
100
AcDbEntity
  8
0
  6
SLD-Сплошная
 62
     7
370
    25
100
AcDbLine
 10
-254.3884065509
 20
399.6953212686
 30
0.0
 11
-253.1774460648
 21
398.4843607825
 31
0.0
  0
LINE
  5
119
330
1F
100
AcDbEntity
  8
0
  6
SLD-Сплошная
 62
     7
370
    25
100
AcDbLine
 10
-253.0162642607
 20
398.3231789784
 30
0.0
 11
-252.9900783391
 21
398.2969930568
 31
0.0
  0
LINE
  5
11A
330
1F
100
AcDbEntity
  8
0
  6
SLD-Сплошная
 62
     7
370
    25
100
AcDbLine
 10
-254.3884065509
 20
399.6953212686
 30
0.0
 11
-254.3884065509
 21
436.8387995024
 31
0.0
  0
LINE
  5
11B
330
1F
100
AcDbEntity
  8
0
  6
SLD-Сплошная
 62
     7
370
    25
100
AcDbLine
 10
-254.1249176151
 20
404.5440277082
 30
0.0
 11
-254.1249176151
 21
436.5753105666
 31
0.0
  0
LINE
  5
11C
330
1F
100
AcDbEntity
  8
0
  6
SLD-Сплошная
 62
     7
370
    25
100
AcDbLine
 10
-254.1249176151
 20
404.5440277082
 30
0.0
 11
-252.8366069699
 21
403.255717063
 31
0.0
  0
LINE
  5
11D
330
1F
100
AcDbEntity
  8
0
  6
SLD-Сплошная
 62
     7
370
    25
100
AcDbLine
 10
-252.8366069699
 20
363.5340342137
 30
0.0
 11
-226.4064807961
 21
363.5340342137
 31
0.0
  0
LINE
  5
11E
330
1F
100
AcDbEntity
  8
0
  6
SLD-Сплошная
 62
     7
370
    25
100
AcDbLine
 10
-227.4193256957
 20
362.5211893142
 30
0.0
 11
-254.1249176151
 21
362.2457235685
 31
0.0
  0
LINE
  5
11F
330
1F
100
AcDbEntity
  8
0
  6
SLD-Сплошная
 62
     7
370
    25
100
AcDbLine
 10
-252.8366069699
 20
403.255717063
 30
0.0
 11
-226.4064807961
 21
403.255717063
 31
0.0
  0
LINE
  5
120
330
1F
100
AcDbEntity
  8
0
  6
SLD-Сплошная
 62
     7
370
    25
100
AcDbLine
 10
-252.8366069699
 20
-71.4796343044
 30
0.0
 11
-226.4064807961
 21
-71.4796343044
 31
0.0
  0
LINE
  5
121
330
1F
100
AcDbEntity
  8
0
  6
SLD-Сплошная
 62
     7
370
    25
100
AcDbLine
 10
-252.8366069699
 20
-31.7579514551
 30
0.0
 11
-226.4064807961
 21
-31.7579514551
 31
0.0
  0
LINE
  5
122
330
1F
100
AcDbEntity
  8
0
  6
SLD-Сплошная
 62
     7
370
    25
100
AcDbLine
 10
-254.1249176151
 20
-30.4696408099
 30
0.0
 11
-227.4193256957
 21
-30.7451065555
 31
0.0
  0
LINE
  5
123
330
1F
100
AcDbEntity
  8
0
  6
SLD-Сплошная
 62
     7
370
    25
100
AcDbLine
 10
-252.8366069699
 20
146.5340342137
 30
0.0
 11
-226.4064807961
 21
146.5340342137
 31
0.0
  0
LINE
  5
124
330
1F
100
AcDbEntity
  8
0
  6
SLD-Сплошная
 62
     7
370
    25
100
AcDbLine
 10
-252.8366069699
 20
186.255717063
 30
0.0
 11
-226.4064807961
 21
186.255717063
 31
0.0
  0
LINE
  5
125
330
1F
100
AcDbEntity
  8
0
  6
SLD-Сплошная
 62
     7
370
    25
100
AcDbLine
 10
-227.4193256957
 20
145.5211893142
 30
0.0
 11
-254.1249176151
 21
145.2457235685
 31
0.0
  0
LINE
  5
126
330
1F
100
AcDbEntity
  8
0
  6
SLD-Сплошная
 62
     7
370
    25
100
AcDbLine
 10
-227.4193256957
 20
-289.492479204
 30
0.0
 11
-254.1249176151
 21
-289.7679449496
 31
0.0
  0
LINE
  5
127
330
1F
100
AcDbEntity
  8
0
  6
SLD-Сплошная
 62
     7
370
    25
100
AcDbLine
 10
-227.4193256957
 20
404.2685619626
 30
0.0
 11
-254.1249176151
 21
404.5440277082
 31
0.0
  0
LINE
  5
128
330
1F
100
AcDbEntity
  8
0
  6
SLD-Сплошная
 62
     7
370
    25
100
AcDbLine
 10
-227.4193256957
 20
-72.492479204
 30
0.0
 11
-254.1249176151
 21
-72.7679449496
 31
0.0
  0
LINE
  5
129
330
1F
100
AcDbEntity
  8
0
  6
SLD-Сплошная
 62
     7
370
    25
100
AcDbLine
 10
-227.4193256957
 20
187.2685619626
 30
0.0
 11
-254.1249176151
 21
187.5440277082
 31
0.0
  0
ELLIPSE
  5
12A
330
1F
100
AcDbEntity
  8
0
  6
SLD-Сплошная
 62
     7
370
    25
100
AcDbEllipse
 10
-233.404157619
 20
-321.2714429738
 30
0.0
 11
19.03764361769927
 21
8.305244345966116
 31
0.0
210
0.0
220
0.0
230
1.0
 40
0.9849612114
 41
2.735753658624921
 42
2.93095941575148
  0
SPLINE
  5
12B
330
1F
100
AcDbEntity
  8
0
  6
SLD-Сплошная
 62
     7
370
    25
100
AcDbSpline
210
0.0
220
0.0
230
1.0
 70
     8
 71
     3
 72
    30
 73
    26
 74
     0
 42
0.00000001
 43
0.00000001
 40
0.0
 40
0.0
 40
0.0
 40
0.0
 40
0.1250000000000037
 40
0.1250000000000037
 40
0.1875000000000039
 40
0.1875000000000039
 40
0.2500000000000041
 40
0.2500000000000041
 40
0.3750000000000062
 40
0.3750000000000062
 40
0.4375000000000062
 40
0.4375000000000062
 40
0.5000000000000061
 40
0.5000000000000061
 40
0.6250000000000061
 40
0.6250000000000061
 40
0.7500000000000061
 40
0.7500000000000061
 40
0.8125000000000046
 40
0.8125000000000046
 40
0.8750000000000031
 40
0.8750000000000031
 40
0.9375000000000016
 40
0.9375000000000016
 40
1.0
 40
1.0
 40
1.0
 40
1.0
 10
-237.6053304055233
 20
-341.5986697362348
 30
0.0
 10
-238.5896868608077
 20
-341.4015778075698
 30
0.0
 10
-239.5540496675762
 20
-341.1334302376627
 30
0.0
 10
-240.9713682320314
 20
-340.6248504084932
 30
0.0
 10
-241.4389144644643
 20
-340.4375238793152
 30
0.0
 10
-242.3640746385583
 20
-340.0263888777068
 30
0.0
 10
-242.820666569087
 20
-339.8028372020654
 30
0.0
 10
-244.1533419005181
 20
-339.0885089859162
 30
0.0
 10
-244.9999399962534
 20
-338.5511335071375
 30
0.0
 10
-246.2082771413946
 20
-337.6548601471846
 30
0.0
 10
-246.600752583424
 20
-337.3410053771728
 30
0.0
 10
-247.3647729383186
 20
-336.6826061670189
 30
0.0
 10
-247.7374117339774
 20
-336.3369562760136
 30
0.0
 10
-248.8153493849471
 20
-335.2600503132676
 30
0.0
 10
-249.4727195325297
 20
-334.4979357027698
 30
0.0
 10
-250.6695287121657
 20
-332.8885856950154
 30
0.0
 10
-251.2089626826496
 20
-332.0413473881403
 30
0.0
 10
-251.9271478078823
 20
-330.7046755454962
 30
0.0
 10
-252.1513823637269
 20
-330.2475619724314
 30
0.0
 10
-252.5625079300085
 20
-329.3247249820452
 30
0.0
 10
-252.7503461234178
 20
-328.8573655921688
 30
0.0
 10
-253.0909907743087
 20
-327.9108110749985
 30
0.0
 10
-253.2437970165792
 20
-327.4316160113615
 30
0.0
 10
-253.5141970432068
 20
-326.4612194303594
 30
0.0
 10
-253.6320701063997
 20
-325.9686312408187
 30
0.0
 10
-253.7313843813915
 20
-325.4726157603656
 30
0.0
  0
SPLINE
  5
12C
330
1F
100
AcDbEntity
  8
0
  6
SLD-Сплошная
 62
     7
370
    25
100
AcDbSpline
210
0.0
220
0.0
230
1.0
 70
     8
 71
     3
 72
    30
 73
    26
 74
     0
 42
0.00000001
 43
0.00000001
 40
0.0
 40
0.0
 40
0.0
 40
0.0
 40
0.1250000000000146
 40
0.1250000000000146
 40
0.1875000000000202
 40
0.1875000000000202
 40
0.2500000000000259
 40
0.2500000000000259
 40
0.3750000000000372
 40
0.3750000000000372
 40
0.4375000000000389
 40
0.4375000000000389
 40
0.5000000000000404
 40
0.5000000000000404
 40
0.6250000000000363
 40
0.6250000000000363
 40
0.7500000000000322
 40
0.7500000000000322
 40
0.8125000000000241
 40
0.8125000000000241
 40
0.8750000000000161
 40
0.8750000000000161
 40
0.937500000000008
 40
0.937500000000008
 40
1.0
 40
1.0
 40
1.0
 40
1.0
 10
-237.6053304055233
 20
456.6747524948557
 30
0.0
 10
-238.5896868608077
 20
456.4776605661905
 30
0.0
 10
-239.5540496675762
 20
456.2095129962834
 30
0.0
 10
-240.9713682320315
 20
455.7009331671142
 30
0.0
 10
-241.4389144644643
 20
455.5136066379359
 30
0.0
 10
-242.3640746385584
 20
455.1024716363277
 30
0.0
 10
-242.8206665690871
 20
454.8789199606863
 30
0.0
 10
-244.1533419005181
 20
454.1645917445371
 30
0.0
 10
-244.9999399962533
 20
453.6272162657583
 30
0.0
 10
-246.2082771413945
 20
452.7309429058055
 30
0.0
 10
-246.6007525834241
 20
452.4170881357936
 30
0.0
 10
-247.3647729383187
 20
451.7586889256398
 30
0.0
 10
-247.7374117339773
 20
451.4130390346343
 30
0.0
 10
-248.8153493849472
 20
450.3361330718884
 30
0.0
 10
-249.4727195325298
 20
449.5740184613908
 30
0.0
 10
-250.6695287121657
 20
447.9646684536362
 30
0.0
 10
-251.2089626826497
 20
447.1174301467611
 30
0.0
 10
-251.9271478078822
 20
445.7807583041169
 30
0.0
 10
-252.1513823637269
 20
445.3236447310521
 30
0.0
 10
-252.5625079300085
 20
444.400807740666
 30
0.0
 10
-252.7503461234178
 20
443.9334483507897
 30
0.0
 10
-253.0909907743086
 20
442.9868938336192
 30
0.0
 10
-253.2437970165791
 20
442.5076987699822
 30
0.0
 10
-253.5141970432068
 20
441.53730218898
 30
0.0
 10
-253.6320701063996
 20
441.0447139994397
 30
0.0
 10
-253.7313843813915
 20
440.5486985189865
 30
0.0
  0
ELLIPSE
  5
12D
330
1F
100
AcDbEntity
  8
0
  6
SLD-Сплошная
 62
     7
370
    25
100
AcDbEllipse
 10
-233.404157619
 20
436.3475257325
 30
0.0
 11
19.03764361769933
 21
-8.305244345966003
 31
0.0
210
0.0
220
0.0
230
1.0
 40
0.9849612114
 41
3.352225891428108
 42
3.5474316485547
  0
LINE
  5
12E
330
1F
100
AcDbEntity
  8
0
  6
SLD-Сплошная
 62
     7
370
    25
100
AcDbLine
 10
328.7889957654
 20
457.0682857286
 30
0.0
 11
-233.6319424531
 21
457.0682857286
 31
0.0
  0
ELLIPSE
  5
12F
330
1F
100
AcDbEntity
  8
0
  6
SLD-Сплошная
 62
     7
370
    25
100
AcDbEllipse
 10
-233.404157619
 20
436.3475257325
 30
0.0
 11
-8.305244345994568
 21
19.03764361768657
 31
0.0
210
0.0
220
0.0
230
1.0
 40
0.9849612114
 41
5.877346312213255
 42
6.072552069339862
  0
LINE
  5
130
330
1F
100
AcDbEntity
  8
0
  6
SLD-Сплошная
 62
     7
370
    25
100
AcDbLine
 10
-233.6319424531
 20
-341.9922029699
 30
0.0
 11
328.7889957654
 21
-341.9922029699
 31
0.0
  0
ELLIPSE
  5
131
330
1F
100
AcDbEntity
  8
0
  6
SLD-Сплошная
 62
     7
370
    25
100
AcDbEllipse
 10
-233.404157619
 20
-321.2714429738
 30
0.0
 11
8.305244345994595
 21
19.03764361768651
 31
0.0
210
0.0
220
0.0
230
1.0
 40
0.9849612114
 41
3.352225891429546
 42
3.547431648556154
  0
ELLIPSE
  5
132
330
1F
100
AcDbEntity
  8
0
  6
SLD-Сплошная
 62
     7
370
    25
100
AcDbEllipse
 10
346.1663041168
 20
458.3195401041
 30
0.0
 11
62.56133937252338
 21
0.3476821707104704
 31
0.0
210
0.0
220
0.0
230
1.0
 40
0.0192128153
 41
4.430816135721711
 42
4.432638282287414
  0
SPLINE
  5
133
330
1F
100
AcDbEntity
  8
0
  6
SLD-Сплошная
 62
     7
370
    25
100
AcDbSpline
210
0.0
220
0.0
230
1.0
 70
     8
 71
     3
 72
    30
 73
    26
 74
     0
 42
0.00000001
 43
0.00000001
 40
0.0
 40
0.0
 40
0.0
 40
0.0
 40
0.1250000000000067
 40
0.1250000000000067
 40
0.1875000000000068
 40
0.1875000000000068
 40
0.2500000000000069
 40
0.2500000000000069
 40
0.312500000000007
 40
0.312500000000007
 40
0.3750000000000072
 40
0.3750000000000072
 40
0.5000000000000001
 40
0.5000000000000001
 40
0.5625000000000036
 40
0.5625000000000036
 40
0.625000000000007
 40
0.625000000000007
 40
0.7500000000000102
 40
0.7500000000000102
 40
0.8125000000000107
 40
0.8125000000000107
 40
0.875000000000011
 40
0.875000000000011
 40
1.0
 40
1.0
 40
1.0
 40
1.0
 10
328.8985346578961
 20
457.06828780578
 30
0.0
 10
329.9445675543473
 20
457.0683274678248
 30
0.0
 10
330.9857089853141
 20
456.9664088696042
 30
0.0
 10
332.5399522644294
 20
456.6563638122332
 30
0.0
 10
333.051540780481
 20
456.5275129080331
 30
0.0
 10
334.0529552229186
 20
456.2225676954935
 30
0.0
 10
334.5442846060618
 20
456.0461766243201
 30
0.0
 10
335.5084156158655
 20
455.6459888093264
 30
0.0
 10
335.9812175515787
 20
455.4221931311992
 30
0.0
 10
336.9079632154009
 20
454.9262280429409
 30
0.0
 10
337.363482482639
 20
454.6527275562909
 30
0.0
 10
338.6729593445592
 20
453.7759882650915
 30
0.0
 10
339.4791455091706
 20
453.1132330205227
 30
0.0
 10
340.5893931830906
 20
452.0030398910123
 30
0.0
 10
340.943672852738
 20
451.6124882101468
 30
0.0
 10
341.6141840294463
 20
450.7952273047614
 30
0.0
 10
341.9266098482601
 20
450.373366274706
 30
0.0
 10
342.7976330076391
 20
449.069359609946
 30
0.0
 10
343.2906077740376
 20
448.1491631575499
 30
0.0
 10
343.8956607571224
 20
446.6907140045831
 30
0.0
 10
344.0744902913848
 20
446.1910848268344
 30
0.0
 10
344.3787609464021
 20
445.1881586809099
 30
0.0
 10
344.50547207067
 20
444.6820641600517
 30
0.0
 10
344.8107028538566
 20
443.1500652291951
 30
0.0
 10
344.9150918790972
 20
442.1083143657413
 30
0.0
 10
344.9150518185174
 20
441.0517706451587
 30
0.0
  0
ELLIPSE
  5
134
330
1F
100
AcDbEntity
  8
0
  6
SLD-Сплошная
 62
     7
370
    25
100
AcDbEllipse
 10
346.1663041168
 20
458.3195401041
 30
0.0
 11
0.3476821707115505
 21
62.56133937252105
 31
0.0
210
0.0
220
0.0
230
0.9999999999999999
 40
0.0192128153
 41
1.85054702489218
 42
1.85236917145814
  0
ELLIPSE
  5
135
330
1F
100
AcDbEntity
  8
0
  6
SLD-Сплошная
 62
     7
370
    25
100
AcDbEllipse
 10
346.1663041168
 20
-343.2434573454
 30
0.0
 11
-0.3476821707114368
 21
62.56133937252116
 31
0.0
210
0.0
220
0.0
230
0.9999999999999999
 40
0.0192128153
 41
1.289223482131933
 42
1.291045628697638
  0
SPLINE
  5
136
330
1F
100
AcDbEntity
  8
0
  6
SLD-Сплошная
 62
     7
370
    25
100
AcDbSpline
210
0.0
220
0.0
230
1.0
 70
     8
 71
     3
 72
    30
 73
    26
 74
     0
 42
0.00000001
 43
0.00000001
 40
0.0
 40
0.0
 40
0.0
 40
0.0
 40
0.1250000000000006
 40
0.1250000000000006
 40
0.1875000000000025
 40
0.1875000000000025
 40
0.2500000000000044
 40
0.2500000000000044
 40
0.3125000000000063
 40
0.3125000000000063
 40
0.3750000000000082
 40
0.3750000000000082
 40
0.500000000000011
 40
0.500000000000011
 40
0.5625000000000101
 40
0.5625000000000101
 40
0.6250000000000091
 40
0.6250000000000091
 40
0.7500000000000056
 40
0.7500000000000056
 40
0.8125000000000043
 40
0.8125000000000043
 40
0.8750000000000032
 40
0.8750000000000032
 40
1.0
 40
1.0
 40
1.0
 40
1.0
 10
344.9150518185174
 20
-325.9756878865379
 30
0.0
 10
344.9150914805621
 20
-327.0217207829891
 30
0.0
 10
344.8131728823413
 20
-328.062862213956
 30
0.0
 10
344.5031278249706
 20
-329.6171054930712
 30
0.0
 10
344.3742769207705
 20
-330.1286940091227
 30
0.0
 10
344.0693317082309
 20
-331.1301084515604
 30
0.0
 10
343.8929406370576
 20
-331.6214378347037
 30
0.0
 10
343.4927528220636
 20
-332.5855688445072
 30
0.0
 10
343.2689571439364
 20
-333.0583707802205
 30
0.0
 10
342.7729920556782
 20
-333.9851164440425
 30
0.0
 10
342.4994915690282
 20
-334.4406357112807
 30
0.0
 10
341.6227522778289
 20
-335.7501125732007
 30
0.0
 10
340.9599970332599
 20
-336.5562987378124
 30
0.0
 10
339.8498039037498
 20
-337.6665464117324
 30
0.0
 10
339.4592522228842
 20
-338.0208260813797
 30
0.0
 10
338.6419913174987
 20
-338.691337258088
 30
0.0
 10
338.2201302874433
 20
-339.0037630769019
 30
0.0
 10
336.9161236226832
 20
-339.8747862362808
 30
0.0
 10
335.9959271702872
 20
-340.3677610026792
 30
0.0
 10
334.5374780173206
 20
-340.9728139857643
 30
0.0
 10
334.0378488395721
 20
-341.1516435200265
 30
0.0
 10
333.0349226936475
 20
-341.455914175044
 30
0.0
 10
332.5288281727889
 20
-341.5826252993116
 30
0.0
 10
330.9968292419325
 20
-341.8878560824984
 30
0.0
 10
329.9550783784785
 20
-341.9922451077389
 30
0.0
 10
328.8985346578961
 20
-341.9922050471592
 30
0.0
  0
ELLIPSE
  5
137
330
1F
100
AcDbEntity
  8
0
  6
SLD-Сплошная
 62
     7
370
    25
100
AcDbEllipse
 10
346.1663041168
 20
-343.2434573454
 30
0.0
 11
62.56133937252321
 21
-0.3476821707104705
 31
0.0
210
0.0
220
0.0
230
1.0
 40
0.0192128153
 41
1.850547024892264
 42
1.852369171457954
  0
LINE
  5
138
330
1F
100
AcDbEntity
  8
0
  6
SLD-Сплошная
 62
     7
370
    25
100
AcDbLine
 10
344.9150497413
 20
-325.8661489941
 30
0.0
 11
344.9150497413
 21
440.9422317527
 31
0.0
  0
SPLINE
  5
139
330
1F
100
AcDbEntity
  8
0
  6
SLD-Сплошная
 62
     7
370
    25
100
AcDbSpline
210
0.0
220
0.0
230
1.0
 70
     8
 71
     3
 72
    10
 73
     6
 74
     0
 42
0.00000001
 43
0.00000001
 40
0.0
 40
0.0
 40
0.0
 40
0.0
 40
0.5
 40
0.5
 40
1.0
 40
1.0
 40
1.0
 40
1.0
 10
-244.2055878039148
 20
-339.7359417073275
 30
0.0
 10
-242.685504778646
 20
-340.6016917564532
 30
0.0
 10
-241.0271337202773
 20
-341.2840111847953
 30
0.0
 10
-237.5884661955484
 20
-342.1942677958538
 30
0.0
 10
-235.8100785639653
 20
-342.4217106484975
 30
0.0
 10
-234.0614501316566
 20
-342.4217106484977
 30
0.0
  0
LINE
  5
13A
330
1F
100
AcDbEntity
  8
0
  6
SLD-Сплошная
 62
     7
370
    25
100
AcDbLine
 10
-244.2055878039
 20
-339.7359417073
 30
0.0
 11
-244.0395690612
 21
-339.5699229646
 31
0.0
  0
ELLIPSE
  5
13B
330
1F
100
AcDbEntity
  8
0
  6
SLD-Сплошная
 62
     7
370
    25
100
AcDbEllipse
 10
-233.8813793048
 20
-321.7486646597
 30
0.0
 11
14.50562533885298
 21
14.50562533882453
 31
4.405364961712621E-13
210
1.040884026848123E-17
220
-3.038045396973695E-14
230
0.9999999999999998
 40
0.999315002
 41
2.518157936934414
 42
3.409093846137479
  0
SPLINE
  5
13C
330
1F
100
AcDbEntity
  8
0
  6
SLD-Сплошная
 62
     7
370
    25
100
AcDbSpline
210
0.0
220
0.0
230
1.0
 70
     8
 71
     3
 72
     8
 73
     4
 74
     0
 42
0.00000001
 43
0.00000001
 40
0.0
 40
0.0
 40
0.0
 40
0.0
 40
1.0
 40
1.0
 40
1.0
 40
1.0
 10
-254.388406550907
 20
-321.7627167437506
 30
0.0
 10
-254.3884065509066
 20
-322.8663020314078
 30
0.0
 10
-254.2987409447237
 20
-323.9734037953961
 30
0.0
 10
-254.1211540281645
 20
-325.0624852051926
 30
0.0
  0
SPLINE
  5
13D
330
1F
100
AcDbEntity
  8
0
  6
SLD-Сплошная
 62
     7
370
    25
100
AcDbSpline
210
0.0
220
0.0
230
1.0
 70
     8
 71
     3
 72
    10
 73
     6
 74
     0
 42
0.00000001
 43
0.00000001
 40
0.0
 40
0.0
 40
0.0
 40
0.0
 40
0.5
 40
0.5
 40
1.0
 40
1.0
 40
1.0
 40
1.0
 10
-244.2055878039139
 20
454.8120244659485
 30
0.0
 10
-242.6855047786454
 20
455.677774515074
 30
0.0
 10
-241.0271337202769
 20
456.360093943416
 30
0.0
 10
-237.5884661955482
 20
457.2703505544743
 30
0.0
 10
-235.8100785639653
 20
457.497793407118
 30
0.0
 10
-234.0614501316566
 20
457.4977934071184
 30
0.0
  0
SPLINE
  5
13E
330
1F
100
AcDbEntity
  8
0
  6
SLD-Сплошная
 62
     7
370
    25
100
AcDbSpline
210
0.0
220
0.0
230
1.0
 70
     8
 71
     3
 72
     8
 73
     4
 74
     0
 42
0.00000001
 43
0.00000001
 40
0.0
 40
0.0
 40
0.0
 40
0.0
 40
1.0
 40
1.0
 40
1.0
 40
1.0
 10
-254.388406550907
 20
436.8387995023714
 30
0.0
 10
-254.3884065509066
 20
437.9423847900289
 30
0.0
 10
-254.2987409447237
 20
439.0494865540161
 30
0.0
 10
-254.1211540281645
 20
440.1385679638134
 30
0.0
  0
ELLIPSE
  5
13F
330
1F
100
AcDbEntity
  8
0
  6
SLD-Сплошная
 62
     7
370
    25
100
AcDbEllipse
 10
-233.8813793048
 20
436.8247474183
 30
0.0
 11
14.50562533886984
 21
-14.50562533880765
 31
-4.405364961712623E-13
210
-1.040884023311187E-17
220
-3.038045396973697E-14
230
1.0
 40
0.999315002
 41
2.874091461040912
 42
3.765027370244009
  0
LINE
  5
140
330
1F
100
AcDbEntity
  8
0
  6
SLD-Сплошная
 62
     7
370
    25
100
AcDbLine
 10
-244.2055878039
 20
454.8120244659
 30
0.0
 11
-244.0395690612
 21
454.6460057232
 31
0.0
  0
ARC
  5
141
330
1F
100
AcDbEntity
  8
0
  6
SLD-Сплошная
 62
     7
370
    25
100
AcDbCircle
 10
328.8985346579
 20
441.0517706452
 30
0.0
 40
16.44602276196099
100
AcDbArc
 50
0.0
 51
90.0
  0
ARC
  5
142
330
1F
100
AcDbEntity
  8
0
  6
SLD-Сплошная
 62
     7
370
    25
100
AcDbCircle
 10
328.8985346579
 20
-325.9756878865
 30
0.0
 40
16.44602276196099
100
AcDbArc
 50
270.0
 51
0.0
  0
LINE
  5
143
330
1F
100
AcDbEntity
  8
0
  6
SLD-Сплошная
 62
     7
370
    25
100
AcDbLine
 10
345.3445574199
 20
441.0517706452
 30
0.0
 11
345.3445574199
 21
-325.9756878865
 31
0.0
  0
LINE
  5
144
330
1F
100
AcDbEntity
  8
0
  6
SLD-Сплошная
 62
     7
370
    25
100
AcDbLine
 10
-234.0614501317
 20
457.4977934071
 30
0.0
 11
328.8985346579
 21
457.4977934071
 31
0.0
  0
LINE
  5
145
330
1F
100
AcDbEntity
  8
0
  6
SLD-Сплошная
 62
     7
370
    25
100
AcDbLine
 10
-234.0614501317
 20
-342.4217106485
 30
0.0
 11
328.8985346579
 21
-342.4217106485
 31
0.0
  0
LINE
  5
146
330
1F
100
AcDbEntity
  8
0
  6
SLD-Сплошная
 62
     7
370
    25
100
AcDbLine
 10
671.6169607583
 20
-332.5541223853
 30
0.0
 11
904.4369607584
 21
-338.650728645
 31
0.0
  0
LINE
  5
147
330
1F
100
AcDbEntity
  8
0
  6
SLD-Сплошная
 62
     7
370
    25
100
AcDbLine
 10
904.4369607584
 20
453.6243890375
 30
0.0
 11
671.6169607583
 21
447.5277827777
 31
0.0
  0
LINE
  5
148
330
1F
100
AcDbEntity
  8
0
  6
SLD-Сплошная
 62
     7
370
    25
100
AcDbLine
 10
968.9069607583
 20
-253.6956392175
 30
0.0
 11
968.9069607583
 21
-283.6956392175
 31
0.0
  0
LINE
  5
149
330
1F
100
AcDbEntity
  8
0
  6
SLD-Сплошная
 62
     7
370
    25
100
AcDbLine
 10
924.9069607583
 20
-283.6956392175
 30
0.0
 11
924.9069607583
 21
-276.4193817482
 31
0.0
  0
LINE
  5
14A
330
1F
100
AcDbEntity
  8
0
  6
SLD-Сплошная
 62
     7
370
    25
100
AcDbLine
 10
936.9069607583
 20
-260.9718966868
 30
0.0
 11
936.9069607583
 21
-276.4193817482
 31
0.0
  0
LINE
  5
14B
330
1F
100
AcDbEntity
  8
0
  6
SLD-Сплошная
 62
     7
370
    25
100
AcDbLine
 10
924.9069607583
 20
-260.9718966868
 30
0.0
 11
936.9069607583
 21
-260.9718966868
 31
0.0
  0
LINE
  5
14C
330
1F
100
AcDbEntity
  8
0
  6
SLD-Сплошная
 62
     7
370
    25
100
AcDbLine
 10
968.9069607583
 20
-253.6956392175
 30
0.0
 11
924.9069607583
 21
-253.6956392175
 31
0.0
  0
LINE
  5
14D
330
1F
100
AcDbEntity
  8
0
  6
SLD-Сплошная
 62
     7
370
    25
100
AcDbLine
 10
924.9069607583
 20
-260.9718966868
 30
0.0
 11
924.9069607583
 21
-253.6956392175
 31
0.0
  0
LINE
  5
14E
330
1F
100
AcDbEntity
  8
0
  6
SLD-Сплошная
 62
     7
370
    25
100
AcDbLine
 10
968.9069607583
 20
-283.6956392175
 30
0.0
 11
924.9069607583
 21
-283.6956392175
 31
0.0
  0
LINE
  5
14F
330
1F
100
AcDbEntity
  8
0
  6
SLD-Сплошная
 62
     7
370
    25
100
AcDbLine
 10
924.9069607583
 20
-276.4193817482
 30
0.0
 11
936.9069607583
 21
-276.4193817482
 31
0.0
  0
LINE
  5
150
330
1F
100
AcDbEntity
  8
0
  6
SLD-Сплошная
 62
     7
370
    25
100
AcDbLine
 10
968.9069607583
 20
-36.6956392175
 30
0.0
 11
968.9069607583
 21
-66.6956392175
 31
0.0
  0
LINE
  5
151
330
1F
100
AcDbEntity
  8
0
  6
SLD-Сплошная
 62
     7
370
    25
100
AcDbLine
 10
924.9069607583
 20
-66.6956392175
 30
0.0
 11
924.9069607583
 21
-59.4193817482
 31
0.0
  0
LINE
  5
152
330
1F
100
AcDbEntity
  8
0
  6
SLD-Сплошная
 62
     7
370
    25
100
AcDbLine
 10
924.9069607583
 20
-59.4193817482
 30
0.0
 11
936.9069607583
 21
-59.4193817482
 31
0.0
  0
LINE
  5
153
330
1F
100
AcDbEntity
  8
0
  6
SLD-Сплошная
 62
     7
370
    25
100
AcDbLine
 10
936.9069607583
 20
-43.9718966868
 30
0.0
 11
936.9069607583
 21
-59.4193817482
 31
0.0
  0
LINE
  5
154
330
1F
100
AcDbEntity
  8
0
  6
SLD-Сплошная
 62
     7
370
    25
100
AcDbLine
 10
924.9069607583
 20
-43.9718966868
 30
0.0
 11
924.9069607583
 21
-36.6956392175
 31
0.0
  0
LINE
  5
155
330
1F
100
AcDbEntity
  8
0
  6
SLD-Сплошная
 62
     7
370
    25
100
AcDbLine
 10
968.9069607583
 20
-36.6956392175
 30
0.0
 11
924.9069607583
 21
-36.6956392175
 31
0.0
  0
LINE
  5
156
330
1F
100
AcDbEntity
  8
0
  6
SLD-Сплошная
 62
     7
370
    25
100
AcDbLine
 10
968.9069607583
 20
-66.6956392175
 30
0.0
 11
924.9069607583
 21
-66.6956392175
 31
0.0
  0
LINE
  5
157
330
1F
100
AcDbEntity
  8
0
  6
SLD-Сплошная
 62
     7
370
    25
100
AcDbLine
 10
924.9069607583
 20
-43.9718966868
 30
0.0
 11
936.9069607583
 21
-43.9718966868
 31
0.0
  0
LINE
  5
158
330
1F
100
AcDbEntity
  8
0
  6
SLD-Сплошная
 62
     7
370
    25
100
AcDbLine
 10
968.9069607583
 20
181.4843607825
 30
0.0
 11
968.9069607583
 21
151.4843607825
 31
0.0
  0
LINE
  5
159
330
1F
100
AcDbEntity
  8
0
  6
SLD-Сплошная
 62
     7
370
    25
100
AcDbLine
 10
924.9069607583
 20
151.4843607825
 30
0.0
 11
924.9069607583
 21
158.7606182518
 31
0.0
  0
LINE
  5
15A
330
1F
100
AcDbEntity
  8
0
  6
SLD-Сплошная
 62
     7
370
    25
100
AcDbLine
 10
936.9069607583
 20
174.2081033132
 30
0.0
 11
936.9069607583
 21
158.7606182518
 31
0.0
  0
LINE
  5
15B
330
1F
100
AcDbEntity
  8
0
  6
SLD-Сплошная
 62
     7
370
    25
100
AcDbLine
 10
924.9069607583
 20
174.2081033132
 30
0.0
 11
924.9069607583
 21
181.4843607825
 31
0.0
  0
LINE
  5
15C
330
1F
100
AcDbEntity
  8
0
  6
SLD-Сплошная
 62
     7
370
    25
100
AcDbLine
 10
968.9069607583
 20
151.4843607825
 30
0.0
 11
924.9069607583
 21
151.4843607825
 31
0.0
  0
LINE
  5
15D
330
1F
100
AcDbEntity
  8
0
  6
SLD-Сплошная
 62
     7
370
    25
100
AcDbLine
 10
968.9069607583
 20
181.4843607825
 30
0.0
 11
924.9069607583
 21
181.4843607825
 31
0.0
  0
LINE
  5
15E
330
1F
100
AcDbEntity
  8
0
  6
SLD-Сплошная
 62
     7
370
    25
100
AcDbLine
 10
924.9069607583
 20
174.2081033132
 30
0.0
 11
936.9069607583
 21
174.2081033132
 31
0.0
  0
LINE
  5
15F
330
1F
100
AcDbEntity
  8
0
  6
SLD-Сплошная
 62
     7
370
    25
100
AcDbLine
 10
924.9069607583
 20
158.7606182518
 30
0.0
 11
936.9069607583
 21
158.7606182518
 31
0.0
  0
LINE
  5
160
330
1F
100
AcDbEntity
  8
0
  6
SLD-Сплошная
 62
     7
370
    25
100
AcDbLine
 10
968.9069607584
 20
398.4843607825
 30
0.0
 11
968.9069607584
 21
368.4843607825
 31
0.0
  0
LINE
  5
161
330
1F
100
AcDbEntity
  8
0
  6
SLD-Сплошная
 62
     7
370
    25
100
AcDbLine
 10
924.9069607584
 20
368.4843607825
 30
0.0
 11
924.9069607584
 21
375.7606182518
 31
0.0
  0
LINE
  5
162
330
1F
100
AcDbEntity
  8
0
  6
SLD-Сплошная
 62
     7
370
    25
100
AcDbLine
 10
924.9069607584
 20
375.7606182518
 30
0.0
 11
936.9069607584
 21
375.7606182518
 31
0.0
  0
LINE
  5
163
330
1F
100
AcDbEntity
  8
0
  6
SLD-Сплошная
 62
     7
370
    25
100
AcDbLine
 10
936.9069607584
 20
391.2081033132
 30
0.0
 11
936.9069607584
 21
375.7606182518
 31
0.0
  0
LINE
  5
164
330
1F
100
AcDbEntity
  8
0
  6
SLD-Сплошная
 62
     7
370
    25
100
AcDbLine
 10
924.9069607584
 20
391.2081033132
 30
0.0
 11
924.9069607584
 21
398.4843607825
 31
0.0
  0
LINE
  5
165
330
1F
100
AcDbEntity
  8
0
  6
SLD-Сплошная
 62
     7
370
    25
100
AcDbLine
 10
968.9069607584
 20
398.4843607825
 30
0.0
 11
924.9069607584
 21
398.4843607825
 31
0.0
  0
LINE
  5
166
330
1F
100
AcDbEntity
  8
0
  6
SLD-Сплошная
 62
     7
370
    25
100
AcDbLine
 10
968.9069607584
 20
368.4843607825
 30
0.0
 11
924.9069607584
 21
368.4843607825
 31
0.0
  0
LINE
  5
167
330
1F
100
AcDbEntity
  8
0
  6
SLD-Сплошная
 62
     7
370
    25
100
AcDbLine
 10
924.9069607584
 20
391.2081033132
 30
0.0
 11
936.9069607584
 21
391.2081033132
 31
0.0
  0
LINE
  5
168
330
1F
100
AcDbEntity
  8
0
  6
SLD-Сплошная
 62
     7
370
    25
100
AcDbLine
 10
921.9069607583
 20
-253.6956392175
 30
0.0
 11
921.9069607583
 21
-263.1956392175
 31
0.0
  0
LINE
  5
169
330
1F
100
AcDbEntity
  8
0
  6
SLD-Сплошная
 62
     7
370
    25
100
AcDbLine
 10
934.9069607583
 20
-263.1956392175
 30
0.0
 11
921.9069607583
 21
-263.1956392175
 31
0.0
  0
LINE
  5
16A
330
1F
100
AcDbEntity
  8
0
  6
SLD-Сплошная
 62
     7
370
    25
100
AcDbLine
 10
934.9069607583
 20
-263.1956392175
 30
0.0
 11
934.9069607583
 21
-274.1956392175
 31
0.0
  0
LINE
  5
16B
330
1F
100
AcDbEntity
  8
0
  6
SLD-Сплошная
 62
     7
370
    25
100
AcDbLine
 10
934.9069607583
 20
-274.1956392175
 30
0.0
 11
921.9069607583
 21
-274.1956392175
 31
0.0
  0
LINE
  5
16C
330
1F
100
AcDbEntity
  8
0
  6
SLD-Сплошная
 62
     7
370
    25
100
AcDbLine
 10
921.9069607583
 20
-274.1956392175
 30
0.0
 11
921.9069607583
 21
-283.6956392175
 31
0.0
  0
LINE
  5
16D
330
1F
100
AcDbEntity
  8
0
  6
SLD-Сплошная
 62
     7
370
    25
100
AcDbLine
 10
921.9069607583
 20
-283.6956392175
 30
0.0
 11
908.9069607583
 21
-283.6956392175
 31
0.0
  0
LINE
  5
16E
330
1F
100
AcDbEntity
  8
0
  6
SLD-Сплошная
 62
     7
370
    25
100
AcDbLine
 10
921.9069607583
 20
-253.6956392175
 30
0.0
 11
908.9069607583
 21
-253.6956392175
 31
0.0
  0
LINE
  5
16F
330
1F
100
AcDbEntity
  8
0
  6
SLD-Сплошная
 62
     7
370
    25
100
AcDbLine
 10
908.9069607583
 20
-253.6956392175
 30
0.0
 11
908.9069607583
 21
-283.6956392175
 31
0.0
  0
LINE
  5
170
330
1F
100
AcDbEntity
  8
0
  6
SLD-Сплошная
 62
     7
370
    25
100
AcDbLine
 10
921.9069607583
 20
-36.6956392175
 30
0.0
 11
921.9069607583
 21
-46.1956392175
 31
0.0
  0
LINE
  5
171
330
1F
100
AcDbEntity
  8
0
  6
SLD-Сплошная
 62
     7
370
    25
100
AcDbLine
 10
934.9069607583
 20
-46.1956392175
 30
0.0
 11
921.9069607583
 21
-46.1956392175
 31
0.0
  0
LINE
  5
172
330
1F
100
AcDbEntity
  8
0
  6
SLD-Сплошная
 62
     7
370
    25
100
AcDbLine
 10
934.9069607583
 20
-46.1956392175
 30
0.0
 11
934.9069607583
 21
-57.1956392175
 31
0.0
  0
LINE
  5
173
330
1F
100
AcDbEntity
  8
0
  6
SLD-Сплошная
 62
     7
370
    25
100
AcDbLine
 10
934.9069607583
 20
-57.1956392175
 30
0.0
 11
921.9069607583
 21
-57.1956392175
 31
0.0
  0
LINE
  5
174
330
1F
100
AcDbEntity
  8
0
  6
SLD-Сплошная
 62
     7
370
    25
100
AcDbLine
 10
921.9069607583
 20
-57.1956392175
 30
0.0
 11
921.9069607583
 21
-66.6956392175
 31
0.0
  0
LINE
  5
175
330
1F
100
AcDbEntity
  8
0
  6
SLD-Сплошная
 62
     7
370
    25
100
AcDbLine
 10
908.9069607583
 20
-36.6956392175
 30
0.0
 11
908.9069607583
 21
-66.6956392175
 31
0.0
  0
LINE
  5
176
330
1F
100
AcDbEntity
  8
0
  6
SLD-Сплошная
 62
     7
370
    25
100
AcDbLine
 10
921.9069607583
 20
-36.6956392175
 30
0.0
 11
908.9069607583
 21
-36.6956392175
 31
0.0
  0
LINE
  5
177
330
1F
100
AcDbEntity
  8
0
  6
SLD-Сплошная
 62
     7
370
    25
100
AcDbLine
 10
921.9069607583
 20
-66.6956392175
 30
0.0
 11
908.9069607583
 21
-66.6956392175
 31
0.0
  0
LINE
  5
178
330
1F
100
AcDbEntity
  8
0
  6
SLD-Сплошная
 62
     7
370
    25
100
AcDbLine
 10
921.9069607583
 20
181.4843607825
 30
0.0
 11
921.9069607583
 21
171.9843607825
 31
0.0
  0
LINE
  5
179
330
1F
100
AcDbEntity
  8
0
  6
SLD-Сплошная
 62
     7
370
    25
100
AcDbLine
 10
934.9069607583
 20
171.9843607825
 30
0.0
 11
921.9069607583
 21
171.9843607825
 31
0.0
  0
LINE
  5
17A
330
1F
100
AcDbEntity
  8
0
  6
SLD-Сплошная
 62
     7
370
    25
100
AcDbLine
 10
934.9069607583
 20
171.9843607825
 30
0.0
 11
934.9069607583
 21
160.9843607825
 31
0.0
  0
LINE
  5
17B
330
1F
100
AcDbEntity
  8
0
  6
SLD-Сплошная
 62
     7
370
    25
100
AcDbLine
 10
934.9069607583
 20
160.9843607825
 30
0.0
 11
921.9069607583
 21
160.9843607825
 31
0.0
  0
LINE
  5
17C
330
1F
100
AcDbEntity
  8
0
  6
SLD-Сплошная
 62
     7
370
    25
100
AcDbLine
 10
921.9069607583
 20
160.9843607825
 30
0.0
 11
921.9069607583
 21
151.4843607825
 31
0.0
  0
LINE
  5
17D
330
1F
100
AcDbEntity
  8
0
  6
SLD-Сплошная
 62
     7
370
    25
100
AcDbLine
 10
921.9069607583
 20
181.4843607825
 30
0.0
 11
908.9069607583
 21
181.4843607825
 31
0.0
  0
LINE
  5
17E
330
1F
100
AcDbEntity
  8
0
  6
SLD-Сплошная
 62
     7
370
    25
100
AcDbLine
 10
908.9069607583
 20
181.4843607825
 30
0.0
 11
908.9069607583
 21
151.4843607825
 31
0.0
  0
LINE
  5
17F
330
1F
100
AcDbEntity
  8
0
  6
SLD-Сплошная
 62
     7
370
    25
100
AcDbLine
 10
921.9069607583
 20
151.4843607825
 30
0.0
 11
908.9069607583
 21
151.4843607825
 31
0.0
  0
LINE
  5
180
330
1F
100
AcDbEntity
  8
0
  6
SLD-Сплошная
 62
     7
370
    25
100
AcDbLine
 10
921.9069607584
 20
398.4843607825
 30
0.0
 11
908.9069607584
 21
398.4843607825
 31
0.0
  0
LINE
  5
181
330
1F
100
AcDbEntity
  8
0
  6
SLD-Сплошная
 62
     7
370
    25
100
AcDbLine
 10
921.9069607584
 20
398.4843607825
 30
0.0
 11
921.9069607584
 21
388.9843607825
 31
0.0
  0
LINE
  5
182
330
1F
100
AcDbEntity
  8
0
  6
SLD-Сплошная
 62
     7
370
    25
100
AcDbLine
 10
934.9069607584
 20
388.9843607825
 30
0.0
 11
921.9069607584
 21
388.9843607825
 31
0.0
  0
LINE
  5
183
330
1F
100
AcDbEntity
  8
0
  6
SLD-Сплошная
 62
     7
370
    25
100
AcDbLine
 10
934.9069607584
 20
388.9843607825
 30
0.0
 11
934.9069607584
 21
377.9843607825
 31
0.0
  0
LINE
  5
184
330
1F
100
AcDbEntity
  8
0
  6
SLD-Сплошная
 62
     7
370
    25
100
AcDbLine
 10
934.9069607584
 20
377.9843607825
 30
0.0
 11
921.9069607584
 21
377.9843607825
 31
0.0
  0
LINE
  5
185
330
1F
100
AcDbEntity
  8
0
  6
SLD-Сплошная
 62
     7
370
    25
100
AcDbLine
 10
921.9069607584
 20
377.9843607825
 30
0.0
 11
921.9069607584
 21
368.4843607825
 31
0.0
  0
LINE
  5
186
330
1F
100
AcDbEntity
  8
0
  6
SLD-Сплошная
 62
     7
370
    25
100
AcDbLine
 10
921.9069607584
 20
368.4843607825
 30
0.0
 11
908.9069607584
 21
368.4843607825
 31
0.0
  0
LINE
  5
187
330
1F
100
AcDbEntity
  8
0
  6
SLD-Сплошная
 62
     7
370
    25
100
AcDbLine
 10
908.9069607584
 20
398.4843607825
 30
0.0
 11
908.9069607584
 21
368.4843607825
 31
0.0
  0
LINE
  5
188
330
1F
100
AcDbEntity
  8
0
  6
SLD-Сплошная
 62
     7
370
    25
100
AcDbLine
 10
908.9069607583
 20
418.4843607825
 30
0.0
 11
908.9069607583
 21
348.4843607825
 31
0.0
  0
LINE
  5
189
330
1F
100
AcDbEntity
  8
0
  6
SLD-Сплошная
 62
     7
370
    25
100
AcDbLine
 10
904.4369607583
 20
348.4843607825
 30
0.0
 11
904.4369607583
 21
353.1789082054
 31
0.0
  0
LINE
  5
18A
330
1F
100
AcDbEntity
  8
0
  6
SLD-Сплошная
 62
     7
370
    25
100
AcDbLine
 10
904.4369607583
 20
353.1789082054
 30
0.0
 11
884.433708077
 21
357.195768293
 31
0.0
  0
LINE
  5
18B
330
1F
100
AcDbEntity
  8
0
  6
SLD-Сплошная
 62
     7
370
    25
100
AcDbLine
 10
884.433708077
 20
357.195768293
 30
0.0
 11
884.433708077
 21
410.5372606545
 31
0.0
  0
LINE
  5
18C
330
1F
100
AcDbEntity
  8
0
  6
SLD-Сплошная
 62
     7
370
    25
100
AcDbLine
 10
884.433708077
 20
410.5372606545
 30
0.0
 11
904.4382977115
 21
414.5543892161
 31
0.0
  0
LINE
  5
18D
330
1F
100
AcDbEntity
  8
0
  6
SLD-Сплошная
 62
     7
370
    25
100
AcDbLine
 10
904.4382977115
 20
418.4843607825
 30
0.0
 11
904.4382977115
 21
414.5543892161
 31
0.0
  0
LINE
  5
18E
330
1F
100
AcDbEntity
  8
0
  6
SLD-Сплошная
 62
     7
370
    25
100
AcDbLine
 10
908.9069607583
 20
418.4843607825
 30
0.0
 11
908.9069607583
 21
437.4296606613
 31
0.0
  0
LINE
  5
18F
330
1F
100
AcDbEntity
  8
0
  6
SLD-Сплошная
 62
     7
370
    25
100
AcDbLine
 10
904.4369607584
 20
418.4843607825
 30
0.0
 11
904.4369607584
 21
437.4296606613
 31
0.0
  0
LINE
  5
190
330
1F
100
AcDbEntity
  8
0
  6
SLD-Сплошная
 62
     7
370
    25
100
AcDbLine
 10
904.4369607583
 20
348.4843607825
 30
0.0
 11
904.4369607583
 21
201.4843607825
 31
0.0
  0
LINE
  5
191
330
1F
100
AcDbEntity
  8
0
  6
SLD-Сплошная
 62
     7
370
    25
100
AcDbLine
 10
908.9069607583
 20
201.4843607825
 30
0.0
 11
908.9069607583
 21
348.4843607825
 31
0.0
  0
LINE
  5
192
330
1F
100
AcDbEntity
  8
0
  6
SLD-Сплошная
 62
     7
370
    25
100
AcDbLine
 10
904.4369607583
 20
131.4843607825
 30
0.0
 11
904.4369607583
 21
136.1789082054
 31
0.0
  0
LINE
  5
193
330
1F
100
AcDbEntity
  8
0
  6
SLD-Сплошная
 62
     7
370
    25
100
AcDbLine
 10
904.4369607583
 20
136.1789082054
 30
0.0
 11
884.4337080769
 21
140.195768293
 31
0.0
  0
LINE
  5
194
330
1F
100
AcDbEntity
  8
0
  6
SLD-Сплошная
 62
     7
370
    25
100
AcDbLine
 10
884.4337080769
 20
140.195768293
 30
0.0
 11
884.4337080769
 21
193.5372606545
 31
0.0
  0
LINE
  5
195
330
1F
100
AcDbEntity
  8
0
  6
SLD-Сплошная
 62
     7
370
    25
100
AcDbLine
 10
884.4337080769
 20
193.5372606545
 30
0.0
 11
904.4369607583
 21
197.5541207421
 31
0.0
  0
LINE
  5
196
330
1F
100
AcDbEntity
  8
0
  6
SLD-Сплошная
 62
     7
370
    25
100
AcDbLine
 10
904.4369607583
 20
201.4843607825
 30
0.0
 11
904.4369607583
 21
197.5541207421
 31
0.0
  0
LINE
  5
197
330
1F
100
AcDbEntity
  8
0
  6
SLD-Сплошная
 62
     7
370
    25
100
AcDbLine
 10
908.9069607583
 20
201.4843607825
 30
0.0
 11
908.9069607583
 21
131.4843607825
 31
0.0
  0
LINE
  5
198
330
1F
100
AcDbEntity
  8
0
  6
SLD-Сплошная
 62
     7
370
    25
100
AcDbLine
 10
904.4369607583
 20
131.4843607825
 30
0.0
 11
904.4369607583
 21
-16.6956392175
 31
0.0
  0
LINE
  5
199
330
1F
100
AcDbEntity
  8
0
  6
SLD-Сплошная
 62
     7
370
    25
100
AcDbLine
 10
908.9069607583
 20
-16.6956392175
 30
0.0
 11
908.9069607583
 21
131.4843607825
 31
0.0
  0
LINE
  5
19A
330
1F
100
AcDbEntity
  8
0
  6
SLD-Сплошная
 62
     7
370
    25
100
AcDbLine
 10
904.4369607583
 20
-86.6956392175
 30
0.0
 11
904.4369607583
 21
-82.0010917946
 31
0.0
  0
LINE
  5
19B
330
1F
100
AcDbEntity
  8
0
  6
SLD-Сплошная
 62
     7
370
    25
100
AcDbLine
 10
904.4369607583
 20
-82.0010917946
 30
0.0
 11
884.4337080769
 21
-77.984231707
 31
0.0
  0
LINE
  5
19C
330
1F
100
AcDbEntity
  8
0
  6
SLD-Сплошная
 62
     7
370
    25
100
AcDbLine
 10
884.4337080769
 20
-77.984231707
 30
0.0
 11
884.4337080769
 21
-24.6427393455
 31
0.0
  0
LINE
  5
19D
330
1F
100
AcDbEntity
  8
0
  6
SLD-Сплошная
 62
     7
370
    25
100
AcDbLine
 10
884.4337080769
 20
-24.6427393455
 30
0.0
 11
904.4369607583
 21
-20.6258792579
 31
0.0
  0
LINE
  5
19E
330
1F
100
AcDbEntity
  8
0
  6
SLD-Сплошная
 62
     7
370
    25
100
AcDbLine
 10
904.4369607583
 20
-16.6956392175
 30
0.0
 11
904.4369607583
 21
-20.6258792579
 31
0.0
  0
LINE
  5
19F
330
1F
100
AcDbEntity
  8
0
  6
SLD-Сплошная
 62
     7
370
    25
100
AcDbLine
 10
908.9069607583
 20
-16.6956392175
 30
0.0
 11
908.9069607583
 21
-86.6956392175
 31
0.0
  0
LINE
  5
1A0
330
1F
100
AcDbEntity
  8
0
  6
SLD-Сплошная
 62
     7
370
    25
100
AcDbLine
 10
904.4369607583
 20
-233.6956392175
 30
0.0
 11
904.4369607583
 21
-86.6956392175
 31
0.0
  0
LINE
  5
1A1
330
1F
100
AcDbEntity
  8
0
  6
SLD-Сплошная
 62
     7
370
    25
100
AcDbLine
 10
908.9069607583
 20
-233.6956392175
 30
0.0
 11
908.9069607583
 21
-86.6956392175
 31
0.0
  0
LINE
  5
1A2
330
1F
100
AcDbEntity
  8
0
  6
SLD-Сплошная
 62
     7
370
    25
100
AcDbLine
 10
904.4382977114
 20
-303.6956392175
 30
0.0
 11
904.4382977114
 21
-299.0013602686
 31
0.0
  0
LINE
  5
1A3
330
1F
100
AcDbEntity
  8
0
  6
SLD-Сплошная
 62
     7
370
    25
100
AcDbLine
 10
904.4382977114
 20
-299.0013602686
 30
0.0
 11
884.4337080769
 21
-294.984231707
 31
0.0
  0
LINE
  5
1A4
330
1F
100
AcDbEntity
  8
0
  6
SLD-Сплошная
 62
     7
370
    25
100
AcDbLine
 10
884.4337080769
 20
-294.984231707
 30
0.0
 11
884.4337080769
 21
-241.6427393455
 31
0.0
  0
LINE
  5
1A5
330
1F
100
AcDbEntity
  8
0
  6
SLD-Сплошная
 62
     7
370
    25
100
AcDbLine
 10
884.4337080769
 20
-241.6427393455
 30
0.0
 11
904.4369607583
 21
-237.6258792579
 31
0.0
  0
LINE
  5
1A6
330
1F
100
AcDbEntity
  8
0
  6
SLD-Сплошная
 62
     7
370
    25
100
AcDbLine
 10
904.4369607583
 20
-233.6956392175
 30
0.0
 11
904.4369607583
 21
-237.6258792579
 31
0.0
  0
LINE
  5
1A7
330
1F
100
AcDbEntity
  8
0
  6
SLD-Сплошная
 62
     7
370
    25
100
AcDbLine
 10
908.9069607583
 20
-233.6956392175
 30
0.0
 11
908.9069607583
 21
-303.6956392175
 31
0.0
  0
LINE
  5
1A8
330
1F
100
AcDbEntity
  8
0
  6
SLD-Сплошная
 62
     7
370
    25
100
AcDbLine
 10
904.4369607584
 20
-322.4560002688
 30
0.0
 11
904.4369607584
 21
-303.6956392175
 31
0.0
  0
LINE
  5
1A9
330
1F
100
AcDbEntity
  8
0
  6
SLD-Сплошная
 62
     7
370
    25
100
AcDbLine
 10
908.9069607583
 20
-322.4560002688
 30
0.0
 11
908.9069607583
 21
-303.6956392175
 31
0.0
  0
LINE
  5
1AA
330
1F
100
AcDbEntity
  8
0
  6
SLD-Сплошная
 62
     7
370
    25
100
AcDbLine
 10
908.9069607583
 20
457.4877934072
 30
0.0
 11
904.4369607584
 21
457.3707423377
 31
0.0
  0
LINE
  5
1AB
330
1F
100
AcDbEntity
  8
0
  6
SLD-Сплошная
 62
     7
370
    25
100
AcDbLine
 10
904.4369607584
 20
437.4296606613
 30
0.0
 11
904.4369607584
 21
457.3707423377
 31
0.0
  0
LINE
  5
1AC
330
1F
100
AcDbEntity
  8
0
  6
SLD-Сплошная
 62
     7
370
    25
100
AcDbLine
 10
908.9069607583
 20
457.4877934072
 30
0.0
 11
908.9069607583
 21
437.4296606613
 31
0.0
  0
LINE
  5
1AD
330
1F
100
AcDbEntity
  8
0
  6
SLD-Сплошная
 62
     7
370
    25
100
AcDbLine
 10
908.9069607583
 20
-342.5141330147
 30
0.0
 11
904.4369607584
 21
-342.3970819453
 31
0.0
  0
LINE
  5
1AE
330
1F
100
AcDbEntity
  8
0
  6
SLD-Сплошная
 62
     7
370
    25
100
AcDbLine
 10
904.4369607584
 20
-342.3970819453
 30
0.0
 11
904.4369607584
 21
-322.4560002688
 31
0.0
  0
LINE
  5
1AF
330
1F
100
AcDbEntity
  8
0
  6
SLD-Сплошная
 62
     7
370
    25
100
AcDbLine
 10
908.9069607583
 20
-342.5141330147
 30
0.0
 11
908.9069607583
 21
-322.4560002688
 31
0.0
  0
SPLINE
  5
1B0
330
1F
100
AcDbEntity
  8
0
  6
SLD-Сплошная
 62
     7
370
    25
100
AcDbSpline
210
0.0
220
0.0
230
1.0
 70
     8
 71
     3
 72
    10
 73
     6
 74
     0
 42
0.00000001
 43
0.00000001
 40
0.0
 40
0.0
 40
0.0
 40
0.0
 40
0.5
 40
0.5
 40
1.0
 40
1.0
 40
1.0
 40
1.0
 10
671.6169607583495
 20
-314.964516619801
 30
0.0
 10
710.4175799984938
 20
-314.1517036272074
 30
0.0
 10
749.2204073587433
 20
-313.4470374166453
 30
0.0
 10
826.8275860997063
 20
-312.1460104625527
 30
0.0
 10
865.6320116393266
 20
-311.552441312832
 30
0.0
 10
904.4369607583616
 20
-310.994528678267
 30
0.0
  0
LINE
  5
1B1
330
1F
100
AcDbEntity
  8
0
  6
SLD-Сплошная
 62
     7
370
    25
100
AcDbLine
 10
671.6169607583
 20
-332.5541223853
 30
0.0
 11
671.6169607583
 21
-314.9645166198
 31
0.0
  0
SPLINE
  5
1B2
330
1F
100
AcDbEntity
  8
0
  6
SLD-Сплошная
 62
     7
370
    25
100
AcDbSpline
210
0.0
220
0.0
230
1.0
 70
     8
 71
     3
 72
    10
 73
     6
 74
     0
 42
0.00000001
 43
0.00000001
 40
0.0
 40
0.0
 40
0.0
 40
0.0
 40
0.5
 40
0.5
 40
1.0
 40
1.0
 40
1.0
 40
1.0
 10
671.6169607583495
 20
429.938177012267
 30
0.0
 10
710.4175799984938
 20
429.1253640196736
 30
0.0
 10
749.2204073587433
 20
428.4206978091116
 30
0.0
 10
826.8275860997064
 20
427.1196708550192
 30
0.0
 10
865.6320116393266
 20
426.5261017052981
 30
0.0
 10
904.4369607583616
 20
425.9681890707332
 30
0.0
  0
LINE
  5
1B3
330
1F
100
AcDbEntity
  8
0
  6
SLD-Сплошная
 62
     7
370
    25
100
AcDbLine
 10
671.6169607583
 20
429.9381770123
 30
0.0
 11
671.6169607583
 21
447.5277827777
 31
0.0
  0
LINE
  5
1B4
330
1F
100
AcDbEntity
  8
0
  6
SLD-Сплошная
 62
     7
370
    25
100
AcDbLine
 10
916.5069607584
 20
-335.9001594074
 30
0.0
 11
908.9069607584
 21
-336.0328179008
 31
0.0
  0
LINE
  5
1B5
330
1F
100
AcDbEntity
  8
0
  6
SLD-Сплошная
 62
     7
370
    25
100
AcDbLine
 10
916.5069607584
 20
450.8738197998
 30
0.0
 11
908.9069607584
 21
451.0064782933
 31
0.0
  0
LINE
  5
1B6
330
1F
100
AcDbEntity
  8
0
  6
SLD-Сплошная
 62
     7
370
    25
100
AcDbLine
 10
671.6169607583
 20
-314.9645166198
 30
0.0
 11
671.6169607583
 21
429.9381770123
 31
0.0
  0
LINE
  5
1B7
330
1F
100
AcDbEntity
  8
0
  6
SLD-Сплошная
 62
     7
370
    25
100
AcDbLine
 10
668.6169607583
 20
-262.7973019171
 30
0.0
 11
668.6169607583
 21
-260.8596671119
 31
0.0
  0
LINE
  5
1B8
330
1F
100
AcDbEntity
  8
0
  6
SLD-Сплошная
 62
     7
370
    25
100
AcDbLine
 10
668.6169607583
 20
-262.7973019171
 30
0.0
 11
671.6169607583
 21
-262.8496671119
 31
0.0
  0
LINE
  5
1B9
330
1F
100
AcDbEntity
  8
0
  6
SLD-Сплошная
 62
     7
370
    25
100
AcDbLine
 10
668.6169607583
 20
-260.8596671119
 30
0.0
 11
668.6169607583
 21
-260.8396671119
 31
0.0
  0
LINE
  5
1BA
330
1F
100
AcDbEntity
  8
0
  6
SLD-Сплошная
 62
     7
370
    25
100
AcDbLine
 10
668.6169607583
 20
375.8133275043
 30
0.0
 11
668.6169607583
 21
375.8333275043
 31
0.0
  0
LINE
  5
1BB
330
1F
100
AcDbEntity
  8
0
  6
SLD-Сплошная
 62
     7
370
    25
100
AcDbLine
 10
668.6169607583
 20
373.8756926991
 30
0.0
 11
671.6169607583
 21
373.8233275043
 31
0.0
  0
LINE
  5
1BC
330
1F
100
AcDbEntity
  8
0
  6
SLD-Сплошная
 62
     7
370
    25
100
AcDbLine
 10
668.6169607583
 20
373.8756926991
 30
0.0
 11
668.6169607583
 21
375.8133275043
 31
0.0
  0
LINE
  5
1BD
330
1F
100
AcDbEntity
  8
0
  6
SLD-Сплошная
 62
     7
370
    25
100
AcDbLine
 10
668.6169607583
 20
-260.8396671119
 30
0.0
 11
668.6169607583
 21
-258.9020323067
 31
0.0
  0
LINE
  5
1BE
330
1F
100
AcDbEntity
  8
0
  6
SLD-Сплошная
 62
     7
370
    25
100
AcDbLine
 10
668.6169607583
 20
-258.9020323067
 30
0.0
 11
671.6169607583
 21
-258.8496671119
 31
0.0
  0
LINE
  5
1BF
330
1F
100
AcDbEntity
  8
0
  6
SLD-Сплошная
 62
     7
370
    25
100
AcDbLine
 10
668.6169607583
 20
375.8333275043
 30
0.0
 11
668.6169607583
 21
377.7709623096
 31
0.0
  0
LINE
  5
1C0
330
1F
100
AcDbEntity
  8
0
  6
SLD-Сплошная
 62
     7
370
    25
100
AcDbLine
 10
668.6169607583
 20
377.7709623096
 30
0.0
 11
671.6169607583
 21
377.8233275043
 31
0.0
  0
LINE
  5
1C1
330
1F
100
AcDbEntity
  8
0
  6
SLD-Сплошная
 62
     7
370
    25
100
AcDbLine
 10
668.6169607583
 20
400.2709623096
 30
0.0
 11
671.6169607583
 21
400.3233275043
 31
0.0
  0
LINE
  5
1C2
330
1F
100
AcDbEntity
  8
0
  6
SLD-Сплошная
 62
     7
370
    25
100
AcDbLine
 10
668.6169607583
 20
386.3756926991
 30
0.0
 11
671.6169607583
 21
386.3233275043
 31
0.0
  0
LINE
  5
1C3
330
1F
100
AcDbEntity
  8
0
  6
SLD-Сплошная
 62
     7
370
    25
100
AcDbLine
 10
668.6169607583
 20
400.2709623096
 30
0.0
 11
668.6169607583
 21
386.3756926991
 31
0.0
  0
LINE
  5
1C4
330
1F
100
AcDbEntity
  8
0
  6
SLD-Сплошная
 62
     7
370
    25
100
AcDbLine
 10
668.6169607583
 20
-285.2973019171
 30
0.0
 11
671.6169607583
 21
-285.3496671119
 31
0.0
  0
LINE
  5
1C5
330
1F
100
AcDbEntity
  8
0
  6
SLD-Сплошная
 62
     7
370
    25
100
AcDbLine
 10
668.6169607583
 20
-285.2973019171
 30
0.0
 11
668.6169607583
 21
-271.4020323067
 31
0.0
  0
LINE
  5
1C6
330
1F
100
AcDbEntity
  8
0
  6
SLD-Сплошная
 62
     7
370
    25
100
AcDbLine
 10
668.6169607583
 20
-271.4020323067
 30
0.0
 11
671.6169607583
 21
-271.3496671119
 31
0.0
  0
LINE
  5
1C7
330
1F
100
AcDbEntity
  8
0
  6
SLD-Сплошная
 62
     7
370
    25
100
AcDbLine
 10
668.6169607583
 20
-292.7973019171
 30
0.0
 11
671.6169607583
 21
-292.8496671119
 31
0.0
  0
LINE
  5
1C8
330
1F
100
AcDbEntity
  8
0
  6
SLD-Сплошная
 62
     7
370
    25
100
AcDbLine
 10
668.6169607583
 20
-292.7973019171
 30
0.0
 11
668.6169607583
 21
-285.2973019171
 31
0.0
  0
LINE
  5
1C9
330
1F
100
AcDbEntity
  8
0
  6
SLD-Сплошная
 62
     7
370
    25
100
AcDbLine
 10
668.6169607583
 20
-271.4020323067
 30
0.0
 11
668.6169607583
 21
-262.7973019171
 31
0.0
  0
LINE
  5
1CA
330
1F
100
AcDbEntity
  8
0
  6
SLD-Сплошная
 62
     7
370
    25
100
AcDbLine
 10
668.6169607583
 20
407.7709623096
 30
0.0
 11
671.6169607583
 21
407.8233275043
 31
0.0
  0
LINE
  5
1CB
330
1F
100
AcDbEntity
  8
0
  6
SLD-Сплошная
 62
     7
370
    25
100
AcDbLine
 10
668.6169607583
 20
377.7709623096
 30
0.0
 11
668.6169607583
 21
386.3756926991
 31
0.0
  0
LINE
  5
1CC
330
1F
100
AcDbEntity
  8
0
  6
SLD-Сплошная
 62
     7
370
    25
100
AcDbLine
 10
668.6169607583
 20
400.2709623096
 30
0.0
 11
668.6169607583
 21
407.7709623096
 31
0.0
  0
LWPOLYLINE
  5
1CD
330
1F
100
AcDbEntity
  8
0
  6
SLD-Сплошная
 62
     7
370
    25
100
AcDbPolyline
 90
        3
 70
   128
 43
0.0
 10
671.1257229533
 20
-223.3410754285
 10
671.4008162546
 20
-223.3458912889
 10
671.6169607583
 20
-223.3496670887
  0
SPLINE
  5
1CE
330
1F
100
AcDbEntity
  8
0
  6
SLD-Сплошная
 62
     7
370
    25
100
AcDbSpline
210
0.0
220
0.0
230
1.0
 70
     8
 71
     3
 72
     8
 73
     4
 74
     0
 42
0.00000001
 43
0.00000001
 40
0.0
 40
0.0
 40
0.0
 40
0.0
 40
1.0
 40
1.0
 40
1.0
 40
1.0
 10
668.6169607583496
 20
-223.2966243509591
 30
0.0
 10
669.4531588285221
 20
-223.3116001893739
 30
0.0
 10
670.2893897613394
 20
-223.3264168232481
 30
0.0
 10
671.1257229532861
 20
-223.3410754284617
 30
0.0
  0
LINE
  5
1CF
330
1F
100
AcDbEntity
  8
0
  6
SLD-Сплошная
 62
     7
370
    25
100
AcDbLine
 10
668.6169607583
 20
-223.2966243551
 30
0.0
 11
668.6169607583
 21
-221.2976065268
 31
0.0
  0
LINE
  5
1D0
330
1F
100
AcDbEntity
  8
0
  6
SLD-Сплошная
 62
     7
370
    25
100
AcDbLine
 10
668.6169607583
 20
-221.2976065268
 30
0.0
 11
668.6169607583
 21
336.2712669192
 31
0.0
  0
SPLINE
  5
1D1
330
1F
100
AcDbEntity
  8
0
  6
SLD-Сплошная
 62
     7
370
    25
100
AcDbSpline
210
0.0
220
0.0
230
1.0
 70
     8
 71
     3
 72
     8
 73
     4
 74
     0
 42
0.00000001
 43
0.00000001
 40
0.0
 40
0.0
 40
0.0
 40
0.0
 40
1.0
 40
1.0
 40
1.0
 40
1.0
 10
668.6169607583496
 20
338.270284743425
 30
0.0
 10
669.453158828522
 20
338.2852605818394
 30
0.0
 10
670.2893897613394
 20
338.3000772157145
 30
0.0
 10
671.1257229532861
 20
338.3147358209283
 30
0.0
  0
LWPOLYLINE
  5
1D2
330
1F
100
AcDbEntity
  8
0
  6
SLD-Сплошная
 62
     7
370
    25
100
AcDbPolyline
 90
        3
 70
   128
 43
0.0
 10
671.1257229533
 20
338.3147358209
 10
671.4008162546
 20
338.3195516814
 10
671.6169607583
 20
338.3233274812
  0
LINE
  5
1D3
330
1F
100
AcDbEntity
  8
0
  6
SLD-Сплошная
 62
     7
370
    25
100
AcDbLine
 10
668.6169607583
 20
336.2712669192
 30
0.0
 11
668.6169607583
 21
338.2702846852
 31
0.0
  0
LINE
  5
1D4
330
1F
100
AcDbEntity
  8
0
  6
SLD-Сплошная
 62
     7
370
    25
100
AcDbLine
 10
668.6169607583
 20
430.2709623096
 30
0.0
 11
671.6169607583
 21
430.3233275043
 31
0.0
  0
LINE
  5
1D5
330
1F
100
AcDbEntity
  8
0
  6
SLD-Сплошная
 62
     7
370
    25
100
AcDbLine
 10
668.6169607583
 20
416.3756926991
 30
0.0
 11
671.6169607583
 21
416.3233275043
 31
0.0
  0
LINE
  5
1D6
330
1F
100
AcDbEntity
  8
0
  6
SLD-Сплошная
 62
     7
370
    25
100
AcDbLine
 10
668.6169607583
 20
430.2709623096
 30
0.0
 11
668.6169607583
 21
416.3756926991
 31
0.0
  0
LINE
  5
1D7
330
1F
100
AcDbEntity
  8
0
  6
SLD-Сплошная
 62
     7
370
    25
100
AcDbLine
 10
668.6169607583
 20
-315.2973019171
 30
0.0
 11
671.6169607583
 21
-315.3496671119
 31
0.0
  0
LINE
  5
1D8
330
1F
100
AcDbEntity
  8
0
  6
SLD-Сплошная
 62
     7
370
    25
100
AcDbLine
 10
668.6169607583
 20
-315.2973019171
 30
0.0
 11
668.6169607583
 21
-301.4020323067
 31
0.0
  0
LINE
  5
1D9
330
1F
100
AcDbEntity
  8
0
  6
SLD-Сплошная
 62
     7
370
    25
100
AcDbLine
 10
668.6169607583
 20
-301.4020323067
 30
0.0
 11
671.6169607583
 21
-301.3496671119
 31
0.0
  0
LINE
  5
1DA
330
1F
100
AcDbEntity
  8
0
  6
SLD-Сплошная
 62
     7
370
    25
100
AcDbLine
 10
668.6169607583
 20
431.8333275043
 30
0.0
 11
668.6169607583
 21
430.2709623096
 31
0.0
  0
LINE
  5
1DB
330
1F
100
AcDbEntity
  8
0
  6
SLD-Сплошная
 62
     7
370
    25
100
AcDbLine
 10
668.6169607583
 20
416.3756926991
 30
0.0
 11
668.6169607583
 21
407.7709623096
 31
0.0
  0
LINE
  5
1DC
330
1F
100
AcDbEntity
  8
0
  6
SLD-Сплошная
 62
     7
370
    25
100
AcDbLine
 10
668.6169607583
 20
433.7709623096
 30
0.0
 11
671.6169607583
 21
433.8233275043
 31
0.0
  0
LINE
  5
1DD
330
1F
100
AcDbEntity
  8
0
  6
SLD-Сплошная
 62
     7
370
    25
100
AcDbLine
 10
668.6169607583
 20
433.7709623096
 30
0.0
 11
668.6169607583
 21
431.8333275043
 31
0.0
  0
LINE
  5
1DE
330
1F
100
AcDbEntity
  8
0
  6
SLD-Сплошная
 62
     7
370
    25
100
AcDbLine
 10
668.6169607583
 20
-318.7973019171
 30
0.0
 11
671.6169607583
 21
-318.8496671119
 31
0.0
  0
LINE
  5
1DF
330
1F
100
AcDbEntity
  8
0
  6
SLD-Сплошная
 62
     7
370
    25
100
AcDbLine
 10
668.6169607583
 20
-316.8596671119
 30
0.0
 11
668.6169607583
 21
-318.7973019171
 31
0.0
  0
LINE
  5
1E0
330
1F
100
AcDbEntity
  8
0
  6
SLD-Сплошная
 62
     7
370
    25
100
AcDbLine
 10
668.6169607583
 20
-292.7973019171
 30
0.0
 11
668.6169607583
 21
-301.4020323067
 31
0.0
  0
LINE
  5
1E1
330
1F
100
AcDbEntity
  8
0
  6
SLD-Сплошная
 62
     7
370
    25
100
AcDbLine
 10
668.6169607583
 20
-315.2973019171
 30
0.0
 11
668.6169607583
 21
-316.8596671119
 31
0.0
  0
LINE
  5
1E2
330
1F
100
AcDbEntity
  8
0
  6
SLD-Сплошная
 62
     7
370
    25
100
AcDbLine
 10
671.5993707843
 20
-223.3493598117
 30
0.0
 11
671.6169607583
 21
-223.3496670887
 31
0.0
  0
LWPOLYLINE
  5
1E3
330
1F
100
AcDbEntity
  8
0
  6
SLD-Сплошная
 62
     7
370
    25
100
AcDbPolyline
 90
        3
 70
   128
 43
0.0
 10
671.1264910737
 20
338.3147492679
 10
671.4008161094
 20
338.3195516788
 10
671.6169607583
 20
338.3233274812
  0
LINE
  5
1E4
330
1F
100
AcDbEntity
  8
0
  6
SLD-Сплошная
 62
     7
370
    25
100
AcDbLine
 10
671.5995052449
 20
338.3230225531
 30
0.0
 11
671.6169607583
 21
338.3233274811
 31
0.0
  0
SPLINE
  5
1E5
330
1F
100
AcDbEntity
  8
0
  6
SLD-Сплошная
 62
     7
370
    25
100
AcDbSpline
210
0.0
220
0.0
230
1.0
 70
    24
 71
     3
 72
    10
 73
     6
 74
     0
 42
0.00000001
 43
0.00000001
 40
0.0
 40
0.0
 40
0.0
 40
0.0
 40
0.5
 40
0.5
 40
1.0
 40
1.0
 40
1.0
 40
1.0
 10
910.1669607583481
 20
454.8120244659484
 30
0.0
 10
910.1669607583481
 20
455.6777745150739
 30
0.0
 10
910.1669607583481
 20
456.360093943416
 30
0.0
 10
910.166960758348
 20
457.2703505544742
 30
0.0
 10
910.166960758348
 20
457.497793407118
 30
0.0
 10
910.166960758348
 20
457.4977934071183
 30
0.0
  0
LINE
  5
1E6
330
1F
100
AcDbEntity
  8
0
  6
SLD-Сплошная
 62
     7
370
    25
100
AcDbLine
 10
910.1669607583
 20
457.4977934071
 30
0.0
 11
926.5691972587
 21
457.0682857286
 31
0.0
  0
LINE
  5
1E7
330
1F
100
AcDbEntity
  8
0
  6
SLD-Сплошная
 62
     7
370
    25
100
AcDbLine
 10
926.5691972587
 20
457.0682857286
 30
0.0
 11
926.724214122
 21
456.6747524949
 31
0.0
  0
SPLINE
  5
1E8
330
1F
100
AcDbEntity
  8
0
  6
SLD-Сплошная
 62
     7
370
    25
100
AcDbSpline
210
0.0
220
0.0
230
1.0
 70
     8
 71
     3
 72
    30
 73
    26
 74
     0
 42
0.00000001
 43
0.00000001
 40
0.0
 40
0.0
 40
0.0
 40
0.0
 40
0.1250000000000146
 40
0.1250000000000146
 40
0.1875000000000202
 40
0.1875000000000202
 40
0.2500000000000259
 40
0.2500000000000259
 40
0.3750000000000372
 40
0.3750000000000372
 40
0.4375000000000389
 40
0.4375000000000389
 40
0.5000000000000404
 40
0.5000000000000404
 40
0.6250000000000363
 40
0.6250000000000363
 40
0.7500000000000322
 40
0.7500000000000322
 40
0.8125000000000241
 40
0.8125000000000241
 40
0.8750000000000161
 40
0.8750000000000161
 40
0.937500000000008
 40
0.937500000000008
 40
1.0
 40
1.0
 40
1.0
 40
1.0
 10
926.7242141219672
 20
456.6747524948556
 30
0.0
 10
926.8018506973276
 20
456.4776605661905
 30
0.0
 10
926.8801012926947
 20
456.2095129962834
 30
0.0
 10
926.9892731790892
 20
455.7009331671141
 30
0.0
 10
927.0243187572751
 20
455.5136066379359
 30
0.0
 10
927.0903945261742
 20
455.1024716363276
 30
0.0
 10
927.121330696445
 20
454.8789199606862
 30
0.0
 10
927.2050597400829
 20
454.164591744537
 30
0.0
 10
927.2492573492053
 20
453.6272162657582
 30
0.0
 10
927.2943250085091
 20
452.7309429058055
 30
0.0
 10
927.3058258481967
 20
452.4170881357936
 30
0.0
 10
927.3213176087573
 20
451.7586889256397
 30
0.0
 10
927.3253065480926
 20
451.4130390346342
 30
0.0
 10
927.3254586579895
 20
450.3361330718883
 30
0.0
 10
927.3098631123519
 20
449.5740184613907
 30
0.0
 10
927.250263883521
 20
447.9646684536362
 30
0.0
 10
927.2062392806603
 20
447.117430146761
 30
0.0
 10
927.1224406964183
 20
445.7807583041168
 30
0.0
 10
927.0915096359378
 20
445.3236447310521
 30
0.0
 10
927.0256823393721
 20
444.400807740666
 30
0.0
 10
926.9906895821969
 20
443.9334483507897
 30
0.0
 10
926.9178282006241
 20
442.9868938336191
 30
0.0
 10
926.8799577667099
 20
442.5076987699821
 30
0.0
 10
926.8027670844255
 20
441.5373021889799
 30
0.0
 10
926.763335055266
 20
441.0447139994396
 30
0.0
 10
926.7242141219687
 20
440.5486985189864
 30
0.0
  0
ELLIPSE
  5
1E9
330
1F
100
AcDbEntity
  8
0
  6
SLD-Сплошная
 62
     7
370
    25
100
AcDbEllipse
 10
934.7313216839
 20
436.3475257325
 30
0.0
 11
-0.1077155846130609
 21
20.50824267032704
 31
0.0
210
0.0
220
0.0
230
0.9999999999999998
 40
0.3979577268
 41
1.362393183070691
 42
1.557598940197278
  0
SPLINE
  5
1EA
330
1F
100
AcDbEntity
  8
0
  6
SLD-Сплошная
 62
     7
370
    25
100
AcDbSpline
210
0.0
220
0.0
230
1.0
 70
    24
 71
     3
 72
     8
 73
     4
 74
     0
 42
0.00000001
 43
0.00000001
 40
0.0
 40
0.0
 40
0.0
 40
0.0
 40
1.0
 40
1.0
 40
1.0
 40
1.0
 10
916.506960758349
 20
436.8387995023713
 30
0.0
 10
916.506960758349
 20
437.9423847900288
 30
0.0
 10
916.5069607583489
 20
439.049486554016
 30
0.0
 10
916.5069607583372
 20
440.1385679638134
 30
0.0
  0
LINE
  5
1EB
330
1F
100
AcDbEntity
  8
0
  6
SLD-Сплошная
 62
     7
370
    25
100
AcDbLine
 10
916.5069607584
 20
454.6460057232
 30
0.0
 11
916.5069607584
 21
440.1385679638
 31
0.0
  0
LINE
  5
1EC
330
1F
100
AcDbEntity
  8
0
  6
SLD-Сплошная
 62
     7
370
    25
100
AcDbLine
 10
910.1669607584
 20
454.8120244659
 30
0.0
 11
916.5069607584
 21
454.6460057232
 31
0.0
  0
SPLINE
  5
1ED
330
1F
100
AcDbEntity
  8
0
  6
SLD-Сплошная
 62
     7
370
    25
100
AcDbSpline
210
0.0
220
0.0
230
1.0
 70
     8
 71
     3
 72
    30
 73
    26
 74
     0
 42
0.00000001
 43
0.00000001
 40
0.0
 40
0.0
 40
0.0
 40
0.0
 40
0.1250000000000037
 40
0.1250000000000037
 40
0.1875000000000039
 40
0.1875000000000039
 40
0.2500000000000041
 40
0.2500000000000041
 40
0.3750000000000062
 40
0.3750000000000062
 40
0.4375000000000062
 40
0.4375000000000062
 40
0.5000000000000061
 40
0.5000000000000061
 40
0.6250000000000061
 40
0.6250000000000061
 40
0.7500000000000061
 40
0.7500000000000061
 40
0.8125000000000046
 40
0.8125000000000046
 40
0.8750000000000031
 40
0.8750000000000031
 40
0.9375000000000016
 40
0.9375000000000016
 40
1.0
 40
1.0
 40
1.0
 40
1.0
 10
926.7242141219672
 20
-341.5986697362349
 30
0.0
 10
926.8018506973275
 20
-341.4015778075699
 30
0.0
 10
926.8801012926946
 20
-341.1334302376628
 30
0.0
 10
926.9892731790892
 20
-340.6248504084933
 30
0.0
 10
927.024318757275
 20
-340.4375238793153
 30
0.0
 10
927.0903945261741
 20
-340.0263888777068
 30
0.0
 10
927.121330696445
 20
-339.8028372020655
 30
0.0
 10
927.2050597400829
 20
-339.0885089859162
 30
0.0
 10
927.2492573492053
 20
-338.5511335071375
 30
0.0
 10
927.2943250085091
 20
-337.6548601471847
 30
0.0
 10
927.3058258481967
 20
-337.3410053771729
 30
0.0
 10
927.3213176087573
 20
-336.6826061670189
 30
0.0
 10
927.3253065480927
 20
-336.3369562760137
 30
0.0
 10
927.3254586579895
 20
-335.2600503132677
 30
0.0
 10
927.3098631123519
 20
-334.4979357027699
 30
0.0
 10
927.250263883521
 20
-332.8885856950154
 30
0.0
 10
927.2062392806603
 20
-332.0413473881403
 30
0.0
 10
927.1224406964184
 20
-330.7046755454962
 30
0.0
 10
927.0915096359379
 20
-330.2475619724314
 30
0.0
 10
927.0256823393721
 20
-329.3247249820452
 30
0.0
 10
926.9906895821969
 20
-328.8573655921689
 30
0.0
 10
926.9178282006242
 20
-327.9108110749986
 30
0.0
 10
926.87995776671
 20
-327.4316160113616
 30
0.0
 10
926.8027670844256
 20
-326.4612194303594
 30
0.0
 10
926.7633350552661
 20
-325.9686312408188
 30
0.0
 10
926.7242141219688
 20
-325.4726157603657
 30
0.0
  0
LINE
  5
1EE
330
1F
100
AcDbEntity
  8
0
  6
SLD-Сплошная
 62
     7
370
    25
100
AcDbLine
 10
926.724214122
 20
-341.5986697362
 30
0.0
 11
926.5691972587
 21
-341.9922029699
 31
0.0
  0
LINE
  5
1EF
330
1F
100
AcDbEntity
  8
0
  6
SLD-Сплошная
 62
     7
370
    25
100
AcDbLine
 10
910.1669607583
 20
-342.4217106485
 30
0.0
 11
926.5691972587
 21
-341.9922029699
 31
0.0
  0
SPLINE
  5
1F0
330
1F
100
AcDbEntity
  8
0
  6
SLD-Сплошная
 62
     7
370
    25
100
AcDbSpline
210
0.0
220
0.0
230
1.0
 70
    24
 71
     3
 72
    10
 73
     6
 74
     0
 42
0.00000001
 43
0.00000001
 40
0.0
 40
0.0
 40
0.0
 40
0.0
 40
0.5
 40
0.5
 40
1.0
 40
1.0
 40
1.0
 40
1.0
 10
910.1669607583483
 20
-339.7359417073276
 30
0.0
 10
910.1669607583482
 20
-340.6016917564532
 30
0.0
 10
910.1669607583482
 20
-341.2840111847954
 30
0.0
 10
910.1669607583481
 20
-342.1942677958538
 30
0.0
 10
910.166960758348
 20
-342.4217106484976
 30
0.0
 10
910.166960758348
 20
-342.4217106484977
 30
0.0
  0
LINE
  5
1F1
330
1F
100
AcDbEntity
  8
0
  6
SLD-Сплошная
 62
     7
370
    25
100
AcDbLine
 10
910.1669607584
 20
-339.7359417073
 30
0.0
 11
916.5069607584
 21
-339.5699229646
 31
0.0
  0
LINE
  5
1F2
330
1F
100
AcDbEntity
  8
0
  6
SLD-Сплошная
 62
     7
370
    25
100
AcDbLine
 10
916.5069607584
 20
-325.0624852052
 30
0.0
 11
916.5069607584
 21
-339.5699229646
 31
0.0
  0
SPLINE
  5
1F3
330
1F
100
AcDbEntity
  8
0
  6
SLD-Сплошная
 62
     7
370
    25
100
AcDbSpline
210
0.0
220
0.0
230
1.0
 70
    24
 71
     3
 72
     8
 73
     4
 74
     0
 42
0.00000001
 43
0.00000001
 40
0.0
 40
0.0
 40
0.0
 40
0.0
 40
1.0
 40
1.0
 40
1.0
 40
1.0
 10
916.5069607583491
 20
-321.7627167437507
 30
0.0
 10
916.5069607583491
 20
-322.8663020314079
 30
0.0
 10
916.506960758349
 20
-323.9734037953961
 30
0.0
 10
916.5069607583373
 20
-325.0624852051927
 30
0.0
  0
ELLIPSE
  5
1F4
330
1F
100
AcDbEntity
  8
0
  6
SLD-Сплошная
 62
     7
370
    25
100
AcDbEllipse
 10
934.7313216839
 20
-321.2714429738
 30
0.0
 11
0.1077155846130609
 21
20.50824267032704
 31
0.0
210
0.0
220
0.0
230
0.9999999999999998
 40
0.3979577268
 41
1.58399371339254
 42
1.779199470519097
  0
SPLINE
  5
1F5
330
1F
100
AcDbEntity
  8
0
  6
SLD-Сплошная
 62
     7
370
    25
100
AcDbSpline
210
0.0
220
0.0
230
1.0
 70
     8
 71
     3
 72
    16
 73
    12
 74
     0
 42
0.00000001
 43
0.00000001
 40
0.0
 40
0.0
 40
0.0
 40
0.0
 40
0.2500000000000026
 40
0.2500000000000026
 40
0.3750000000000039
 40
0.3750000000000039
 40
0.5000000000000052
 40
0.5000000000000052
 40
0.7500000000000026
 40
0.7500000000000026
 40
1.0
 40
1.0
 40
1.0
 40
1.0
 10
935.7864477986761
 20
-313.5700279874295
 30
0.0
 10
935.5789258606663
 20
-314.7404451841805
 30
0.0
 10
935.3804279287775
 20
-315.8898673116882
 30
0.0
 10
935.0729231665956
 20
-317.5796257458135
 30
0.0
 10
934.9687736443027
 20
-318.1374564277161
 30
0.0
 10
934.7539308907666
 20
-319.2391491105548
 30
0.0
 10
934.6451655460165
 20
-319.7730328381243
 30
0.0
 10
934.3106315865338
 20
-321.3251022525102
 30
0.0
 10
934.0761641201206
 20
-322.2953935571244
 30
0.0
 10
933.5692771423851
 20
-324.0938383587865
 30
0.0
 10
933.3057932269387
 20
-324.8903577912542
 30
0.0
 10
933.0308606754304
 20
-325.5883147345902
 30
0.0
  0
LINE
  5
1F6
330
1F
100
AcDbEntity
  8
0
  6
SLD-Сплошная
 62
     7
370
    25
100
AcDbLine
 10
926.724214122
 20
-341.5986697362
 30
0.0
 11
933.0308606754
 21
-325.5883147346
 31
0.0
  0
ELLIPSE
  5
1F7
330
1F
100
AcDbEntity
  8
0
  6
SLD-Сплошная
 62
     7
370
    25
100
AcDbEllipse
 10
889.3053328845
 20
-316.537865426
 30
0.0
 11
25.25895805883386
 21
60.20211671907816
 31
0.0
210
0.0
220
0.0
230
1.0
 40
0.673757511
 41
5.035345123345123
 42
5.269354541583531
  0
ELLIPSE
  5
1F8
330
1F
100
AcDbEntity
  8
0
  6
SLD-Сплошная
 62
     7
370
    25
100
AcDbEllipse
 10
889.3053328845
 20
431.6139481847
 30
0.0
 11
-25.25895805883385
 21
60.20211671907822
 31
0.0
210
0.0
220
0.0
230
1.0
 40
0.673757511
 41
4.155423419185867
 42
4.389432837424268
  0
LINE
  5
1F9
330
1F
100
AcDbEntity
  8
0
  6
SLD-Сплошная
 62
     7
370
    25
100
AcDbLine
 10
926.724214122
 20
456.6747524949
 30
0.0
 11
933.0308606754
 21
440.6643974932
 31
0.0
  0
SPLINE
  5
1FA
330
1F
100
AcDbEntity
  8
0
  6
SLD-Сплошная
 62
     7
370
    25
100
AcDbSpline
210
0.0
220
0.0
230
1.0
 70
     8
 71
     3
 72
    16
 73
    12
 74
     0
 42
0.00000001
 43
0.00000001
 40
0.0
 40
0.0
 40
0.0
 40
0.0
 40
0.25
 40
0.25
 40
0.375
 40
0.375
 40
0.5
 40
0.5
 40
0.75
 40
0.75
 40
1.0
 40
1.0
 40
1.0
 40
1.0
 10
935.7864477986761
 20
428.6461107460501
 30
0.0
 10
935.5789258606663
 20
429.8165279428012
 30
0.0
 10
935.3804279287775
 20
430.9659500703087
 30
0.0
 10
935.0729231665956
 20
432.6557085044342
 30
0.0
 10
934.9687736443028
 20
433.2135391863366
 30
0.0
 10
934.7539308907666
 20
434.3152318691755
 30
0.0
 10
934.6451655460166
 20
434.8491155967448
 30
0.0
 10
934.3106315865339
 20
436.401185011131
 30
0.0
 10
934.0761641201206
 20
437.3714763157451
 30
0.0
 10
933.5692771423852
 20
439.1699211174072
 30
0.0
 10
933.3057932269387
 20
439.966440549875
 30
0.0
 10
933.0308606754305
 20
440.6643974932109
 30
0.0
  0
LINE
  5
1FB
330
1F
100
AcDbEntity
  8
0
  6
SLD-Сплошная
 62
     7
370
    25
100
AcDbLine
 10
975.7677958943
 20
363.5340342137
 30
0.0
 11
975.7677958943
 21
403.255717063
 31
0.0
  0
LINE
  5
1FC
330
1F
100
AcDbEntity
  8
0
  6
SLD-Сплошная
 62
     7
370
    25
100
AcDbLine
 10
926.5691972587
 20
362.2457235685
 30
0.0
 11
975.7677958943
 21
363.5340342137
 31
0.0
  0
LINE
  5
1FD
330
1F
100
AcDbEntity
  8
0
  6
SLD-Сплошная
 62
     7
370
    25
100
AcDbLine
 10
926.5691972587
 20
362.2457235685
 30
0.0
 11
926.5691972587
 21
187.5440277082
 31
0.0
  0
LINE
  5
1FE
330
1F
100
AcDbEntity
  8
0
  6
SLD-Сплошная
 62
     7
370
    25
100
AcDbLine
 10
926.5691972587
 20
187.5440277082
 30
0.0
 11
975.7677958943
 21
186.255717063
 31
0.0
  0
LINE
  5
1FF
330
1F
100
AcDbEntity
  8
0
  6
SLD-Сплошная
 62
     7
370
    25
100
AcDbLine
 10
975.7677958943
 20
146.5340342137
 30
0.0
 11
975.7677958943
 21
186.255717063
 31
0.0
  0
LINE
  5
200
330
1F
100
AcDbEntity
  8
0
  6
SLD-Сплошная
 62
     7
370
    25
100
AcDbLine
 10
926.5691972587
 20
145.2457235685
 30
0.0
 11
975.7677958943
 21
146.5340342137
 31
0.0
  0
LINE
  5
201
330
1F
100
AcDbEntity
  8
0
  6
SLD-Сплошная
 62
     7
370
    25
100
AcDbLine
 10
926.5691972587
 20
-30.4696408099
 30
0.0
 11
926.5691972587
 21
145.2457235685
 31
0.0
  0
LINE
  5
202
330
1F
100
AcDbEntity
  8
0
  6
SLD-Сплошная
 62
     7
370
    25
100
AcDbLine
 10
975.7677958943
 20
-31.7579514551
 30
0.0
 11
926.5691972587
 21
-30.4696408099
 31
0.0
  0
LINE
  5
203
330
1F
100
AcDbEntity
  8
0
  6
SLD-Сплошная
 62
     7
370
    25
100
AcDbLine
 10
975.7677958943
 20
-31.7579514551
 30
0.0
 11
975.7677958943
 21
-71.4796343044
 31
0.0
  0
LINE
  5
204
330
1F
100
AcDbEntity
  8
0
  6
SLD-Сплошная
 62
     7
370
    25
100
AcDbLine
 10
975.7677958943
 20
-71.4796343044
 30
0.0
 11
926.5691972587
 21
-72.7679449496
 31
0.0
  0
LINE
  5
205
330
1F
100
AcDbEntity
  8
0
  6
SLD-Сплошная
 62
     7
370
    25
100
AcDbLine
 10
926.5691972587
 20
-72.7679449496
 30
0.0
 11
926.5691972587
 21
-247.4696408099
 31
0.0
  0
LINE
  5
206
330
1F
100
AcDbEntity
  8
0
  6
SLD-Сплошная
 62
     7
370
    25
100
AcDbLine
 10
975.7677958943
 20
-248.7579514551
 30
0.0
 11
926.5691972587
 21
-247.4696408099
 31
0.0
  0
LINE
  5
207
330
1F
100
AcDbEntity
  8
0
  6
SLD-Сплошная
 62
     7
370
    25
100
AcDbLine
 10
975.7677958943
 20
-248.7579514551
 30
0.0
 11
975.7677958943
 21
-288.4796343044
 31
0.0
  0
LINE
  5
208
330
1F
100
AcDbEntity
  8
0
  6
SLD-Сплошная
 62
     7
370
    25
100
AcDbLine
 10
975.7677958943
 20
-288.4796343044
 30
0.0
 11
926.5691972587
 21
-289.7679449496
 31
0.0
  0
LINE
  5
209
330
1F
100
AcDbEntity
  8
0
  6
SLD-Сплошная
 62
     7
370
    25
100
AcDbLine
 10
926.5691972587
 20
-289.7679449496
 30
0.0
 11
926.5691972587
 21
-321.4992278079
 31
0.0
  0
LINE
  5
20A
330
1F
100
AcDbEntity
  8
0
  6
SLD-Сплошная
 62
     7
370
    25
100
AcDbLine
 10
916.5069607584
 20
-284.91923851
 30
0.0
 11
916.5069607583
 21
-321.7627167438
 31
0.0
  0
LINE
  5
20B
330
1F
100
AcDbEntity
  8
0
  6
SLD-Сплошная
 62
     7
370
    25
100
AcDbLine
 10
916.5069607584
 20
-284.91923851
 30
0.0
 11
963.2343325348
 21
-283.6956392175
 31
0.0
  0
LINE
  5
20C
330
1F
100
AcDbEntity
  8
0
  6
SLD-Сплошная
 62
     7
370
    25
100
AcDbLine
 10
968.9069607583
 20
-283.5470962198
 30
0.0
 11
969.9069607584
 21
-283.5209102982
 31
0.0
  0
LINE
  5
20D
330
1F
100
AcDbEntity
  8
0
  6
SLD-Сплошная
 62
     7
370
    25
100
AcDbLine
 10
969.9069607584
 20
-253.9166754613
 30
0.0
 11
969.9069607584
 21
-283.5209102982
 31
0.0
  0
LINE
  5
20E
330
1F
100
AcDbEntity
  8
0
  6
SLD-Сплошная
 62
     7
370
    25
100
AcDbLine
 10
916.5069607584
 20
-252.5183472495
 30
0.0
 11
961.4659271592
 21
-253.6956392175
 31
0.0
  0
LINE
  5
20F
330
1F
100
AcDbEntity
  8
0
  6
SLD-Сплошная
 62
     7
370
    25
100
AcDbLine
 10
968.9069607583
 20
-253.8904895397
 30
0.0
 11
969.9069607584
 21
-253.9166754613
 31
0.0
  0
LINE
  5
210
330
1F
100
AcDbEntity
  8
0
  6
SLD-Сплошная
 62
     7
370
    25
100
AcDbLine
 10
916.5069607584
 20
-67.91923851
 30
0.0
 11
916.5069607584
 21
-252.5183472495
 31
0.0
  0
LINE
  5
211
330
1F
100
AcDbEntity
  8
0
  6
SLD-Сплошная
 62
     7
370
    25
100
AcDbLine
 10
916.5069607584
 20
-67.91923851
 30
0.0
 11
963.2343325348
 21
-66.6956392175
 31
0.0
  0
LINE
  5
212
330
1F
100
AcDbEntity
  8
0
  6
SLD-Сплошная
 62
     7
370
    25
100
AcDbLine
 10
968.9069607583
 20
-66.5470962198
 30
0.0
 11
969.9069607584
 21
-66.5209102982
 31
0.0
  0
LINE
  5
213
330
1F
100
AcDbEntity
  8
0
  6
SLD-Сплошная
 62
     7
370
    25
100
AcDbLine
 10
969.9069607584
 20
-36.9166754613
 30
0.0
 11
969.9069607584
 21
-66.5209102982
 31
0.0
  0
LINE
  5
214
330
1F
100
AcDbEntity
  8
0
  6
SLD-Сплошная
 62
     7
370
    25
100
AcDbLine
 10
916.5069607584
 20
-35.5183472495
 30
0.0
 11
961.4659271591
 21
-36.6956392175
 31
0.0
  0
LINE
  5
215
330
1F
100
AcDbEntity
  8
0
  6
SLD-Сплошная
 62
     7
370
    25
100
AcDbLine
 10
968.9069607583
 20
-36.8904895397
 30
0.0
 11
969.9069607584
 21
-36.9166754613
 31
0.0
  0
LINE
  5
216
330
1F
100
AcDbEntity
  8
0
  6
SLD-Сплошная
 62
     7
370
    25
100
AcDbLine
 10
916.5069607584
 20
-35.5183472495
 30
0.0
 11
916.5069607584
 21
150.2944300081
 31
0.0
  0
LINE
  5
217
330
1F
100
AcDbEntity
  8
0
  6
SLD-Сплошная
 62
     7
370
    25
100
AcDbLine
 10
916.5069607584
 20
150.2944300081
 30
0.0
 11
961.9485837008
 21
151.4843607825
 31
0.0
  0
LINE
  5
218
330
1F
100
AcDbEntity
  8
0
  6
SLD-Сплошная
 62
     7
370
    25
100
AcDbLine
 10
968.9069607583
 20
151.6665722984
 30
0.0
 11
969.9069607584
 21
151.6927582199
 31
0.0
  0
LINE
  5
219
330
1F
100
AcDbEntity
  8
0
  6
SLD-Сплошная
 62
     7
370
    25
100
AcDbLine
 10
969.9069607584
 20
181.2969930568
 30
0.0
 11
969.9069607584
 21
151.6927582199
 31
0.0
  0
LINE
  5
21A
330
1F
100
AcDbEntity
  8
0
  6
SLD-Сплошная
 62
     7
370
    25
100
AcDbLine
 10
916.5069607584
 20
182.6953212686
 30
0.0
 11
962.7516759932
 21
181.4843607825
 31
0.0
  0
LINE
  5
21B
330
1F
100
AcDbEntity
  8
0
  6
SLD-Сплошная
 62
     7
370
    25
100
AcDbLine
 10
968.9069607583
 20
181.3231789784
 30
0.0
 11
969.9069607584
 21
181.2969930568
 31
0.0
  0
LINE
  5
21C
330
1F
100
AcDbEntity
  8
0
  6
SLD-Сплошная
 62
     7
370
    25
100
AcDbLine
 10
916.5069607584
 20
182.6953212686
 30
0.0
 11
916.5069607584
 21
367.2944300081
 31
0.0
  0
LINE
  5
21D
330
1F
100
AcDbEntity
  8
0
  6
SLD-Сплошная
 62
     7
370
    25
100
AcDbLine
 10
916.5069607584
 20
367.2944300081
 30
0.0
 11
961.9485837008
 21
368.4843607825
 31
0.0
  0
LINE
  5
21E
330
1F
100
AcDbEntity
  8
0
  6
SLD-Сплошная
 62
     7
370
    25
100
AcDbLine
 10
968.9069607584
 20
368.6665722984
 30
0.0
 11
969.9069607584
 21
368.6927582199
 31
0.0
  0
LINE
  5
21F
330
1F
100
AcDbEntity
  8
0
  6
SLD-Сплошная
 62
     7
370
    25
100
AcDbLine
 10
969.9069607584
 20
398.2969930568
 30
0.0
 11
969.9069607584
 21
368.6927582199
 31
0.0
  0
LINE
  5
220
330
1F
100
AcDbEntity
  8
0
  6
SLD-Сплошная
 62
     7
370
    25
100
AcDbLine
 10
916.5069607584
 20
399.6953212686
 30
0.0
 11
962.7516759932
 21
398.4843607825
 31
0.0
  0
LINE
  5
221
330
1F
100
AcDbEntity
  8
0
  6
SLD-Сплошная
 62
     7
370
    25
100
AcDbLine
 10
968.9069607584
 20
398.3231789784
 30
0.0
 11
969.9069607584
 21
398.2969930568
 31
0.0
  0
LINE
  5
222
330
1F
100
AcDbEntity
  8
0
  6
SLD-Сплошная
 62
     7
370
    25
100
AcDbLine
 10
916.5069607584
 20
399.6953212686
 30
0.0
 11
916.5069607583
 21
436.8387995024
 31
0.0
  0
LINE
  5
223
330
1F
100
AcDbEntity
  8
0
  6
SLD-Сплошная
 62
     7
370
    25
100
AcDbLine
 10
926.5691972587
 20
404.5440277082
 30
0.0
 11
926.5691972587
 21
436.5753105666
 31
0.0
  0
LINE
  5
224
330
1F
100
AcDbEntity
  8
0
  6
SLD-Сплошная
 62
     7
370
    25
100
AcDbLine
 10
926.5691972587
 20
404.5440277082
 30
0.0
 11
975.7677958943
 21
403.255717063
 31
0.0
  0
LINE
  5
225
330
1F
100
AcDbEntity
  8
0
  6
SLD-Сплошная
 62
     7
370
    25
100
AcDbLine
 10
937.0888096733
 20
404.2685619626
 30
0.0
 11
937.0888096733
 21
414.2366398333
 31
0.0
  0
LINE
  5
226
330
1F
100
AcDbEntity
  8
0
  6
SLD-Сплошная
 62
     7
370
    25
100
AcDbLine
 10
937.0888096733
 20
-289.492479204
 30
0.0
 11
937.0888096733
 21
-299.1605570747
 31
0.0
  0
LINE
  5
227
330
1F
100
AcDbEntity
  8
0
  6
SLD-Сплошная
 62
     7
370
    25
100
AcDbLine
 10
937.0888096733
 20
-72.492479204
 30
0.0
 11
937.0888096732
 21
-247.7451065555
 31
0.0
  0
LINE
  5
228
330
1F
100
AcDbEntity
  8
0
  6
SLD-Сплошная
 62
     7
370
    25
100
AcDbLine
 10
937.0888096732
 20
362.5211893142
 30
0.0
 11
937.0888096733
 21
187.2685619626
 31
0.0
  0
LINE
  5
229
330
1F
100
AcDbEntity
  8
0
  6
SLD-Сплошная
 62
     7
370
    25
100
AcDbLine
 10
937.0888096733
 20
-30.7451065555
 30
0.0
 11
937.0888096733
 21
145.5211893142
 31
0.0
  0
LINE
  5
22A
330
1F
100
AcDbEntity
  8
0
  6
SLD-Сплошная
 62
     7
370
    25
100
AcDbLine
 10
937.604830392
 20
399.1428541091
 30
0.0
 11
937.604830392
 21
398.4843607825
 31
0.0
  0
LINE
  5
22B
330
1F
100
AcDbEntity
  8
0
  6
SLD-Сплошная
 62
     7
370
    25
100
AcDbLine
 10
937.604830392
 20
368.4843607825
 30
0.0
 11
937.604830392
 21
367.8468971676
 31
0.0
  0
LINE
  5
22C
330
1F
100
AcDbEntity
  8
0
  6
SLD-Сплошная
 62
     7
370
    25
100
AcDbLine
 10
937.870490392
 20
-36.0777709609
 30
0.0
 11
937.870490392
 21
-36.6956392175
 31
0.0
  0
LINE
  5
22D
330
1F
100
AcDbEntity
  8
0
  6
SLD-Сплошная
 62
     7
370
    25
100
AcDbLine
 10
937.870490392
 20
-66.6956392175
 30
0.0
 11
937.870490392
 21
-67.3598147986
 31
0.0
  0
LINE
  5
22E
330
1F
100
AcDbEntity
  8
0
  6
SLD-Сплошная
 62
     7
370
    25
100
AcDbLine
 10
937.870490392
 20
182.1358975572
 30
0.0
 11
937.870490392
 21
181.4843607825
 31
0.0
  0
LINE
  5
22F
330
1F
100
AcDbEntity
  8
0
  6
SLD-Сплошная
 62
     7
370
    25
100
AcDbLine
 10
937.870490392
 20
151.4843607825
 30
0.0
 11
937.870490392
 21
150.8538537196
 31
0.0
  0
LINE
  5
230
330
1F
100
AcDbEntity
  8
0
  6
SLD-Сплошная
 62
     7
370
    25
100
AcDbLine
 10
937.870490392
 20
-253.0777709609
 30
0.0
 11
937.870490392
 21
-253.6956392175
 31
0.0
  0
LINE
  5
231
330
1F
100
AcDbEntity
  8
0
  6
SLD-Сплошная
 62
     7
370
    25
100
AcDbLine
 10
937.870490392
 20
-283.6956392175
 30
0.0
 11
937.870490392
 21
-284.3598147986
 31
0.0
  0
LINE
  5
232
330
1F
100
AcDbEntity
  8
0
  6
SLD-Сплошная
 62
     7
370
    25
100
AcDbLine
 10
916.506960759
 20
-67.91923851
 30
0.0
 11
916.506960759
 21
-66.6956392175
 31
0.0
  0
LINE
  5
233
330
1F
100
AcDbEntity
  8
0
  6
SLD-Сплошная
 62
     7
370
    25
100
AcDbLine
 10
916.506960759
 20
-36.6956392175
 30
0.0
 11
916.506960759
 21
-35.5183472495
 31
0.0
  0
LINE
  5
234
330
1F
100
AcDbEntity
  8
0
  6
SLD-Сплошная
 62
     7
370
    25
100
AcDbLine
 10
916.506960759
 20
-284.91923851
 30
0.0
 11
916.506960759
 21
-283.6956392175
 31
0.0
  0
LINE
  5
235
330
1F
100
AcDbEntity
  8
0
  6
SLD-Сплошная
 62
     7
370
    25
100
AcDbLine
 10
916.506960759
 20
-253.6956392175
 30
0.0
 11
916.506960759
 21
-252.5183472495
 31
0.0
  0
LINE
  5
236
330
1F
100
AcDbEntity
  8
0
  6
SLD-Сплошная
 62
     7
370
    25
100
AcDbLine
 10
916.506960759
 20
182.6953212686
 30
0.0
 11
916.506960759
 21
181.4843607825
 31
0.0
  0
LINE
  5
237
330
1F
100
AcDbEntity
  8
0
  6
SLD-Сплошная
 62
     7
370
    25
100
AcDbLine
 10
916.506960759
 20
151.4843607825
 30
0.0
 11
916.506960759
 21
150.2944300081
 31
0.0
  0
LINE
  5
238
330
1F
100
AcDbEntity
  8
0
  6
SLD-Сплошная
 62
     7
370
    25
100
AcDbLine
 10
916.506960759
 20
399.6953212686
 30
0.0
 11
916.506960759
 21
398.4843607825
 31
0.0
  0
LINE
  5
239
330
1F
100
AcDbEntity
  8
0
  6
SLD-Сплошная
 62
     7
370
    25
100
AcDbLine
 10
916.506960759
 20
368.4843607825
 30
0.0
 11
916.506960759
 21
367.2944300082
 31
0.0
  0
LINE
  5
23A
330
1F
100
AcDbEntity
  8
0
  6
SLD-Сплошная
 62
     7
370
    25
100
AcDbLine
 10
931.8174171498
 20
443.744903346
 30
0.0
 11
1010.2555021502
 21
441.6909298041
 31
0.0
  0
SPLINE
  5
23B
330
1F
100
AcDbEntity
  8
0
  6
SLD-Сплошная
 62
     7
370
    25
100
AcDbSpline
210
0.0
220
0.0
230
1.0
 70
     8
 71
     3
 72
    30
 73
    26
 74
     0
 42
0.00000001
 43
0.00000001
 40
0.0
 40
0.0
 40
0.0
 40
0.0
 40
0.1249999999999917
 40
0.1249999999999917
 40
0.1874999999999876
 40
0.1874999999999876
 40
0.2499999999999834
 40
0.2499999999999834
 40
0.3749999999999751
 40
0.3749999999999751
 40
0.437499999999972
 40
0.437499999999972
 40
0.4999999999999688
 40
0.4999999999999688
 40
0.62499999999997
 40
0.62499999999997
 40
0.6874999999999746
 40
0.6874999999999746
 40
0.749999999999979
 40
0.749999999999979
 40
0.8124999999999836
 40
0.8124999999999836
 40
0.8749999999999881
 40
0.8749999999999881
 40
1.0
 40
1.0
 40
1.0
 40
1.0
 10
1010.255581335615
 20
426.6960678559323
 30
0.0
 10
1010.237853789928
 20
427.6861626363965
 30
0.0
 10
1010.238762055531
 20
428.6596509552649
 30
0.0
 10
1010.252476508768
 20
430.0960722939444
 30
0.0
 10
1010.259166631642
 20
430.5708815169743
 30
0.0
 10
1010.274732106413
 20
431.5123370885076
 30
0.0
 10
1010.283635091927
 20
431.9801029849247
 30
0.0
 10
1010.310296926911
 20
433.3407405544371
 30
0.0
 10
1010.327983296352
 20
434.2013636588475
 30
0.0
 10
1010.346818321813
 20
435.4233665506367
 30
0.0
 10
1010.351872136303
 20
435.8206491093866
 30
0.0
 10
1010.358669538058
 20
436.5841519204021
 30
0.0
 10
1010.360399029318
 20
436.9476039858279
 30
0.0
 10
1010.360405421355
 20
437.9847388782007
 30
0.0
 10
1010.35332889645
 20
438.6057104553789
 30
0.0
 10
1010.334456504533
 20
439.4287366711739
 30
0.0
 10
1010.326831562486
 20
439.6841222537475
 30
0.0
 10
1010.310329151408
 20
440.1472439432962
 30
0.0
 10
1010.301418642286
 20
440.3565480252889
 30
0.0
 10
1010.283739648284
 20
440.731245954499
 30
0.0
 10
1010.274967872724
 20
440.8966398752881
 30
0.0
 10
1010.259379897193
 20
441.1828405706813
 30
0.0
 10
1010.252541429033
 20
441.3040479839393
 30
0.0
 10
1010.238553148168
 20
441.5944186123572
 30
0.0
 10
1010.237723923339
 20
441.6913953433631
 30
0.0
 10
1010.255502150164
 20
441.6909298041097
 30
0.0
  0
SPLINE
  5
23C
330
1F
100
AcDbEntity
  8
0
  6
SLD-Сплошная
 62
     7
370
    25
100
AcDbSpline
210
0.0
220
0.0
230
1.0
 70
     8
 71
     3
 72
    30
 73
    26
 74
     0
 42
0.00000001
 43
0.00000001
 40
0.0
 40
0.0
 40
0.0
 40
0.0
 40
0.1249999999999948
 40
0.1249999999999948
 40
0.1874999999999943
 40
0.1874999999999943
 40
0.2499999999999938
 40
0.2499999999999938
 40
0.3749999999999927
 40
0.3749999999999927
 40
0.4374999999999922
 40
0.4374999999999922
 40
0.4999999999999917
 40
0.4999999999999917
 40
0.6249999999999931
 40
0.6249999999999931
 40
0.6874999999999949
 40
0.6874999999999949
 40
0.7499999999999966
 40
0.7499999999999966
 40
0.8124999999999983
 40
0.8124999999999983
 40
0.8750000000000001
 40
0.8750000000000001
 40
1.0
 40
1.0
 40
1.0
 40
1.0
 10
1010.255502150164
 20
-326.614847045489
 30
0.0
 10
1010.237722426673
 20
-326.6153126239339
 30
0.0
 10
1010.238598030757
 20
-326.5183330891512
 30
0.0
 10
1010.252288232248
 20
-326.2327682223744
 30
0.0
 10
1010.258974393638
 20
-326.1140590596896
 30
0.0
 10
1010.274539408297
 20
-325.8285602188311
 30
0.0
 10
1010.283445939151
 20
-325.6610174636396
 30
0.0
 10
1010.310127695
 20
-325.0966077428918
 30
0.0
 10
1010.327839634848
 20
-324.6361031888815
 30
0.0
 10
1010.346723298416
 20
-323.8201584578684
 30
0.0
 10
1010.351795128059
 20
-323.5258933978173
 30
0.0
 10
1010.358630247697
 20
-322.899495366313
 30
0.0
 10
1010.360379308151
 20
-322.5699066170861
 30
0.0
 10
1010.360444254053
 20
-321.5334744170665
 30
0.0
 10
1010.353406594131
 20
-320.7794229141662
 30
0.0
 10
1010.33458326012
 20
-319.551221096105
 30
0.0
 10
1010.326973094633
 20
-319.1260457680538
 30
0.0
 10
1010.310495095181
 20
-318.2616955480437
 30
0.0
 10
1010.301594319361
 20
-317.8202896786131
 30
0.0
 10
1010.283928640645
 20
-316.919240919973
 30
0.0
 10
1010.275160449106
 20
-316.4595981200821
 30
0.0
 10
1010.259572256822
 20
-315.5217620881271
 30
0.0
 10
1010.252729944905
 20
-315.0413286616791
 30
0.0
 10
1010.238717451535
 20
-313.5890519739758
 30
0.0
 10
1010.23785528285
 20
-312.6099964971213
 30
0.0
 10
1010.255581335615
 20
-311.6199850973116
 30
0.0
  0
LINE
  5
23D
330
1F
100
AcDbEntity
  8
0
  6
SLD-Сплошная
 62
     7
370
    25
100
AcDbLine
 10
931.8174171498
 20
-328.6688205873
 30
0.0
 11
1010.2555021502
 21
-326.6148470455
 31
0.0
  0
ELLIPSE
  5
23E
330
1F
100
AcDbEntity
  8
0
  6
SLD-Сплошная
 62
     7
370
    25
100
AcDbEllipse
 10
962.3699394817
 20
-327.8628029723
 30
0.0
 11
25.62685823653816
 21
60.13192538312692
 31
0.0
210
0.0
220
0.0
230
0.9999999999999998
 40
0.6729478426
 41
5.254349701345645
 42
5.27693392049784
  0
ELLIPSE
  5
23F
330
1F
100
AcDbEntity
  8
0
  6
SLD-Сплошная
 62
     7
370
    25
100
AcDbEllipse
 10
962.3699394817
 20
442.9388857309
 30
0.0
 11
-25.6268582365384
 21
60.13192538312688
 31
0.0
210
0.0
220
0.0
230
1.0
 40
0.6729478426
 41
4.14784404027156
 42
4.170428259423747
  0
LINE
  5
240
330
1F
100
AcDbEntity
  8
0
  6
SLD-Сплошная
 62
     7
370
    25
100
AcDbLine
 10
1010.2677958943
 20
-310.2599193334
 30
0.0
 11
1010.2677958943
 21
425.336002092
 31
0.0
  0
LINE
  5
241
330
1F
100
AcDbEntity
  8
0
  6
SLD-Сплошная
 62
     7
370
    25
100
AcDbLine
 10
1010.2677958943
 20
441.6906078811
 30
0.0
 11
1010.2555021502
 21
441.6909298041
 31
0.0
  0
LINE
  5
242
330
1F
100
AcDbEntity
  8
0
  6
SLD-Сплошная
 62
     7
370
    25
100
AcDbLine
 10
1010.2677958943
 20
441.6906078811
 30
0.0
 11
1018.7677958943
 21
420.4680275476
 31
0.0
  0
LINE
  5
243
330
1F
100
AcDbEntity
  8
0
  6
SLD-Сплошная
 62
     7
370
    25
100
AcDbLine
 10
1018.7677958943
 20
420.4680275476
 30
0.0
 11
1018.7677958943
 21
404.1134217587
 31
0.0
  0
LINE
  5
244
330
1F
100
AcDbEntity
  8
0
  6
SLD-Сплошная
 62
     7
370
    25
100
AcDbLine
 10
1010.2677958943
 20
-326.6145251225
 30
0.0
 11
1018.7677958943
 21
-305.3919447891
 31
0.0
  0
LINE
  5
245
330
1F
100
AcDbEntity
  8
0
  6
SLD-Сплошная
 62
     7
370
    25
100
AcDbLine
 10
1010.2555021502
 20
-326.6148470455
 30
0.0
 11
1010.2677958943
 21
-326.6145251225
 31
0.0
  0
LINE
  5
246
330
1F
100
AcDbEntity
  8
0
  6
SLD-Сплошная
 62
     7
370
    25
100
AcDbLine
 10
1018.7677958943
 20
-289.0373390001
 30
0.0
 11
1018.7677958943
 21
-305.3919447891
 31
0.0
  0
LINE
  5
247
330
1F
100
AcDbEntity
  8
0
  6
SLD-Сплошная
 62
     7
370
    25
100
AcDbLine
 10
1018.7677958943
 20
404.1134217587
 30
0.0
 11
1018.7677958943
 21
-289.0373390001
 31
0.0
  0
LINE
  5
248
330
1F
100
AcDbEntity
  8
0
  6
SLD-Сплошная
 62
     7
370
    25
100
AcDbLine
 10
910.1669607583
 20
454.8120244659
 30
0.0
 11
910.1669607583
 21
450.9844849115
 31
0.0
  0
LINE
  5
249
330
1F
100
AcDbEntity
  8
0
  6
SLD-Сплошная
 62
     7
370
    25
100
AcDbLine
 10
910.1669607583
 20
-339.7359417073
 30
0.0
 11
910.1669607583
 21
-336.010824519
 31
0.0
  0
LINE
  5
24A
330
1F
100
AcDbEntity
  8
0
  6
SLD-Сплошная
 62
     7
370
    25
100
AcDbLine
 10
1923.6315246717
 20
-283.6956392175
 30
0.0
 11
1923.6314797758
 21
-283.6956392175
 31
0.0
  0
LINE
  5
24B
330
1F
100
AcDbEntity
  8
0
  6
SLD-Сплошная
 62
     7
370
    25
100
AcDbLine
 10
1923.6314797758
 20
-253.6956392175
 30
0.0
 11
1923.6315246717
 21
-253.6956392175
 31
0.0
  0
LINE
  5
24C
330
1F
100
AcDbEntity
  8
0
  6
SLD-Сплошная
 62
     7
370
    25
100
AcDbLine
 10
1923.6315246717
 20
-253.6956392175
 30
0.0
 11
1923.6315246717
 21
-283.6956392175
 31
0.0
  0
LINE
  5
24D
330
1F
100
AcDbEntity
  8
0
  6
SLD-Сплошная
 62
     7
370
    25
100
AcDbLine
 10
1923.6315246717
 20
-36.6956392175
 30
0.0
 11
1923.6315246717
 21
-66.6956392175
 31
0.0
  0
LINE
  5
24E
330
1F
100
AcDbEntity
  8
0
  6
SLD-Сплошная
 62
     7
370
    25
100
AcDbLine
 10
1923.6315246717
 20
-66.6956392175
 30
0.0
 11
1923.6314797757
 21
-66.6956392175
 31
0.0
  0
LINE
  5
24F
330
1F
100
AcDbEntity
  8
0
  6
SLD-Сплошная
 62
     7
370
    25
100
AcDbLine
 10
1923.6314797757
 20
-36.6956392175
 30
0.0
 11
1923.6315246717
 21
-36.6956392175
 31
0.0
  0
LINE
  5
250
330
1F
100
AcDbEntity
  8
0
  6
SLD-Сплошная
 62
     7
370
    25
100
AcDbLine
 10
1923.6314797757
 20
181.4843607825
 30
0.0
 11
1923.6315246716
 21
181.4843607825
 31
0.0
  0
LINE
  5
251
330
1F
100
AcDbEntity
  8
0
  6
SLD-Сплошная
 62
     7
370
    25
100
AcDbLine
 10
1923.6315246716
 20
181.4843607825
 30
0.0
 11
1923.6315246716
 21
151.4843607825
 31
0.0
  0
LINE
  5
252
330
1F
100
AcDbEntity
  8
0
  6
SLD-Сплошная
 62
     7
370
    25
100
AcDbLine
 10
1923.6315246716
 20
151.4843607825
 30
0.0
 11
1923.6314797757
 21
151.4843607825
 31
0.0
  0
LINE
  5
253
330
1F
100
AcDbEntity
  8
0
  6
SLD-Сплошная
 62
     7
370
    25
100
AcDbLine
 10
1923.6315246716
 20
368.4843607825
 30
0.0
 11
1923.6314797757
 21
368.4843607825
 31
0.0
  0
LINE
  5
254
330
1F
100
AcDbEntity
  8
0
  6
SLD-Сплошная
 62
     7
370
    25
100
AcDbLine
 10
1923.6315246716
 20
398.4843607825
 30
0.0
 11
1923.6315246716
 21
368.4843607825
 31
0.0
  0
LINE
  5
255
330
1F
100
AcDbEntity
  8
0
  6
SLD-Сплошная
 62
     7
370
    25
100
AcDbLine
 10
1923.6314797757
 20
398.4843607825
 30
0.0
 11
1923.6315246716
 21
398.4843607825
 31
0.0
  0
ARC
  5
256
330
1F
100
AcDbEntity
  8
0
  6
SLD-Сплошная
 62
     7
370
    25
100
AcDbCircle
 10
1366.906000461
 20
-278.3496671119
 30
0.0
 40
6.947634805215387
100
AcDbArc
 50
90.0
 51
270.0
  0
ARC
  5
257
330
1F
100
AcDbEntity
  8
0
  6
SLD-Сплошная
 62
     7
370
    25
100
AcDbCircle
 10
1366.906000461
 20
-278.3496671119
 30
0.0
 40
6.947634805215387
100
AcDbArc
 50
270.0
 51
90.0
  0
ARC
  5
258
330
1F
100
AcDbEntity
  8
0
  6
SLD-Сплошная
 62
     7
370
    25
100
AcDbCircle
 10
1366.906000461
 20
393.3233275043
 30
0.0
 40
7.000000000000057
100
AcDbArc
 50
90.0
 51
270.0
  0
ARC
  5
259
330
1F
100
AcDbEntity
  8
0
  6
SLD-Сплошная
 62
     7
370
    25
100
AcDbCircle
 10
1366.906000461
 20
393.3233275043
 30
0.0
 40
6.947634805215387
100
AcDbArc
 50
90.0
 51
270.0
  0
LINE
  5
25A
330
1F
100
AcDbEntity
  8
0
  6
SLD-Сплошная
 62
     7
370
    25
100
AcDbLine
 10
1382.4583656558
 20
-262.7973019171
 30
0.0
 11
1358.396000461
 21
-262.7973019171
 31
0.0
  0
LINE
  5
25B
330
1F
100
AcDbEntity
  8
0
  6
SLD-Сплошная
 62
     7
370
    25
100
AcDbLine
 10
1382.4583656558
 20
-262.7973019171
 30
0.0
 11
1382.406000461
 21
-262.8496671119
 31
0.0
  0
LINE
  5
25C
330
1F
100
AcDbEntity
  8
0
  6
SLD-Сплошная
 62
     7
370
    25
100
AcDbLine
 10
1358.396000461
 20
-262.8496671119
 30
0.0
 11
1382.406000461
 21
-262.8496671119
 31
0.0
  0
ARC
  5
25D
330
1F
100
AcDbEntity
  8
0
  6
SLD-Сплошная
 62
     7
370
    25
100
AcDbCircle
 10
1366.906000461
 20
-278.3496671119
 30
0.0
 40
7.0
100
AcDbArc
 50
90.0
 51
270.0
  0
LINE
  5
25E
330
1F
100
AcDbEntity
  8
0
  6
SLD-Сплошная
 62
     7
370
    25
100
AcDbLine
 10
1382.406000461
 20
377.8233275043
 30
0.0
 11
1358.396000461
 21
377.8233275043
 31
0.0
  0
LINE
  5
25F
330
1F
100
AcDbEntity
  8
0
  6
SLD-Сплошная
 62
     7
370
    25
100
AcDbLine
 10
1382.4583656558
 20
377.7709623096
 30
0.0
 11
1382.406000461
 21
377.8233275043
 31
0.0
  0
LINE
  5
260
330
1F
100
AcDbEntity
  8
0
  6
SLD-Сплошная
 62
     7
370
    25
100
AcDbLine
 10
1358.396000461
 20
377.7709623096
 30
0.0
 11
1382.4583656558
 21
377.7709623096
 31
0.0
  0
ARC
  5
261
330
1F
100
AcDbEntity
  8
0
  6
SLD-Сплошная
 62
     7
370
    25
100
AcDbCircle
 10
1358.396000461
 20
375.8333275043
 30
0.0
 40
1.990000000000009
100
AcDbArc
 50
90.0
 51
180.0
  0
ARC
  5
262
330
1F
100
AcDbEntity
  8
0
  6
SLD-Сплошная
 62
     7
370
    25
100
AcDbCircle
 10
1358.396000461
 20
375.8333275043
 30
0.0
 40
1.937634805215396
100
AcDbArc
 50
90.0
 51
180.0
  0
LINE
  5
263
330
1F
100
AcDbEntity
  8
0
  6
SLD-Сплошная
 62
     7
370
    25
100
AcDbLine
 10
1356.406000461
 20
375.8333275043
 30
0.0
 11
1356.406000461
 21
375.8133275043
 31
0.0
  0
LINE
  5
264
330
1F
100
AcDbEntity
  8
0
  6
SLD-Сплошная
 62
     7
370
    25
100
AcDbLine
 10
1356.4583656558
 20
375.8133275043
 30
0.0
 11
1356.4583656558
 21
375.8333275043
 31
0.0
  0
ELLIPSE
  5
265
330
1F
100
AcDbEntity
  8
0
  6
SLD-Сплошная
 62
     7
370
    25
100
AcDbEllipse
 10
1385.2580745207
 20
336.3230228483
 30
0.0
 11
-1.414644378338834
 21
1.414644378339346
 31
0.0
210
0.0
220
0.0
230
0.9999999999999998
 40
0.9996954599
 41
5.497787194130324
 42
7.06843117732958
  0
SPLINE
  5
266
330
1F
100
AcDbEntity
  8
0
  6
SLD-Сплошная
 62
     7
370
    25
100
AcDbSpline
210
0.0
220
0.0
230
1.0
 70
     8
 71
     3
 72
     8
 73
     4
 74
     0
 42
0.00000001
 43
0.00000001
 40
0.0
 40
0.0
 40
0.0
 40
0.0
 40
1.0
 40
1.0
 40
1.0
 40
1.0
 10
1385.257771069653
 20
338.2702847435601
 30
0.0
 10
1385.257768787187
 20
338.2852605809504
 30
0.0
 10
1385.257769864591
 20
338.3000772155649
 30
0.0
 10
1385.257769864591
 20
338.3147358209288
 30
0.0
  0
ELLIPSE
  5
267
330
1F
100
AcDbEntity
  8
0
  6
SLD-Сплошная
 62
     7
370
    25
100
AcDbEllipse
 10
1385.3104397155
 20
336.2706576535
 30
0.0
 11
-1.414644378339062
 21
1.414644378339347
 31
0.0
210
0.0
220
0.0
230
1.0
 40
0.9996954599
 41
5.523968207534125
 42
7.068431177329579
  0
LINE
  5
268
330
1F
100
AcDbEntity
  8
0
  6
SLD-Сплошная
 62
     7
370
    25
100
AcDbLine
 10
1358.396000461
 20
-258.9020323067
 30
0.0
 11
1386.3536352662
 21
-258.9020323067
 31
0.0
  0
LINE
  5
269
330
1F
100
AcDbEntity
  8
0
  6
SLD-Сплошная
 62
     7
370
    25
100
AcDbLine
 10
1386.406000461
 20
-258.8496671119
 30
0.0
 11
1358.396000461
 21
-258.8496671119
 31
0.0
  0
LINE
  5
26A
330
1F
100
AcDbEntity
  8
0
  6
SLD-Сплошная
 62
     7
370
    25
100
AcDbLine
 10
1386.3536352662
 20
-258.9020323067
 30
0.0
 11
1386.406000461
 21
-258.8496671119
 31
0.0
  0
ARC
  5
26B
330
1F
100
AcDbEntity
  8
0
  6
SLD-Сплошная
 62
     7
370
    25
100
AcDbCircle
 10
1358.396000461
 20
-260.8396671119
 30
0.0
 40
1.937634805215282
100
AcDbArc
 50
90.0
 51
180.0
  0
ARC
  5
26C
330
1F
100
AcDbEntity
  8
0
  6
SLD-Сплошная
 62
     7
370
    25
100
AcDbCircle
 10
1358.396000461
 20
-260.8396671119
 30
0.0
 40
1.989999999999952
100
AcDbArc
 50
90.0
 51
180.0
  0
LINE
  5
26D
330
1F
100
AcDbEntity
  8
0
  6
SLD-Сплошная
 62
     7
370
    25
100
AcDbLine
 10
1386.3536352662
 20
403.8756926991
 30
0.0
 11
1386.3536352662
 21
373.8756926991
 31
0.0
  0
LINE
  5
26E
330
1F
100
AcDbEntity
  8
0
  6
SLD-Сплошная
 62
     7
370
    25
100
AcDbLine
 10
1386.3536352662
 20
373.8756926991
 30
0.0
 11
1358.396000461
 21
373.8756926991
 31
0.0
  0
ARC
  5
26F
330
1F
100
AcDbEntity
  8
0
  6
SLD-Сплошная
 62
     7
370
    25
100
AcDbCircle
 10
1358.396000461
 20
375.8133275043
 30
0.0
 40
1.937634805215396
100
AcDbArc
 50
180.0
 51
270.0
  0
LINE
  5
270
330
1F
100
AcDbEntity
  8
0
  6
SLD-Сплошная
 62
     7
370
    25
100
AcDbLine
 10
1382.4583656558
 20
377.7709623096
 30
0.0
 11
1382.4583656558
 21
407.7709623096
 31
0.0
  0
LINE
  5
271
330
1F
100
AcDbEntity
  8
0
  6
SLD-Сплошная
 62
     7
370
    25
100
AcDbLine
 10
1382.4583656558
 20
407.7709623096
 30
0.0
 11
1412.4583656558
 21
407.7709623096
 31
0.0
  0
LINE
  5
272
330
1F
100
AcDbEntity
  8
0
  6
SLD-Сплошная
 62
     7
370
    25
100
AcDbLine
 10
1412.4583656558
 20
431.8333275043
 30
0.0
 11
1412.4583656558
 21
407.7709623096
 31
0.0
  0
ARC
  5
273
330
1F
100
AcDbEntity
  8
0
  6
SLD-Сплошная
 62
     7
370
    25
100
AcDbCircle
 10
1414.396000461
 20
431.8333275043
 30
0.0
 40
1.937634805215396
100
AcDbArc
 50
90.0
 51
180.0
  0
LINE
  5
274
330
1F
100
AcDbEntity
  8
0
  6
SLD-Сплошная
 62
     7
370
    25
100
AcDbLine
 10
1414.416000461
 20
433.7709623096
 30
0.0
 11
1414.396000461
 21
433.7709623096
 31
0.0
  0
ARC
  5
275
330
1F
100
AcDbEntity
  8
0
  6
SLD-Сплошная
 62
     7
370
    25
100
AcDbCircle
 10
1414.416000461
 20
431.8333275043
 30
0.0
 40
1.937634805215396
100
AcDbArc
 50
0.0
 51
90.0
  0
LINE
  5
276
330
1F
100
AcDbEntity
  8
0
  6
SLD-Сплошная
 62
     7
370
    25
100
AcDbLine
 10
1416.3536352662
 20
403.8756926991
 30
0.0
 11
1416.3536352662
 21
431.8333275043
 31
0.0
  0
LINE
  5
277
330
1F
100
AcDbEntity
  8
0
  6
SLD-Сплошная
 62
     7
370
    25
100
AcDbLine
 10
1386.3536352662
 20
403.8756926991
 30
0.0
 11
1416.3536352662
 21
403.8756926991
 31
0.0
  0
ARC
  5
278
330
1F
100
AcDbEntity
  8
0
  6
SLD-Сплошная
 62
     7
370
    25
100
AcDbCircle
 10
1358.396000461
 20
-260.8596671119
 30
0.0
 40
1.937634805215339
100
AcDbArc
 50
180.0
 51
270.0
  0
ARC
  5
279
330
1F
100
AcDbEntity
  8
0
  6
SLD-Сплошная
 62
     7
370
    25
100
AcDbCircle
 10
1358.396000461
 20
-260.8596671119
 30
0.0
 40
1.989999999999782
100
AcDbArc
 50
180.0
 51
270.0
  0
LINE
  5
27A
330
1F
100
AcDbEntity
  8
0
  6
SLD-Сплошная
 62
     7
370
    25
100
AcDbLine
 10
1356.4583656558
 20
-260.8596671119
 30
0.0
 11
1356.4583656558
 21
-260.8396671119
 31
0.0
  0
LINE
  5
27B
330
1F
100
AcDbEntity
  8
0
  6
SLD-Сплошная
 62
     7
370
    25
100
AcDbLine
 10
1356.406000461
 20
-260.8396671119
 30
0.0
 11
1356.406000461
 21
-260.8596671119
 31
0.0
  0
LINE
  5
27C
330
1F
100
AcDbEntity
  8
0
  6
SLD-Сплошная
 62
     7
370
    25
100
AcDbLine
 10
1416.3536352662
 20
-316.8596671119
 30
0.0
 11
1416.3536352662
 21
-288.9020323067
 31
0.0
  0
ARC
  5
27D
330
1F
100
AcDbEntity
  8
0
  6
SLD-Сплошная
 62
     7
370
    25
100
AcDbCircle
 10
1414.416000461
 20
-316.8596671119
 30
0.0
 40
1.937634805215339
100
AcDbArc
 50
270.0
 51
0.0
  0
LINE
  5
27E
330
1F
100
AcDbEntity
  8
0
  6
SLD-Сплошная
 62
     7
370
    25
100
AcDbLine
 10
1414.396000461
 20
-318.7973019171
 30
0.0
 11
1414.416000461
 21
-318.7973019171
 31
0.0
  0
ARC
  5
27F
330
1F
100
AcDbEntity
  8
0
  6
SLD-Сплошная
 62
     7
370
    25
100
AcDbCircle
 10
1414.396000461
 20
-316.8596671119
 30
0.0
 40
1.937634805215339
100
AcDbArc
 50
180.0
 51
270.0
  0
LINE
  5
280
330
1F
100
AcDbEntity
  8
0
  6
SLD-Сплошная
 62
     7
370
    25
100
AcDbLine
 10
1412.4583656558
 20
-292.7973019171
 30
0.0
 11
1412.4583656558
 21
-316.8596671119
 31
0.0
  0
LINE
  5
281
330
1F
100
AcDbEntity
  8
0
  6
SLD-Сплошная
 62
     7
370
    25
100
AcDbLine
 10
1412.4583656558
 20
-292.7973019171
 30
0.0
 11
1382.4583656558
 21
-292.7973019171
 31
0.0
  0
LINE
  5
282
330
1F
100
AcDbEntity
  8
0
  6
SLD-Сплошная
 62
     7
370
    25
100
AcDbLine
 10
1382.4583656558
 20
-292.7973019171
 30
0.0
 11
1382.4583656558
 21
-262.7973019171
 31
0.0
  0
LINE
  5
283
330
1F
100
AcDbEntity
  8
0
  6
SLD-Сплошная
 62
     7
370
    25
100
AcDbLine
 10
1386.3536352662
 20
-258.9020323067
 30
0.0
 11
1386.3536352662
 21
-288.9020323067
 31
0.0
  0
LINE
  5
284
330
1F
100
AcDbEntity
  8
0
  6
SLD-Сплошная
 62
     7
370
    25
100
AcDbLine
 10
1416.3536352662
 20
-288.9020323067
 30
0.0
 11
1386.3536352662
 21
-288.9020323067
 31
0.0
  0
ARC
  5
285
330
1F
100
AcDbEntity
  8
0
  6
SLD-Сплошная
 62
     7
370
    25
100
AcDbCircle
 10
1358.396000461
 20
375.8133275043
 30
0.0
 40
1.990000000000009
100
AcDbArc
 50
180.0
 51
270.0
  0
ARC
  5
286
330
1F
100
AcDbEntity
  8
0
  6
SLD-Сплошная
 62
     7
370
    25
100
AcDbCircle
 10
1366.906000461
 20
393.3233275043
 30
0.0
 40
6.947634805215387
100
AcDbArc
 50
270.0
 51
90.0
  0
LINE
  5
287
330
1F
100
AcDbEntity
  8
0
  6
SLD-Сплошная
 62
     7
370
    25
100
AcDbLine
 10
1358.396000461
 20
373.8233275043
 30
0.0
 11
1386.406000461
 21
373.8233275043
 31
0.0
  0
LINE
  5
288
330
1F
100
AcDbEntity
  8
0
  6
SLD-Сплошная
 62
     7
370
    25
100
AcDbLine
 10
1386.3536352662
 20
373.8756926991
 30
0.0
 11
1386.406000461
 21
373.8233275043
 31
0.0
  0
ELLIPSE
  5
289
330
1F
100
AcDbEntity
  8
0
  6
SLD-Сплошная
 62
     7
370
    25
100
AcDbEllipse
 10
1385.2574652085
 20
336.3230228482
 30
0.0
 11
1.414644378339517
 21
1.414644378339062
 31
0.0
210
0.0
220
0.0
230
0.9999999999999998
 40
0.9996954599
 41
5.497939437029926
 42
7.068583497731865
  0
ELLIPSE
  5
28A
330
1F
100
AcDbEntity
  8
0
  6
SLD-Сплошная
 62
     7
370
    25
100
AcDbEllipse
 10
1385.2051000137
 20
336.2706576535
 30
0.0
 11
1.41464437833929
 21
1.414644378339005
 31
0.0
210
0.0
220
0.0
230
1.0
 40
0.9996954599
 41
5.497939437029826
 42
7.042401203876792
  0
ARC
  5
28B
330
1F
100
AcDbEntity
  8
0
  6
SLD-Сплошная
 62
     7
370
    25
100
AcDbCircle
 10
1366.906000461
 20
393.3233275043
 30
0.0
 40
7.000000000000057
100
AcDbArc
 50
270.0
 51
90.0
  0
ARC
  5
28C
330
1F
100
AcDbEntity
  8
0
  6
SLD-Сплошная
 62
     7
370
    25
100
AcDbCircle
 10
1366.906000461
 20
-278.3496671119
 30
0.0
 40
7.0
100
AcDbArc
 50
270.0
 51
90.0
  0
SPLINE
  5
28D
330
1F
100
AcDbEntity
  8
0
  6
SLD-Сплошная
 62
     7
370
    25
100
AcDbSpline
210
0.0
220
0.0
230
1.0
 70
     8
 71
     3
 72
     8
 73
     4
 74
     0
 42
0.00000001
 43
0.00000001
 40
0.0
 40
0.0
 40
0.0
 40
0.0
 40
1.0
 40
1.0
 40
1.0
 40
1.0
 10
1385.25776865953
 20
-223.2966243510939
 30
0.0
 10
1385.257770941995
 20
-223.3116001884844
 30
0.0
 10
1385.257769864591
 20
-223.3264168230985
 30
0.0
 10
1385.257769864591
 20
-223.3410754284623
 30
0.0
  0
ELLIPSE
  5
28E
330
1F
100
AcDbEntity
  8
0
  6
SLD-Сплошная
 62
     7
370
    25
100
AcDbEllipse
 10
1385.2580745207
 20
-221.3493624558
 30
0.0
 11
-1.414644378338834
 21
-1.414644378339346
 31
0.0
210
0.0
220
0.0
230
0.9999999999999998
 40
0.9996954599
 41
5.497939437029592
 42
7.068583497731931
  0
ELLIPSE
  5
28F
330
1F
100
AcDbEntity
  8
0
  6
SLD-Сплошная
 62
     7
370
    25
100
AcDbEllipse
 10
1385.3104397155
 20
-221.296997261
 30
0.0
 11
-1.414644378339062
 21
-1.414644378339318
 31
0.0
210
0.0
220
0.0
230
0.9999999999999998
 40
0.9996954599
 41
5.497939437029548
 42
7.042401203876972
  0
LINE
  5
290
330
1F
100
AcDbEntity
  8
0
  6
SLD-Сплошная
 62
     7
370
    25
100
AcDbLine
 10
1412.4583656558
 20
-292.7973019171
 30
0.0
 11
1412.406000461
 21
-292.8496671119
 31
0.0
  0
LINE
  5
291
330
1F
100
AcDbEntity
  8
0
  6
SLD-Сплошная
 62
     7
370
    25
100
AcDbLine
 10
1382.406000461
 20
-292.8496671119
 30
0.0
 11
1412.406000461
 21
-292.8496671119
 31
0.0
  0
LINE
  5
292
330
1F
100
AcDbEntity
  8
0
  6
SLD-Сплошная
 62
     7
370
    25
100
AcDbLine
 10
1382.4583656558
 20
-292.7973019171
 30
0.0
 11
1382.406000461
 21
-292.8496671119
 31
0.0
  0
LINE
  5
293
330
1F
100
AcDbEntity
  8
0
  6
SLD-Сплошная
 62
     7
370
    25
100
AcDbLine
 10
1383.2577698646
 20
336.323632114
 30
0.0
 11
1383.2577698646
 21
-221.3499717216
 31
0.0
  0
LINE
  5
294
330
1F
100
AcDbEntity
  8
0
  6
SLD-Сплошная
 62
     7
370
    25
100
AcDbLine
 10
1383.3101350594
 20
336.2712669192
 30
0.0
 11
1383.3101350594
 21
-221.2976065268
 31
0.0
  0
ELLIPSE
  5
295
330
1F
100
AcDbEntity
  8
0
  6
SLD-Сплошная
 62
     7
370
    25
100
AcDbEllipse
 10
1385.2574652085
 20
-221.3493624558
 30
0.0
 11
1.414644378339517
 21
-1.414644378339062
 31
0.0
210
0.0
220
0.0
230
0.9999999999999998
 40
0.9996954599
 41
5.49778719413038
 42
7.068431177329279
  0
ELLIPSE
  5
296
330
1F
100
AcDbEntity
  8
0
  6
SLD-Сплошная
 62
     7
370
    25
100
AcDbEllipse
 10
1385.2051000137
 20
-221.296997261
 30
0.0
 11
1.414644378339289
 21
-1.414644378338977
 31
0.0
210
0.0
220
0.0
230
0.9999999999999998
 40
0.9996954599
 41
5.523968207534259
 42
7.068431177329364
  0
LINE
  5
297
330
1F
100
AcDbEntity
  8
0
  6
SLD-Сплошная
 62
     7
370
    25
100
AcDbLine
 10
1382.4583656558
 20
407.7709623096
 30
0.0
 11
1382.406000461
 21
407.8233275043
 31
0.0
  0
LINE
  5
298
330
1F
100
AcDbEntity
  8
0
  6
SLD-Сплошная
 62
     7
370
    25
100
AcDbLine
 10
1382.406000461
 20
407.8233275043
 30
0.0
 11
1382.406000461
 21
377.8233275043
 31
0.0
  0
LINE
  5
299
330
1F
100
AcDbEntity
  8
0
  6
SLD-Сплошная
 62
     7
370
    25
100
AcDbLine
 10
1382.406000461
 20
-262.8496671119
 30
0.0
 11
1382.406000461
 21
-292.8496671119
 31
0.0
  0
LINE
  5
29A
330
1F
100
AcDbEntity
  8
0
  6
SLD-Сплошная
 62
     7
370
    25
100
AcDbLine
 10
1387.2054046698
 20
-221.2976065268
 30
0.0
 11
1387.2054046698
 21
336.2712669192
 31
0.0
  0
LINE
  5
29B
330
1F
100
AcDbEntity
  8
0
  6
SLD-Сплошная
 62
     7
370
    25
100
AcDbLine
 10
1412.406000461
 20
407.8233275043
 30
0.0
 11
1382.406000461
 21
407.8233275043
 31
0.0
  0
LINE
  5
29C
330
1F
100
AcDbEntity
  8
0
  6
SLD-Сплошная
 62
     7
370
    25
100
AcDbLine
 10
1412.4583656558
 20
407.7709623096
 30
0.0
 11
1412.406000461
 21
407.8233275043
 31
0.0
  0
ARC
  5
29D
330
1F
100
AcDbEntity
  8
0
  6
SLD-Сплошная
 62
     7
370
    25
100
AcDbCircle
 10
1396.906000461
 20
-308.3496671119
 30
0.0
 40
6.94763480521533
100
AcDbArc
 50
90.0
 51
270.0
  0
ARC
  5
29E
330
1F
100
AcDbEntity
  8
0
  6
SLD-Сплошная
 62
     7
370
    25
100
AcDbCircle
 10
1396.906000461
 20
-308.3496671119
 30
0.0
 40
6.94763480521533
100
AcDbArc
 50
270.0
 51
90.0
  0
LINE
  5
29F
330
1F
100
AcDbEntity
  8
0
  6
SLD-Сплошная
 62
     7
370
    25
100
AcDbLine
 10
1386.3536352662
 20
403.8756926991
 30
0.0
 11
1386.406000461
 21
403.8233275043
 31
0.0
  0
LINE
  5
2A0
330
1F
100
AcDbEntity
  8
0
  6
SLD-Сплошная
 62
     7
370
    25
100
AcDbLine
 10
1386.406000461
 20
373.8233275043
 30
0.0
 11
1386.406000461
 21
403.8233275043
 31
0.0
  0
ARC
  5
2A1
330
1F
100
AcDbEntity
  8
0
  6
SLD-Сплошная
 62
     7
370
    25
100
AcDbCircle
 10
1396.906000461
 20
423.3233275043
 30
0.0
 40
7.0
100
AcDbArc
 50
90.0
 51
270.0
  0
ARC
  5
2A2
330
1F
100
AcDbEntity
  8
0
  6
SLD-Сплошная
 62
     7
370
    25
100
AcDbCircle
 10
1396.906000461
 20
423.3233275043
 30
0.0
 40
6.94763480521533
100
AcDbArc
 50
90.0
 51
270.0
  0
ARC
  5
2A3
330
1F
100
AcDbEntity
  8
0
  6
SLD-Сплошная
 62
     7
370
    25
100
AcDbCircle
 10
1396.906000461
 20
-308.3496671119
 30
0.0
 40
7.0
100
AcDbArc
 50
90.0
 51
270.0
  0
LINE
  5
2A4
330
1F
100
AcDbEntity
  8
0
  6
SLD-Сплошная
 62
     7
370
    25
100
AcDbLine
 10
1387.2577698646
 20
-221.3499717216
 30
0.0
 11
1387.2577698646
 21
336.323632114
 31
0.0
  0
LINE
  5
2A5
330
1F
100
AcDbEntity
  8
0
  6
SLD-Сплошная
 62
     7
370
    25
100
AcDbLine
 10
1386.406000461
 20
403.8233275043
 30
0.0
 11
1416.406000461
 21
403.8233275043
 31
0.0
  0
LINE
  5
2A6
330
1F
100
AcDbEntity
  8
0
  6
SLD-Сплошная
 62
     7
370
    25
100
AcDbLine
 10
1416.3536352662
 20
403.8756926991
 30
0.0
 11
1416.406000461
 21
403.8233275043
 31
0.0
  0
LINE
  5
2A7
330
1F
100
AcDbEntity
  8
0
  6
SLD-Сплошная
 62
     7
370
    25
100
AcDbLine
 10
1386.3536352662
 20
-288.9020323067
 30
0.0
 11
1386.406000461
 21
-288.8496671119
 31
0.0
  0
LINE
  5
2A8
330
1F
100
AcDbEntity
  8
0
  6
SLD-Сплошная
 62
     7
370
    25
100
AcDbLine
 10
1416.406000461
 20
-288.8496671119
 30
0.0
 11
1386.406000461
 21
-288.8496671119
 31
0.0
  0
LINE
  5
2A9
330
1F
100
AcDbEntity
  8
0
  6
SLD-Сплошная
 62
     7
370
    25
100
AcDbLine
 10
1416.3536352662
 20
-288.9020323067
 30
0.0
 11
1416.406000461
 21
-288.8496671119
 31
0.0
  0
LINE
  5
2AA
330
1F
100
AcDbEntity
  8
0
  6
SLD-Сплошная
 62
     7
370
    25
100
AcDbLine
 10
1386.406000461
 20
-288.8496671119
 30
0.0
 11
1386.406000461
 21
-258.8496671119
 31
0.0
  0
ARC
  5
2AB
330
1F
100
AcDbEntity
  8
0
  6
SLD-Сплошная
 62
     7
370
    25
100
AcDbCircle
 10
1396.906000461
 20
423.3233275043
 30
0.0
 40
6.94763480521533
100
AcDbArc
 50
270.0
 51
90.0
  0
ARC
  5
2AC
330
1F
100
AcDbEntity
  8
0
  6
SLD-Сплошная
 62
     7
370
    25
100
AcDbCircle
 10
1396.906000461
 20
423.3233275043
 30
0.0
 40
7.0
100
AcDbArc
 50
270.0
 51
90.0
  0
ARC
  5
2AD
330
1F
100
AcDbEntity
  8
0
  6
SLD-Сплошная
 62
     7
370
    25
100
AcDbCircle
 10
1396.906000461
 20
-308.3496671119
 30
0.0
 40
7.0
100
AcDbArc
 50
270.0
 51
90.0
  0
LINE
  5
2AE
330
1F
100
AcDbEntity
  8
0
  6
SLD-Сплошная
 62
     7
370
    25
100
AcDbLine
 10
1406.406000461
 20
40.1021211114
 30
0.0
 11
1406.406000461
 21
39.8715392811
 31
0.0
  0
LINE
  5
2AF
330
1F
100
AcDbEntity
  8
0
  6
SLD-Сплошная
 62
     7
370
    25
100
AcDbLine
 10
1406.4583656558
 20
40.0497559166
 30
0.0
 11
1406.4583656558
 21
39.9239044759
 31
0.0
  0
LINE
  5
2B0
330
1F
100
AcDbEntity
  8
0
  6
SLD-Сплошная
 62
     7
370
    25
100
AcDbLine
 10
1407.9581371985
 20
76.5495274593
 30
0.0
 11
1619.8102112118
 21
76.5495274593
 31
0.0
  0
ELLIPSE
  5
2B1
330
1F
100
AcDbEntity
  8
0
  6
SLD-Сплошная
 62
     7
370
    25
100
AcDbEllipse
 10
1619.8100588954
 20
77.0496036234
 30
0.0
 11
0.3536610945843677
 21
-0.3536610945849645
 31
0.0
210
0.0
220
0.0
230
0.9999999999999998
 40
0.9996954599
 41
5.497939437030631
 42
7.068431177330583
  0
LINE
  5
2B2
330
1F
100
AcDbEntity
  8
0
  6
SLD-Сплошная
 62
     7
370
    25
100
AcDbLine
 10
1620.3101350594
 20
336.2712669192
 30
0.0
 11
1620.3101350594
 21
77.0494513069
 31
0.0
  0
ELLIPSE
  5
2B3
330
1F
100
AcDbEntity
  8
0
  6
SLD-Сплошная
 62
     7
370
    25
100
AcDbEllipse
 10
1622.3104397155
 20
336.2706576535
 30
0.0
 11
-1.414644378338834
 21
1.414644378339346
 31
0.0
210
0.0
220
0.0
230
0.9999999999999998
 40
0.9996954599
 41
5.523967599465157
 42
7.068431177329661
  0
ELLIPSE
  5
2B4
330
1F
100
AcDbEntity
  8
0
  6
SLD-Сплошная
 62
     7
370
    25
100
AcDbEllipse
 10
1622.2051000137
 20
336.2706576535
 30
0.0
 11
1.414644378339517
 21
1.414644378339005
 31
0.0
210
0.0
220
0.0
230
1.0
 40
0.9996954599
 41
5.497939437029876
 42
7.042400594973319
  0
LINE
  5
2B5
330
1F
100
AcDbEntity
  8
0
  6
SLD-Сплошная
 62
     7
370
    25
100
AcDbLine
 10
1624.2054046698
 20
77.0494513069
 30
0.0
 11
1624.2054046698
 21
336.2712669192
 31
0.0
  0
ELLIPSE
  5
2B6
330
1F
100
AcDbEntity
  8
0
  6
SLD-Сплошная
 62
     7
370
    25
100
AcDbEllipse
 10
1624.7054808338
 20
77.0496036234
 30
0.0
 11
0.3536610945852771
 21
0.353661094584396
 31
0.0
210
0.0
220
0.0
230
1.0
 40
0.9996954599
 41
2.356346783440326
 42
3.926838523741026
  0
LINE
  5
2B7
330
1F
100
AcDbEntity
  8
0
  6
SLD-Сплошная
 62
     7
370
    25
100
AcDbLine
 10
1624.7053285174
 20
76.5495274593
 30
0.0
 11
1836.5574025306
 21
76.5495274593
 31
0.0
  0
ELLIPSE
  5
2B8
330
1F
100
AcDbEntity
  8
0
  6
SLD-Сплошная
 62
     7
370
    25
100
AcDbEllipse
 10
1836.5569455813
 20
75.0492989673
 30
0.0
 11
1.060983283754012
 21
1.060983283754595
 31
0.0
210
0.0
220
0.0
230
0.9999999999999998
 40
0.9996954599
 41
5.497939437029798
 42
7.068431177329124
  0
LINE
  5
2B9
330
1F
100
AcDbEntity
  8
0
  6
SLD-Сплошная
 62
     7
370
    25
100
AcDbLine
 10
1838.0571740734
 20
74.9239044759
 30
0.0
 11
1838.0571740734
 21
75.0497559166
 31
0.0
  0
ELLIPSE
  5
2BA
330
1F
100
AcDbEntity
  8
0
  6
SLD-Сплошная
 62
     7
370
    25
100
AcDbEllipse
 10
1836.5569455813
 20
74.9243614252
 30
0.0
 11
-1.06098328375424
 21
1.060983283754595
 31
0.0
210
0.0
220
0.0
230
0.9999999999999998
 40
0.9996954599
 41
2.356346783440037
 42
3.926838523739936
  0
LINE
  5
2BB
330
1F
100
AcDbEntity
  8
0
  6
SLD-Сплошная
 62
     7
370
    25
100
AcDbLine
 10
1836.5574025306
 20
73.4241329331
 30
0.0
 11
1407.9581371985
 21
73.4241329331
 31
0.0
  0
ELLIPSE
  5
2BC
330
1F
100
AcDbEntity
  8
0
  6
SLD-Сплошная
 62
     7
370
    25
100
AcDbEllipse
 10
1407.9585941479
 20
74.9243614252
 30
0.0
 11
-1.060983283754467
 21
-1.060983283754283
 31
0.0
210
0.0
220
0.0
230
1.0
 40
0.9996954599
 41
5.497939437029634
 42
7.068431177329405
  0
LINE
  5
2BD
330
1F
100
AcDbEntity
  8
0
  6
SLD-Сплошная
 62
     7
370
    25
100
AcDbLine
 10
1406.4583656558
 20
75.0497559166
 30
0.0
 11
1406.4583656558
 21
74.9239044759
 31
0.0
  0
ELLIPSE
  5
2BE
330
1F
100
AcDbEntity
  8
0
  6
SLD-Сплошная
 62
     7
370
    25
100
AcDbEllipse
 10
1407.9585941479
 20
75.0492989673
 30
0.0
 11
1.06098328375424
 21
-1.060983283754283
 31
0.0
210
0.0
220
0.0
230
0.9999999999999998
 40
0.9996954599
 41
2.356346783440135
 42
3.926838523739771
  0
ARC
  5
2BF
330
1F
100
AcDbEntity
  8
0
  6
SLD-Сплошная
 62
     7
370
    25
100
AcDbCircle
 10
1408.406000461
 20
375.8233275043
 30
0.0
 40
2.0
100
AcDbArc
 50
90.0
 51
270.0
  0
ARC
  5
2C0
330
1F
100
AcDbEntity
  8
0
  6
SLD-Сплошная
 62
     7
370
    25
100
AcDbCircle
 10
1408.406000461
 20
375.8233275043
 30
0.0
 40
1.947634805215387
100
AcDbArc
 50
90.0
 51
270.0
  0
ELLIPSE
  5
2C1
330
1F
100
AcDbEntity
  8
0
  6
SLD-Сплошная
 62
     7
370
    25
100
AcDbEllipse
 10
1407.9062289531
 20
74.8719962304
 30
0.0
 11
-1.060983283754467
 21
-1.060983283754268
 31
0.0
210
0.0
220
0.0
230
1.0
 40
0.9996954599
 41
5.497939437029663
 42
7.068431177329408
  0
LINE
  5
2C2
330
1F
100
AcDbEntity
  8
0
  6
SLD-Сплошная
 62
     7
370
    25
100
AcDbLine
 10
1406.406000461
 20
75.1021211114
 30
0.0
 11
1406.406000461
 21
74.8715392811
 31
0.0
  0
ARC
  5
2C3
330
1F
100
AcDbEntity
  8
0
  6
SLD-Сплошная
 62
     7
370
    25
100
AcDbCircle
 10
1836.1095392682
 20
375.8233275043
 30
0.0
 40
1.947634805215387
100
AcDbArc
 50
270.0
 51
90.0
  0
LINE
  5
2C4
330
1F
100
AcDbEntity
  8
0
  6
SLD-Сплошная
 62
     7
370
    25
100
AcDbLine
 10
1408.406000461
 20
373.8756926991
 30
0.0
 11
1836.1095392682
 21
373.8756926991
 31
0.0
  0
LINE
  5
2C5
330
1F
100
AcDbEntity
  8
0
  6
SLD-Сплошная
 62
     7
370
    25
100
AcDbLine
 10
1408.406000461
 20
377.7709623096
 30
0.0
 11
1836.1095392682
 21
377.7709623096
 31
0.0
  0
ARC
  5
2C6
330
1F
100
AcDbEntity
  8
0
  6
SLD-Сплошная
 62
     7
370
    25
100
AcDbCircle
 10
1408.406000461
 20
-260.8496671119
 30
0.0
 40
1.94763480521533
100
AcDbArc
 50
90.0
 51
270.0
  0
LINE
  5
2C7
330
1F
100
AcDbEntity
  8
0
  6
SLD-Сплошная
 62
     7
370
    25
100
AcDbLine
 10
1408.406000461
 20
-258.9020323067
 30
0.0
 11
1836.1095392682
 21
-258.9020323067
 31
0.0
  0
ARC
  5
2C8
330
1F
100
AcDbEntity
  8
0
  6
SLD-Сплошная
 62
     7
370
    25
100
AcDbCircle
 10
1836.1095392682
 20
-260.8496671119
 30
0.0
 40
1.947634805215387
100
AcDbArc
 50
270.0
 51
90.0
  0
LINE
  5
2C9
330
1F
100
AcDbEntity
  8
0
  6
SLD-Сплошная
 62
     7
370
    25
100
AcDbLine
 10
1408.406000461
 20
-262.7973019171
 30
0.0
 11
1836.1095392682
 21
-262.7973019171
 31
0.0
  0
ELLIPSE
  5
2CA
330
1F
100
AcDbEntity
  8
0
  6
SLD-Сплошная
 62
     7
370
    25
100
AcDbEllipse
 10
1407.9062289531
 20
40.1016641621
 30
0.0
 11
-1.060983283754467
 21
1.060983283754268
 31
0.0
210
0.0
220
0.0
230
1.0
 40
0.9996954599
 41
5.497939437029573
 42
7.068431177329393
  0
ELLIPSE
  5
2CB
330
1F
100
AcDbEntity
  8
0
  6
SLD-Сплошная
 62
     7
370
    25
100
AcDbEllipse
 10
1407.9585941479
 20
40.0492989673
 30
0.0
 11
-1.060983283754467
 21
1.060983283754289
 31
0.0
210
0.0
220
0.0
230
0.9999999999999998
 40
0.9996954599
 41
5.497939437029729
 42
7.068431177329402
  0
ARC
  5
2CC
330
1F
100
AcDbEntity
  8
0
  6
SLD-Сплошная
 62
     7
370
    25
100
AcDbCircle
 10
1408.406000461
 20
-260.8496671119
 30
0.0
 40
2.0
100
AcDbArc
 50
90.0
 51
270.0
  0
ELLIPSE
  5
2CD
330
1F
100
AcDbEntity
  8
0
  6
SLD-Сплошная
 62
     7
370
    25
100
AcDbEllipse
 10
1407.9585941479
 20
39.9243614252
 30
0.0
 11
1.06098328375424
 21
1.06098328375429
 31
0.0
210
0.0
220
0.0
230
0.9999999999999998
 40
0.9996954599
 41
2.356346783439932
 42
3.926838523739465
  0
LINE
  5
2CE
330
1F
100
AcDbEntity
  8
0
  6
SLD-Сплошная
 62
     7
370
    25
100
AcDbLine
 10
1407.9581371985
 20
41.5495274593
 30
0.0
 11
1836.5574025306
 21
41.5495274593
 31
0.0
  0
ELLIPSE
  5
2CF
330
1F
100
AcDbEntity
  8
0
  6
SLD-Сплошная
 62
     7
370
    25
100
AcDbEllipse
 10
1836.5569455813
 20
40.0492989673
 30
0.0
 11
-1.06098328375424
 21
-1.060983283754595
 31
0.0
210
0.0
220
0.0
230
0.9999999999999998
 40
0.9996954599
 41
2.35634678343981
 42
3.926838523739617
  0
LINE
  5
2D0
330
1F
100
AcDbEntity
  8
0
  6
SLD-Сплошная
 62
     7
370
    25
100
AcDbLine
 10
1838.0571740734
 20
39.9239044759
 30
0.0
 11
1838.0571740734
 21
40.0497559166
 31
0.0
  0
ELLIPSE
  5
2D1
330
1F
100
AcDbEntity
  8
0
  6
SLD-Сплошная
 62
     7
370
    25
100
AcDbEllipse
 10
1836.5569455813
 20
39.9243614252
 30
0.0
 11
1.060983283754012
 21
-1.060983283754595
 31
0.0
210
0.0
220
0.0
230
0.9999999999999998
 40
0.9996954599
 41
5.49793943702995
 42
7.068431177329709
  0
LINE
  5
2D2
330
1F
100
AcDbEntity
  8
0
  6
SLD-Сплошная
 62
     7
370
    25
100
AcDbLine
 10
1836.5574025306
 20
38.4241329331
 30
0.0
 11
1624.2054046698
 21
38.4241329331
 31
0.0
  0
LINE
  5
2D3
330
1F
100
AcDbEntity
  8
0
  6
SLD-Сплошная
 62
     7
370
    25
100
AcDbLine
 10
1624.2054046698
 20
-221.2976065268
 30
0.0
 11
1624.2054046698
 21
38.4241329331
 31
0.0
  0
ELLIPSE
  5
2D4
330
1F
100
AcDbEntity
  8
0
  6
SLD-Сплошная
 62
     7
370
    25
100
AcDbEllipse
 10
1622.2051000137
 20
-221.296997261
 30
0.0
 11
1.414644378339517
 21
-1.414644378338977
 31
0.0
210
0.0
220
0.0
230
0.9999999999999998
 40
0.9996954599
 41
5.523967599464861
 42
7.068431177329301
  0
ELLIPSE
  5
2D5
330
1F
100
AcDbEntity
  8
0
  6
SLD-Сплошная
 62
     7
370
    25
100
AcDbEllipse
 10
1622.3104397155
 20
-221.296997261
 30
0.0
 11
-1.414644378338835
 21
-1.414644378339318
 31
0.0
210
0.0
220
0.0
230
1.0
 40
0.9996954599
 41
5.497939437029707
 42
7.042400594972955
  0
LINE
  5
2D6
330
1F
100
AcDbEntity
  8
0
  6
SLD-Сплошная
 62
     7
370
    25
100
AcDbLine
 10
1620.3101350594
 20
38.4241329331
 30
0.0
 11
1620.3101350594
 21
-221.2976065268
 31
0.0
  0
LINE
  5
2D7
330
1F
100
AcDbEntity
  8
0
  6
SLD-Сплошная
 62
     7
370
    25
100
AcDbLine
 10
1620.3101350594
 20
38.4241329331
 30
0.0
 11
1407.9581371985
 21
38.4241329331
 31
0.0
  0
ELLIPSE
  5
2D8
330
1F
100
AcDbEntity
  8
0
  6
SLD-Сплошная
 62
     7
370
    25
100
AcDbEllipse
 10
1407.9062289531
 20
75.1016641621
 30
0.0
 11
1.060983283754695
 21
-1.060983283754297
 31
0.0
210
0.0
220
0.0
230
1.0
 40
0.9996954599
 41
2.356346783439665
 42
3.926838523739673
  0
ELLIPSE
  5
2D9
330
1F
100
AcDbEntity
  8
0
  6
SLD-Сплошная
 62
     7
370
    25
100
AcDbEllipse
 10
1407.9062289531
 20
39.8719962304
 30
0.0
 11
1.060983283754695
 21
1.060983283754275
 31
0.0
210
0.0
220
0.0
230
1.0
 40
0.9996954599
 41
2.356346783440002
 42
3.926838523739842
  0
LINE
  5
2DA
330
1F
100
AcDbEntity
  8
0
  6
SLD-Сплошная
 62
     7
370
    25
100
AcDbLine
 10
1836.6097677254
 20
73.3717677383
 30
0.0
 11
1407.9057720038
 21
73.3717677383
 31
0.0
  0
LINE
  5
2DB
330
1F
100
AcDbEntity
  8
0
  6
SLD-Сплошная
 62
     7
370
    25
100
AcDbLine
 10
1408.406000461
 20
-258.8496671119
 30
0.0
 11
1836.1095392682
 21
-258.8496671119
 31
0.0
  0
LINE
  5
2DC
330
1F
100
AcDbEntity
  8
0
  6
SLD-Сплошная
 62
     7
370
    25
100
AcDbLine
 10
1414.416000461
 20
433.8233275043
 30
0.0
 11
1414.396000461
 21
433.8233275043
 31
0.0
  0
ARC
  5
2DD
330
1F
100
AcDbEntity
  8
0
  6
SLD-Сплошная
 62
     7
370
    25
100
AcDbCircle
 10
1414.416000461
 20
-316.8596671119
 30
0.0
 40
1.990000000000236
100
AcDbArc
 50
270.0
 51
360.0
  0
LINE
  5
2DE
330
1F
100
AcDbEntity
  8
0
  6
SLD-Сплошная
 62
     7
370
    25
100
AcDbLine
 10
1408.406000461
 20
377.8233275043
 30
0.0
 11
1836.1095392682
 21
377.8233275043
 31
0.0
  0
LINE
  5
2DF
330
1F
100
AcDbEntity
  8
0
  6
SLD-Сплошная
 62
     7
370
    25
100
AcDbLine
 10
1408.406000461
 20
373.8233275043
 30
0.0
 11
1836.1095392682
 21
373.8233275043
 31
0.0
  0
LINE
  5
2E0
330
1F
100
AcDbEntity
  8
0
  6
SLD-Сплошная
 62
     7
370
    25
100
AcDbLine
 10
1414.396000461
 20
-318.8496671119
 30
0.0
 11
1414.416000461
 21
-318.8496671119
 31
0.0
  0
LINE
  5
2E1
330
1F
100
AcDbEntity
  8
0
  6
SLD-Сплошная
 62
     7
370
    25
100
AcDbLine
 10
1407.9057720038
 20
41.6018926541
 30
0.0
 11
1836.6097677254
 21
41.6018926541
 31
0.0
  0
ARC
  5
2E2
330
1F
100
AcDbEntity
  8
0
  6
SLD-Сплошная
 62
     7
370
    25
100
AcDbCircle
 10
1414.396000461
 20
-316.8596671119
 30
0.0
 40
1.990000000000123
100
AcDbArc
 50
180.0
 51
270.0
  0
ARC
  5
2E3
330
1F
100
AcDbEntity
  8
0
  6
SLD-Сплошная
 62
     7
370
    25
100
AcDbCircle
 10
1414.416000461
 20
431.8333275043
 30
0.0
 40
1.990000000000236
100
AcDbArc
 50
0.0
 51
90.0
  0
LINE
  5
2E4
330
1F
100
AcDbEntity
  8
0
  6
SLD-Сплошная
 62
     7
370
    25
100
AcDbLine
 10
1408.406000461
 20
-262.8496671119
 30
0.0
 11
1836.1095392682
 21
-262.8496671119
 31
0.0
  0
LINE
  5
2E5
330
1F
100
AcDbEntity
  8
0
  6
SLD-Сплошная
 62
     7
370
    25
100
AcDbLine
 10
1412.406000461
 20
431.8333275043
 30
0.0
 11
1412.406000461
 21
407.8233275043
 31
0.0
  0
ARC
  5
2E6
330
1F
100
AcDbEntity
  8
0
  6
SLD-Сплошная
 62
     7
370
    25
100
AcDbCircle
 10
1414.396000461
 20
431.8333275043
 30
0.0
 40
1.990000000000066
100
AcDbArc
 50
90.0
 51
180.0
  0
LINE
  5
2E7
330
1F
100
AcDbEntity
  8
0
  6
SLD-Сплошная
 62
     7
370
    25
100
AcDbLine
 10
1412.406000461
 20
-292.8496671119
 30
0.0
 11
1412.406000461
 21
-316.8596671119
 31
0.0
  0
LINE
  5
2E8
330
1F
100
AcDbEntity
  8
0
  6
SLD-Сплошная
 62
     7
370
    25
100
AcDbLine
 10
1407.9057720038
 20
76.6018926541
 30
0.0
 11
1619.757846017
 21
76.6018926541
 31
0.0
  0
LINE
  5
2E9
330
1F
100
AcDbEntity
  8
0
  6
SLD-Сплошная
 62
     7
370
    25
100
AcDbLine
 10
1620.2577698646
 20
38.3717677383
 30
0.0
 11
1407.9057720038
 21
38.3717677383
 31
0.0
  0
LINE
  5
2EA
330
1F
100
AcDbEntity
  8
0
  6
SLD-Сплошная
 62
     7
370
    25
100
AcDbLine
 10
1620.2577698646
 20
38.3717677383
 30
0.0
 11
1620.3101350594
 21
38.4241329331
 31
0.0
  0
LINE
  5
2EB
330
1F
100
AcDbEntity
  8
0
  6
SLD-Сплошная
 62
     7
370
    25
100
AcDbLine
 10
1416.406000461
 20
-316.8596671119
 30
0.0
 11
1416.406000461
 21
-288.8496671119
 31
0.0
  0
LINE
  5
2EC
330
1F
100
AcDbEntity
  8
0
  6
SLD-Сплошная
 62
     7
370
    25
100
AcDbLine
 10
1416.406000461
 20
403.8233275043
 30
0.0
 11
1416.406000461
 21
431.8333275043
 31
0.0
  0
SPLINE
  5
2ED
330
1F
100
AcDbEntity
  8
0
  6
SLD-Сплошная
 62
     7
370
    25
100
AcDbSpline
210
0.0
220
0.0
230
1.0
 70
     8
 71
     3
 72
     8
 73
     4
 74
     0
 42
0.00000001
 43
0.00000001
 40
0.0
 40
0.0
 40
0.0
 40
0.0
 40
1.0
 40
1.0
 40
1.0
 40
1.0
 10
1622.257769864591
 20
338.3147358209283
 30
0.0
 10
1622.257769864591
 20
338.3000771884668
 30
0.0
 10
1622.257768087467
 20
338.2852603987906
 30
0.0
 10
1622.257772289123
 20
338.2702847848473
 30
0.0
  0
ELLIPSE
  5
2EE
330
1F
100
AcDbEntity
  8
0
  6
SLD-Сплошная
 62
     7
370
    25
100
AcDbEllipse
 10
1622.2574652085
 20
336.3230228482
 30
0.0
 11
1.414644378339062
 21
1.414644378339005
 31
0.0
210
0.0
220
0.0
230
0.9999999999999998
 40
0.9996954599
 41
5.497939437029814
 42
7.068583485889294
  0
ELLIPSE
  5
2EF
330
1F
100
AcDbEntity
  8
0
  6
SLD-Сплошная
 62
     7
370
    25
100
AcDbEllipse
 10
1622.2580745207
 20
336.3230228482
 30
0.0
 11
-1.414644378339062
 21
1.414644378339347
 31
0.0
210
0.0
220
0.0
230
1.0
 40
0.9996954599
 41
5.497787182287689
 42
7.068431177329591
  0
SPLINE
  5
2F0
330
1F
100
AcDbEntity
  8
0
  6
SLD-Сплошная
 62
     7
370
    25
100
AcDbSpline
210
0.0
220
0.0
230
1.0
 70
     8
 71
     3
 72
     8
 73
     4
 74
     0
 42
0.00000001
 43
0.00000001
 40
0.0
 40
0.0
 40
0.0
 40
0.0
 40
1.0
 40
1.0
 40
1.0
 40
1.0
 10
1622.257769864591
 20
-223.3410754284619
 30
0.0
 10
1622.257769864591
 20
-223.3264167960008
 30
0.0
 10
1622.257771641715
 20
-223.3116000063237
 30
0.0
 10
1622.257767440059
 20
-223.2966243923803
 30
0.0
  0
ELLIPSE
  5
2F1
330
1F
100
AcDbEntity
  8
0
  6
SLD-Сплошная
 62
     7
370
    25
100
AcDbEllipse
 10
1622.2580745207
 20
-221.3493624558
 30
0.0
 11
-1.414644378339062
 21
-1.414644378339318
 31
0.0
210
0.0
220
0.0
230
0.9999999999999998
 40
0.9996954599
 41
5.497939437029662
 42
7.068583416042511
  0
ELLIPSE
  5
2F2
330
1F
100
AcDbEntity
  8
0
  6
SLD-Сплошная
 62
     7
370
    25
100
AcDbEllipse
 10
1622.2574652085
 20
-221.3493624558
 30
0.0
 11
1.414644378339062
 21
-1.414644378338977
 31
0.0
210
0.0
220
0.0
230
0.9999999999999998
 40
0.9996954599
 41
5.497787112440904
 42
7.068431177329404
  0
LINE
  5
2F3
330
1F
100
AcDbEntity
  8
0
  6
SLD-Сплошная
 62
     7
370
    25
100
AcDbLine
 10
1620.2577698646
 20
77.1018165017
 30
0.0
 11
1620.2577698646
 21
336.323632114
 31
0.0
  0
LINE
  5
2F4
330
1F
100
AcDbEntity
  8
0
  6
SLD-Сплошная
 62
     7
370
    25
100
AcDbLine
 10
1620.2577698646
 20
38.3717677383
 30
0.0
 11
1620.2577698646
 21
-221.3499717216
 31
0.0
  0
ELLIPSE
  5
2F5
330
1F
100
AcDbEntity
  8
0
  6
SLD-Сплошная
 62
     7
370
    25
100
AcDbEllipse
 10
1619.7576937006
 20
77.1019688182
 30
0.0
 11
0.3536610945848225
 21
-0.3536610945849646
 31
0.0
210
0.0
220
0.0
230
1.0
 40
0.9996954599
 41
5.497939437030121
 42
7.068431177330177
  0
ELLIPSE
  5
2F6
330
1F
100
AcDbEntity
  8
0
  6
SLD-Сплошная
 62
     7
370
    25
100
AcDbEllipse
 10
1624.7578460286
 20
77.1019688182
 30
0.0
 11
0.3536610945852771
 21
0.353661094584396
 31
0.0
210
0.0
220
0.0
230
1.0
 40
0.9996954599
 41
2.356346783440127
 42
3.926838523741481
  0
LINE
  5
2F7
330
1F
100
AcDbEntity
  8
0
  6
SLD-Сплошная
 62
     7
370
    25
100
AcDbLine
 10
1836.6097677254
 20
76.6018926541
 30
0.0
 11
1624.7576937122
 21
76.6018926541
 31
0.0
  0
LINE
  5
2F8
330
1F
100
AcDbEntity
  8
0
  6
SLD-Сплошная
 62
     7
370
    25
100
AcDbLine
 10
1836.6097677254
 20
38.3717677383
 30
0.0
 11
1624.2577698646
 21
38.3717677383
 31
0.0
  0
LINE
  5
2F9
330
1F
100
AcDbEntity
  8
0
  6
SLD-Сплошная
 62
     7
370
    25
100
AcDbLine
 10
1624.2577698646
 20
38.3717677383
 30
0.0
 11
1624.2054046698
 21
38.4241329331
 31
0.0
  0
LINE
  5
2FA
330
1F
100
AcDbEntity
  8
0
  6
SLD-Сплошная
 62
     7
370
    25
100
AcDbLine
 10
1624.2577698646
 20
336.323632114
 30
0.0
 11
1624.2577698646
 21
77.1018165017
 31
0.0
  0
LINE
  5
2FB
330
1F
100
AcDbEntity
  8
0
  6
SLD-Сплошная
 62
     7
370
    25
100
AcDbLine
 10
1624.2577698646
 20
-221.3499717216
 30
0.0
 11
1624.2577698646
 21
38.3717677383
 31
0.0
  0
LINE
  5
2FC
330
1F
100
AcDbEntity
  8
0
  6
SLD-Сплошная
 62
     7
370
    25
100
AcDbLine
 10
1828.1619044629
 20
-316.8596671119
 30
0.0
 11
1828.1619044629
 21
-288.9020323067
 31
0.0
  0
LINE
  5
2FD
330
1F
100
AcDbEntity
  8
0
  6
SLD-Сплошная
 62
     7
370
    25
100
AcDbLine
 10
1828.1095392682
 20
-288.8496671119
 30
0.0
 11
1828.1095392682
 21
-316.8596671119
 31
0.0
  0
LINE
  5
2FE
330
1F
100
AcDbEntity
  8
0
  6
SLD-Сплошная
 62
     7
370
    25
100
AcDbLine
 10
1828.1619044629
 20
-288.9020323067
 30
0.0
 11
1828.1095392682
 21
-288.8496671119
 31
0.0
  0
LINE
  5
2FF
330
1F
100
AcDbEntity
  8
0
  6
SLD-Сплошная
 62
     7
370
    25
100
AcDbLine
 10
1828.1619044629
 20
403.8756926991
 30
0.0
 11
1828.1095392682
 21
403.8233275043
 31
0.0
  0
LINE
  5
300
330
1F
100
AcDbEntity
  8
0
  6
SLD-Сплошная
 62
     7
370
    25
100
AcDbLine
 10
1858.1619044629
 20
403.8756926991
 30
0.0
 11
1828.1619044629
 21
403.8756926991
 31
0.0
  0
LINE
  5
301
330
1F
100
AcDbEntity
  8
0
  6
SLD-Сплошная
 62
     7
370
    25
100
AcDbLine
 10
1858.1619044629
 20
403.8756926991
 30
0.0
 11
1858.1095392682
 21
403.8233275043
 31
0.0
  0
LINE
  5
302
330
1F
100
AcDbEntity
  8
0
  6
SLD-Сплошная
 62
     7
370
    25
100
AcDbLine
 10
1828.1095392682
 20
403.8233275043
 30
0.0
 11
1858.1095392682
 21
403.8233275043
 31
0.0
  0
LINE
  5
303
330
1F
100
AcDbEntity
  8
0
  6
SLD-Сплошная
 62
     7
370
    25
100
AcDbLine
 10
1858.1095392682
 20
-288.8496671119
 30
0.0
 11
1828.1095392682
 21
-288.8496671119
 31
0.0
  0
LINE
  5
304
330
1F
100
AcDbEntity
  8
0
  6
SLD-Сплошная
 62
     7
370
    25
100
AcDbLine
 10
1858.1619044629
 20
-288.9020323067
 30
0.0
 11
1858.1095392682
 21
-288.8496671119
 31
0.0
  0
LINE
  5
305
330
1F
100
AcDbEntity
  8
0
  6
SLD-Сплошная
 62
     7
370
    25
100
AcDbLine
 10
1828.1619044629
 20
-288.9020323067
 30
0.0
 11
1858.1619044629
 21
-288.9020323067
 31
0.0
  0
LINE
  5
306
330
1F
100
AcDbEntity
  8
0
  6
SLD-Сплошная
 62
     7
370
    25
100
AcDbLine
 10
1828.1095392682
 20
431.8333275043
 30
0.0
 11
1828.1095392682
 21
403.8233275043
 31
0.0
  0
LINE
  5
307
330
1F
100
AcDbEntity
  8
0
  6
SLD-Сплошная
 62
     7
370
    25
100
AcDbLine
 10
1828.1619044629
 20
403.8756926991
 30
0.0
 11
1828.1619044629
 21
431.8333275043
 31
0.0
  0
ARC
  5
308
330
1F
100
AcDbEntity
  8
0
  6
SLD-Сплошная
 62
     7
370
    25
100
AcDbCircle
 10
1830.0995392682
 20
431.8333275043
 30
0.0
 40
1.990000000000066
100
AcDbArc
 50
90.0
 51
180.0
  0
ARC
  5
309
330
1F
100
AcDbEntity
  8
0
  6
SLD-Сплошная
 62
     7
370
    25
100
AcDbCircle
 10
1830.0995392682
 20
431.8333275043
 30
0.0
 40
1.937634805215396
100
AcDbArc
 50
90.0
 51
180.0
  0
LINE
  5
30A
330
1F
100
AcDbEntity
  8
0
  6
SLD-Сплошная
 62
     7
370
    25
100
AcDbLine
 10
1886.1195392682
 20
-258.9020323067
 30
0.0
 11
1858.1619044629
 21
-258.9020323067
 31
0.0
  0
ARC
  5
30B
330
1F
100
AcDbEntity
  8
0
  6
SLD-Сплошная
 62
     7
370
    25
100
AcDbCircle
 10
1886.1195392682
 20
-260.8396671119
 30
0.0
 40
1.937634805215339
100
AcDbArc
 50
0.0
 51
90.0
  0
LINE
  5
30C
330
1F
100
AcDbEntity
  8
0
  6
SLD-Сплошная
 62
     7
370
    25
100
AcDbLine
 10
1888.0571740734
 20
-260.8596671119
 30
0.0
 11
1888.0571740734
 21
-260.8396671119
 31
0.0
  0
ARC
  5
30D
330
1F
100
AcDbEntity
  8
0
  6
SLD-Сплошная
 62
     7
370
    25
100
AcDbCircle
 10
1886.1195392682
 20
-260.8596671119
 30
0.0
 40
1.937634805215339
100
AcDbArc
 50
270.0
 51
0.0
  0
LINE
  5
30E
330
1F
100
AcDbEntity
  8
0
  6
SLD-Сплошная
 62
     7
370
    25
100
AcDbLine
 10
1862.0571740734
 20
-262.7973019171
 30
0.0
 11
1886.1195392682
 21
-262.7973019171
 31
0.0
  0
LINE
  5
30F
330
1F
100
AcDbEntity
  8
0
  6
SLD-Сплошная
 62
     7
370
    25
100
AcDbLine
 10
1862.0571740734
 20
-292.7973019171
 30
0.0
 11
1862.0571740734
 21
-262.7973019171
 31
0.0
  0
LINE
  5
310
330
1F
100
AcDbEntity
  8
0
  6
SLD-Сплошная
 62
     7
370
    25
100
AcDbLine
 10
1832.0571740734
 20
-292.7973019171
 30
0.0
 11
1862.0571740734
 21
-292.7973019171
 31
0.0
  0
LINE
  5
311
330
1F
100
AcDbEntity
  8
0
  6
SLD-Сплошная
 62
     7
370
    25
100
AcDbLine
 10
1832.0571740734
 20
-292.7973019171
 30
0.0
 11
1832.0571740734
 21
-316.8596671119
 31
0.0
  0
ARC
  5
312
330
1F
100
AcDbEntity
  8
0
  6
SLD-Сплошная
 62
     7
370
    25
100
AcDbCircle
 10
1830.1195392682
 20
-316.8596671119
 30
0.0
 40
1.937634805215339
100
AcDbArc
 50
270.0
 51
0.0
  0
LINE
  5
313
330
1F
100
AcDbEntity
  8
0
  6
SLD-Сплошная
 62
     7
370
    25
100
AcDbLine
 10
1830.1195392682
 20
-318.7973019171
 30
0.0
 11
1830.0995392682
 21
-318.7973019171
 31
0.0
  0
ARC
  5
314
330
1F
100
AcDbEntity
  8
0
  6
SLD-Сплошная
 62
     7
370
    25
100
AcDbCircle
 10
1830.0995392682
 20
-316.8596671119
 30
0.0
 40
1.937634805215339
100
AcDbArc
 50
180.0
 51
270.0
  0
LINE
  5
315
330
1F
100
AcDbEntity
  8
0
  6
SLD-Сплошная
 62
     7
370
    25
100
AcDbLine
 10
1858.1619044629
 20
-258.9020323067
 30
0.0
 11
1858.1619044629
 21
-288.9020323067
 31
0.0
  0
ARC
  5
316
330
1F
100
AcDbEntity
  8
0
  6
SLD-Сплошная
 62
     7
370
    25
100
AcDbCircle
 10
1830.0995392682
 20
-316.8596671119
 30
0.0
 40
1.990000000000123
100
AcDbArc
 50
180.0
 51
270.0
  0
LINE
  5
317
330
1F
100
AcDbEntity
  8
0
  6
SLD-Сплошная
 62
     7
370
    25
100
AcDbLine
 10
1830.0995392682
 20
433.7709623096
 30
0.0
 11
1830.1195392682
 21
433.7709623096
 31
0.0
  0
ARC
  5
318
330
1F
100
AcDbEntity
  8
0
  6
SLD-Сплошная
 62
     7
370
    25
100
AcDbCircle
 10
1830.1195392682
 20
431.8333275043
 30
0.0
 40
1.937634805215396
100
AcDbArc
 50
0.0
 51
90.0
  0
LINE
  5
319
330
1F
100
AcDbEntity
  8
0
  6
SLD-Сплошная
 62
     7
370
    25
100
AcDbLine
 10
1832.0571740734
 20
431.8333275043
 30
0.0
 11
1832.0571740734
 21
407.7709623096
 31
0.0
  0
LINE
  5
31A
330
1F
100
AcDbEntity
  8
0
  6
SLD-Сплошная
 62
     7
370
    25
100
AcDbLine
 10
1862.0571740734
 20
407.7709623096
 30
0.0
 11
1832.0571740734
 21
407.7709623096
 31
0.0
  0
LINE
  5
31B
330
1F
100
AcDbEntity
  8
0
  6
SLD-Сплошная
 62
     7
370
    25
100
AcDbLine
 10
1862.0571740734
 20
377.7709623096
 30
0.0
 11
1862.0571740734
 21
407.7709623096
 31
0.0
  0
LINE
  5
31C
330
1F
100
AcDbEntity
  8
0
  6
SLD-Сплошная
 62
     7
370
    25
100
AcDbLine
 10
1886.1195392682
 20
377.7709623096
 30
0.0
 11
1862.0571740734
 21
377.7709623096
 31
0.0
  0
ARC
  5
31D
330
1F
100
AcDbEntity
  8
0
  6
SLD-Сплошная
 62
     7
370
    25
100
AcDbCircle
 10
1886.1195392682
 20
375.8333275043
 30
0.0
 40
1.937634805215453
100
AcDbArc
 50
0.0
 51
90.0
  0
LINE
  5
31E
330
1F
100
AcDbEntity
  8
0
  6
SLD-Сплошная
 62
     7
370
    25
100
AcDbLine
 10
1888.0571740734
 20
375.8133275043
 30
0.0
 11
1888.0571740734
 21
375.8333275043
 31
0.0
  0
ARC
  5
31F
330
1F
100
AcDbEntity
  8
0
  6
SLD-Сплошная
 62
     7
370
    25
100
AcDbCircle
 10
1886.1195392682
 20
375.8133275043
 30
0.0
 40
1.937634805215396
100
AcDbArc
 50
270.0
 51
0.0
  0
LINE
  5
320
330
1F
100
AcDbEntity
  8
0
  6
SLD-Сплошная
 62
     7
370
    25
100
AcDbLine
 10
1858.1619044629
 20
373.8756926991
 30
0.0
 11
1886.1195392682
 21
373.8756926991
 31
0.0
  0
LINE
  5
321
330
1F
100
AcDbEntity
  8
0
  6
SLD-Сплошная
 62
     7
370
    25
100
AcDbLine
 10
1858.1619044629
 20
403.8756926991
 30
0.0
 11
1858.1619044629
 21
373.8756926991
 31
0.0
  0
LINE
  5
322
330
1F
100
AcDbEntity
  8
0
  6
SLD-Сплошная
 62
     7
370
    25
100
AcDbLine
 10
1832.1095392682
 20
407.8233275043
 30
0.0
 11
1832.1095392682
 21
431.8333275043
 31
0.0
  0
LINE
  5
323
330
1F
100
AcDbEntity
  8
0
  6
SLD-Сплошная
 62
     7
370
    25
100
AcDbLine
 10
1832.0571740734
 20
407.7709623096
 30
0.0
 11
1832.1095392682
 21
407.8233275043
 31
0.0
  0
LINE
  5
324
330
1F
100
AcDbEntity
  8
0
  6
SLD-Сплошная
 62
     7
370
    25
100
AcDbLine
 10
1832.0571740734
 20
-292.7973019171
 30
0.0
 11
1832.1095392682
 21
-292.8496671119
 31
0.0
  0
LINE
  5
325
330
1F
100
AcDbEntity
  8
0
  6
SLD-Сплошная
 62
     7
370
    25
100
AcDbLine
 10
1832.1095392682
 20
-316.8596671119
 30
0.0
 11
1832.1095392682
 21
-292.8496671119
 31
0.0
  0
ELLIPSE
  5
326
330
1F
100
AcDbEntity
  8
0
  6
SLD-Сплошная
 62
     7
370
    25
100
AcDbEllipse
 10
1836.6093107761
 20
75.1016641621
 30
0.0
 11
1.060983283754013
 21
1.060983283754581
 31
0.0
210
0.0
220
0.0
230
1.0
 40
0.9996954599
 41
5.497939437029791
 42
7.068431177329135
  0
LINE
  5
327
330
1F
100
AcDbEntity
  8
0
  6
SLD-Сплошная
 62
     7
370
    25
100
AcDbLine
 10
1862.0571740734
 20
407.7709623096
 30
0.0
 11
1862.1095392682
 21
407.8233275043
 31
0.0
  0
LINE
  5
328
330
1F
100
AcDbEntity
  8
0
  6
SLD-Сплошная
 62
     7
370
    25
100
AcDbLine
 10
1862.1095392682
 20
407.8233275043
 30
0.0
 11
1832.1095392682
 21
407.8233275043
 31
0.0
  0
ARC
  5
329
330
1F
100
AcDbEntity
  8
0
  6
SLD-Сплошная
 62
     7
370
    25
100
AcDbCircle
 10
1836.1095392682
 20
-260.8496671119
 30
0.0
 40
2.0
100
AcDbArc
 50
270.0
 51
90.0
  0
LINE
  5
32A
330
1F
100
AcDbEntity
  8
0
  6
SLD-Сплошная
 62
     7
370
    25
100
AcDbLine
 10
1830.0995392682
 20
-318.8496671119
 30
0.0
 11
1830.1195392682
 21
-318.8496671119
 31
0.0
  0
ARC
  5
32B
330
1F
100
AcDbEntity
  8
0
  6
SLD-Сплошная
 62
     7
370
    25
100
AcDbCircle
 10
1836.1095392682
 20
375.8233275043
 30
0.0
 40
2.0
100
AcDbArc
 50
270.0
 51
90.0
  0
ELLIPSE
  5
32C
330
1F
100
AcDbEntity
  8
0
  6
SLD-Сплошная
 62
     7
370
    25
100
AcDbEllipse
 10
1836.6093107761
 20
39.8719962304
 30
0.0
 11
1.060983283754012
 21
-1.060983283754595
 31
0.0
210
0.0
220
0.0
230
0.9999999999999998
 40
0.9996954599
 41
5.497939437030004
 42
7.068431177329662
  0
ELLIPSE
  5
32D
330
1F
100
AcDbEntity
  8
0
  6
SLD-Сплошная
 62
     7
370
    25
100
AcDbEllipse
 10
1836.6093107761
 20
40.1016641621
 30
0.0
 11
-1.060983283754012
 21
-1.060983283754595
 31
0.0
210
0.0
220
0.0
230
0.9999999999999998
 40
0.9996954599
 41
2.356346783439867
 42
3.92683852373935
  0
LINE
  5
32E
330
1F
100
AcDbEntity
  8
0
  6
SLD-Сплошная
 62
     7
370
    25
100
AcDbLine
 10
1830.1195392682
 20
433.8233275043
 30
0.0
 11
1830.0995392682
 21
433.8233275043
 31
0.0
  0
LINE
  5
32F
330
1F
100
AcDbEntity
  8
0
  6
SLD-Сплошная
 62
     7
370
    25
100
AcDbLine
 10
1862.0571740734
 20
-292.7973019171
 30
0.0
 11
1862.1095392682
 21
-292.8496671119
 31
0.0
  0
LINE
  5
330
330
1F
100
AcDbEntity
  8
0
  6
SLD-Сплошная
 62
     7
370
    25
100
AcDbLine
 10
1832.1095392682
 20
-292.8496671119
 30
0.0
 11
1862.1095392682
 21
-292.8496671119
 31
0.0
  0
ARC
  5
331
330
1F
100
AcDbEntity
  8
0
  6
SLD-Сплошная
 62
     7
370
    25
100
AcDbCircle
 10
1830.1195392682
 20
-316.8596671119
 30
0.0
 40
1.990000000000236
100
AcDbArc
 50
270.0
 51
360.0
  0
ELLIPSE
  5
332
330
1F
100
AcDbEntity
  8
0
  6
SLD-Сплошная
 62
     7
370
    25
100
AcDbEllipse
 10
1836.6093107761
 20
74.8719962304
 30
0.0
 11
-1.060983283754013
 21
1.060983283754581
 31
0.0
210
0.0
220
0.0
230
1.0
 40
0.9996954599
 41
2.356346783440195
 42
3.926838523739979
  0
ARC
  5
333
330
1F
100
AcDbEntity
  8
0
  6
SLD-Сплошная
 62
     7
370
    25
100
AcDbCircle
 10
1830.1195392682
 20
431.8333275043
 30
0.0
 40
1.990000000000236
100
AcDbArc
 50
0.0
 51
90.0
  0
LINE
  5
334
330
1F
100
AcDbEntity
  8
0
  6
SLD-Сплошная
 62
     7
370
    25
100
AcDbLine
 10
1838.1095392682
 20
74.8715392811
 30
0.0
 11
1838.1095392682
 21
75.1021211114
 31
0.0
  0
LINE
  5
335
330
1F
100
AcDbEntity
  8
0
  6
SLD-Сплошная
 62
     7
370
    25
100
AcDbLine
 10
1838.1095392682
 20
39.8715392811
 30
0.0
 11
1838.1095392682
 21
40.1021211114
 31
0.0
  0
ARC
  5
336
330
1F
100
AcDbEntity
  8
0
  6
SLD-Сплошная
 62
     7
370
    25
100
AcDbCircle
 10
1847.6095392682
 20
423.3233275043
 30
0.0
 40
6.94763480521533
100
AcDbArc
 50
270.0
 51
90.0
  0
ARC
  5
337
330
1F
100
AcDbEntity
  8
0
  6
SLD-Сплошная
 62
     7
370
    25
100
AcDbCircle
 10
1847.6095392682
 20
423.3233275043
 30
0.0
 40
6.94763480521533
100
AcDbArc
 50
90.0
 51
270.0
  0
ARC
  5
338
330
1F
100
AcDbEntity
  8
0
  6
SLD-Сплошная
 62
     7
370
    25
100
AcDbCircle
 10
1847.6095392682
 20
423.3233275043
 30
0.0
 40
7.0
100
AcDbArc
 50
90.0
 51
270.0
  0
ARC
  5
339
330
1F
100
AcDbEntity
  8
0
  6
SLD-Сплошная
 62
     7
370
    25
100
AcDbCircle
 10
1847.6095392682
 20
-308.3496671119
 30
0.0
 40
6.947634805215387
100
AcDbArc
 50
270.0
 51
90.0
  0
ARC
  5
33A
330
1F
100
AcDbEntity
  8
0
  6
SLD-Сплошная
 62
     7
370
    25
100
AcDbCircle
 10
1847.6095392682
 20
-308.3496671119
 30
0.0
 40
6.947634805215387
100
AcDbArc
 50
90.0
 51
270.0
  0
ARC
  5
33B
330
1F
100
AcDbEntity
  8
0
  6
SLD-Сплошная
 62
     7
370
    25
100
AcDbCircle
 10
1847.6095392682
 20
-308.3496671119
 30
0.0
 40
7.000000000000057
100
AcDbArc
 50
90.0
 51
270.0
  0
ARC
  5
33C
330
1F
100
AcDbEntity
  8
0
  6
SLD-Сплошная
 62
     7
370
    25
100
AcDbCircle
 10
1847.6095392682
 20
423.3233275043
 30
0.0
 40
7.0
100
AcDbArc
 50
270.0
 51
90.0
  0
ARC
  5
33D
330
1F
100
AcDbEntity
  8
0
  6
SLD-Сплошная
 62
     7
370
    25
100
AcDbCircle
 10
1847.6095392682
 20
-308.3496671119
 30
0.0
 40
7.000000000000057
100
AcDbArc
 50
270.0
 51
90.0
  0
ELLIPSE
  5
33E
330
1F
100
AcDbEntity
  8
0
  6
SLD-Сплошная
 62
     7
370
    25
100
AcDbEllipse
 10
1859.2580745207
 20
336.3230228482
 30
0.0
 11
-1.414644378339062
 21
1.414644378339347
 31
0.0
210
0.0
220
0.0
230
1.0
 40
0.9996954599
 41
5.497787194130348
 42
7.068431177329591
  0
SPLINE
  5
33F
330
1F
100
AcDbEntity
  8
0
  6
SLD-Сплошная
 62
     7
370
    25
100
AcDbSpline
210
0.0
220
0.0
230
1.0
 70
     8
 71
     3
 72
     8
 73
     4
 74
     0
 42
0.00000001
 43
0.00000001
 40
0.0
 40
0.0
 40
0.0
 40
0.0
 40
1.0
 40
1.0
 40
1.0
 40
1.0
 10
1859.257771064918
 20
338.270284743425
 30
0.0
 10
1859.257768789528
 20
338.2852605818394
 30
0.0
 10
1859.257769864591
 20
338.3000772157145
 30
0.0
 10
1859.257769864591
 20
338.3147358209283
 30
0.0
  0
ELLIPSE
  5
340
330
1F
100
AcDbEntity
  8
0
  6
SLD-Сплошная
 62
     7
370
    25
100
AcDbEllipse
 10
1859.3104397155
 20
336.2706576535
 30
0.0
 11
-1.41464437833929
 21
1.414644378339347
 31
0.0
210
0.0
220
0.0
230
0.9999999999999998
 40
0.9996954599
 41
5.523968209895229
 42
7.06843117732954
  0
SPLINE
  5
341
330
1F
100
AcDbEntity
  8
0
  6
SLD-Сплошная
 62
     7
370
    25
100
AcDbSpline
210
0.0
220
0.0
230
1.0
 70
     8
 71
     3
 72
     8
 73
     4
 74
     0
 42
0.00000001
 43
0.00000001
 40
0.0
 40
0.0
 40
0.0
 40
0.0
 40
1.0
 40
1.0
 40
1.0
 40
1.0
 10
1859.257768664264
 20
-223.2966243509591
 30
0.0
 10
1859.257770939654
 20
-223.3116001893739
 30
0.0
 10
1859.257769864591
 20
-223.3264168232481
 30
0.0
 10
1859.257769864591
 20
-223.3410754284617
 30
0.0
  0
ELLIPSE
  5
342
330
1F
100
AcDbEntity
  8
0
  6
SLD-Сплошная
 62
     7
370
    25
100
AcDbEllipse
 10
1859.2580745207
 20
-221.3493624558
 30
0.0
 11
-1.414644378339062
 21
-1.414644378339318
 31
0.0
210
0.0
220
0.0
230
0.9999999999999998
 40
0.9996954599
 41
5.497939437029548
 42
7.068583497731915
  0
ELLIPSE
  5
343
330
1F
100
AcDbEntity
  8
0
  6
SLD-Сплошная
 62
     7
370
    25
100
AcDbEllipse
 10
1859.3104397155
 20
-221.296997261
 30
0.0
 11
-1.414644378339062
 21
-1.414644378339318
 31
0.0
210
0.0
220
0.0
230
0.9999999999999998
 40
0.9996954599
 41
5.497939437029567
 42
7.042401206241204
  0
LINE
  5
344
330
1F
100
AcDbEntity
  8
0
  6
SLD-Сплошная
 62
     7
370
    25
100
AcDbLine
 10
1858.1095392682
 20
403.8233275043
 30
0.0
 11
1858.1095392682
 21
373.8233275043
 31
0.0
  0
LINE
  5
345
330
1F
100
AcDbEntity
  8
0
  6
SLD-Сплошная
 62
     7
370
    25
100
AcDbLine
 10
1858.1619044629
 20
373.8756926991
 30
0.0
 11
1858.1095392682
 21
373.8233275043
 31
0.0
  0
LINE
  5
346
330
1F
100
AcDbEntity
  8
0
  6
SLD-Сплошная
 62
     7
370
    25
100
AcDbLine
 10
1857.3101350594
 20
336.2712669192
 30
0.0
 11
1857.3101350594
 21
-221.2976065268
 31
0.0
  0
ELLIPSE
  5
347
330
1F
100
AcDbEntity
  8
0
  6
SLD-Сплошная
 62
     7
370
    25
100
AcDbEllipse
 10
1859.2051000137
 20
336.2706576535
 30
0.0
 11
1.41464437833929
 21
1.414644378339005
 31
0.0
210
0.0
220
0.0
230
1.0
 40
0.9996954599
 41
5.497939437029876
 42
7.042401206241205
  0
LINE
  5
348
330
1F
100
AcDbEntity
  8
0
  6
SLD-Сплошная
 62
     7
370
    25
100
AcDbLine
 10
1861.2054046698
 20
-221.2976065268
 30
0.0
 11
1861.2054046698
 21
336.2712669192
 31
0.0
  0
ELLIPSE
  5
349
330
1F
100
AcDbEntity
  8
0
  6
SLD-Сплошная
 62
     7
370
    25
100
AcDbEllipse
 10
1859.2051000137
 20
-221.296997261
 30
0.0
 11
1.41464437833929
 21
-1.414644378339005
 31
0.0
210
0.0
220
0.0
230
1.0
 40
0.9996954599
 41
5.523968209895256
 42
7.06843117732937
  0
ELLIPSE
  5
34A
330
1F
100
AcDbEntity
  8
0
  6
SLD-Сплошная
 62
     7
370
    25
100
AcDbEllipse
 10
1859.2574652085
 20
336.3230228482
 30
0.0
 11
1.41464437833929
 21
1.414644378339005
 31
0.0
210
0.0
220
0.0
230
1.0
 40
0.9996954599
 41
5.497939437029855
 42
7.068583497732075
  0
LINE
  5
34B
330
1F
100
AcDbEntity
  8
0
  6
SLD-Сплошная
 62
     7
370
    25
100
AcDbLine
 10
1858.1095392682
 20
373.8233275043
 30
0.0
 11
1886.1195392682
 21
373.8233275043
 31
0.0
  0
LINE
  5
34C
330
1F
100
AcDbEntity
  8
0
  6
SLD-Сплошная
 62
     7
370
    25
100
AcDbLine
 10
1857.2577698646
 20
336.323632114
 30
0.0
 11
1857.2577698646
 21
-221.3499717216
 31
0.0
  0
LINE
  5
34D
330
1F
100
AcDbEntity
  8
0
  6
SLD-Сплошная
 62
     7
370
    25
100
AcDbLine
 10
1858.1095392682
 20
-258.8496671119
 30
0.0
 11
1858.1095392682
 21
-288.8496671119
 31
0.0
  0
LINE
  5
34E
330
1F
100
AcDbEntity
  8
0
  6
SLD-Сплошная
 62
     7
370
    25
100
AcDbLine
 10
1858.1619044629
 20
-258.9020323067
 30
0.0
 11
1858.1095392682
 21
-258.8496671119
 31
0.0
  0
ELLIPSE
  5
34F
330
1F
100
AcDbEntity
  8
0
  6
SLD-Сплошная
 62
     7
370
    25
100
AcDbEllipse
 10
1859.2574652085
 20
-221.3493624558
 30
0.0
 11
1.414644378339289
 21
-1.414644378338977
 31
0.0
210
0.0
220
0.0
230
0.9999999999999998
 40
0.9996954599
 41
5.497787194130177
 42
7.06843117732934
  0
LINE
  5
350
330
1F
100
AcDbEntity
  8
0
  6
SLD-Сплошная
 62
     7
370
    25
100
AcDbLine
 10
1886.1195392682
 20
-258.8496671119
 30
0.0
 11
1858.1095392682
 21
-258.8496671119
 31
0.0
  0
LINE
  5
351
330
1F
100
AcDbEntity
  8
0
  6
SLD-Сплошная
 62
     7
370
    25
100
AcDbLine
 10
1862.1095392682
 20
377.8233275043
 30
0.0
 11
1862.1095392682
 21
407.8233275043
 31
0.0
  0
LINE
  5
352
330
1F
100
AcDbEntity
  8
0
  6
SLD-Сплошная
 62
     7
370
    25
100
AcDbLine
 10
1862.0571740734
 20
377.7709623096
 30
0.0
 11
1862.1095392682
 21
377.8233275043
 31
0.0
  0
LINE
  5
353
330
1F
100
AcDbEntity
  8
0
  6
SLD-Сплошная
 62
     7
370
    25
100
AcDbLine
 10
1886.1195392682
 20
377.8233275043
 30
0.0
 11
1862.1095392682
 21
377.8233275043
 31
0.0
  0
LINE
  5
354
330
1F
100
AcDbEntity
  8
0
  6
SLD-Сплошная
 62
     7
370
    25
100
AcDbLine
 10
1862.1095392682
 20
-262.8496671119
 30
0.0
 11
1886.1195392682
 21
-262.8496671119
 31
0.0
  0
LINE
  5
355
330
1F
100
AcDbEntity
  8
0
  6
SLD-Сплошная
 62
     7
370
    25
100
AcDbLine
 10
1862.0571740734
 20
-262.7973019171
 30
0.0
 11
1862.1095392682
 21
-262.8496671119
 31
0.0
  0
LINE
  5
356
330
1F
100
AcDbEntity
  8
0
  6
SLD-Сплошная
 62
     7
370
    25
100
AcDbLine
 10
1862.1095392682
 20
-292.8496671119
 30
0.0
 11
1862.1095392682
 21
-262.8496671119
 31
0.0
  0
LINE
  5
357
330
1F
100
AcDbEntity
  8
0
  6
SLD-Сплошная
 62
     7
370
    25
100
AcDbLine
 10
1861.2577698646
 20
-221.3499717216
 30
0.0
 11
1861.2577698646
 21
336.323632114
 31
0.0
  0
ARC
  5
358
330
1F
100
AcDbEntity
  8
0
  6
SLD-Сплошная
 62
     7
370
    25
100
AcDbCircle
 10
1877.6095392682
 20
-278.3496671119
 30
0.0
 40
7.0
100
AcDbArc
 50
90.0
 51
270.0
  0
ARC
  5
359
330
1F
100
AcDbEntity
  8
0
  6
SLD-Сплошная
 62
     7
370
    25
100
AcDbCircle
 10
1877.6095392682
 20
-278.3496671119
 30
0.0
 40
6.947634805215387
100
AcDbArc
 50
90.0
 51
270.0
  0
ARC
  5
35A
330
1F
100
AcDbEntity
  8
0
  6
SLD-Сплошная
 62
     7
370
    25
100
AcDbCircle
 10
1877.6095392682
 20
393.3233275043
 30
0.0
 40
6.947634805215387
100
AcDbArc
 50
270.0
 51
90.0
  0
ARC
  5
35B
330
1F
100
AcDbEntity
  8
0
  6
SLD-Сплошная
 62
     7
370
    25
100
AcDbCircle
 10
1877.6095392682
 20
393.3233275043
 30
0.0
 40
6.947634805215387
100
AcDbArc
 50
90.0
 51
270.0
  0
ARC
  5
35C
330
1F
100
AcDbEntity
  8
0
  6
SLD-Сплошная
 62
     7
370
    25
100
AcDbCircle
 10
1877.6095392682
 20
393.3233275043
 30
0.0
 40
7.000000000000057
100
AcDbArc
 50
90.0
 51
270.0
  0
ARC
  5
35D
330
1F
100
AcDbEntity
  8
0
  6
SLD-Сплошная
 62
     7
370
    25
100
AcDbCircle
 10
1877.6095392682
 20
-278.3496671119
 30
0.0
 40
6.947634805215387
100
AcDbArc
 50
270.0
 51
90.0
  0
ARC
  5
35E
330
1F
100
AcDbEntity
  8
0
  6
SLD-Сплошная
 62
     7
370
    25
100
AcDbCircle
 10
1877.6095392682
 20
393.3233275043
 30
0.0
 40
7.000000000000057
100
AcDbArc
 50
270.0
 51
90.0
  0
ARC
  5
35F
330
1F
100
AcDbEntity
  8
0
  6
SLD-Сплошная
 62
     7
370
    25
100
AcDbCircle
 10
1877.6095392682
 20
-278.3496671119
 30
0.0
 40
7.0
100
AcDbArc
 50
270.0
 51
90.0
  0
ARC
  5
360
330
1F
100
AcDbEntity
  8
0
  6
SLD-Сплошная
 62
     7
370
    25
100
AcDbCircle
 10
1886.1195392682
 20
-260.8596671119
 30
0.0
 40
1.990000000000236
100
AcDbArc
 50
270.0
 51
360.0
  0
LINE
  5
361
330
1F
100
AcDbEntity
  8
0
  6
SLD-Сплошная
 62
     7
370
    25
100
AcDbLine
 10
1888.1095392682
 20
-260.8596671119
 30
0.0
 11
1888.1095392682
 21
-260.8396671119
 31
0.0
  0
ARC
  5
362
330
1F
100
AcDbEntity
  8
0
  6
SLD-Сплошная
 62
     7
370
    25
100
AcDbCircle
 10
1886.1195392682
 20
-260.8396671119
 30
0.0
 40
1.989999999999895
100
AcDbArc
 50
0.0
 51
90.0
  0
ARC
  5
363
330
1F
100
AcDbEntity
  8
0
  6
SLD-Сплошная
 62
     7
370
    25
100
AcDbCircle
 10
1886.1195392682
 20
375.8133275043
 30
0.0
 40
1.990000000000236
100
AcDbArc
 50
270.0
 51
0.0
  0
LINE
  5
364
330
1F
100
AcDbEntity
  8
0
  6
SLD-Сплошная
 62
     7
370
    25
100
AcDbLine
 10
1888.1095392682
 20
375.8133275043
 30
0.0
 11
1888.1095392682
 21
375.8333275043
 31
0.0
  0
ARC
  5
365
330
1F
100
AcDbEntity
  8
0
  6
SLD-Сплошная
 62
     7
370
    25
100
AcDbCircle
 10
1886.1195392682
 20
375.8333275043
 30
0.0
 40
1.990000000000009
100
AcDbArc
 50
0.0
 51
90.0
  0
ARC
  5
366
330
1F
100
AcDbEntity
  8
0
  6
SLD-Сплошная
 62
     7
370
    25
100
AcDbCircle
 10
1349.0497099219
 20
438.6243890375
 30
0.0
 40
8.903393740261732
100
AcDbArc
 50
14.9692169531
 51
257.3188610455
  0
LINE
  5
367
330
1F
100
AcDbEntity
  8
0
  6
SLD-Сплошная
 62
     7
370
    25
100
AcDbLine
 10
1886.8645750358
 20
440.924136078
 30
0.0
 11
1357.6509646934
 21
440.924136078
 31
0.0
  0
ARC
  5
368
330
1F
100
AcDbEntity
  8
0
  6
SLD-Сплошная
 62
     7
370
    25
100
AcDbCircle
 10
1895.4658298073
 20
438.6243890375
 30
0.0
 40
8.903393740261667
100
AcDbArc
 50
282.6811389546
 51
165.0307830469
  0
LINE
  5
369
330
1F
100
AcDbEntity
  8
0
  6
SLD-Сплошная
 62
     7
370
    25
100
AcDbLine
 10
1897.4203478418
 20
-314.9645166198
 30
0.0
 11
1897.4203478418
 21
429.9381770123
 31
0.0
  0
ARC
  5
36A
330
1F
100
AcDbEntity
  8
0
  6
SLD-Сплошная
 62
     7
370
    25
100
AcDbCircle
 10
1895.4658298073
 20
-323.650728645
 30
0.0
 40
8.903393740261667
100
AcDbArc
 50
194.9692169531
 51
77.3188610455
  0
LINE
  5
36B
330
1F
100
AcDbEntity
  8
0
  6
SLD-Сплошная
 62
     7
370
    25
100
AcDbLine
 10
1357.6509646934
 20
-325.9504756855
 30
0.0
 11
1886.8645750358
 21
-325.9504756855
 31
0.0
  0
ARC
  5
36C
330
1F
100
AcDbEntity
  8
0
  6
SLD-Сплошная
 62
     7
370
    25
100
AcDbCircle
 10
1349.0497099219
 20
-323.650728645
 30
0.0
 40
8.903393740261832
100
AcDbArc
 50
102.6811389545
 51
345.0307830469
  0
LINE
  5
36D
330
1F
100
AcDbEntity
  8
0
  6
SLD-Сплошная
 62
     7
370
    25
100
AcDbLine
 10
1347.0951918874
 20
429.9381770123
 30
0.0
 11
1347.0951918874
 21
-314.9645166198
 31
0.0
  0
SPLINE
  5
36E
330
1F
100
AcDbEntity
  8
0
  6
SLD-Сплошная
 62
     7
370
    25
100
AcDbSpline
210
0.0
220
0.0
230
1.0
 70
     8
 71
     3
 72
    10
 73
     6
 74
     0
 42
0.00000001
 43
0.00000001
 40
0.0
 40
0.0
 40
0.0
 40
0.0
 40
0.4999999999999999
 40
0.4999999999999999
 40
1.0
 40
1.0
 40
1.0
 40
1.0
 10
1357.650964693374
 20
440.9241360780023
 30
0.0
 10
1358.431030882484
 20
441.9401728734617
 30
0.0
 10
1359.110255556131
 20
442.9562614926166
 30
0.0
 10
1360.365832298999
 20
444.9884755415682
 30
0.0
 10
1360.939715443437
 20
446.0046026113964
 30
0.0
 10
1361.479563149401
 20
447.02074233774
 30
0.0
  0
SPLINE
  5
36F
330
1F
100
AcDbEntity
  8
0
  6
SLD-Сплошная
 62
     7
370
    25
100
AcDbSpline
210
0.0
220
0.0
230
1.0
 70
     8
 71
     3
 72
    10
 73
     6
 74
     0
 42
0.00000001
 43
0.00000001
 40
0.0
 40
0.0
 40
0.0
 40
0.0
 40
0.5
 40
0.5
 40
1.0
 40
1.0
 40
1.0
 40
1.0
 10
1347.095191887362
 20
429.9381770122679
 30
0.0
 10
1346.079161915103
 20
429.1253640196746
 30
0.0
 10
1345.063074121184
 20
428.4206978091126
 30
0.0
 10
1343.030858625468
 20
427.1196708550202
 30
0.0
 10
1342.014728981749
 20
426.5261017052997
 30
0.0
 10
1340.998585627622
 20
425.9681890707349
 30
0.0
  0
ARC
  5
370
330
1F
100
AcDbEntity
  8
0
  6
SLD-Сплошная
 62
     7
370
    25
100
AcDbCircle
 10
1349.0497099219
 20
438.6243890375
 30
0.0
 40
15.00000000000026
100
AcDbArc
 50
34.0389865051
 51
237.5378989696
  0
SPLINE
  5
371
330
1F
100
AcDbEntity
  8
0
  6
SLD-Сплошная
 62
     7
370
    25
100
AcDbSpline
210
0.0
220
0.0
230
1.0
 70
     8
 71
     3
 72
    10
 73
     6
 74
     0
 42
0.00000001
 43
0.00000001
 40
0.0
 40
0.0
 40
0.0
 40
0.0
 40
0.5000000000000001
 40
0.5000000000000001
 40
1.0
 40
1.0
 40
1.0
 40
1.0
 10
1357.650964693374
 20
-325.9504756855363
 30
0.0
 10
1358.431030882484
 20
-326.9665124809956
 30
0.0
 10
1359.110255556131
 20
-327.9826011001505
 30
0.0
 10
1360.365832298999
 20
-330.0148151491022
 30
0.0
 10
1360.939715443437
 20
-331.0309422189301
 30
0.0
 10
1361.479563149401
 20
-332.0470819452738
 30
0.0
  0
ARC
  5
372
330
1F
100
AcDbEntity
  8
0
  6
SLD-Сплошная
 62
     7
370
    25
100
AcDbCircle
 10
1349.0497099219
 20
-323.650728645
 30
0.0
 40
15.00000000000031
100
AcDbArc
 50
122.4621010304
 51
325.9610134949
  0
SPLINE
  5
373
330
1F
100
AcDbEntity
  8
0
  6
SLD-Сплошная
 62
     7
370
    25
100
AcDbSpline
210
0.0
220
0.0
230
1.0
 70
     8
 71
     3
 72
    10
 73
     6
 74
     0
 42
0.00000001
 43
0.00000001
 40
0.0
 40
0.0
 40
0.0
 40
0.0
 40
0.5
 40
0.5
 40
1.0
 40
1.0
 40
1.0
 40
1.0
 10
1347.095191887362
 20
-314.9645166198014
 30
0.0
 10
1346.079161915103
 20
-314.1517036272079
 30
0.0
 10
1345.063074121184
 20
-313.4470374166459
 30
0.0
 10
1343.030858625468
 20
-312.1460104625536
 30
0.0
 10
1342.014728981749
 20
-311.552441312833
 30
0.0
 10
1340.998585627622
 20
-310.9945286782682
 30
0.0
  0
SPLINE
  5
374
330
1F
100
AcDbEntity
  8
0
  6
SLD-Сплошная
 62
     7
370
    25
100
AcDbSpline
210
0.0
220
0.0
230
1.0
 70
     8
 71
     3
 72
    10
 73
     6
 74
     0
 42
0.00000001
 43
0.00000001
 40
0.0
 40
0.0
 40
0.0
 40
0.0
 40
0.5
 40
0.5
 40
1.0
 40
1.0
 40
1.0
 40
1.0
 10
1886.864575035808
 20
440.9241360780017
 30
0.0
 10
1886.084508846699
 20
441.9401728734609
 30
0.0
 10
1885.405284173051
 20
442.9562614926159
 30
0.0
 10
1884.149707430183
 20
444.9884755415675
 30
0.0
 10
1883.575824285746
 20
446.0046026113956
 30
0.0
 10
1883.035976579781
 20
447.0207423377392
 30
0.0
  0
LINE
  5
375
330
1F
100
AcDbEntity
  8
0
  6
SLD-Сплошная
 62
     7
370
    25
100
AcDbLine
 10
1883.0359765798
 20
447.0207423377
 30
0.0
 11
1361.4795631494
 21
447.0207423377
 31
0.0
  0
SPLINE
  5
376
330
1F
100
AcDbEntity
  8
0
  6
SLD-Сплошная
 62
     7
370
    25
100
AcDbSpline
210
0.0
220
0.0
230
1.0
 70
     8
 71
     3
 72
    10
 73
     6
 74
     0
 42
0.00000001
 43
0.00000001
 40
0.0
 40
0.0
 40
0.0
 40
0.0
 40
0.5
 40
0.5
 40
1.0
 40
1.0
 40
1.0
 40
1.0
 10
1886.864575035808
 20
-325.9504756855355
 30
0.0
 10
1886.084508846699
 20
-326.9665124809948
 30
0.0
 10
1885.405284173051
 20
-327.9826011001497
 30
0.0
 10
1884.149707430183
 20
-330.0148151491016
 30
0.0
 10
1883.575824285746
 20
-331.0309422189295
 30
0.0
 10
1883.035976579781
 20
-332.0470819452731
 30
0.0
  0
LINE
  5
377
330
1F
100
AcDbEntity
  8
0
  6
SLD-Сплошная
 62
     7
370
    25
100
AcDbLine
 10
1361.4795631494
 20
-332.0470819453
 30
0.0
 11
1883.0359765798
 21
-332.0470819453
 31
0.0
  0
LINE
  5
378
330
1F
100
AcDbEntity
  8
0
  6
SLD-Сплошная
 62
     7
370
    25
100
AcDbLine
 10
1341.5681294218
 20
19.9751763527
 30
0.0
 11
1341.5681294218
 21
95.0165576179
 31
0.0
  0
LINE
  5
379
330
1F
100
AcDbEntity
  8
0
  6
SLD-Сплошная
 62
     7
370
    25
100
AcDbLine
 10
1341.5681294218
 20
95.0165576179
 30
0.0
 11
1340.9985856276
 21
98.6415576179
 31
0.0
  0
LINE
  5
37A
330
1F
100
AcDbEntity
  8
0
  6
SLD-Сплошная
 62
     7
370
    25
100
AcDbLine
 10
1340.9985856276
 20
98.6415576179
 30
0.0
 11
1340.9985856276
 21
322.4321027746
 31
0.0
  0
LINE
  5
37B
330
1F
100
AcDbEntity
  8
0
  6
SLD-Сплошная
 62
     7
370
    25
100
AcDbLine
 10
1340.9985856276
 20
322.4321027746
 30
0.0
 11
1341.5681294218
 21
326.0571027746
 31
0.0
  0
LINE
  5
37C
330
1F
100
AcDbEntity
  8
0
  6
SLD-Сплошная
 62
     7
370
    25
100
AcDbLine
 10
1341.5681294218
 20
326.0571027746
 30
0.0
 11
1341.5681294218
 21
401.0984840397
 31
0.0
  0
LINE
  5
37D
330
1F
100
AcDbEntity
  8
0
  6
SLD-Сплошная
 62
     7
370
    25
100
AcDbLine
 10
1341.5681294218
 20
401.0984840397
 30
0.0
 11
1340.9985856276
 21
404.7234840397
 31
0.0
  0
LINE
  5
37E
330
1F
100
AcDbEntity
  8
0
  6
SLD-Сплошная
 62
     7
370
    25
100
AcDbLine
 10
1340.9985856276
 20
404.7234840397
 30
0.0
 11
1340.9985856276
 21
425.9681890707
 31
0.0
  0
LINE
  5
37F
330
1F
100
AcDbEntity
  8
0
  6
SLD-Сплошная
 62
     7
370
    25
100
AcDbLine
 10
1340.9985856276
 20
-289.7498236473
 30
0.0
 11
1340.9985856276
 21
-310.9945286783
 31
0.0
  0
LINE
  5
380
330
1F
100
AcDbEntity
  8
0
  6
SLD-Сплошная
 62
     7
370
    25
100
AcDbLine
 10
1340.9985856276
 20
-289.7498236473
 30
0.0
 11
1341.5681294218
 21
-286.1248236473
 31
0.0
  0
LINE
  5
381
330
1F
100
AcDbEntity
  8
0
  6
SLD-Сплошная
 62
     7
370
    25
100
AcDbLine
 10
1341.5681294218
 20
-286.1248236473
 30
0.0
 11
1341.5681294218
 21
-211.0834423821
 31
0.0
  0
LINE
  5
382
330
1F
100
AcDbEntity
  8
0
  6
SLD-Сплошная
 62
     7
370
    25
100
AcDbLine
 10
1341.5681294218
 20
-211.0834423821
 30
0.0
 11
1340.9985856276
 21
-207.4584423821
 31
0.0
  0
LINE
  5
383
330
1F
100
AcDbEntity
  8
0
  6
SLD-Сплошная
 62
     7
370
    25
100
AcDbLine
 10
1340.9985856276
 20
-207.4584423821
 30
0.0
 11
1340.9985856276
 21
16.3501763527
 31
0.0
  0
LINE
  5
384
330
1F
100
AcDbEntity
  8
0
  6
SLD-Сплошная
 62
     7
370
    25
100
AcDbLine
 10
1340.9985856276
 20
16.3501763527
 30
0.0
 11
1341.5681294218
 21
19.9751763527
 31
0.0
  0
ARC
  5
385
330
1F
100
AcDbEntity
  8
0
  6
SLD-Сплошная
 62
     7
370
    25
100
AcDbCircle
 10
1895.4658298073
 20
438.6243890375
 30
0.0
 40
15.00000000000033
100
AcDbArc
 50
302.4621010304
 51
145.9610134949
  0
SPLINE
  5
386
330
1F
100
AcDbEntity
  8
0
  6
SLD-Сплошная
 62
     7
370
    25
100
AcDbSpline
210
0.0
220
0.0
230
1.0
 70
     8
 71
     3
 72
    10
 73
     6
 74
     0
 42
0.00000001
 43
0.00000001
 40
0.0
 40
0.0
 40
0.0
 40
0.0
 40
0.5
 40
0.5
 40
1.0
 40
1.0
 40
1.0
 40
1.0
 10
1897.420347841821
 20
429.938177012267
 30
0.0
 10
1898.43637781408
 20
429.1253640196736
 30
0.0
 10
1899.452465607998
 20
428.4206978091116
 30
0.0
 10
1901.484681103714
 20
427.1196708550192
 30
0.0
 10
1902.500810747432
 20
426.5261017052981
 30
0.0
 10
1903.516954101559
 20
425.9681890707332
 30
0.0
  0
SPLINE
  5
387
330
1F
100
AcDbEntity
  8
0
  6
SLD-Сплошная
 62
     7
370
    25
100
AcDbSpline
210
0.0
220
0.0
230
1.0
 70
     8
 71
     3
 72
    10
 73
     6
 74
     0
 42
0.00000001
 43
0.00000001
 40
0.0
 40
0.0
 40
0.0
 40
0.0
 40
0.5
 40
0.5
 40
1.0
 40
1.0
 40
1.0
 40
1.0
 10
1897.420347841821
 20
-314.964516619801
 30
0.0
 10
1898.43637781408
 20
-314.1517036272074
 30
0.0
 10
1899.452465607998
 20
-313.4470374166453
 30
0.0
 10
1901.484681103714
 20
-312.1460104625527
 30
0.0
 10
1902.500810747432
 20
-311.552441312832
 30
0.0
 10
1903.516954101559
 20
-310.994528678267
 30
0.0
  0
ARC
  5
388
330
1F
100
AcDbEntity
  8
0
  6
SLD-Сплошная
 62
     7
370
    25
100
AcDbCircle
 10
1895.4658298073
 20
-323.650728645
 30
0.0
 40
15.00000000000033
100
AcDbArc
 50
214.0389865051
 51
57.5378989696
  0
LINE
  5
389
330
1F
100
AcDbEntity
  8
0
  6
SLD-Сплошная
 62
     7
370
    25
100
AcDbLine
 10
1903.5169541016
 20
-237.6258792579
 30
0.0
 11
1902.9931504957
 21
-241.6427393455
 31
0.0
  0
LINE
  5
38A
330
1F
100
AcDbEntity
  8
0
  6
SLD-Сплошная
 62
     7
370
    25
100
AcDbLine
 10
1902.9931504957
 20
-294.984231707
 30
0.0
 11
1902.9931504957
 21
-241.6427393455
 31
0.0
  0
LINE
  5
38B
330
1F
100
AcDbEntity
  8
0
  6
SLD-Сплошная
 62
     7
370
    25
100
AcDbLine
 10
1903.5169891109
 20
-299.0013602686
 30
0.0
 11
1902.9931504957
 21
-294.984231707
 31
0.0
  0
LINE
  5
38C
330
1F
100
AcDbEntity
  8
0
  6
SLD-Сплошная
 62
     7
370
    25
100
AcDbLine
 10
1903.5169891109
 20
-303.6956392175
 30
0.0
 11
1903.5169891109
 21
-299.0013602686
 31
0.0
  0
LINE
  5
38D
330
1F
100
AcDbEntity
  8
0
  6
SLD-Сплошная
 62
     7
370
    25
100
AcDbLine
 10
1903.5169541016
 20
-310.9945286783
 30
0.0
 11
1903.5169541016
 21
-303.6956392175
 31
0.0
  0
LINE
  5
38E
330
1F
100
AcDbEntity
  8
0
  6
SLD-Сплошная
 62
     7
370
    25
100
AcDbLine
 10
1903.5169541016
 20
425.9681890707
 30
0.0
 11
1903.5169541016
 21
418.4843607825
 31
0.0
  0
LINE
  5
38F
330
1F
100
AcDbEntity
  8
0
  6
SLD-Сплошная
 62
     7
370
    25
100
AcDbLine
 10
1903.5169891109
 20
418.4843607825
 30
0.0
 11
1903.5169891109
 21
414.5543892161
 31
0.0
  0
LINE
  5
390
330
1F
100
AcDbEntity
  8
0
  6
SLD-Сплошная
 62
     7
370
    25
100
AcDbLine
 10
1903.5169891109
 20
414.5543892161
 30
0.0
 11
1902.9931504957
 21
410.5372606545
 31
0.0
  0
LINE
  5
391
330
1F
100
AcDbEntity
  8
0
  6
SLD-Сплошная
 62
     7
370
    25
100
AcDbLine
 10
1902.9931504957
 20
410.5372606545
 30
0.0
 11
1902.9931504957
 21
357.195768293
 31
0.0
  0
LINE
  5
392
330
1F
100
AcDbEntity
  8
0
  6
SLD-Сплошная
 62
     7
370
    25
100
AcDbLine
 10
1903.5169541016
 20
353.1789082054
 30
0.0
 11
1902.9931504957
 21
357.195768293
 31
0.0
  0
LINE
  5
393
330
1F
100
AcDbEntity
  8
0
  6
SLD-Сплошная
 62
     7
370
    25
100
AcDbLine
 10
1903.5169541016
 20
197.5541207421
 30
0.0
 11
1903.5169541016
 21
353.1789082054
 31
0.0
  0
LINE
  5
394
330
1F
100
AcDbEntity
  8
0
  6
SLD-Сплошная
 62
     7
370
    25
100
AcDbLine
 10
1903.5169541016
 20
197.5541207421
 30
0.0
 11
1902.9931504957
 21
193.5372606545
 31
0.0
  0
LINE
  5
395
330
1F
100
AcDbEntity
  8
0
  6
SLD-Сплошная
 62
     7
370
    25
100
AcDbLine
 10
1902.9931504957
 20
193.5372606545
 30
0.0
 11
1902.9931504957
 21
140.195768293
 31
0.0
  0
LINE
  5
396
330
1F
100
AcDbEntity
  8
0
  6
SLD-Сплошная
 62
     7
370
    25
100
AcDbLine
 10
1903.5169541016
 20
136.1789082054
 30
0.0
 11
1902.9931504957
 21
140.195768293
 31
0.0
  0
LINE
  5
397
330
1F
100
AcDbEntity
  8
0
  6
SLD-Сплошная
 62
     7
370
    25
100
AcDbLine
 10
1903.5169541016
 20
-20.6258792579
 30
0.0
 11
1903.5169541016
 21
136.1789082054
 31
0.0
  0
LINE
  5
398
330
1F
100
AcDbEntity
  8
0
  6
SLD-Сплошная
 62
     7
370
    25
100
AcDbLine
 10
1903.5169541016
 20
-20.6258792579
 30
0.0
 11
1902.9931504957
 21
-24.6427393455
 31
0.0
  0
LINE
  5
399
330
1F
100
AcDbEntity
  8
0
  6
SLD-Сплошная
 62
     7
370
    25
100
AcDbLine
 10
1902.9931504957
 20
-24.6427393455
 30
0.0
 11
1902.9931504957
 21
-77.984231707
 31
0.0
  0
LINE
  5
39A
330
1F
100
AcDbEntity
  8
0
  6
SLD-Сплошная
 62
     7
370
    25
100
AcDbLine
 10
1903.5169541016
 20
-82.0010917946
 30
0.0
 11
1902.9931504957
 21
-77.984231707
 31
0.0
  0
LINE
  5
39B
330
1F
100
AcDbEntity
  8
0
  6
SLD-Сплошная
 62
     7
370
    25
100
AcDbLine
 10
1903.5169541016
 20
-237.6258792579
 30
0.0
 11
1903.5169541016
 21
-82.0010917946
 31
0.0
  0
LINE
  5
39C
330
1F
100
AcDbEntity
  8
0
  6
SLD-Сплошная
 62
     7
370
    25
100
AcDbLine
 10
1331.3181294218
 20
-286.1248236473
 30
0.0
 11
1341.5681294218
 21
-286.1248236473
 31
0.0
  0
LINE
  5
39D
330
1F
100
AcDbEntity
  8
0
  6
SLD-Сплошная
 62
     7
370
    25
100
AcDbLine
 10
1340.9985856276
 20
-289.7498236473
 30
0.0
 11
1330.7485856276
 21
-289.7498236473
 31
0.0
  0
LINE
  5
39E
330
1F
100
AcDbEntity
  8
0
  6
SLD-Сплошная
 62
     7
370
    25
100
AcDbLine
 10
1330.7485856276
 20
-289.7498236473
 30
0.0
 11
1331.3181294218
 21
-286.1248236473
 31
0.0
  0
LINE
  5
39F
330
1F
100
AcDbEntity
  8
0
  6
SLD-Сплошная
 62
     7
370
    25
100
AcDbLine
 10
1331.3181294218
 20
-286.1248236473
 30
0.0
 11
1331.3181294218
 21
-211.0834423821
 31
0.0
  0
LINE
  5
3A0
330
1F
100
AcDbEntity
  8
0
  6
SLD-Сплошная
 62
     7
370
    25
100
AcDbLine
 10
1330.7485856276
 20
-289.7498236473
 30
0.0
 11
1330.7485856276
 21
-207.4584423821
 31
0.0
  0
LINE
  5
3A1
330
1F
100
AcDbEntity
  8
0
  6
SLD-Сплошная
 62
     7
370
    25
100
AcDbLine
 10
1331.3181294218
 20
-211.0834423821
 30
0.0
 11
1330.7485856276
 21
-207.4584423821
 31
0.0
  0
LINE
  5
3A2
330
1F
100
AcDbEntity
  8
0
  6
SLD-Сплошная
 62
     7
370
    25
100
AcDbLine
 10
1331.3181294218
 20
401.0984840397
 30
0.0
 11
1341.5681294218
 21
401.0984840397
 31
0.0
  0
LINE
  5
3A3
330
1F
100
AcDbEntity
  8
0
  6
SLD-Сплошная
 62
     7
370
    25
100
AcDbLine
 10
1331.3181294218
 20
401.0984840397
 30
0.0
 11
1330.7485856276
 21
404.7234840397
 31
0.0
  0
LINE
  5
3A4
330
1F
100
AcDbEntity
  8
0
  6
SLD-Сплошная
 62
     7
370
    25
100
AcDbLine
 10
1330.7485856276
 20
404.7234840397
 30
0.0
 11
1340.9985856276
 21
404.7234840397
 31
0.0
  0
LINE
  5
3A5
330
1F
100
AcDbEntity
  8
0
  6
SLD-Сплошная
 62
     7
370
    25
100
AcDbLine
 10
1330.7485856276
 20
322.4321027746
 30
0.0
 11
1330.7485856276
 21
404.7234840397
 31
0.0
  0
LINE
  5
3A6
330
1F
100
AcDbEntity
  8
0
  6
SLD-Сплошная
 62
     7
370
    25
100
AcDbLine
 10
1331.3181294218
 20
326.0571027746
 30
0.0
 11
1331.3181294218
 21
401.0984840397
 31
0.0
  0
LINE
  5
3A7
330
1F
100
AcDbEntity
  8
0
  6
SLD-Сплошная
 62
     7
370
    25
100
AcDbLine
 10
1330.7485856276
 20
322.4321027746
 30
0.0
 11
1331.3181294218
 21
326.0571027746
 31
0.0
  0
LINE
  5
3A8
330
1F
100
AcDbEntity
  8
0
  6
SLD-Сплошная
 62
     7
370
    25
100
AcDbLine
 10
1331.3181294218
 20
326.0571027746
 30
0.0
 11
1341.5681294218
 21
326.0571027746
 31
0.0
  0
LINE
  5
3A9
330
1F
100
AcDbEntity
  8
0
  6
SLD-Сплошная
 62
     7
370
    25
100
AcDbLine
 10
1331.3181294218
 20
-211.0834423821
 30
0.0
 11
1341.5681294218
 21
-211.0834423821
 31
0.0
  0
LINE
  5
3AA
330
1F
100
AcDbEntity
  8
0
  6
SLD-Сплошная
 62
     7
370
    25
100
AcDbLine
 10
1340.9985856276
 20
322.4321027746
 30
0.0
 11
1330.7485856276
 21
322.4321027746
 31
0.0
  0
LINE
  5
3AB
330
1F
100
AcDbEntity
  8
0
  6
SLD-Сплошная
 62
     7
370
    25
100
AcDbLine
 10
1330.7485856276
 20
-207.4584423821
 30
0.0
 11
1340.9985856276
 21
-207.4584423821
 31
0.0
  0
LINE
  5
3AC
330
1F
100
AcDbEntity
  8
0
  6
SLD-Сплошная
 62
     7
370
    25
100
AcDbLine
 10
1331.3181294218
 20
19.9751763527
 30
0.0
 11
1331.3181294218
 21
95.0165576179
 31
0.0
  0
LINE
  5
3AD
330
1F
100
AcDbEntity
  8
0
  6
SLD-Сплошная
 62
     7
370
    25
100
AcDbLine
 10
1330.7485856276
 20
16.3501763527
 30
0.0
 11
1331.3181294218
 21
19.9751763527
 31
0.0
  0
LINE
  5
3AE
330
1F
100
AcDbEntity
  8
0
  6
SLD-Сплошная
 62
     7
370
    25
100
AcDbLine
 10
1330.7485856276
 20
98.6415576179
 30
0.0
 11
1330.7485856276
 21
16.3501763527
 31
0.0
  0
LINE
  5
3AF
330
1F
100
AcDbEntity
  8
0
  6
SLD-Сплошная
 62
     7
370
    25
100
AcDbLine
 10
1331.3181294218
 20
95.0165576179
 30
0.0
 11
1330.7485856276
 21
98.6415576179
 31
0.0
  0
LINE
  5
3B0
330
1F
100
AcDbEntity
  8
0
  6
SLD-Сплошная
 62
     7
370
    25
100
AcDbLine
 10
1331.3181294218
 20
19.9751763527
 30
0.0
 11
1341.5681294218
 21
19.9751763527
 31
0.0
  0
LINE
  5
3B1
330
1F
100
AcDbEntity
  8
0
  6
SLD-Сплошная
 62
     7
370
    25
100
AcDbLine
 10
1330.7485856276
 20
16.3501763527
 30
0.0
 11
1340.9985856276
 21
16.3501763527
 31
0.0
  0
LINE
  5
3B2
330
1F
100
AcDbEntity
  8
0
  6
SLD-Сплошная
 62
     7
370
    25
100
AcDbLine
 10
1331.3181294218
 20
95.0165576179
 30
0.0
 11
1341.5681294218
 21
95.0165576179
 31
0.0
  0
LINE
  5
3B3
330
1F
100
AcDbEntity
  8
0
  6
SLD-Сплошная
 62
     7
370
    25
100
AcDbLine
 10
1340.9985856276
 20
98.6415576179
 30
0.0
 11
1330.7485856276
 21
98.6415576179
 31
0.0
  0
LINE
  5
3B4
330
1F
100
AcDbEntity
  8
0
  6
SLD-Сплошная
 62
     7
370
    25
100
AcDbLine
 10
1922.9906251005
 20
-241.6427393455
 30
0.0
 11
1902.9931504957
 21
-241.6427393455
 31
0.0
  0
LINE
  5
3B5
330
1F
100
AcDbEntity
  8
0
  6
SLD-Сплошная
 62
     7
370
    25
100
AcDbLine
 10
1922.9906251005
 20
-294.984231707
 30
0.0
 11
1922.9906251005
 21
-241.6427393455
 31
0.0
  0
LINE
  5
3B6
330
1F
100
AcDbEntity
  8
0
  6
SLD-Сплошная
 62
     7
370
    25
100
AcDbLine
 10
1922.9906251005
 20
-294.984231707
 30
0.0
 11
1902.9931504957
 21
-294.984231707
 31
0.0
  0
LINE
  5
3B7
330
1F
100
AcDbEntity
  8
0
  6
SLD-Сплошная
 62
     7
370
    25
100
AcDbLine
 10
1922.9906251005
 20
-241.6427393455
 30
0.0
 11
1923.5144287063
 21
-237.6258792579
 31
0.0
  0
LINE
  5
3B8
330
1F
100
AcDbEntity
  8
0
  6
SLD-Сплошная
 62
     7
370
    25
100
AcDbLine
 10
1923.5144287063
 20
-237.6258792579
 30
0.0
 11
1903.5169541016
 21
-237.6258792579
 31
0.0
  0
LINE
  5
3B9
330
1F
100
AcDbEntity
  8
0
  6
SLD-Сплошная
 62
     7
370
    25
100
AcDbLine
 10
1903.5169891109
 20
-299.0013602686
 30
0.0
 11
1923.5144637157
 21
-299.0013602686
 31
0.0
  0
LINE
  5
3BA
330
1F
100
AcDbEntity
  8
0
  6
SLD-Сплошная
 62
     7
370
    25
100
AcDbLine
 10
1923.5144637157
 20
-299.0013602686
 30
0.0
 11
1922.9906251005
 21
-294.984231707
 31
0.0
  0
LINE
  5
3BB
330
1F
100
AcDbEntity
  8
0
  6
SLD-Сплошная
 62
     7
370
    25
100
AcDbLine
 10
1923.6314797758
 20
-233.6956392175
 30
0.0
 11
1923.6314797758
 21
-303.6956392175
 31
0.0
  0
LINE
  5
3BC
330
1F
100
AcDbEntity
  8
0
  6
SLD-Сплошная
 62
     7
370
    25
100
AcDbLine
 10
1923.5144637157
 20
-303.6956392175
 30
0.0
 11
1923.5144637157
 21
-299.0013602686
 31
0.0
  0
LINE
  5
3BD
330
1F
100
AcDbEntity
  8
0
  6
SLD-Сплошная
 62
     7
370
    25
100
AcDbLine
 10
1923.5144287063
 20
-233.6956392175
 30
0.0
 11
1923.5144287063
 21
-237.6258792579
 31
0.0
  0
LINE
  5
3BE
330
1F
100
AcDbEntity
  8
0
  6
SLD-Сплошная
 62
     7
370
    25
100
AcDbLine
 10
1922.9906251005
 20
-24.6427393455
 30
0.0
 11
1923.5144287063
 21
-20.6258792579
 31
0.0
  0
LINE
  5
3BF
330
1F
100
AcDbEntity
  8
0
  6
SLD-Сплошная
 62
     7
370
    25
100
AcDbLine
 10
1922.9906251005
 20
-24.6427393455
 30
0.0
 11
1902.9931504957
 21
-24.6427393455
 31
0.0
  0
LINE
  5
3C0
330
1F
100
AcDbEntity
  8
0
  6
SLD-Сплошная
 62
     7
370
    25
100
AcDbLine
 10
1923.5144287063
 20
-20.6258792579
 30
0.0
 11
1903.5169541016
 21
-20.6258792579
 31
0.0
  0
LINE
  5
3C1
330
1F
100
AcDbEntity
  8
0
  6
SLD-Сплошная
 62
     7
370
    25
100
AcDbLine
 10
1922.9906251005
 20
-77.984231707
 30
0.0
 11
1922.9906251005
 21
-24.6427393455
 31
0.0
  0
LINE
  5
3C2
330
1F
100
AcDbEntity
  8
0
  6
SLD-Сплошная
 62
     7
370
    25
100
AcDbLine
 10
1922.9906251005
 20
-77.984231707
 30
0.0
 11
1902.9931504957
 21
-77.984231707
 31
0.0
  0
LINE
  5
3C3
330
1F
100
AcDbEntity
  8
0
  6
SLD-Сплошная
 62
     7
370
    25
100
AcDbLine
 10
1923.5144287063
 20
-82.0010917946
 30
0.0
 11
1922.9906251005
 21
-77.984231707
 31
0.0
  0
LINE
  5
3C4
330
1F
100
AcDbEntity
  8
0
  6
SLD-Сплошная
 62
     7
370
    25
100
AcDbLine
 10
1923.5144287063
 20
-82.0010917946
 30
0.0
 11
1903.5169541016
 21
-82.0010917946
 31
0.0
  0
LINE
  5
3C5
330
1F
100
AcDbEntity
  8
0
  6
SLD-Сплошная
 62
     7
370
    25
100
AcDbLine
 10
1923.6314797757
 20
-16.6956392175
 30
0.0
 11
1923.6314797757
 21
-86.6956392175
 31
0.0
  0
LINE
  5
3C6
330
1F
100
AcDbEntity
  8
0
  6
SLD-Сплошная
 62
     7
370
    25
100
AcDbLine
 10
1923.5144287063
 20
-86.6956392175
 30
0.0
 11
1923.5144287063
 21
-82.0010917946
 31
0.0
  0
LINE
  5
3C7
330
1F
100
AcDbEntity
  8
0
  6
SLD-Сплошная
 62
     7
370
    25
100
AcDbLine
 10
1923.5144287063
 20
-16.6956392175
 30
0.0
 11
1923.5144287063
 21
-20.6258792579
 31
0.0
  0
LINE
  5
3C8
330
1F
100
AcDbEntity
  8
0
  6
SLD-Сплошная
 62
     7
370
    25
100
AcDbLine
 10
1922.9906251005
 20
193.5372606545
 30
0.0
 11
1923.5144287063
 21
197.5541207421
 31
0.0
  0
LINE
  5
3C9
330
1F
100
AcDbEntity
  8
0
  6
SLD-Сплошная
 62
     7
370
    25
100
AcDbLine
 10
1922.9906251005
 20
193.5372606545
 30
0.0
 11
1902.9931504957
 21
193.5372606545
 31
0.0
  0
LINE
  5
3CA
330
1F
100
AcDbEntity
  8
0
  6
SLD-Сплошная
 62
     7
370
    25
100
AcDbLine
 10
1923.5144287063
 20
197.5541207421
 30
0.0
 11
1903.5169541016
 21
197.5541207421
 31
0.0
  0
LINE
  5
3CB
330
1F
100
AcDbEntity
  8
0
  6
SLD-Сплошная
 62
     7
370
    25
100
AcDbLine
 10
1922.9906251005
 20
140.195768293
 30
0.0
 11
1922.9906251005
 21
193.5372606545
 31
0.0
  0
LINE
  5
3CC
330
1F
100
AcDbEntity
  8
0
  6
SLD-Сплошная
 62
     7
370
    25
100
AcDbLine
 10
1922.9906251005
 20
140.195768293
 30
0.0
 11
1902.9931504957
 21
140.195768293
 31
0.0
  0
LINE
  5
3CD
330
1F
100
AcDbEntity
  8
0
  6
SLD-Сплошная
 62
     7
370
    25
100
AcDbLine
 10
1923.5144287063
 20
136.1789082054
 30
0.0
 11
1922.9906251005
 21
140.195768293
 31
0.0
  0
LINE
  5
3CE
330
1F
100
AcDbEntity
  8
0
  6
SLD-Сплошная
 62
     7
370
    25
100
AcDbLine
 10
1923.5144287063
 20
136.1789082054
 30
0.0
 11
1903.5169541016
 21
136.1789082054
 31
0.0
  0
LINE
  5
3CF
330
1F
100
AcDbEntity
  8
0
  6
SLD-Сплошная
 62
     7
370
    25
100
AcDbLine
 10
1923.6314797757
 20
201.4843607825
 30
0.0
 11
1923.6314797757
 21
131.4843607825
 31
0.0
  0
LINE
  5
3D0
330
1F
100
AcDbEntity
  8
0
  6
SLD-Сплошная
 62
     7
370
    25
100
AcDbLine
 10
1923.5144287063
 20
131.4843607825
 30
0.0
 11
1923.5144287063
 21
136.1789082054
 31
0.0
  0
LINE
  5
3D1
330
1F
100
AcDbEntity
  8
0
  6
SLD-Сплошная
 62
     7
370
    25
100
AcDbLine
 10
1923.5144287063
 20
201.4843607825
 30
0.0
 11
1923.5144287063
 21
197.5541207421
 31
0.0
  0
LINE
  5
3D2
330
1F
100
AcDbEntity
  8
0
  6
SLD-Сплошная
 62
     7
370
    25
100
AcDbLine
 10
1922.9906251004
 20
410.5372606545
 30
0.0
 11
1902.9931504957
 21
410.5372606545
 31
0.0
  0
LINE
  5
3D3
330
1F
100
AcDbEntity
  8
0
  6
SLD-Сплошная
 62
     7
370
    25
100
AcDbLine
 10
1903.5169891109
 20
414.5543892161
 30
0.0
 11
1923.5144637156
 21
414.5543892161
 31
0.0
  0
LINE
  5
3D4
330
1F
100
AcDbEntity
  8
0
  6
SLD-Сплошная
 62
     7
370
    25
100
AcDbLine
 10
1922.9906251004
 20
410.5372606545
 30
0.0
 11
1923.5144637156
 21
414.5543892161
 31
0.0
  0
LINE
  5
3D5
330
1F
100
AcDbEntity
  8
0
  6
SLD-Сплошная
 62
     7
370
    25
100
AcDbLine
 10
1922.9906251004
 20
357.195768293
 30
0.0
 11
1922.9906251004
 21
410.5372606545
 31
0.0
  0
LINE
  5
3D6
330
1F
100
AcDbEntity
  8
0
  6
SLD-Сплошная
 62
     7
370
    25
100
AcDbLine
 10
1922.9906251004
 20
357.195768293
 30
0.0
 11
1902.9931504957
 21
357.195768293
 31
0.0
  0
LINE
  5
3D7
330
1F
100
AcDbEntity
  8
0
  6
SLD-Сплошная
 62
     7
370
    25
100
AcDbLine
 10
1923.5144287063
 20
353.1789082054
 30
0.0
 11
1922.9906251004
 21
357.195768293
 31
0.0
  0
LINE
  5
3D8
330
1F
100
AcDbEntity
  8
0
  6
SLD-Сплошная
 62
     7
370
    25
100
AcDbLine
 10
1923.5144287063
 20
353.1789082054
 30
0.0
 11
1903.5169541016
 21
353.1789082054
 31
0.0
  0
LINE
  5
3D9
330
1F
100
AcDbEntity
  8
0
  6
SLD-Сплошная
 62
     7
370
    25
100
AcDbLine
 10
1923.6314797757
 20
418.4843607825
 30
0.0
 11
1923.6314797757
 21
348.4843607825
 31
0.0
  0
LINE
  5
3DA
330
1F
100
AcDbEntity
  8
0
  6
SLD-Сплошная
 62
     7
370
    25
100
AcDbLine
 10
1923.5144287063
 20
348.4843607825
 30
0.0
 11
1923.5144287063
 21
353.1789082054
 31
0.0
  0
LINE
  5
3DB
330
1F
100
AcDbEntity
  8
0
  6
SLD-Сплошная
 62
     7
370
    25
100
AcDbLine
 10
1923.5144637156
 20
418.4843607825
 30
0.0
 11
1923.5144637156
 21
414.5543892161
 31
0.0
  0
LINE
  5
3DC
330
1F
100
AcDbEntity
  8
0
  6
SLD-Сплошная
 62
     7
370
    25
100
AcDbLine
 10
1923.5144834888
 20
-322.4560002688
 30
0.0
 11
1923.5144834888
 21
-303.6956392175
 31
0.0
  0
ARC
  5
3DD
330
1F
100
AcDbEntity
  8
0
  6
SLD-Сплошная
 62
     7
370
    25
100
AcDbCircle
 10
1903.5734018123
 20
-322.4560002688
 30
0.0
 40
19.94108167646971
100
AcDbArc
 50
270.0
 51
0.0
  0
LINE
  5
3DE
330
1F
100
AcDbEntity
  8
0
  6
SLD-Сплошная
 62
     7
370
    25
100
AcDbLine
 10
1340.1896673041
 20
-342.3970819453
 30
0.0
 11
1903.5734018123
 21
-342.3970819453
 31
0.0
  0
ARC
  5
3DF
330
1F
100
AcDbEntity
  8
0
  6
SLD-Сплошная
 62
     7
370
    25
100
AcDbCircle
 10
1340.1896673041
 20
-325.9560002688
 30
0.0
 40
16.44108167646982
100
AcDbArc
 50
180.0
 51
270.0
  0
LINE
  5
3E0
330
1F
100
AcDbEntity
  8
0
  6
SLD-Сплошная
 62
     7
370
    25
100
AcDbLine
 10
1323.7485856276
 20
-325.9560002688
 30
0.0
 11
1323.7485856276
 21
440.9296606613
 31
0.0
  0
ARC
  5
3E1
330
1F
100
AcDbEntity
  8
0
  6
SLD-Сплошная
 62
     7
370
    25
100
AcDbCircle
 10
1340.1896673041
 20
440.9296606613
 30
0.0
 40
16.44108167646982
100
AcDbArc
 50
90.0
 51
180.0
  0
LINE
  5
3E2
330
1F
100
AcDbEntity
  8
0
  6
SLD-Сплошная
 62
     7
370
    25
100
AcDbLine
 10
1903.5734018123
 20
457.3707423377
 30
0.0
 11
1340.1896673041
 21
457.3707423377
 31
0.0
  0
ARC
  5
3E3
330
1F
100
AcDbEntity
  8
0
  6
SLD-Сплошная
 62
     7
370
    25
100
AcDbCircle
 10
1903.5734018123
 20
437.4296606613
 30
0.0
 40
19.94108167646965
100
AcDbArc
 50
0.0
 51
90.0
  0
LINE
  5
3E4
330
1F
100
AcDbEntity
  8
0
  6
SLD-Сплошная
 62
     7
370
    25
100
AcDbLine
 10
1923.5144834888
 20
418.4843607825
 30
0.0
 11
1923.5144834888
 21
437.4296606613
 31
0.0
  0
LINE
  5
3E5
330
1F
100
AcDbEntity
  8
0
  6
SLD-Сплошная
 62
     7
370
    25
100
AcDbLine
 10
1923.6315345582
 20
418.4843607825
 30
0.0
 11
1923.6315345582
 21
437.4296606613
 31
0.0
  0
LINE
  5
3E6
330
1F
100
AcDbEntity
  8
0
  6
SLD-Сплошная
 62
     7
370
    25
100
AcDbLine
 10
1923.6315345582
 20
-322.4560002688
 30
0.0
 11
1923.6315345582
 21
-303.6956392175
 31
0.0
  0
LINE
  5
3E7
330
1F
100
AcDbEntity
  8
0
  6
SLD-Сплошная
 62
     7
370
    25
100
AcDbLine
 10
1923.5144834888
 20
348.4843607825
 30
0.0
 11
1923.5144834888
 21
201.4843607825
 31
0.0
  0
LINE
  5
3E8
330
1F
100
AcDbEntity
  8
0
  6
SLD-Сплошная
 62
     7
370
    25
100
AcDbLine
 10
1923.6315345582
 20
201.4843607825
 30
0.0
 11
1923.6315345582
 21
348.4843607825
 31
0.0
  0
LINE
  5
3E9
330
1F
100
AcDbEntity
  8
0
  6
SLD-Сплошная
 62
     7
370
    25
100
AcDbLine
 10
1923.5144834888
 20
131.4843607825
 30
0.0
 11
1923.5144834888
 21
-16.6956392175
 31
0.0
  0
LINE
  5
3EA
330
1F
100
AcDbEntity
  8
0
  6
SLD-Сплошная
 62
     7
370
    25
100
AcDbLine
 10
1923.6315345582
 20
-16.6956392175
 30
0.0
 11
1923.6315345582
 21
131.4843607825
 31
0.0
  0
LINE
  5
3EB
330
1F
100
AcDbEntity
  8
0
  6
SLD-Сплошная
 62
     7
370
    25
100
AcDbLine
 10
1923.5144834888
 20
-233.6956392175
 30
0.0
 11
1923.5144834888
 21
-86.6956392175
 31
0.0
  0
LINE
  5
3EC
330
1F
100
AcDbEntity
  8
0
  6
SLD-Сплошная
 62
     7
370
    25
100
AcDbLine
 10
1923.6315345582
 20
-233.6956392175
 30
0.0
 11
1923.6315345582
 21
-86.6956392175
 31
0.0
  0
ARC
  5
3ED
330
1F
100
AcDbEntity
  8
0
  6
SLD-Сплошная
 62
     7
370
    25
100
AcDbCircle
 10
1340.1896673041
 20
-325.9560002688
 30
0.0
 40
16.55813274588354
100
AcDbArc
 50
180.0
 51
270.0
  0
LINE
  5
3EE
330
1F
100
AcDbEntity
  8
0
  6
SLD-Сплошная
 62
     7
370
    25
100
AcDbLine
 10
1323.6315345582
 20
440.9296606613
 30
0.0
 11
1323.6315345582
 21
-325.9560002688
 31
0.0
  0
ARC
  5
3EF
330
1F
100
AcDbEntity
  8
0
  6
SLD-Сплошная
 62
     7
370
    25
100
AcDbCircle
 10
1340.1896673041
 20
440.9296606613
 30
0.0
 40
16.55813274588394
100
AcDbArc
 50
90.0
 51
180.0
  0
LINE
  5
3F0
330
1F
100
AcDbEntity
  8
0
  6
SLD-Сплошная
 62
     7
370
    25
100
AcDbLine
 10
1340.1896673041
 20
457.4877934072
 30
0.0
 11
1903.5734018123
 21
457.4877934072
 31
0.0
  0
LINE
  5
3F1
330
1F
100
AcDbEntity
  8
0
  6
SLD-Сплошная
 62
     7
370
    25
100
AcDbLine
 10
1340.1896673041
 20
-342.5141330147
 30
0.0
 11
1903.5734018123
 21
-342.5141330147
 31
0.0
  0
ARC
  5
3F2
330
1F
100
AcDbEntity
  8
0
  6
SLD-Сплошная
 62
     7
370
    25
100
AcDbCircle
 10
1903.5734018123
 20
437.4296606613
 30
0.0
 40
20.05813274588382
100
AcDbArc
 50
0.0
 51
90.0
  0
ARC
  5
3F3
330
1F
100
AcDbEntity
  8
0
  6
SLD-Сплошная
 62
     7
370
    25
100
AcDbCircle
 10
1903.5734018123
 20
-322.4560002688
 30
0.0
 40
20.05813274588354
100
AcDbArc
 50
270.0
 51
0.0
  0
SPLINE
  5
3F4
330
1F
100
AcDbEntity
  8
0
  6
SLD-Сплошная
 62
     7
370
    25
100
AcDbSpline
210
0.0
220
0.0
230
1.0
 70
     8
 71
     3
 72
     9
 73
     5
 74
     0
 42
0.00000001
 43
0.00000001
 40
0.0
 40
0.0
 40
0.0
 40
0.0
 40
0.1431037425004535
 40
0.9999999999999999
 40
0.9999999999999999
 40
0.9999999999999999
 40
0.9999999999999999
 10
1905.116378230243
 20
457.4103832066484
 30
0.0
 10
1905.030943206044
 20
457.4205759298252
 30
0.0
 10
1904.433928601768
 20
457.4918020417273
 30
0.0
 10
1903.831769435602
 20
457.4950285899885
 30
0.0
 10
1903.315781499696
 20
457.4977934071183
 30
0.0
  0
LINE
  5
3F5
330
1F
100
AcDbEntity
  8
0
  6
SLD-Сплошная
 62
     7
370
    25
100
AcDbLine
 10
1903.3157814997
 20
457.4977934071
 30
0.0
 11
1340.3557967101
 21
457.4977934071
 31
0.0
  0
LWPOLYLINE
  5
3F6
330
1F
100
AcDbEntity
  8
0
  6
SLD-Сплошная
 62
     7
370
    25
100
AcDbPolyline
 90
        3
 70
   128
 43
0.0
 10
1339.3010580875
 20
457.4639365938
 10
1339.4336608586
 20
457.4719207711
 10
1340.3557967101
 20
457.4977934071
  0
LINE
  5
3F7
330
1F
100
AcDbEntity
  8
0
  6
SLD-Сплошная
 62
     7
370
    25
100
AcDbLine
 10
1923.6427379189
 20
399.6953212686
 30
0.0
 11
1923.6427379189
 21
436.8387995024
 31
0.0
  0
LINE
  5
3F8
330
1F
100
AcDbEntity
  8
0
  6
SLD-Сплошная
 62
     7
370
    25
100
AcDbLine
 10
1923.6427379189
 20
399.6953212686
 30
0.0
 11
1923.6314797757
 21
399.6953212686
 31
0.0
  0
LINE
  5
3F9
330
1F
100
AcDbEntity
  8
0
  6
SLD-Сплошная
 62
     7
370
    25
100
AcDbLine
 10
1923.6314797757
 20
367.2944300081
 30
0.0
 11
1923.6427379189
 21
367.2944300081
 31
0.0
  0
LINE
  5
3FA
330
1F
100
AcDbEntity
  8
0
  6
SLD-Сплошная
 62
     7
370
    25
100
AcDbLine
 10
1923.6427379189
 20
182.6953212686
 30
0.0
 11
1923.6427379189
 21
367.2944300081
 31
0.0
  0
LINE
  5
3FB
330
1F
100
AcDbEntity
  8
0
  6
SLD-Сплошная
 62
     7
370
    25
100
AcDbLine
 10
1923.6427379189
 20
182.6953212686
 30
0.0
 11
1923.6314797757
 21
182.6953212686
 31
0.0
  0
LINE
  5
3FC
330
1F
100
AcDbEntity
  8
0
  6
SLD-Сплошная
 62
     7
370
    25
100
AcDbLine
 10
1923.6314797757
 20
150.2944300081
 30
0.0
 11
1923.6427379189
 21
150.2944300081
 31
0.0
  0
LINE
  5
3FD
330
1F
100
AcDbEntity
  8
0
  6
SLD-Сплошная
 62
     7
370
    25
100
AcDbLine
 10
1923.6427379189
 20
-35.5183472495
 30
0.0
 11
1923.6427379189
 21
150.2944300081
 31
0.0
  0
LINE
  5
3FE
330
1F
100
AcDbEntity
  8
0
  6
SLD-Сплошная
 62
     7
370
    25
100
AcDbLine
 10
1923.6314797757
 20
-35.5183472495
 30
0.0
 11
1923.6427379189
 21
-35.5183472495
 31
0.0
  0
LINE
  5
3FF
330
1F
100
AcDbEntity
  8
0
  6
SLD-Сплошная
 62
     7
370
    25
100
AcDbLine
 10
1923.6427379189
 20
-67.91923851
 30
0.0
 11
1923.6314797757
 21
-67.91923851
 31
0.0
  0
LINE
  5
400
330
1F
100
AcDbEntity
  8
0
  6
SLD-Сплошная
 62
     7
370
    25
100
AcDbLine
 10
1923.6427379189
 20
-67.91923851
 30
0.0
 11
1923.6427379189
 21
-252.5183472495
 31
0.0
  0
LINE
  5
401
330
1F
100
AcDbEntity
  8
0
  6
SLD-Сплошная
 62
     7
370
    25
100
AcDbLine
 10
1923.6314797758
 20
-252.5183472495
 30
0.0
 11
1923.6427379189
 21
-252.5183472495
 31
0.0
  0
LINE
  5
402
330
1F
100
AcDbEntity
  8
0
  6
SLD-Сплошная
 62
     7
370
    25
100
AcDbLine
 10
1923.6427379189
 20
-284.91923851
 30
0.0
 11
1923.6314797758
 21
-284.91923851
 31
0.0
  0
LINE
  5
403
330
1F
100
AcDbEntity
  8
0
  6
SLD-Сплошная
 62
     7
370
    25
100
AcDbLine
 10
1923.6427379189
 20
-284.91923851
 30
0.0
 11
1923.6427379189
 21
-321.7627167438
 31
0.0
  0
LINE
  5
404
330
1F
100
AcDbEntity
  8
0
  6
SLD-Сплошная
 62
     7
370
    25
100
AcDbLine
 10
1923.6427379189
 20
436.8387995024
 30
0.0
 11
1923.6315345582
 21
437.0861756156
 31
0.0
  0
LINE
  5
405
330
1F
100
AcDbEntity
  8
0
  6
SLD-Сплошная
 62
     7
370
    25
100
AcDbLine
 10
1923.6427379189
 20
-321.7627167438
 30
0.0
 11
1923.6315345582
 21
-322.010092857
 31
0.0
  0
LINE
  5
406
330
1F
100
AcDbEntity
  8
0
  6
SLD-Сплошная
 62
     7
370
    25
100
AcDbLine
 10
1923.6427379189
 20
150.2944300081
 30
0.0
 11
1923.6314797757
 21
150.3056881514
 31
0.0
  0
LINE
  5
407
330
1F
100
AcDbEntity
  8
0
  6
SLD-Сплошная
 62
     7
370
    25
100
AcDbLine
 10
1923.6427379189
 20
-284.91923851
 30
0.0
 11
1923.6314797758
 21
-284.9079803668
 31
0.0
  0
LINE
  5
408
330
1F
100
AcDbEntity
  8
0
  6
SLD-Сплошная
 62
     7
370
    25
100
AcDbLine
 10
1923.6427379189
 20
-252.5183472495
 30
0.0
 11
1923.6314797758
 21
-252.5296053927
 31
0.0
  0
LINE
  5
409
330
1F
100
AcDbEntity
  8
0
  6
SLD-Сплошная
 62
     7
370
    25
100
AcDbLine
 10
1923.6427379189
 20
-67.91923851
 30
0.0
 11
1923.6314797757
 21
-67.9079803668
 31
0.0
  0
LINE
  5
40A
330
1F
100
AcDbEntity
  8
0
  6
SLD-Сплошная
 62
     7
370
    25
100
AcDbLine
 10
1923.6427379189
 20
-35.5183472495
 30
0.0
 11
1923.6314797757
 21
-35.5296053927
 31
0.0
  0
LINE
  5
40B
330
1F
100
AcDbEntity
  8
0
  6
SLD-Сплошная
 62
     7
370
    25
100
AcDbLine
 10
1923.6427379189
 20
182.6953212686
 30
0.0
 11
1923.6314797757
 21
182.6840631254
 31
0.0
  0
LINE
  5
40C
330
1F
100
AcDbEntity
  8
0
  6
SLD-Сплошная
 62
     7
370
    25
100
AcDbLine
 10
1923.6427379189
 20
367.2944300081
 30
0.0
 11
1923.6314797757
 21
367.3056881514
 31
0.0
  0
LINE
  5
40D
330
1F
100
AcDbEntity
  8
0
  6
SLD-Сплошная
 62
     7
370
    25
100
AcDbLine
 10
1923.6427379189
 20
399.6953212686
 30
0.0
 11
1923.6314797757
 21
399.6840631254
 31
0.0
  0
LINE
  5
40E
330
1F
100
AcDbEntity
  8
0
  6
SLD-Сплошная
 62
     7
370
    25
100
AcDbLine
 10
329.1080151864
 20
779.8229764749
 30
0.0
 11
335.2046214461
 21
1012.6429764749
 31
0.0
  0
LINE
  5
40F
330
1F
100
AcDbEntity
  8
0
  6
SLD-Сплошная
 62
     7
370
    25
100
AcDbLine
 10
-241.2114984392
 20
1012.6429764749
 30
0.0
 11
-235.1148921795
 21
779.8229764749
 31
0.0
  0
LINE
  5
410
330
1F
100
AcDbEntity
  8
0
  6
SLD-Сплошная
 62
     7
370
    25
100
AcDbLine
 10
265.348330907
 20
779.8229764749
 30
0.0
 11
265.4006961018
 21
776.8229764749
 31
0.0
  0
LINE
  5
411
330
1F
100
AcDbEntity
  8
0
  6
SLD-Сплошная
 62
     7
370
    25
100
AcDbLine
 10
279.2959657122
 20
776.8229764749
 30
0.0
 11
279.348330907
 21
779.8229764749
 31
0.0
  0
LINE
  5
412
330
1F
100
AcDbEntity
  8
0
  6
SLD-Сплошная
 62
     7
370
    25
100
AcDbLine
 10
-185.3552079001
 20
779.8229764749
 30
0.0
 11
-185.3028427053
 21
776.8229764749
 31
0.0
  0
LINE
  5
413
330
1F
100
AcDbEntity
  8
0
  6
SLD-Сплошная
 62
     7
370
    25
100
AcDbLine
 10
-171.4075730949
 20
776.8229764749
 30
0.0
 11
-171.3552079001
 21
779.8229764749
 31
0.0
  0
LINE
  5
414
330
1F
100
AcDbEntity
  8
0
  6
SLD-Сплошная
 62
     7
370
    25
100
AcDbLine
 10
309.2959657122
 20
776.8229764749
 30
0.0
 11
309.348330907
 21
779.8229764749
 31
0.0
  0
LINE
  5
415
330
1F
100
AcDbEntity
  8
0
  6
SLD-Сплошная
 62
     7
370
    25
100
AcDbLine
 10
295.348330907
 20
779.8229764749
 30
0.0
 11
295.4006961018
 21
776.8229764749
 31
0.0
  0
LINE
  5
416
330
1F
100
AcDbEntity
  8
0
  6
SLD-Сплошная
 62
     7
370
    25
100
AcDbLine
 10
-215.3552079001
 20
779.8229764749
 30
0.0
 11
-215.3028427053
 21
776.8229764749
 31
0.0
  0
LINE
  5
417
330
1F
100
AcDbEntity
  8
0
  6
SLD-Сплошная
 62
     7
370
    25
100
AcDbLine
 10
-201.4075730949
 20
776.8229764749
 30
0.0
 11
-201.3552079001
 21
779.8229764749
 31
0.0
  0
LINE
  5
418
330
1F
100
AcDbEntity
  8
0
  6
SLD-Сплошная
 62
     7
370
    25
100
AcDbLine
 10
-254.3771933036
 20
1077.1129764748
 30
0.0
 11
-253.0162642607
 21
1077.1129764748
 31
0.0
  0
LINE
  5
419
330
1F
100
AcDbEntity
  8
0
  6
SLD-Сплошная
 62
     7
370
    25
100
AcDbLine
 10
-254.1684448097
 20
1033.1129764748
 30
0.0
 11
-254.3771933036
 21
1033.1129764748
 31
0.0
  0
LINE
  5
41A
330
1F
100
AcDbEntity
  8
0
  6
SLD-Сплошная
 62
     7
370
    25
100
AcDbLine
 10
-254.3771933036
 20
1077.1129764748
 30
0.0
 11
-254.3771933036
 21
1033.1129764748
 31
0.0
  0
LINE
  5
41B
330
1F
100
AcDbEntity
  8
0
  6
SLD-Сплошная
 62
     7
370
    25
100
AcDbLine
 10
-254.3771933036
 20
1030.1129764748
 30
0.0
 11
-254.3771933036
 21
1025.1411931116
 31
0.0
  0
LINE
  5
41C
330
1F
100
AcDbEntity
  8
0
  6
SLD-Сплошная
 62
     7
370
    25
100
AcDbLine
 10
-254.3771933036
 20
1024.7129764749
 30
0.0
 11
-254.3771933036
 21
1017.1129764748
 31
0.0
  0
LINE
  5
41D
330
1F
100
AcDbEntity
  8
0
  6
SLD-Сплошная
 62
     7
370
    25
100
AcDbLine
 10
-254.3771933036
 20
1030.1129764748
 30
0.0
 11
-254.2470025744
 21
1030.1129764748
 31
0.0
  0
LINE
  5
41E
330
1F
100
AcDbEntity
  8
0
  6
SLD-Сплошная
 62
     7
370
    25
100
AcDbLine
 10
-245.3771933036
 20
1024.7129764753
 30
0.0
 11
-245.3771933036
 21
1017.1129764748
 31
0.0
  0
LINE
  5
41F
330
1F
100
AcDbEntity
  8
0
  6
SLD-Сплошная
 62
     7
370
    25
100
AcDbLine
 10
-254.3771933036
 20
1033.1129764749
 30
0.0
 11
-254.3771933036
 21
1030.1129764748
 31
0.0
  0
LINE
  5
420
330
1F
100
AcDbEntity
  8
0
  6
SLD-Сплошная
 62
     7
370
    25
100
AcDbLine
 10
345.6227968098
 20
1017.1129764749
 30
0.0
 11
329.0646640639
 21
1017.1129764749
 31
0.0
  0
LINE
  5
421
330
1F
100
AcDbEntity
  8
0
  6
SLD-Сплошная
 62
     7
370
    25
100
AcDbLine
 10
345.5057457404
 20
1012.6429764749
 30
0.0
 11
345.6227968098
 21
1017.1129764749
 31
0.0
  0
LINE
  5
422
330
1F
100
AcDbEntity
  8
0
  6
SLD-Сплошная
 62
     7
370
    25
100
AcDbLine
 10
345.5057457404
 20
1012.6429764749
 30
0.0
 11
329.0646640639
 21
1012.6429764749
 31
0.0
  0
LINE
  5
423
330
1F
100
AcDbEntity
  8
0
  6
SLD-Сплошная
 62
     7
370
    25
100
AcDbLine
 10
329.0646640639
 20
1012.6429764749
 30
0.0
 11
-234.3190704443
 21
1012.6429764749
 31
0.0
  0
LINE
  5
424
330
1F
100
AcDbEntity
  8
0
  6
SLD-Сплошная
 62
     7
370
    25
100
AcDbLine
 10
329.0646640639
 20
1017.1129764749
 30
0.0
 11
-234.3190704443
 21
1017.1129764749
 31
0.0
  0
LINE
  5
425
330
1F
100
AcDbEntity
  8
0
  6
SLD-Сплошная
 62
     7
370
    25
100
AcDbLine
 10
-254.2601521208
 20
1012.6429764749
 30
0.0
 11
-254.3772031902
 21
1017.1129764749
 31
0.0
  0
LINE
  5
426
330
1F
100
AcDbEntity
  8
0
  6
SLD-Сплошная
 62
     7
370
    25
100
AcDbLine
 10
-234.3190704443
 20
1012.6429764749
 30
0.0
 11
-254.2601521208
 21
1012.6429764749
 31
0.0
  0
LINE
  5
427
330
1F
100
AcDbEntity
  8
0
  6
SLD-Сплошная
 62
     7
370
    25
100
AcDbLine
 10
-234.3190704443
 20
1017.1129764749
 30
0.0
 11
-254.3772031902
 21
1017.1129764749
 31
0.0
  0
SPLINE
  5
428
330
1F
100
AcDbEntity
  8
0
  6
SLD-Сплошная
 62
     7
370
    25
100
AcDbSpline
210
0.0
220
0.0
230
1.0
 70
     8
 71
     3
 72
    10
 73
     6
 74
     0
 42
0.00000001
 43
0.00000001
 40
0.0
 40
0.0
 40
0.0
 40
0.0
 40
0.5000000000000001
 40
0.5000000000000001
 40
1.0
 40
1.0
 40
1.0
 40
1.0
 10
311.6033666746649
 20
779.8229764748592
 30
0.0
 10
310.8233004855553
 20
818.6238562825447
 30
0.0
 10
310.1440758119081
 20
857.426715157315
 30
0.0
 10
308.8884990690401
 20
935.0338386485655
 30
0.0
 10
308.3146159246025
 20
973.8381658953026
 30
0.0
 10
307.7747682186381
 20
1012.642976474871
 30
0.0
  0
LINE
  5
429
330
1F
100
AcDbEntity
  8
0
  6
SLD-Сплошная
 62
     7
370
    25
100
AcDbLine
 10
329.1080151864
 20
779.8229764749
 30
0.0
 11
311.6033666747
 21
779.8229764749
 31
0.0
  0
SPLINE
  5
42A
330
1F
100
AcDbEntity
  8
0
  6
SLD-Сплошная
 62
     7
370
    25
100
AcDbSpline
210
0.0
220
0.0
230
1.0
 70
     8
 71
     3
 72
    10
 73
     6
 74
     0
 42
0.00000001
 43
0.00000001
 40
0.0
 40
0.0
 40
0.0
 40
0.0
 40
0.5
 40
0.5
 40
1.0
 40
1.0
 40
1.0
 40
1.0
 10
-217.6102436677694
 20
779.822976474859
 30
0.0
 10
-216.8301774786597
 20
818.6238562825447
 30
0.0
 10
-216.1509528050125
 20
857.4267151573149
 30
0.0
 10
-214.8953760621445
 20
935.0338386485655
 30
0.0
 10
-214.3214929177068
 20
973.8381658953025
 30
0.0
 10
-213.7816452117425
 20
1012.642976474871
 30
0.0
  0
LINE
  5
42B
330
1F
100
AcDbEntity
  8
0
  6
SLD-Сплошная
 62
     7
370
    25
100
AcDbLine
 10
-217.6102436678
 20
779.8229764749
 30
0.0
 11
-235.1148921795
 21
779.8229764749
 31
0.0
  0
LINE
  5
42C
330
1F
100
AcDbEntity
  8
0
  6
SLD-Сплошная
 62
     7
370
    25
100
AcDbLine
 10
339.1194883141
 20
1018.3729764749
 30
0.0
 11
339.1414816959
 21
1017.1129764749
 31
0.0
  0
LINE
  5
42D
330
1F
100
AcDbEntity
  8
0
  6
SLD-Сплошная
 62
     7
370
    25
100
AcDbLine
 10
-234.6483586891
 20
1017.1129764749
 30
0.0
 11
-234.6263653072
 21
1018.3729764749
 31
0.0
  0
LINE
  5
42E
330
1F
100
AcDbEntity
  8
0
  6
SLD-Сплошная
 62
     7
370
    25
100
AcDbLine
 10
311.6033666747
 20
779.8229764749
 30
0.0
 11
-217.6102436678
 21
779.8229764749
 31
0.0
  0
LINE
  5
42F
330
1F
100
AcDbEntity
  8
0
  6
SLD-Сплошная
 62
     7
370
    25
100
AcDbLine
 10
256.7959657122
 20
776.8229764749
 30
0.0
 11
254.858330907
 21
776.8229764749
 31
0.0
  0
LINE
  5
430
330
1F
100
AcDbEntity
  8
0
  6
SLD-Сплошная
 62
     7
370
    25
100
AcDbLine
 10
256.7959657122
 20
776.8229764749
 30
0.0
 11
256.848330907
 21
779.8229764749
 31
0.0
  0
LINE
  5
431
330
1F
100
AcDbEntity
  8
0
  6
SLD-Сплошная
 62
     7
370
    25
100
AcDbLine
 10
254.858330907
 20
776.8229764749
 30
0.0
 11
254.838330907
 21
776.8229764749
 31
0.0
  0
LINE
  5
432
330
1F
100
AcDbEntity
  8
0
  6
SLD-Сплошная
 62
     7
370
    25
100
AcDbLine
 10
254.838330907
 20
776.8229764749
 30
0.0
 11
252.9006961018
 21
776.8229764749
 31
0.0
  0
LINE
  5
433
330
1F
100
AcDbEntity
  8
0
  6
SLD-Сплошная
 62
     7
370
    25
100
AcDbLine
 10
252.9006961018
 20
776.8229764749
 30
0.0
 11
252.848330907
 21
779.8229764749
 31
0.0
  0
LINE
  5
434
330
1F
100
AcDbEntity
  8
0
  6
SLD-Сплошная
 62
     7
370
    25
100
AcDbLine
 10
-160.8652079001
 20
776.8229764749
 30
0.0
 11
-160.8452079001
 21
776.8229764749
 31
0.0
  0
LINE
  5
435
330
1F
100
AcDbEntity
  8
0
  6
SLD-Сплошная
 62
     7
370
    25
100
AcDbLine
 10
-160.8452079001
 20
776.8229764749
 30
0.0
 11
-158.9075730949
 21
776.8229764749
 31
0.0
  0
LINE
  5
436
330
1F
100
AcDbEntity
  8
0
  6
SLD-Сплошная
 62
     7
370
    25
100
AcDbLine
 10
-158.9075730949
 20
776.8229764749
 30
0.0
 11
-158.8552079001
 21
779.8229764749
 31
0.0
  0
LINE
  5
437
330
1F
100
AcDbEntity
  8
0
  6
SLD-Сплошная
 62
     7
370
    25
100
AcDbLine
 10
-162.8028427053
 20
776.8229764749
 30
0.0
 11
-160.8652079001
 21
776.8229764749
 31
0.0
  0
LINE
  5
438
330
1F
100
AcDbEntity
  8
0
  6
SLD-Сплошная
 62
     7
370
    25
100
AcDbLine
 10
-162.8028427053
 20
776.8229764749
 30
0.0
 11
-162.8552079001
 21
779.8229764749
 31
0.0
  0
LINE
  5
439
330
1F
100
AcDbEntity
  8
0
  6
SLD-Сплошная
 62
     7
370
    25
100
AcDbLine
 10
265.4006961018
 20
776.8229764749
 30
0.0
 11
272.348330907
 21
776.8229764749
 31
0.0
  0
LINE
  5
43A
330
1F
100
AcDbEntity
  8
0
  6
SLD-Сплошная
 62
     7
370
    25
100
AcDbLine
 10
272.348330907
 20
776.8229764749
 30
0.0
 11
279.2959657122
 21
776.8229764749
 31
0.0
  0
LINE
  5
43B
330
1F
100
AcDbEntity
  8
0
  6
SLD-Сплошная
 62
     7
370
    25
100
AcDbLine
 10
-178.3552079001
 20
776.8229764749
 30
0.0
 11
-185.3028427053
 21
776.8229764749
 31
0.0
  0
LINE
  5
43C
330
1F
100
AcDbEntity
  8
0
  6
SLD-Сплошная
 62
     7
370
    25
100
AcDbLine
 10
-171.4075730949
 20
776.8229764749
 30
0.0
 11
-178.3552079001
 21
776.8229764749
 31
0.0
  0
LINE
  5
43D
330
1F
100
AcDbEntity
  8
0
  6
SLD-Сплошная
 62
     7
370
    25
100
AcDbLine
 10
-253.7362937325
 20
992.6397237934
 30
0.0
 11
-240.6876948334
 21
992.6397237934
 31
0.0
  0
LINE
  5
43E
330
1F
100
AcDbEntity
  8
0
  6
SLD-Сплошная
 62
     7
370
    25
100
AcDbLine
 10
-254.2600973383
 20
1012.6429764749
 30
0.0
 11
-253.7362937325
 21
992.6397237934
 31
0.0
  0
LINE
  5
43F
330
1F
100
AcDbEntity
  8
0
  6
SLD-Сплошная
 62
     7
370
    25
100
AcDbLine
 10
286.7959657122
 20
776.8229764749
 30
0.0
 11
286.848330907
 21
779.8229764749
 31
0.0
  0
LINE
  5
440
330
1F
100
AcDbEntity
  8
0
  6
SLD-Сплошная
 62
     7
370
    25
100
AcDbLine
 10
256.7959657122
 20
776.8229764749
 30
0.0
 11
265.4006961018
 21
776.8229764749
 31
0.0
  0
LINE
  5
441
330
1F
100
AcDbEntity
  8
0
  6
SLD-Сплошная
 62
     7
370
    25
100
AcDbLine
 10
279.2959657122
 20
776.8229764749
 30
0.0
 11
286.7959657122
 21
776.8229764749
 31
0.0
  0
LINE
  5
442
330
1F
100
AcDbEntity
  8
0
  6
SLD-Сплошная
 62
     7
370
    25
100
AcDbLine
 10
-192.8028427053
 20
776.8229764749
 30
0.0
 11
-192.8552079001
 21
779.8229764749
 31
0.0
  0
LINE
  5
443
330
1F
100
AcDbEntity
  8
0
  6
SLD-Сплошная
 62
     7
370
    25
100
AcDbLine
 10
-162.8028427053
 20
776.8229764749
 30
0.0
 11
-171.4075730949
 21
776.8229764749
 31
0.0
  0
LINE
  5
444
330
1F
100
AcDbEntity
  8
0
  6
SLD-Сплошная
 62
     7
370
    25
100
AcDbLine
 10
-185.3028427053
 20
776.8229764749
 30
0.0
 11
-192.8028427053
 21
776.8229764749
 31
0.0
  0
LINE
  5
445
330
1F
100
AcDbEntity
  8
0
  6
SLD-Сплошная
 62
     7
370
    25
100
AcDbLine
 10
337.9362019463
 20
990.8929764749
 30
0.0
 11
334.635077652
 21
990.8929764749
 31
0.0
  0
LINE
  5
446
330
1F
100
AcDbEntity
  8
0
  6
SLD-Сплошная
 62
     7
370
    25
100
AcDbLine
 10
338.5057457404
 20
1012.6429764749
 30
0.0
 11
337.9362019463
 21
990.8929764749
 31
0.0
  0
LINE
  5
447
330
1F
100
AcDbEntity
  8
0
  6
SLD-Сплошная
 62
     7
370
    25
100
AcDbLine
 10
302.348330907
 20
776.8229764749
 30
0.0
 11
309.2959657122
 21
776.8229764749
 31
0.0
  0
LINE
  5
448
330
1F
100
AcDbEntity
  8
0
  6
SLD-Сплошная
 62
     7
370
    25
100
AcDbLine
 10
295.4006961018
 20
776.8229764749
 30
0.0
 11
302.348330907
 21
776.8229764749
 31
0.0
  0
LINE
  5
449
330
1F
100
AcDbEntity
  8
0
  6
SLD-Сплошная
 62
     7
370
    25
100
AcDbLine
 10
-208.3552079001
 20
776.8229764749
 30
0.0
 11
-215.3028427053
 21
776.8229764749
 31
0.0
  0
LINE
  5
44A
330
1F
100
AcDbEntity
  8
0
  6
SLD-Сплошная
 62
     7
370
    25
100
AcDbLine
 10
-201.4075730949
 20
776.8229764749
 30
0.0
 11
-208.3552079001
 21
776.8229764749
 31
0.0
  0
LINE
  5
44B
330
1F
100
AcDbEntity
  8
0
  6
SLD-Сплошная
 62
     7
370
    25
100
AcDbLine
 10
312.7959657122
 20
776.8229764749
 30
0.0
 11
312.848330907
 21
779.8229764749
 31
0.0
  0
LINE
  5
44C
330
1F
100
AcDbEntity
  8
0
  6
SLD-Сплошная
 62
     7
370
    25
100
AcDbLine
 10
310.858330907
 20
776.8229764749
 30
0.0
 11
312.7959657122
 21
776.8229764749
 31
0.0
  0
LINE
  5
44D
330
1F
100
AcDbEntity
  8
0
  6
SLD-Сплошная
 62
     7
370
    25
100
AcDbLine
 10
286.7959657122
 20
776.8229764749
 30
0.0
 11
295.4006961018
 21
776.8229764749
 31
0.0
  0
LINE
  5
44E
330
1F
100
AcDbEntity
  8
0
  6
SLD-Сплошная
 62
     7
370
    25
100
AcDbLine
 10
309.2959657122
 20
776.8229764749
 30
0.0
 11
310.858330907
 21
776.8229764749
 31
0.0
  0
LINE
  5
44F
330
1F
100
AcDbEntity
  8
0
  6
SLD-Сплошная
 62
     7
370
    25
100
AcDbLine
 10
252.9006961018
 20
776.8229764749
 30
0.0
 11
-158.9075730949
 21
776.8229764749
 31
0.0
  0
LINE
  5
450
330
1F
100
AcDbEntity
  8
0
  6
SLD-Сплошная
 62
     7
370
    25
100
AcDbLine
 10
-192.8028427053
 20
776.8229764749
 30
0.0
 11
-201.4075730949
 21
776.8229764749
 31
0.0
  0
LINE
  5
451
330
1F
100
AcDbEntity
  8
0
  6
SLD-Сплошная
 62
     7
370
    25
100
AcDbLine
 10
-215.3028427053
 20
776.8229764749
 30
0.0
 11
-216.8652079001
 21
776.8229764749
 31
0.0
  0
LINE
  5
452
330
1F
100
AcDbEntity
  8
0
  6
SLD-Сплошная
 62
     7
370
    25
100
AcDbLine
 10
-218.8028427053
 20
776.8229764749
 30
0.0
 11
-218.8552079001
 21
779.8229764749
 31
0.0
  0
LINE
  5
453
330
1F
100
AcDbEntity
  8
0
  6
SLD-Сплошная
 62
     7
370
    25
100
AcDbLine
 10
-216.8652079001
 20
776.8229764749
 30
0.0
 11
-218.8028427053
 21
776.8229764749
 31
0.0
  0
LINE
  5
454
330
1F
100
AcDbEntity
  8
0
  6
SLD-Сплошная
 62
     7
370
    25
100
AcDbLine
 10
331.4448480325
 20
1040.0812665369
 30
0.0
 11
344.9150497413
 21
1034.7752129752
 31
0.0
  0
LINE
  5
455
330
1F
100
AcDbEntity
  8
0
  6
SLD-Сплошная
 62
     7
370
    25
100
AcDbLine
 10
344.9150518185
 20
1034.7751336495
 30
0.0
 11
344.9150497413
 21
1034.7752129752
 31
0.0
  0
SPLINE
  5
456
330
1F
100
AcDbEntity
  8
0
  6
SLD-Сплошная
 62
     7
370
    25
100
AcDbSpline
210
0.0
220
0.0
230
1.0
 70
     8
 71
     3
 72
    30
 73
    26
 74
     0
 42
0.00000001
 43
0.00000001
 40
0.0
 40
0.0
 40
0.0
 40
0.0
 40
0.1250000000000006
 40
0.1250000000000006
 40
0.1875000000000025
 40
0.1875000000000025
 40
0.2500000000000044
 40
0.2500000000000044
 40
0.3125000000000063
 40
0.3125000000000063
 40
0.3750000000000082
 40
0.3750000000000082
 40
0.500000000000011
 40
0.500000000000011
 40
0.5625000000000101
 40
0.5625000000000101
 40
0.6250000000000091
 40
0.6250000000000091
 40
0.7500000000000056
 40
0.7500000000000056
 40
0.8125000000000043
 40
0.8125000000000043
 40
0.8750000000000032
 40
0.8750000000000032
 40
1.0
 40
1.0
 40
1.0
 40
1.0
 10
344.9150518185174
 20
1034.775133649457
 30
0.0
 10
344.9150914805621
 20
1034.773619017079
 30
0.0
 10
344.8131728823413
 20
1034.79083534663
 30
0.0
 10
344.5031278249706
 20
1034.828378553558
 30
0.0
 10
344.3742769207705
 20
1034.842755411902
 30
0.0
 10
344.0693317082309
 20
1034.872472707308
 30
0.0
 10
343.8929406370576
 20
1034.887854748098
 30
0.0
 10
343.4927528220636
 20
1034.917632790646
 30
0.0
 10
343.2689571439364
 20
1034.932032510129
 30
0.0
 10
342.7729920556782
 20
1034.958178449549
 30
0.0
 10
342.4994915690282
 20
1034.969945292873
 30
0.0
 10
341.6227522778289
 20
1034.998660946218
 30
0.0
 10
340.9599970332599
 20
1035.009147073012
 30
0.0
 10
339.8498039037498
 20
1035.009150936752
 30
0.0
 10
339.4592522228842
 20
1035.006560495474
 30
0.0
 10
338.6419913174987
 20
1034.996331568895
 30
0.0
 10
338.2201302874433
 20
1034.988768376527
 30
0.0
 10
336.9161236226832
 20
1034.960058068192
 30
0.0
 10
335.9959271702872
 20
1034.932691446973
 30
0.0
 10
334.5374780173206
 20
1034.88764380306
 30
0.0
 10
334.0378488395721
 20
1034.872007226902
 30
0.0
 10
333.0349226936475
 20
1034.842280009817
 30
0.0
 10
332.5288281727889
 20
1034.828100310955
 30
0.0
 10
330.9968292419325
 20
1034.791123137729
 30
0.0
 10
329.9550783784785
 20
1034.773603797638
 30
0.0
 10
328.8985346578961
 20
1034.775133649455
 30
0.0
  0
ELLIPSE
  5
457
330
1F
100
AcDbEntity
  8
0
  6
SLD-Сплошная
 62
     7
370
    25
100
AcDbEllipse
 10
346.1663041168
 20
986.9917361864
 30
0.0
 11
60.2021167190813
 21
-25.25895805883101
 31
0.0
210
0.0
220
0.0
230
1.0
 40
0.673757511
 41
2.125939741428063
 42
2.127761887993752
  0
ELLIPSE
  5
458
330
1F
100
AcDbEntity
  8
0
  6
SLD-Сплошная
 62
     7
370
    25
100
AcDbEllipse
 10
332.8429217342
 20
992.2399560775
 30
0.0
 11
60.20211671908122
 21
-25.25895805883101
 31
0.0
210
0.0
220
0.0
230
0.9999999999999999
 40
0.673757511
 41
2.11139282236677
 42
2.127761887993755
  0
SPLINE
  5
459
330
1F
100
AcDbEntity
  8
0
  6
SLD-Сплошная
 62
     7
370
    25
100
AcDbSpline
210
0.0
220
0.0
230
1.0
 70
     8
 71
     3
 72
    30
 73
    26
 74
     0
 42
0.00000001
 43
0.00000001
 40
0.0
 40
0.0
 40
0.0
 40
0.0
 40
0.125000000000011
 40
0.125000000000011
 40
0.1875000000000127
 40
0.1875000000000127
 40
0.2500000000000144
 40
0.2500000000000144
 40
0.3750000000000164
 40
0.3750000000000164
 40
0.4375000000000164
 40
0.4375000000000164
 40
0.5000000000000164
 40
0.5000000000000164
 40
0.6250000000000114
 40
0.6250000000000114
 40
0.687500000000009
 40
0.687500000000009
 40
0.7500000000000064
 40
0.7500000000000064
 40
0.812500000000004
 40
0.812500000000004
 40
0.8750000000000016
 40
0.8750000000000016
 40
1.0
 40
1.0
 40
1.0
 40
1.0
 10
316.4516702166235
 20
1040.017031306159
 30
0.0
 10
317.4427524902547
 20
1040.004192388792
 30
0.0
 10
318.4170900346194
 20
1040.009786559205
 30
0.0
 10
319.8546649246016
 20
1040.030191607198
 30
0.0
 10
320.3298380767074
 20
1040.039055712914
 30
0.0
 10
321.2719895385117
 20
1040.058851158401
 30
0.0
 10
321.740058114831
 20
1040.069813820809
 30
0.0
 10
323.1014969529546
 20
1040.102340333787
 30
0.0
 10
323.9625706476462
 20
1040.12356697511
 30
0.0
 10
325.1851334777583
 20
1040.147176123477
 30
0.0
 10
325.5826201672443
 20
1040.153737368237
 30
0.0
 10
326.3462711329203
 20
1040.163338833875
 30
0.0
 10
326.7097708499985
 20
1040.166356935945
 30
0.0
 10
327.746963316276
 20
1040.169907382041
 30
0.0
 10
328.3678617431634
 20
1040.164766987382
 30
0.0
 10
329.1905498872361
 20
1040.148182897824
 30
0.0
 10
329.4457000405747
 20
1040.141216810871
 30
0.0
 10
329.9083117231514
 20
1040.125805559021
 30
0.0
 10
330.1173268212893
 20
1040.117331826645
 30
0.0
 10
330.4913679029232
 20
1040.100319262354
 30
0.0
 10
330.6563940169926
 20
1040.09177711399
 30
0.0
 10
330.9417650442114
 20
1040.076446064221
 30
0.0
 10
331.0625877520995
 20
1040.069631010253
 30
0.0
 10
331.3508833063012
 20
1040.0554472312
 30
0.0
 10
331.4455574486766
 20
1040.054175027746
 30
0.0
 10
331.4451287042599
 20
1040.070548116453
 30
0.0
  0
LINE
  5
45A
330
1F
100
AcDbEntity
  8
0
  6
SLD-Сплошная
 62
     7
370
    25
100
AcDbLine
 10
345.3445574199
 20
1018.3729764749
 30
0.0
 11
328.8985346579
 21
1018.3729764749
 31
0.0
  0
LINE
  5
45B
330
1F
100
AcDbEntity
  8
0
  6
SLD-Сплошная
 62
     7
370
    25
100
AcDbLine
 10
344.9150518185
 20
1034.7751336495
 30
0.0
 11
345.3445574199
 21
1018.3729764749
 31
0.0
  0
SPLINE
  5
45C
330
1F
100
AcDbEntity
  8
0
  6
SLD-Сплошная
 62
     7
370
    25
100
AcDbSpline
210
0.0
220
0.0
230
1.0
 70
     8
 71
     3
 72
    30
 73
    26
 74
     0
 42
0.00000001
 43
0.00000001
 40
0.0
 40
0.0
 40
0.0
 40
0.0
 40
0.1250000000000037
 40
0.1250000000000037
 40
0.1875000000000039
 40
0.1875000000000039
 40
0.2500000000000041
 40
0.2500000000000041
 40
0.3750000000000062
 40
0.3750000000000062
 40
0.4375000000000062
 40
0.4375000000000062
 40
0.5000000000000061
 40
0.5000000000000061
 40
0.6250000000000061
 40
0.6250000000000061
 40
0.7500000000000061
 40
0.7500000000000061
 40
0.8125000000000046
 40
0.8125000000000046
 40
0.8750000000000031
 40
0.8750000000000031
 40
0.9375000000000016
 40
0.9375000000000016
 40
1.0
 40
1.0
 40
1.0
 40
1.0
 10
-237.6053304055232
 20
1034.930229838477
 30
0.0
 10
-238.5896868608077
 20
1035.007866413837
 30
0.0
 10
-239.5540496675762
 20
1035.086117009204
 30
0.0
 10
-240.9713682320314
 20
1035.195288895599
 30
0.0
 10
-241.4389144644643
 20
1035.230334473785
 30
0.0
 10
-242.3640746385582
 20
1035.296410242684
 30
0.0
 10
-242.820666569087
 20
1035.327346412955
 30
0.0
 10
-244.1533419005181
 20
1035.411075456592
 30
0.0
 10
-244.9999399962533
 20
1035.455273065715
 30
0.0
 10
-246.2082771413946
 20
1035.500340725019
 30
0.0
 10
-246.600752583424
 20
1035.511841564706
 30
0.0
 10
-247.3647729383186
 20
1035.527333325267
 30
0.0
 10
-247.7374117339774
 20
1035.531322264602
 30
0.0
 10
-248.8153493849471
 20
1035.531474374499
 30
0.0
 10
-249.4727195325297
 20
1035.515878828861
 30
0.0
 10
-250.6695287121657
 20
1035.456279600031
 30
0.0
 10
-251.2089626826496
 20
1035.41225499717
 30
0.0
 10
-251.9271478078823
 20
1035.328456412928
 30
0.0
 10
-252.1513823637269
 20
1035.297525352448
 30
0.0
 10
-252.5625079300085
 20
1035.231698055881
 30
0.0
 10
-252.7503461234178
 20
1035.196705298707
 30
0.0
 10
-253.0909907743087
 20
1035.123843917134
 30
0.0
 10
-253.2437970165792
 20
1035.08597348322
 30
0.0
 10
-253.5141970432068
 20
1035.008782800935
 30
0.0
 10
-253.6320701063997
 20
1034.969350771776
 30
0.0
 10
-253.7313843813915
 20
1034.930229838478
 30
0.0
  0
ELLIPSE
  5
45D
330
1F
100
AcDbEntity
  8
0
  6
SLD-Сплошная
 62
     7
370
    25
100
AcDbEllipse
 10
-233.404157619
 20
1042.9373374004
 30
0.0
 11
20.50824267032701
 21
0.1077155846114692
 31
0.0
210
0.0
220
0.0
230
1.0
 40
0.3979577268
 41
4.503985836660422
 42
4.699191593787036
  0
SPLINE
  5
45E
330
1F
100
AcDbEntity
  8
0
  6
SLD-Сплошная
 62
     7
370
    25
100
AcDbSpline
210
0.0
220
0.0
230
1.0
 70
    24
 71
     3
 72
    10
 73
     6
 74
     0
 42
0.00000001
 43
0.00000001
 40
0.0
 40
0.0
 40
0.0
 40
0.0
 40
0.5
 40
0.5
 40
1.0
 40
1.0
 40
1.0
 40
1.0
 10
-244.2055878039148
 20
1018.372976474858
 30
0.0
 10
-242.685504778646
 20
1018.372976474858
 30
0.0
 10
-241.0271337202773
 20
1018.372976474858
 30
0.0
 10
-237.5884661955484
 20
1018.372976474858
 30
0.0
 10
-235.8100785639653
 20
1018.372976474858
 30
0.0
 10
-234.0614501316565
 20
1018.372976474858
 30
0.0
  0
LINE
  5
45F
330
1F
100
AcDbEntity
  8
0
  6
SLD-Сплошная
 62
     7
370
    25
100
AcDbLine
 10
-244.2055878039
 20
1018.3729764749
 30
0.0
 11
-244.0395690612
 21
1024.7129764749
 31
0.0
  0
LINE
  5
460
330
1F
100
AcDbEntity
  8
0
  6
SLD-Сплошная
 62
     7
370
    25
100
AcDbLine
 10
-254.1211540282
 20
1024.7129764749
 30
0.0
 11
-244.0395690612
 21
1024.7129764749
 31
0.0
  0
SPLINE
  5
461
330
1F
100
AcDbEntity
  8
0
  6
SLD-Сплошная
 62
     7
370
    25
100
AcDbSpline
210
0.0
220
0.0
230
1.0
 70
    24
 71
     3
 72
     8
 73
     4
 74
     0
 42
0.00000001
 43
0.00000001
 40
0.0
 40
0.0
 40
0.0
 40
0.0
 40
1.0
 40
1.0
 40
1.0
 40
1.0
 10
-254.388406550907
 20
1024.712976474859
 30
0.0
 10
-254.3884065509066
 20
1024.712976474859
 30
0.0
 10
-254.2987409447237
 20
1024.712976474859
 30
0.0
 10
-254.1211540281645
 20
1024.712976474847
 30
0.0
  0
LINE
  5
462
330
1F
100
AcDbEntity
  8
0
  6
SLD-Сплошная
 62
     7
370
    25
100
AcDbLine
 10
-254.1249176151
 20
1034.7752129752
 30
0.0
 11
-254.3884065509
 21
1024.7129764749
 31
0.0
  0
LINE
  5
463
330
1F
100
AcDbEntity
  8
0
  6
SLD-Сплошная
 62
     7
370
    25
100
AcDbLine
 10
-254.1249176151
 20
1034.7752129752
 30
0.0
 11
-253.7313843814
 21
1034.9302298385
 31
0.0
  0
SPLINE
  5
464
330
1F
100
AcDbEntity
  8
0
  6
SLD-Сплошная
 62
     7
370
    25
100
AcDbSpline
210
0.0
220
0.0
230
1.0
 70
     8
 71
     3
 72
    16
 73
    12
 74
     0
 42
0.00000001
 43
0.00000001
 40
0.0
 40
0.0
 40
0.0
 40
0.0
 40
0.2500000000000026
 40
0.2500000000000026
 40
0.3750000000000039
 40
0.3750000000000039
 40
0.5000000000000052
 40
0.5000000000000052
 40
0.7500000000000026
 40
0.7500000000000026
 40
1.0
 40
1.0
 40
1.0
 40
1.0
 10
-227.4534292416003
 20
1043.992463515186
 30
0.0
 10
-227.4588633947929
 20
1043.784941577176
 30
0.0
 10
-227.3299691129278
 20
1043.586443645287
 30
0.0
 10
-226.9430093404951
 20
1043.278938883105
 30
0.0
 10
-226.781348920943
 20
1043.174789360812
 30
0.0
 10
-226.3912286034213
 20
1042.959946607276
 30
0.0
 10
-226.1663508125569
 20
1042.851181262526
 30
0.0
 10
-225.4063332103044
 20
1042.516647303043
 30
0.0
 10
-224.7859605418678
 20
1042.28217983663
 30
0.0
 10
-223.3187330755829
 20
1041.775292858895
 30
0.0
 10
-222.4982524474206
 20
1041.511808943448
 30
0.0
 10
-221.5949754038777
 20
1041.23687639194
 30
0.0
  0
LINE
  5
465
330
1F
100
AcDbEntity
  8
0
  6
SLD-Сплошная
 62
     7
370
    25
100
AcDbLine
 10
-227.4193256957
 20
1045.2948253898
 30
0.0
 11
-253.7313843814
 21
1034.9302298385
 31
0.0
  0
LINE
  5
466
330
1F
100
AcDbEntity
  8
0
  6
SLD-Сплошная
 62
     7
370
    25
100
AcDbLine
 10
-234.0614501317
 20
1018.3729764749
 30
0.0
 11
328.8985346579
 21
1018.3729764749
 31
0.0
  0
LINE
  5
467
330
1F
100
AcDbEntity
  8
0
  6
SLD-Сплошная
 62
     7
370
    25
100
AcDbLine
 10
-233.6319424531
 20
1034.7752129752
 30
0.0
 11
328.7889957654
 21
1034.7752129752
 31
0.0
  0
LINE
  5
468
330
1F
100
AcDbEntity
  8
0
  6
SLD-Сплошная
 62
     7
370
    25
100
AcDbLine
 10
-212.5625020922
 20
1040.0234328663
 30
0.0
 11
315.4656133828
 21
1040.0234328663
 31
0.0
  0
ELLIPSE
  5
469
330
1F
100
AcDbEntity
  8
0
  6
SLD-Сплошная
 62
     7
370
    25
100
AcDbEllipse
 10
-212.3958302624
 20
1045.9957190311
 30
0.0
 11
15.00603122219045
 21
0.07881628142285992
 31
0.0
210
0.0
220
0.0
230
1.0
 40
0.3979577268
 41
4.0504106016551
 42
4.699191593787053
  0
SPLINE
  5
46A
330
1F
100
AcDbEntity
  8
0
  6
SLD-Сплошная
 62
     7
370
    25
100
AcDbSpline
210
0.0
220
0.0
230
1.0
 70
     8
 71
     3
 72
    30
 73
    26
 74
     0
 42
0.00000001
 43
0.00000001
 40
0.0
 40
0.0
 40
0.0
 40
0.0
 40
0.1249999999999964
 40
0.1249999999999964
 40
0.1874999999999921
 40
0.1874999999999921
 40
0.2499999999999878
 40
0.2499999999999878
 40
0.3749999999999853
 40
0.3749999999999853
 40
0.4374999999999855
 40
0.4374999999999855
 40
0.4999999999999857
 40
0.4999999999999857
 40
0.624999999999986
 40
0.624999999999986
 40
0.6874999999999872
 40
0.6874999999999872
 40
0.7499999999999883
 40
0.7499999999999883
 40
0.8124999999999896
 40
0.8124999999999896
 40
0.8749999999999908
 40
0.8749999999999908
 40
1.0
 40
1.0
 40
1.0
 40
1.0
 10
329.3923890194852
 20
1118.4615140159
 30
0.0
 10
329.3928547440551
 20
1118.443728712125
 30
0.0
 10
329.2958755348111
 20
1118.444592790736
 30
0.0
 10
329.0103113182034
 20
1118.458258721538
 30
0.0
 10
328.8916024007078
 20
1118.464935634814
 30
0.0
 10
328.6061041023425
 20
1118.480480242468
 30
0.0
 10
328.4385615922649
 20
1118.489375578801
 30
0.0
 10
327.8741525394172
 20
1118.516022427072
 30
0.0
 10
327.4136484511373
 20
1118.533709107357
 30
0.0
 10
326.5977045815423
 20
1118.552555804811
 30
0.0
 10
326.3034400047032
 20
1118.557615422966
 30
0.0
 10
325.6770420702343
 20
1118.564427413642
 30
0.0
 10
325.3474533800004
 20
1118.566165635945
 30
0.0
 10
324.3110214088929
 20
1118.566201281778
 30
0.0
 10
323.5569701306178
 20
1118.559148323806
 30
0.0
 10
322.3287687833223
 20
1118.540313073462
 30
0.0
 10
321.9035931801907
 20
1118.532700815093
 30
0.0
 10
321.0392425048021
 20
1118.516223141798
 30
0.0
 10
320.5978364062761
 20
1118.507324756686
 30
0.0
 10
319.696787198391
 20
1118.489668910928
 30
0.0
 10
319.2371441782408
 20
1118.480908160582
 30
0.0
 10
318.299307734309
 20
1118.465340576225
 30
0.0
 10
317.8188741532813
 20
1118.458511510764
 30
0.0
 10
316.3665958284559
 20
1118.444547873279
 30
0.0
 10
315.3875398779563
 20
1118.443730209588
 30
0.0
 10
314.3975291448521
 20
1118.461514015862
 30
0.0
  0
LINE
  5
46B
330
1F
100
AcDbEntity
  8
0
  6
SLD-Сплошная
 62
     7
370
    25
100
AcDbLine
 10
331.4451287043
 20
1040.0705481165
 30
0.0
 11
329.3923890195
 21
1118.4615140159
 31
0.0
  0
ELLIPSE
  5
46C
330
1F
100
AcDbEntity
  8
0
  6
SLD-Сплошная
 62
     7
370
    25
100
AcDbEllipse
 10
-226.7633530159
 20
1070.5735380971
 30
0.0
 11
60.1558607460166
 21
25.62785061706882
 31
0.0
210
0.0
220
0.0
230
0.9999999999999999
 40
0.672717197
 41
1.006258820853759
 42
1.028915558479042
  0
LINE
  5
46D
330
1F
100
AcDbEntity
  8
0
  6
SLD-Сплошная
 62
     7
370
    25
100
AcDbLine
 10
-209.1436800315
 20
1118.4738116108
 30
0.0
 11
313.032681336
 21
1118.4738116108
 31
0.0
  0
ELLIPSE
  5
46E
330
1F
100
AcDbEntity
  8
0
  6
SLD-Сплошная
 62
     7
370
    25
100
AcDbEllipse
 10
330.6463798011
 20
1070.5735380971
 30
0.0
 11
60.14328346345899
 21
-25.6311751303806
 31
0.0
210
0.0
220
0.0
230
1.0
 40
0.6728228677
 41
2.11275570084856
 42
2.135415986771138
  0
LINE
  5
46F
330
1F
100
AcDbEntity
  8
0
  6
SLD-Сплошная
 62
     7
370
    25
100
AcDbLine
 10
-225.5033863515
 20
1118.4615970521
 30
0.0
 11
-227.4534292416
 21
1043.9924635152
 31
0.0
  0
SPLINE
  5
470
330
1F
100
AcDbEntity
  8
0
  6
SLD-Сплошная
 62
     7
370
    25
100
AcDbSpline
210
0.0
220
0.0
230
1.0
 70
     8
 71
     3
 72
    30
 73
    26
 74
     0
 42
0.00000001
 43
0.00000001
 40
0.0
 40
0.0
 40
0.0
 40
0.0
 40
0.1249999999999948
 40
0.1249999999999948
 40
0.1874999999999943
 40
0.1874999999999943
 40
0.2499999999999938
 40
0.2499999999999938
 40
0.3749999999999927
 40
0.3749999999999927
 40
0.4374999999999922
 40
0.4374999999999922
 40
0.4999999999999917
 40
0.4999999999999917
 40
0.6249999999999931
 40
0.6249999999999931
 40
0.6874999999999949
 40
0.6874999999999949
 40
0.7499999999999966
 40
0.7499999999999966
 40
0.8124999999999983
 40
0.8124999999999983
 40
0.8750000000000001
 40
0.8750000000000001
 40
1.0
 40
1.0
 40
1.0
 40
1.0
 10
-210.5085285503887
 20
1118.461517866673
 30
0.0
 10
-211.4986226690787
 20
1118.443738143182
 30
0.0
 10
-212.4721109614005
 20
1118.444613747266
 30
0.0
 10
-213.9085327470106
 20
1118.458303948757
 30
0.0
 10
-214.3833422029565
 20
1118.464990110147
 30
0.0
 10
-215.3247983566143
 20
1118.480555124806
 30
0.0
 10
-215.7925640319282
 20
1118.48946165566
 30
0.0
 10
-217.1532005101819
 20
1118.51614341151
 30
0.0
 10
-218.0138231625183
 20
1118.533855351357
 30
0.0
 10
-219.2358259221261
 20
1118.552739014926
 30
0.0
 10
-219.6331091985664
 20
1118.557810844568
 30
0.0
 10
-220.3966097338354
 20
1118.564645964206
 30
0.0
 10
-220.7600609295753
 20
1118.56639502466
 30
0.0
 10
-221.7971938735156
 20
1118.566459970562
 30
0.0
 10
-222.4181650339787
 20
1118.559422310641
 30
0.0
 10
-223.2411914238391
 20
1118.540598976629
 30
0.0
 10
-223.4965761462234
 20
1118.532988811142
 30
0.0
 10
-223.959696926957
 20
1118.51651081169
 30
0.0
 10
-224.1690007751487
 20
1118.507610035871
 30
0.0
 10
-224.5436985687039
 20
1118.489944357155
 30
0.0
 10
-224.7090925881443
 20
1118.481176165616
 30
0.0
 10
-224.9952937168006
 20
1118.465587973332
 30
0.0
 10
-225.1165014718351
 20
1118.458745661415
 30
0.0
 10
-225.4068725681326
 20
1118.444733168044
 30
0.0
 10
-225.5038505245055
 20
1118.44387099936
 30
0.0
 10
-225.5033863514781
 20
1118.461597052124
 30
0.0
  0
LINE
  5
471
330
1F
100
AcDbEntity
  8
0
  6
SLD-Сплошная
 62
     7
370
    25
100
AcDbLine
 10
-225.5033863515
 20
1118.4615970521
 30
0.0
 11
-225.503066502
 21
1118.4738116108
 31
0.0
  0
LINE
  5
472
330
1F
100
AcDbEntity
  8
0
  6
SLD-Сплошная
 62
     7
370
    25
100
AcDbLine
 10
-204.2732875264
 20
1126.9738116108
 30
0.0
 11
-225.503066502
 21
1118.4738116108
 31
0.0
  0
LINE
  5
473
330
1F
100
AcDbEntity
  8
0
  6
SLD-Сплошная
 62
     7
370
    25
100
AcDbLine
 10
-204.2732875264
 20
1126.9738116108
 30
0.0
 11
-187.9139010558
 21
1126.9738116108
 31
0.0
  0
LINE
  5
474
330
1F
100
AcDbEntity
  8
0
  6
SLD-Сплошная
 62
     7
370
    25
100
AcDbLine
 10
308.1694866624
 20
1126.9738116108
 30
0.0
 11
329.3920669956
 21
1118.4738116109
 31
0.0
  0
LINE
  5
475
330
1F
100
AcDbEntity
  8
0
  6
SLD-Сплошная
 62
     7
370
    25
100
AcDbLine
 10
329.3920669956
 20
1118.4738116109
 30
0.0
 11
329.3923890195
 21
1118.4615140159
 31
0.0
  0
LINE
  5
476
330
1F
100
AcDbEntity
  8
0
  6
SLD-Сплошная
 62
     7
370
    25
100
AcDbLine
 10
291.8101010026
 20
1126.9738116108
 30
0.0
 11
308.1694866624
 21
1126.9738116108
 31
0.0
  0
LINE
  5
477
330
1F
100
AcDbEntity
  8
0
  6
SLD-Сплошная
 62
     7
370
    25
100
AcDbLine
 10
-187.9139010558
 20
1126.9738116108
 30
0.0
 11
291.8101010026
 21
1126.9738116108
 31
0.0
  0
LINE
  5
478
330
1F
100
AcDbEntity
  8
0
  6
SLD-Сплошная
 62
     7
370
    25
100
AcDbLine
 10
-252.8366069699
 20
1083.9738116108
 30
0.0
 11
-226.4064807961
 21
1083.9738116108
 31
0.0
  0
LINE
  5
479
330
1F
100
AcDbEntity
  8
0
  6
SLD-Сплошная
 62
     7
370
    25
100
AcDbLine
 10
-252.8366069699
 20
1083.9738116108
 30
0.0
 11
-254.1249176151
 21
1034.7752129752
 31
0.0
  0
ENDSEC
  0
SECTION
  2
OBJECTS
  0
DICTIONARY
  5
C
330
0
100
AcDbDictionary
281
     1
  3
ACAD_DETAILVIEWSTYLE
350
481
  3
ACAD_GROUP
350
D
  3
ACAD_LAYOUT
350
1A
  3
ACAD_MATERIAL
350
43
  3
ACAD_MLEADERSTYLE
350
5B
  3
ACAD_MLINESTYLE
350
17
  3
ACAD_PLOTSETTINGS
350
19
  3
ACAD_PLOTSTYLENAME
350
E
  3
ACAD_SCALELIST
350
47
  3
ACAD_SECTIONVIEWSTYLE
350
482
  3
ACAD_TABLESTYLE
350
59
  3
ACAD_VISUALSTYLE
350
2A
  3
ACDB_RECOMPOSE_DATA
350
47E
  3
AcDbVariableDictionary
350
47A
  0
SUN
  5
5D
330
29
100
AcDbSun
 90
        1
290
     0
 63
     7
421
 16777215
 40
1.0
291
     1
 91
  2455826
 92
 54000000
292
     0
 70
     2
 71
   256
280
     1
  0
DICTIONARY
  5
481
102
{ACAD_REACTORS
330
C
102
}
330
C
100
AcDbDictionary
281
     1
  0
DICTIONARY
  5
D
102
{ACAD_REACTORS
330
C
102
}
330
C
100
AcDbDictionary
281
     1
  0
DICTIONARY
  5
1A
102
{ACAD_REACTORS
330
C
102
}
330
C
100
AcDbDictionary
281
     1
  3
Layout1
350
1E
  3
Layout2
350
26
  3
Model
350
22
  0
DICTIONARY
  5
43
102
{ACAD_REACTORS
330
C
102
}
330
C
100
AcDbDictionary
281
     1
  3
ByBlock
350
45
  3
ByLayer
350
44
  3
Global
350
46
  0
DICTIONARY
  5
5B
102
{ACAD_REACTORS
330
C
102
}
330
C
100
AcDbDictionary
281
     1
  3
Standard
350
5C
  0
DICTIONARY
  5
17
102
{ACAD_REACTORS
330
C
102
}
330
C
100
AcDbDictionary
281
     1
  3
Standard
350
18
  0
DICTIONARY
  5
19
102
{ACAD_REACTORS
330
C
102
}
330
C
100
AcDbDictionary
281
     1
  0
ACDBDICTIONARYWDFLT
  5
E
102
{ACAD_REACTORS
330
C
102
}
330
C
100
AcDbDictionary
281
     1
  3
Normal
350
F
100
AcDbDictionaryWithDefault
340
F
  0
DICTIONARY
  5
47
102
{ACAD_REACTORS
330
C
102
}
330
C
100
AcDbDictionary
281
     1
  3
A0
350
48
  3
A1
350
49
  3
A2
350
4A
  3
A3
350
4B
  3
A4
350
4C
  3
A5
350
4D
  3
A6
350
4E
  3
A7
350
4F
  3
A8
350
50
  3
A9
350
51
  3
B0
350
52
  3
B1
350
53
  3
B2
350
54
  3
B3
350
55
  3
B4
350
56
  3
B5
350
57
  3
B6
350
58
  0
DICTIONARY
  5
482
102
{ACAD_REACTORS
330
C
102
}
330
C
100
AcDbDictionary
281
     1
  0
DICTIONARY
  5
59
102
{ACAD_REACTORS
330
C
102
}
330
C
100
AcDbDictionary
281
     1
  3
Standard
350
5A
  0
DICTIONARY
  5
2A
102
{ACAD_REACTORS
330
C
102
}
330
C
100
AcDbDictionary
281
     1
  3
2dWireframe
350
2F
  3
Basic
350
32
  3
Brighten
350
36
  3
ColorChange
350
3A
  3
Conceptual
350
34
  3
Dim
350
35
  3
EdgeColorOff
350
3D
  3
Facepattern
350
39
  3
Flat
350
2B
  3
FlatWithEdges
350
2C
  3
Gouraud
350
2D
  3
GouraudWithEdges
350
2E
  3
Hidden
350
31
  3
JitterOff
350
3B
  3
Linepattern
350
38
  3
OverhangOff
350
3C
  3
Realistic
350
33
  3
Shaded
350
42
  3
Shaded with edges
350
41
  3
Shades of Gray
350
3E
  3
Sketchy
350
3F
  3
Thicken
350
37
  3
Wireframe
350
30
  3
X-Ray
350
40
  0
XRECORD
  5
47E
102
{ACAD_REACTORS
330
C
102
}
330
C
100
AcDbXrecord
280
     1
 90
        1
330
5A
  0
DICTIONARY
  5
47A
102
{ACAD_REACTORS
330
C
102
}
330
C
100
AcDbDictionary
281
     1
  3
CANNOSCALE
350
47B
  3
CENTEREXE
350
483
  3
CENTERLTYPEFILE
350
484
  3
CMLEADERSTYLE
350
480
  3
CTABLESTYLE
350
47F
  0
LAYOUT
  5
1E
102
{ACAD_REACTORS
330
1A
102
}
330
1A
100
AcDbPlotSettings
  1

  2
none_device
  4

  6

 40
0.0
 41
0.0
 42
0.0
 43
0.0
 44
0.0
 45
0.0
 46
0.0
 47
0.0
 48
0.0
 49
0.0
140
0.0
141
0.0
142
1.0
143
1.0
 70
   688
 72
     1
 73
     0
 74
     5
  7

 75
    16
 76
     0
 77
     2
 78
   300
147
1.0
148
0.0
149
0.0
100
AcDbLayout
  1
Layout1
 70
     1
 71
     1
 10
0.0
 20
0.0
 11
420.0
 21
297.0
 12
0.0
 22
0.0
 32
0.0
 14
1.0000000000E+20
 24
1.0000000000E+20
 34
1.0000000000E+20
 15
-1.0000000000E+20
 25
-1.0000000000E+20
 35
-1.0000000000E+20
146
0.0
 13
0.0
 23
0.0
 33
0.0
 16
1.0
 26
0.0
 36
0.0
 17
0.0
 27
1.0
 37
0.0
 76
     0
330
1B
  0
LAYOUT
  5
26
102
{ACAD_REACTORS
330
1A
102
}
330
1A
100
AcDbPlotSettings
  1

  2
none_device
  4

  6

 40
0.0
 41
0.0
 42
0.0
 43
0.0
 44
0.0
 45
0.0
 46
0.0
 47
0.0
 48
0.0
 49
0.0
140
0.0
141
0.0
142
1.0
143
1.0
 70
   688
 72
     1
 73
     0
 74
     5
  7

 75
    16
 76
     0
 77
     2
 78
   300
147
1.0
148
0.0
149
0.0
100
AcDbLayout
  1
Layout2
 70
     1
 71
     2
 10
0.0
 20
0.0
 11
0.0
 21
0.0
 12
0.0
 22
0.0
 32
0.0
 14
0.0
 24
0.0
 34
0.0
 15
0.0
 25
0.0
 35
0.0
146
0.0
 13
0.0
 23
0.0
 33
0.0
 16
1.0
 26
0.0
 36
0.0
 17
0.0
 27
1.0
 37
0.0
 76
     0
330
23
  0
LAYOUT
  5
22
102
{ACAD_REACTORS
330
1A
102
}
330
1A
100
AcDbPlotSettings
  1

  2
none_device
  4
Letter_(8.50_x_11.00_Inches)
  6

 40
6.35
 41
6.35
 42
6.35000508
 43
6.35000508
 44
215.9
 45
279.4
 46
0.0
 47
0.0
 48
0.0
 49
0.0
140
0.0
141
0.0
142
1.0
143
1.0
 70
  1712
 72
     1
 73
     0
 74
     0
  7

 75
     0
 76
     0
 77
     2
 78
   300
147
1.0
148
0.0
149
0.0
100
AcDbLayout
  1
Model
 70
     1
 71
     0
 10
0.0
 20
0.0
 11
90.0
 21
110.0
 12
0.0
 22
0.0
 32
0.0
 14
0.0
 24
0.0
 34
0.0
 15
90.0
 25
110.0
 35
0.0
146
0.0
 13
0.0
 23
0.0
 33
0.0
 16
1.0
 26
0.0
 36
0.0
 17
0.0
 27
1.0
 37
0.0
 76
     0
330
1F
331
29
  0
MATERIAL
  5
45
102
{ACAD_REACTORS
330
43
102
}
330
43
100
AcDbMaterial
  1
ByBlock
 72
     1
 94
      127
  0
MATERIAL
  5
44
102
{ACAD_REACTORS
330
43
102
}
330
43
100
AcDbMaterial
  1
ByLayer
 72
     1
 94
      127
  0
MATERIAL
  5
46
102
{ACAD_REACTORS
330
43
102
}
330
43
100
AcDbMaterial
  1
Global
 72
     1
 94
      127
  0
MLEADERSTYLE
  5
5C
102
{ACAD_REACTORS
330
5B
102
}
330
5B
100
AcDbMLeaderStyle
179
     2
170
     2
171
     1
172
     0
 90
        2
 40
0.0
 41
0.0
173
     1
 91
-1056964608
340
14
 92
       -2
290
     1
 42
2.0
291
     1
 43
8.0
  3
Standard
341
0
 44
4.0
300

342
11
174
     1
178
     6
175
     1
176
     0
 93
-1056964608
 45
4.0
292
     0
297
     0
 46
4.0
343
0
 94
-1056964608
 47
1.0
 49
1.0
140
1.0
293
     1
141
0.0
294
     1
177
     0
142
1.0
295
     0
296
     0
143
3.75
271
     0
272
     9
273
     9
298
     0
  0
MLINESTYLE
  5
18
102
{ACAD_REACTORS
330
17
102
}
330
17
100
AcDbMlineStyle
  2
Standard
 70
     0
  3

 62
   256
 51
90.0
 52
90.0
 71
     2
 49
0.5
 62
   256
  6
BYLAYER
 49
-0.5
 62
   256
  6
BYLAYER
  0
ACDBPLACEHOLDER
  5
F
102
{ACAD_REACTORS
330
E
102
}
330
E
  0
SCALE
  5
48
102
{ACAD_REACTORS
330
47
102
}
330
47
100
AcDbScale
 70
     0
300
1:1
140
1.0
141
1.0
290
     1
  0
SCALE
  5
49
102
{ACAD_REACTORS
330
47
102
}
330
47
100
AcDbScale
 70
     0
300
1:2
140
1.0
141
2.0
290
     0
  0
SCALE
  5
4A
102
{ACAD_REACTORS
330
47
102
}
330
47
100
AcDbScale
 70
     0
300
1:4
140
1.0
141
4.0
290
     0
  0
SCALE
  5
4B
102
{ACAD_REACTORS
330
47
102
}
330
47
100
AcDbScale
 70
     0
300
1:5
140
1.0
141
5.0
290
     0
  0
SCALE
  5
4C
102
{ACAD_REACTORS
330
47
102
}
330
47
100
AcDbScale
 70
     0
300
1:8
140
1.0
141
8.0
290
     0
  0
SCALE
  5
4D
102
{ACAD_REACTORS
330
47
102
}
330
47
100
AcDbScale
 70
     0
300
1:10
140
1.0
141
10.0
290
     0
  0
SCALE
  5
4E
102
{ACAD_REACTORS
330
47
102
}
330
47
100
AcDbScale
 70
     0
300
1:16
140
1.0
141
16.0
290
     0
  0
SCALE
  5
4F
102
{ACAD_REACTORS
330
47
102
}
330
47
100
AcDbScale
 70
     0
300
1:20
140
1.0
141
20.0
290
     0
  0
SCALE
  5
50
102
{ACAD_REACTORS
330
47
102
}
330
47
100
AcDbScale
 70
     0
300
1:30
140
1.0
141
30.0
290
     0
  0
SCALE
  5
51
102
{ACAD_REACTORS
330
47
102
}
330
47
100
AcDbScale
 70
     0
300
1:40
140
1.0
141
40.0
290
     0
  0
SCALE
  5
52
102
{ACAD_REACTORS
330
47
102
}
330
47
100
AcDbScale
 70
     0
300
1:50
140
1.0
141
50.0
290
     0
  0
SCALE
  5
53
102
{ACAD_REACTORS
330
47
102
}
330
47
100
AcDbScale
 70
     0
300
1:100
140
1.0
141
100.0
290
     0
  0
SCALE
  5
54
102
{ACAD_REACTORS
330
47
102
}
330
47
100
AcDbScale
 70
     0
300
2:1
140
2.0
141
1.0
290
     0
  0
SCALE
  5
55
102
{ACAD_REACTORS
330
47
102
}
330
47
100
AcDbScale
 70
     0
300
4:1
140
4.0
141
1.0
290
     0
  0
SCALE
  5
56
102
{ACAD_REACTORS
330
47
102
}
330
47
100
AcDbScale
 70
     0
300
8:1
140
8.0
141
1.0
290
     0
  0
SCALE
  5
57
102
{ACAD_REACTORS
330
47
102
}
330
47
100
AcDbScale
 70
     0
300
10:1
140
10.0
141
1.0
290
     0
  0
SCALE
  5
58
102
{ACAD_REACTORS
330
47
102
}
330
47
100
AcDbScale
 70
     0
300
100:1
140
100.0
141
1.0
290
     0
  0
TABLESTYLE
  5
5A
102
{ACAD_REACTORS
330
59
102
}
102
{ACAD_XDICTIONARY
360
47C
102
}
330
59
100
AcDbTableStyle
  3
Standard
 70
     0
 71
     0
 40
0.06
 41
0.06
280
     0
281
     0
  7
STANDARD
140
4.5
170
     2
 62
     0
 63
   257
283
     0
 90
        4
 91
        0
  1

274
    -2
284
     1
 64
     0
275
    -2
285
     1
 65
     0
276
    -2
286
     1
 66
     0
277
    -2
287
     1
 67
     0
278
    -2
288
     1
 68
     0
279
    -2
289
     1
 69
     0
  7
STANDARD
140
6.0
170
     5
 62
     0
 63
   257
283
     0
 90
        4
 91
        0
  1

274
    -2
284
     1
 64
     0
275
    -2
285
     1
 65
     0
276
    -2
286
     1
 66
     0
277
    -2
287
     1
 67
     0
278
    -2
288
     1
 68
     0
279
    -2
289
     1
 69
     0
  7
STANDARD
140
4.5
170
     5
 62
     0
 63
   257
283
     0
 90
        4
 91
        0
  1

274
    -2
284
     1
 64
     0
275
    -2
285
     1
 65
     0
276
    -2
286
     1
 66
     0
277
    -2
287
     1
 67
     0
278
    -2
288
     1
 68
     0
279
    -2
289
     1
 69
     0
  0
VISUALSTYLE
  5
2F
102
{ACAD_REACTORS
330
2A
102
}
330
2A
100
AcDbVisualStyle
  2
2dWireframe
 70
     4
177
     3
291
     0
 70
    58
 90
        0
176
     1
 90
        2
176
     1
 90
        0
176
     1
 90
        0
176
     1
 40
0.6
176
     1
 40
30.0
176
     1
 62
     7
420
 16777215
176
     1
 90
        1
176
     1
 90
        4
176
     1
 62
     7
176
     1
 62
   257
176
     1
 90
        1
176
     1
 90
        1
176
     1
 40
1.0
176
     1
 90
        0
176
     1
 62
   257
176
     1
 40
1.0
176
     1
 90
        1
176
     1
 90
        6
176
     1
 90
        2
176
     1
 62
     7
176
     1
 90
        5
176
     1
 90
        0
176
     1
 90
        0
176
     1
290
     0
176
     1
 90
        1
176
     1
 40
0.0
176
     1
 90
        0
176
     1
290
     1
176
     1
290
     1
176
     1
290
     0
176
     1
290
     0
176
     1
290
     0
176
     1
290
     0
176
     1
290
     0
176
     1
290
     0
176
     1
290
     0
176
     1
 90
       50
176
     1
 40
0.0
176
     1
 40
1.0
176
     1
 90
        0
176
     1
 62
    18
420
        0
176
     1
 90
       50
176
     1
 90
        3
176
     1
 62
     5
420
      255
176
     1
290
     0
176
     1
 90
       50
176
     1
 90
       50
176
     1
 90
       50
176
     1
290
     0
176
     1
 90
       50
176
     1
 62
   256
176
     0
 40
1.0
176
     0
 90
        2
176
     1
  1
strokes_ogs.tif
176
     1
290
     0
176
     1
 40
1.0
176
     1
 40
1.0
176
     1
  0
VISUALSTYLE
  5
32
102
{ACAD_REACTORS
330
2A
102
}
330
2A
100
AcDbVisualStyle
  2
Basic
 70
     7
177
     3
291
     1
 70
    58
 90
        1
176
     1
 90
        0
176
     1
 90
        1
176
     1
 90
        0
176
     1
 40
0.6
176
     1
 40
30.0
176
     1
 62
     7
420
 16777215
176
     1
 90
        0
176
     1
 90
        4
176
     1
 62
     7
176
     1
 62
   257
176
     1
 90
        1
176
     1
 90
        1
176
     1
 40
1.0
176
     1
 90
        8
176
     1
 62
     7
176
     1
 40
1.0
176
     1
 90
        1
176
     1
 90
        6
176
     1
 90
        2
176
     1
 62
     7
176
     1
 90
        5
176
     1
 90
        0
176
     1
 90
        0
176
     1
290
     0
176
     1
 90
        1
176
     1
 40
0.0
176
     1
 90
        0
176
     1
290
     0
176
     1
290
     1
176
     1
290
     1
176
     1
290
     0
176
     1
290
     0
176
     1
290
     0
176
     1
290
     0
176
     1
290
     0
176
     1
290
     0
176
     1
 90
       50
176
     1
 40
0.0
176
     1
 40
1.0
176
     1
 90
        0
176
     1
 62
    18
420
        0
176
     1
 90
       50
176
     1
 90
        3
176
     1
 62
     5
420
      255
176
     1
290
     0
176
     1
 90
       50
176
     1
 90
       50
176
     1
 90
       50
176
     1
290
     0
176
     1
 90
       50
176
     1
 62
   256
176
     0
 40
1.0
176
     0
 90
        2
176
     1
  1
strokes_ogs.tif
176
     1
290
     0
176
     1
 40
1.0
176
     1
 40
1.0
176
     1
  0
VISUALSTYLE
  5
36
102
{ACAD_REACTORS
330
2A
102
}
330
2A
100
AcDbVisualStyle
  2
Brighten
 70
    12
177
     3
291
     1
 70
    58
 90
        2
176
     1
 90
        2
176
     1
 90
        0
176
     1
 90
        0
176
     1
 40
0.6
176
     1
 40
30.0
176
     1
 62
     7
420
 16777215
176
     1
 90
        1
176
     1
 90
        4
176
     1
 62
     7
176
     1
 62
   257
176
     1
 90
        1
176
     1
 90
        1
176
     1
 40
1.0
176
     1
 90
        8
176
     1
 62
     7
176
     1
 40
1.0
176
     1
 90
        1
176
     1
 90
        6
176
     1
 90
        2
176
     1
 62
     7
176
     1
 90
        5
176
     1
 90
        0
176
     1
 90
        0
176
     1
290
     0
176
     1
 90
        1
176
     1
 40
50.0
176
     1
 90
        0
176
     1
290
     0
176
     1
290
     1
176
     1
290
     1
176
     1
290
     0
176
     1
290
     0
176
     1
290
     0
176
     1
290
     0
176
     1
290
     0
176
     1
290
     0
176
     1
 90
       50
176
     1
 40
0.0
176
     1
 40
1.0
176
     1
 90
        0
176
     1
 62
    18
420
        0
176
     1
 90
       50
176
     1
 90
        3
176
     1
 62
     5
420
      255
176
     1
290
     0
176
     1
 90
       50
176
     1
 90
       50
176
     1
 90
       50
176
     1
290
     0
176
     1
 90
       50
176
     1
 62
   256
176
     0
 40
1.0
176
     0
 90
        2
176
     1
  1
strokes_ogs.tif
176
     1
290
     0
176
     1
 40
1.0
176
     1
 40
1.0
176
     1
  0
VISUALSTYLE
  5
3A
102
{ACAD_REACTORS
330
2A
102
}
330
2A
100
AcDbVisualStyle
  2
ColorChange
 70
    16
177
     3
291
     1
 70
    58
 90
        2
176
     1
 90
        2
176
     1
 90
        3
176
     1
 90
        0
176
     1
 40
0.6
176
     1
 40
30.0
176
     1
 62
     8
420
  8421504
176
     1
 90
        1
176
     1
 90
        4
176
     1
 62
     7
176
     1
 62
   257
176
     1
 90
        1
176
     1
 90
        1
176
     1
 40
1.0
176
     1
 90
        8
176
     1
 62
     8
420
  8421504
176
     1
 40
1.0
176
     1
 90
        1
176
     1
 90
        6
176
     1
 90
        2
176
     1
 62
     7
176
     1
 90
        5
176
     1
 90
        0
176
     1
 90
        0
176
     1
290
     0
176
     1
 90
        1
176
     1
 40
0.0
176
     1
 90
        0
176
     1
290
     0
176
     1
290
     1
176
     1
290
     1
176
     1
290
     0
176
     1
290
     0
176
     1
290
     0
176
     1
290
     0
176
     1
290
     0
176
     1
290
     0
176
     1
 90
       50
176
     1
 40
0.0
176
     1
 40
1.0
176
     1
 90
        0
176
     1
 62
    18
420
        0
176
     1
 90
       50
176
     1
 90
        3
176
     1
 62
     5
420
      255
176
     1
290
     0
176
     1
 90
       50
176
     1
 90
       50
176
     1
 90
       50
176
     1
290
     0
176
     1
 90
       50
176
     1
 62
   256
176
     0
 40
1.0
176
     0
 90
        2
176
     1
  1
strokes_ogs.tif
176
     1
290
     0
176
     1
 40
1.0
176
     1
 40
1.0
176
     1
  0
VISUALSTYLE
  5
34
102
{ACAD_REACTORS
330
2A
102
}
330
2A
100
AcDbVisualStyle
  2
Conceptual
 70
     9
177
     3
291
     0
 70
    58
 90
        3
176
     1
 90
        2
176
     1
 90
        0
176
     1
 90
        0
176
     1
 40
0.6
176
     1
 40
30.0
176
     1
 62
     7
420
 16777215
176
     1
 90
        2
176
     1
 90
        2
176
     1
 62
     7
176
     1
 62
   257
176
     1
 90
        1
176
     1
 90
        1
176
     1
 40
179.0
176
     1
 90
        8
176
     1
 62
     7
176
     1
 40
1.0
176
     1
 90
        1
176
     1
 90
        6
176
     1
 90
        2
176
     1
 62
     7
176
     1
 90
        3
176
     1
 90
        0
176
     1
 90
        0
176
     1
290
     0
176
     1
 90
        1
176
     1
 40
0.0
176
     1
 90
        0
176
     1
290
     0
176
     1
290
     1
176
     1
290
     1
176
     1
290
     0
176
     1
290
     0
176
     1
290
     0
176
     1
290
     0
176
     1
290
     0
176
     1
290
     0
176
     1
 90
       50
176
     1
 40
0.0
176
     1
 40
1.0
176
     1
 90
        0
176
     1
 62
    18
420
        0
176
     1
 90
       50
176
     1
 90
        3
176
     1
 62
     5
420
      255
176
     1
290
     0
176
     1
 90
       50
176
     1
 90
       50
176
     1
 90
       50
176
     1
290
     0
176
     1
 90
       50
176
     1
 62
   256
176
     0
 40
1.0
176
     0
 90
        2
176
     1
  1
strokes_ogs.tif
176
     1
290
     0
176
     1
 40
1.0
176
     1
 40
1.0
176
     1
  0
VISUALSTYLE
  5
35
102
{ACAD_REACTORS
330
2A
102
}
330
2A
100
AcDbVisualStyle
  2
Dim
 70
    11
177
     3
291
     1
 70
    58
 90
        2
176
     1
 90
        2
176
     1
 90
        0
176
     1
 90
        0
176
     1
 40
0.6
176
     1
 40
30.0
176
     1
 62
     7
420
 16777215
176
     1
 90
        1
176
     1
 90
        4
176
     1
 62
     7
176
     1
 62
   257
176
     1
 90
        1
176
     1
 90
        1
176
     1
 40
1.0
176
     1
 90
        8
176
     1
 62
     7
176
     1
 40
1.0
176
     1
 90
        1
176
     1
 90
        6
176
     1
 90
        2
176
     1
 62
     7
176
     1
 90
        5
176
     1
 90
        0
176
     1
 90
        0
176
     1
290
     0
176
     1
 90
        1
176
     1
 40
-50.0
176
     1
 90
        0
176
     1
290
     0
176
     1
290
     1
176
     1
290
     1
176
     1
290
     0
176
     1
290
     0
176
     1
290
     0
176
     1
290
     0
176
     1
290
     0
176
     1
290
     0
176
     1
 90
       50
176
     1
 40
0.0
176
     1
 40
1.0
176
     1
 90
        0
176
     1
 62
    18
420
        0
176
     1
 90
       50
176
     1
 90
        3
176
     1
 62
     5
420
      255
176
     1
290
     0
176
     1
 90
       50
176
     1
 90
       50
176
     1
 90
       50
176
     1
290
     0
176
     1
 90
       50
176
     1
 62
   256
176
     0
 40
1.0
176
     0
 90
        2
176
     1
  1
strokes_ogs.tif
176
     1
290
     0
176
     1
 40
1.0
176
     1
 40
1.0
176
     1
  0
VISUALSTYLE
  5
3D
102
{ACAD_REACTORS
330
2A
102
}
330
2A
100
AcDbVisualStyle
  2
EdgeColorOff
 70
    22
177
     3
291
     1
 70
    58
 90
        2
176
     0
 90
        2
176
     0
 90
        0
176
     0
 90
        0
176
     0
 40
0.6
176
     0
 40
30.0
176
     0
 62
     7
420
 16777215
176
     0
 90
        1
176
     0
 90
        4
176
     0
 62
     7
176
     0
 62
   257
176
     0
 90
        1
176
     0
 90
        1
176
     0
 40
1.0
176
     0
 90
        8
176
     2
 62
     7
176
     0
 40
1.0
176
     0
 90
        1
176
     0
 90
        6
176
     0
 90
        2
176
     0
 62
     7
176
     0
 90
        5
176
     0
 90
        0
176
     0
 90
        0
176
     0
290
     0
176
     0
 90
        1
176
     0
 40
0.0
176
     0
 90
        0
176
     0
290
     0
176
     0
290
     1
176
     0
290
     1
176
     0
290
     0
176
     0
290
     0
176
     0
290
     0
176
     0
290
     0
176
     0
290
     0
176
     0
290
     0
176
     0
 90
       50
176
     0
 40
0.0
176
     0
 40
1.0
176
     0
 90
        0
176
     0
 62
    18
420
        0
176
     0
 90
       50
176
     0
 90
        3
176
     0
 62
     5
420
      255
176
     0
290
     0
176
     0
 90
       50
176
     0
 90
       50
176
     0
 90
       50
176
     0
290
     0
176
     0
 90
       50
176
     0
 62
   256
176
     0
 40
1.0
176
     0
 90
        2
176
     0
  1
strokes_ogs.tif
176
     0
290
     0
176
     0
 40
1.0
176
     0
 40
1.0
176
     0
  0
VISUALSTYLE
  5
39
102
{ACAD_REACTORS
330
2A
102
}
330
2A
100
AcDbVisualStyle
  2
Facepattern
 70
    15
177
     3
291
     1
 70
    58
 90
        2
176
     1
 90
        2
176
     1
 90
        0
176
     1
 90
        0
176
     1
 40
0.6
176
     1
 40
30.0
176
     1
 62
     7
420
 16777215
176
     1
 90
        1
176
     1
 90
        4
176
     1
 62
     7
176
     1
 62
   257
176
     1
 90
        1
176
     1
 90
        1
176
     1
 40
1.0
176
     1
 90
        8
176
     1
 62
     7
176
     1
 40
1.0
176
     1
 90
        1
176
     1
 90
        6
176
     1
 90
        2
176
     1
 62
     7
176
     1
 90
        5
176
     1
 90
        0
176
     1
 90
        0
176
     1
290
     0
176
     1
 90
        1
176
     1
 40
0.0
176
     1
 90
        0
176
     1
290
     0
176
     1
290
     1
176
     1
290
     1
176
     1
290
     0
176
     1
290
     0
176
     1
290
     0
176
     1
290
     0
176
     1
290
     0
176
     1
290
     0
176
     1
 90
       50
176
     1
 40
0.0
176
     1
 40
1.0
176
     1
 90
        0
176
     1
 62
    18
420
        0
176
     1
 90
       50
176
     1
 90
        3
176
     1
 62
     5
420
      255
176
     1
290
     0
176
     1
 90
       50
176
     1
 90
       50
176
     1
 90
       50
176
     1
290
     0
176
     1
 90
       50
176
     1
 62
   256
176
     0
 40
1.0
176
     0
 90
        2
176
     1
  1
strokes_ogs.tif
176
     1
290
     0
176
     1
 40
1.0
176
     1
 40
1.0
176
     1
  0
VISUALSTYLE
  5
2B
102
{ACAD_REACTORS
330
2A
102
}
330
2A
100
AcDbVisualStyle
  2
Flat
 70
     0
177
     3
291
     1
 70
    58
 90
        2
176
     1
 90
        1
176
     1
 90
        1
176
     1
 90
        2
176
     1
 40
0.6
176
     1
 40
30.0
176
     1
 62
     7
420
 16777215
176
     1
 90
        0
176
     1
 90
        0
176
     1
 62
     7
176
     1
 62
   257
176
     1
 90
        1
176
     1
 90
        1
176
     1
 40
1.0
176
     1
 90
        8
176
     1
 62
     7
176
     1
 40
1.0
176
     1
 90
        1
176
     1
 90
        6
176
     1
 90
        2
176
     1
 62
     7
176
     1
 90
        5
176
     1
 90
        0
176
     1
 90
        0
176
     1
290
     0
176
     1
 90
       13
176
     1
 40
0.0
176
     1
 90
        0
176
     1
290
     0
176
     1
290
     1
176
     1
290
     1
176
     1
290
     0
176
     1
290
     0
176
     1
290
     0
176
     1
290
     0
176
     1
290
     0
176
     1
290
     0
176
     1
 90
       50
176
     1
 40
0.0
176
     1
 40
1.0
176
     1
 90
        0
176
     1
 62
    18
420
        0
176
     1
 90
       50
176
     1
 90
        3
176
     1
 62
     5
420
      255
176
     1
290
     0
176
     1
 90
       50
176
     1
 90
       50
176
     1
 90
       50
176
     1
290
     0
176
     1
 90
       50
176
     1
 62
   256
176
     0
 40
1.0
176
     0
 90
        2
176
     1
  1
strokes_ogs.tif
176
     1
290
     0
176
     1
 40
1.0
176
     1
 40
1.0
176
     1
  0
VISUALSTYLE
  5
2C
102
{ACAD_REACTORS
330
2A
102
}
330
2A
100
AcDbVisualStyle
  2
FlatWithEdges
 70
     1
177
     3
291
     1
 70
    58
 90
        2
176
     1
 90
        1
176
     1
 90
        1
176
     1
 90
        2
176
     1
 40
0.6
176
     1
 40
30.0
176
     1
 62
     7
420
 16777215
176
     1
 90
        1
176
     1
 90
        0
176
     1
 62
     7
176
     1
 62
   257
176
     1
 90
        1
176
     1
 90
        1
176
     1
 40
1.0
176
     1
 90
        0
176
     1
 62
   257
176
     1
 40
1.0
176
     1
 90
        1
176
     1
 90
        6
176
     1
 90
        2
176
     1
 62
     7
176
     1
 90
        5
176
     1
 90
        0
176
     1
 90
        0
176
     1
290
     0
176
     1
 90
       13
176
     1
 40
0.0
176
     1
 90
        0
176
     1
290
     0
176
     1
290
     1
176
     1
290
     1
176
     1
290
     0
176
     1
290
     0
176
     1
290
     0
176
     1
290
     0
176
     1
290
     0
176
     1
290
     0
176
     1
 90
       50
176
     1
 40
0.0
176
     1
 40
1.0
176
     1
 90
        0
176
     1
 62
    18
420
        0
176
     1
 90
       50
176
     1
 90
        3
176
     1
 62
     5
420
      255
176
     1
290
     0
176
     1
 90
       50
176
     1
 90
       50
176
     1
 90
       50
176
     1
290
     0
176
     1
 90
       50
176
     1
 62
   256
176
     0
 40
1.0
176
     0
 90
        2
176
     1
  1
strokes_ogs.tif
176
     1
290
     0
176
     1
 40
1.0
176
     1
 40
1.0
176
     1
  0
VISUALSTYLE
  5
2D
102
{ACAD_REACTORS
330
2A
102
}
330
2A
100
AcDbVisualStyle
  2
Gouraud
 70
     2
177
     3
291
     1
 70
    58
 90
        2
176
     1
 90
        2
176
     1
 90
        1
176
     1
 90
        2
176
     1
 40
0.6
176
     1
 40
30.0
176
     1
 62
     7
420
 16777215
176
     1
 90
        0
176
     1
 90
        0
176
     1
 62
     7
176
     1
 62
   257
176
     1
 90
        1
176
     1
 90
        1
176
     1
 40
1.0
176
     1
 90
        0
176
     1
 62
     7
176
     1
 40
1.0
176
     1
 90
        1
176
     1
 90
        6
176
     1
 90
        2
176
     1
 62
     7
176
     1
 90
        5
176
     1
 90
        0
176
     1
 90
        0
176
     1
290
     0
176
     1
 90
       13
176
     1
 40
0.0
176
     1
 90
        0
176
     1
290
     0
176
     1
290
     1
176
     1
290
     1
176
     1
290
     0
176
     1
290
     0
176
     1
290
     0
176
     1
290
     0
176
     1
290
     0
176
     1
290
     0
176
     1
 90
       50
176
     1
 40
0.0
176
     1
 40
1.0
176
     1
 90
        0
176
     1
 62
    18
420
        0
176
     1
 90
       50
176
     1
 90
        3
176
     1
 62
     5
420
      255
176
     1
290
     0
176
     1
 90
       50
176
     1
 90
       50
176
     1
 90
       50
176
     1
290
     0
176
     1
 90
       50
176
     1
 62
   256
176
     0
 40
1.0
176
     0
 90
        2
176
     1
  1
strokes_ogs.tif
176
     1
290
     0
176
     1
 40
1.0
176
     1
 40
1.0
176
     1
  0
VISUALSTYLE
  5
2E
102
{ACAD_REACTORS
330
2A
102
}
330
2A
100
AcDbVisualStyle
  2
GouraudWithEdges
 70
     3
177
     3
291
     1
 70
    58
 90
        2
176
     1
 90
        2
176
     1
 90
        1
176
     1
 90
        2
176
     1
 40
0.6
176
     1
 40
30.0
176
     1
 62
     7
420
 16777215
176
     1
 90
        1
176
     1
 90
        0
176
     1
 62
     7
176
     1
 62
   257
176
     1
 90
        1
176
     1
 90
        1
176
     1
 40
1.0
176
     1
 90
        0
176
     1
 62
   257
176
     1
 40
1.0
176
     1
 90
        1
176
     1
 90
        6
176
     1
 90
        2
176
     1
 62
     7
176
     1
 90
        5
176
     1
 90
        0
176
     1
 90
        0
176
     1
290
     0
176
     1
 90
       13
176
     1
 40
0.0
176
     1
 90
        0
176
     1
290
     0
176
     1
290
     1
176
     1
290
     1
176
     1
290
     0
176
     1
290
     0
176
     1
290
     0
176
     1
290
     0
176
     1
290
     0
176
     1
290
     0
176
     1
 90
       50
176
     1
 40
0.0
176
     1
 40
1.0
176
     1
 90
        0
176
     1
 62
    18
420
        0
176
     1
 90
       50
176
     1
 90
        3
176
     1
 62
     5
420
      255
176
     1
290
     0
176
     1
 90
       50
176
     1
 90
       50
176
     1
 90
       50
176
     1
290
     0
176
     1
 90
       50
176
     1
 62
   256
176
     0
 40
1.0
176
     0
 90
        2
176
     1
  1
strokes_ogs.tif
176
     1
290
     0
176
     1
 40
1.0
176
     1
 40
1.0
176
     1
  0
VISUALSTYLE
  5
31
102
{ACAD_REACTORS
330
2A
102
}
330
2A
100
AcDbVisualStyle
  2
Hidden
 70
     6
177
     3
291
     0
 70
    58
 90
        1
176
     1
 90
        2
176
     1
 90
        2
176
     1
 90
        0
176
     1
 40
0.6
176
     1
 40
30.0
176
     1
 62
     7
420
 16777215
176
     1
 90
        2
176
     1
 90
        2
176
     1
 62
     7
176
     1
 62
   257
176
     1
 90
        2
176
     1
 90
        1
176
     1
 40
40.0
176
     1
 90
        0
176
     1
 62
   257
176
     1
 40
1.0
176
     1
 90
        1
176
     1
 90
        6
176
     1
 90
        2
176
     1
 62
     7
176
     1
 90
        3
176
     1
 90
        0
176
     1
 90
        0
176
     1
290
     0
176
     1
 90
        1
176
     1
 40
0.0
176
     1
 90
        0
176
     1
290
     0
176
     1
290
     1
176
     1
290
     1
176
     1
290
     0
176
     1
290
     0
176
     1
290
     0
176
     1
290
     0
176
     1
290
     0
176
     1
290
     0
176
     1
 90
       50
176
     1
 40
0.0
176
     1
 40
1.0
176
     1
 90
        0
176
     1
 62
    18
420
        0
176
     1
 90
       50
176
     1
 90
        3
176
     1
 62
     5
420
      255
176
     1
290
     0
176
     1
 90
       50
176
     1
 90
       50
176
     1
 90
       50
176
     1
290
     0
176
     1
 90
       50
176
     1
 62
   256
176
     0
 40
1.0
176
     0
 90
        2
176
     1
  1
strokes_ogs.tif
176
     1
290
     0
176
     1
 40
1.0
176
     1
 40
1.0
176
     1
  0
VISUALSTYLE
  5
3B
102
{ACAD_REACTORS
330
2A
102
}
330
2A
100
AcDbVisualStyle
  2
JitterOff
 70
    20
177
     3
291
     1
 70
    58
 90
        2
176
     0
 90
        2
176
     0
 90
        0
176
     0
 90
        0
176
     0
 40
0.6
176
     0
 40
30.0
176
     0
 62
     7
420
 16777215
176
     0
 90
        1
176
     0
 90
        4
176
     0
 62
     7
176
     0
 62
   257
176
     0
 90
        1
176
     0
 90
        1
176
     0
 40
1.0
176
     0
 90
       10
176
     2
 62
     7
176
     0
 40
1.0
176
     0
 90
        1
176
     0
 90
        6
176
     0
 90
        2
176
     0
 62
     7
176
     0
 90
        5
176
     0
 90
        0
176
     0
 90
        0
176
     0
290
     0
176
     0
 90
        1
176
     0
 40
0.0
176
     0
 90
        0
176
     0
290
     0
176
     0
290
     1
176
     0
290
     1
176
     0
290
     0
176
     0
290
     0
176
     0
290
     0
176
     0
290
     0
176
     0
290
     0
176
     0
290
     0
176
     0
 90
       50
176
     0
 40
0.0
176
     0
 40
1.0
176
     0
 90
        0
176
     0
 62
    18
420
        0
176
     0
 90
       50
176
     0
 90
        3
176
     0
 62
     5
420
      255
176
     0
290
     0
176
     0
 90
       50
176
     0
 90
       50
176
     0
 90
       50
176
     0
290
     0
176
     0
 90
       50
176
     0
 62
   256
176
     0
 40
1.0
176
     0
 90
        2
176
     0
  1
strokes_ogs.tif
176
     0
290
     0
176
     0
 40
1.0
176
     0
 40
1.0
176
     0
  0
VISUALSTYLE
  5
38
102
{ACAD_REACTORS
330
2A
102
}
330
2A
100
AcDbVisualStyle
  2
Linepattern
 70
    14
177
     3
291
     1
 70
    58
 90
        2
176
     1
 90
        2
176
     1
 90
        0
176
     1
 90
        0
176
     1
 40
0.6
176
     1
 40
30.0
176
     1
 62
     7
420
 16777215
176
     1
 90
        1
176
     1
 90
        4
176
     1
 62
     7
176
     1
 62
   257
176
     1
 90
        7
176
     1
 90
        7
176
     1
 40
1.0
176
     1
 90
        8
176
     1
 62
     7
176
     1
 40
1.0
176
     1
 90
        1
176
     1
 90
        6
176
     1
 90
        2
176
     1
 62
     7
176
     1
 90
        5
176
     1
 90
        0
176
     1
 90
        0
176
     1
290
     0
176
     1
 90
        1
176
     1
 40
0.0
176
     1
 90
        0
176
     1
290
     0
176
     1
290
     1
176
     1
290
     1
176
     1
290
     0
176
     1
290
     0
176
     1
290
     0
176
     1
290
     0
176
     1
290
     0
176
     1
290
     0
176
     1
 90
       50
176
     1
 40
0.0
176
     1
 40
1.0
176
     1
 90
        0
176
     1
 62
    18
420
        0
176
     1
 90
       50
176
     1
 90
        3
176
     1
 62
     5
420
      255
176
     1
290
     0
176
     1
 90
       50
176
     1
 90
       50
176
     1
 90
       50
176
     1
290
     0
176
     1
 90
       50
176
     1
 62
   256
176
     0
 40
1.0
176
     0
 90
        2
176
     1
  1
strokes_ogs.tif
176
     1
290
     0
176
     1
 40
1.0
176
     1
 40
1.0
176
     1
  0
VISUALSTYLE
  5
3C
102
{ACAD_REACTORS
330
2A
102
}
330
2A
100
AcDbVisualStyle
  2
OverhangOff
 70
    21
177
     3
291
     1
 70
    58
 90
        2
176
     0
 90
        2
176
     0
 90
        0
176
     0
 90
        0
176
     0
 40
0.6
176
     0
 40
30.0
176
     0
 62
     7
420
 16777215
176
     0
 90
        1
176
     0
 90
        4
176
     0
 62
     7
176
     0
 62
   257
176
     0
 90
        1
176
     0
 90
        1
176
     0
 40
1.0
176
     0
 90
        9
176
     2
 62
     7
176
     0
 40
1.0
176
     0
 90
        1
176
     0
 90
        6
176
     0
 90
        2
176
     0
 62
     7
176
     0
 90
        5
176
     0
 90
        0
176
     0
 90
        0
176
     0
290
     0
176
     0
 90
        1
176
     0
 40
0.0
176
     0
 90
        0
176
     0
290
     0
176
     0
290
     1
176
     0
290
     1
176
     0
290
     0
176
     0
290
     0
176
     0
290
     0
176
     0
290
     0
176
     0
290
     0
176
     0
290
     0
176
     0
 90
       50
176
     0
 40
0.0
176
     0
 40
1.0
176
     0
 90
        0
176
     0
 62
    18
420
        0
176
     0
 90
       50
176
     0
 90
        3
176
     0
 62
     5
420
      255
176
     0
290
     0
176
     0
 90
       50
176
     0
 90
       50
176
     0
 90
       50
176
     0
290
     0
176
     0
 90
       50
176
     0
 62
   256
176
     0
 40
1.0
176
     0
 90
        2
176
     0
  1
strokes_ogs.tif
176
     0
290
     0
176
     0
 40
1.0
176
     0
 40
1.0
176
     0
  0
VISUALSTYLE
  5
33
102
{ACAD_REACTORS
330
2A
102
}
330
2A
100
AcDbVisualStyle
  2
Realistic
 70
     8
177
     3
291
     0
 70
    58
 90
        2
176
     1
 90
        3
176
     1
 90
        0
176
     1
 90
        2
176
     1
 40
0.6
176
     1
 40
30.0
176
     1
 62
     7
420
 16777215
176
     1
 90
        0
176
     1
 90
        0
176
     1
 62
     7
176
     1
 62
   257
176
     1
 90
        1
176
     1
 90
        1
176
     1
 40
1.0
176
     1
 90
        8
176
     1
 62
   257
176
     1
 40
1.0
176
     1
 90
        1
176
     1
 90
        6
176
     1
 90
        2
176
     1
 62
     7
176
     1
 90
        3
176
     1
 90
        0
176
     1
 90
        0
176
     1
290
     0
176
     1
 90
       13
176
     1
 40
0.0
176
     1
 90
        0
176
     1
290
     0
176
     1
290
     1
176
     1
290
     1
176
     1
290
     0
176
     1
290
     0
176
     1
290
     0
176
     1
290
     0
176
     1
290
     0
176
     1
290
     0
176
     1
 90
       50
176
     1
 40
0.0
176
     1
 40
1.0
176
     1
 90
        0
176
     1
 62
    18
420
        0
176
     1
 90
       50
176
     1
 90
        3
176
     1
 62
     5
420
      255
176
     1
290
     0
176
     1
 90
       50
176
     1
 90
       50
176
     1
 90
       50
176
     1
290
     0
176
     1
 90
       50
176
     1
 62
   256
176
     0
 40
1.0
176
     0
 90
        2
176
     1
  1
strokes_ogs.tif
176
     1
290
     0
176
     1
 40
1.0
176
     1
 40
1.0
176
     1
  0
VISUALSTYLE
  5
42
102
{ACAD_REACTORS
330
2A
102
}
330
2A
100
AcDbVisualStyle
  2
Shaded
 70
    27
177
     3
291
     0
 70
    58
 90
        2
176
     1
 90
        2
176
     1
 90
        1
176
     1
 90
        2
176
     1
 40
0.6
176
     1
 40
30.0
176
     1
 62
     7
420
 16777215
176
     1
 90
        0
176
     1
 90
        4
176
     1
 62
     7
176
     1
 62
   257
176
     1
 90
        1
176
     1
 90
        1
176
     1
 40
1.0
176
     1
 90
        8
176
     1
 62
   257
176
     1
 40
1.0
176
     1
 90
        1
176
     1
 90
        6
176
     1
 90
        2
176
     1
 62
     8
420
  7895160
176
     1
 90
        3
176
     1
 90
        0
176
     1
 90
        0
176
     1
290
     0
176
     1
 90
        5
176
     1
 40
0.0
176
     1
 90
        0
176
     1
290
     0
176
     1
290
     1
176
     1
290
     1
176
     1
290
     0
176
     1
290
     0
176
     1
290
     0
176
     1
290
     0
176
     1
290
     0
176
     1
290
     0
176
     1
 90
       50
176
     1
 40
0.0
176
     1
 40
1.0
176
     1
 90
        0
176
     1
 62
    18
420
        0
176
     1
 90
       50
176
     1
 90
        3
176
     1
 62
     5
420
      255
176
     1
290
     0
176
     1
 90
       50
176
     1
 90
       50
176
     1
 90
       50
176
     1
290
     0
176
     1
 90
       50
176
     1
 62
   256
176
     0
 40
1.0
176
     0
 90
        2
176
     1
  1
strokes_ogs.tif
176
     1
290
     0
176
     1
 40
1.0
176
     1
 40
1.0
176
     1
  0
VISUALSTYLE
  5
41
102
{ACAD_REACTORS
330
2A
102
}
330
2A
100
AcDbVisualStyle
  2
Shaded with edges
 70
    26
177
     3
291
     0
 70
    58
 90
        2
176
     1
 90
        2
176
     1
 90
        1
176
     1
 90
        2
176
     1
 40
0.6
176
     1
 40
30.0
176
     1
 62
     7
420
 16777215
176
     1
 90
        1
176
     1
 90
       10
176
     1
 62
     7
176
     1
 62
   257
176
     1
 90
        2
176
     1
 90
        1
176
     1
 40
1.0
176
     1
 90
        8
176
     1
 62
   257
176
     1
 40
1.0
176
     1
 90
        1
176
     1
 90
        6
176
     1
 90
        2
176
     1
 62
     7
176
     1
 90
        3
176
     1
 90
        0
176
     1
 90
        0
176
     1
290
     0
176
     1
 90
        5
176
     1
 40
0.0
176
     1
 90
        0
176
     1
290
     0
176
     1
290
     1
176
     1
290
     1
176
     1
290
     0
176
     1
290
     0
176
     1
290
     0
176
     1
290
     0
176
     1
290
     0
176
     1
290
     0
176
     1
 90
       50
176
     1
 40
0.0
176
     1
 40
1.0
176
     1
 90
        0
176
     1
 62
    18
420
        0
176
     1
 90
       50
176
     1
 90
        3
176
     1
 62
     5
420
      255
176
     1
290
     0
176
     1
 90
       50
176
     1
 90
       50
176
     1
 90
       50
176
     1
290
     0
176
     1
 90
       50
176
     1
 62
   256
176
     0
 40
1.0
176
     0
 90
        2
176
     1
  1
strokes_ogs.tif
176
     1
290
     0
176
     1
 40
1.0
176
     1
 40
1.0
176
     1
  0
VISUALSTYLE
  5
3E
102
{ACAD_REACTORS
330
2A
102
}
330
2A
100
AcDbVisualStyle
  2
Shades of Gray
 70
    23
177
     3
291
     0
 70
    58
 90
        2
176
     1
 90
        2
176
     1
 90
        3
176
     1
 90
        0
176
     1
 40
0.6
176
     1
 40
30.0
176
     1
 62
     7
420
 16777215
176
     1
 90
        2
176
     1
 90
        2
176
     1
 62
     7
176
     1
 62
     7
176
     1
 90
        1
176
     1
 90
        1
176
     1
 40
40.0
176
     1
 90
        8
176
     1
 62
     7
176
     1
 40
1.0
176
     1
 90
        1
176
     1
 90
        6
176
     1
 90
        2
176
     1
 62
     7
176
     1
 90
        3
176
     1
 90
        0
176
     1
 90
        0
176
     1
290
     0
176
     1
 90
        1
176
     1
 40
0.0
176
     1
 90
        0
176
     1
290
     0
176
     1
290
     1
176
     1
290
     1
176
     1
290
     0
176
     1
290
     0
176
     1
290
     0
176
     1
290
     0
176
     1
290
     0
176
     1
290
     0
176
     1
 90
       50
176
     1
 40
0.0
176
     1
 40
1.0
176
     1
 90
        0
176
     1
 62
    18
420
        0
176
     1
 90
       50
176
     1
 90
        3
176
     1
 62
     5
420
      255
176
     1
290
     0
176
     1
 90
       50
176
     1
 90
       50
176
     1
 90
       50
176
     1
290
     0
176
     1
 90
       50
176
     1
 62
   256
176
     0
 40
1.0
176
     0
 90
        2
176
     1
  1
strokes_ogs.tif
176
     1
290
     0
176
     1
 40
1.0
176
     1
 40
1.0
176
     1
  0
VISUALSTYLE
  5
3F
102
{ACAD_REACTORS
330
2A
102
}
330
2A
100
AcDbVisualStyle
  2
Sketchy
 70
    24
177
     3
291
     0
 70
    58
 90
        1
176
     1
 90
        2
176
     1
 90
        2
176
     1
 90
        0
176
     1
 40
0.6
176
     1
 40
30.0
176
     1
 62
     7
420
 16777215
176
     1
 90
        2
176
     1
 90
        2
176
     1
 62
     7
176
     1
 62
     7
176
     1
 90
        1
176
     1
 90
        1
176
     1
 40
40.0
176
     1
 90
       11
176
     1
 62
     7
176
     1
 40
1.0
176
     1
 90
        1
176
     1
 90
        6
176
     1
 90
        2
176
     1
 62
     7
176
     1
 90
        6
176
     1
 90
        0
176
     1
 90
        0
176
     1
290
     0
176
     1
 90
        1
176
     1
 40
0.0
176
     1
 90
        0
176
     1
290
     0
176
     1
290
     1
176
     1
290
     1
176
     1
290
     0
176
     1
290
     0
176
     1
290
     0
176
     1
290
     0
176
     1
290
     0
176
     1
290
     0
176
     1
 90
       50
176
     1
 40
0.0
176
     1
 40
1.0
176
     1
 90
        0
176
     1
 62
    18
420
        0
176
     1
 90
       50
176
     1
 90
        3
176
     1
 62
     5
420
      255
176
     1
290
     0
176
     1
 90
       50
176
     1
 90
       50
176
     1
 90
       50
176
     1
290
     0
176
     1
 90
       50
176
     1
 62
   256
176
     0
 40
1.0
176
     0
 90
        2
176
     1
  1
strokes_ogs.tif
176
     1
290
     0
176
     1
 40
1.0
176
     1
 40
1.0
176
     1
  0
VISUALSTYLE
  5
37
102
{ACAD_REACTORS
330
2A
102
}
330
2A
100
AcDbVisualStyle
  2
Thicken
 70
    13
177
     3
291
     1
 70
    58
 90
        2
176
     1
 90
        2
176
     1
 90
        0
176
     1
 90
        0
176
     1
 40
0.6
176
     1
 40
30.0
176
     1
 62
     7
420
 16777215
176
     1
 90
        1
176
     1
 90
        4
176
     1
 62
     7
176
     1
 62
   257
176
     1
 90
        1
176
     1
 90
        1
176
     1
 40
1.0
176
     1
 90
       12
176
     1
 62
     7
176
     1
 40
1.0
176
     1
 90
        1
176
     1
 90
        6
176
     1
 90
        2
176
     1
 62
     7
176
     1
 90
        5
176
     1
 90
        0
176
     1
 90
        0
176
     1
290
     0
176
     1
 90
        1
176
     1
 40
0.0
176
     1
 90
        0
176
     1
290
     0
176
     1
290
     1
176
     1
290
     1
176
     1
290
     0
176
     1
290
     0
176
     1
290
     0
176
     1
290
     0
176
     1
290
     0
176
     1
290
     0
176
     1
 90
       50
176
     1
 40
0.0
176
     1
 40
1.0
176
     1
 90
        0
176
     1
 62
    18
420
        0
176
     1
 90
       50
176
     1
 90
        3
176
     1
 62
     5
420
      255
176
     1
290
     0
176
     1
 90
       50
176
     1
 90
       50
176
     1
 90
       50
176
     1
290
     0
176
     1
 90
       50
176
     1
 62
   256
176
     0
 40
1.0
176
     0
 90
        2
176
     1
  1
strokes_ogs.tif
176
     1
290
     0
176
     1
 40
1.0
176
     1
 40
1.0
176
     1
  0
VISUALSTYLE
  5
30
102
{ACAD_REACTORS
330
2A
102
}
330
2A
100
AcDbVisualStyle
  2
Wireframe
 70
     5
177
     3
291
     0
 70
    58
 90
        0
176
     1
 90
        2
176
     1
 90
        0
176
     1
 90
        0
176
     1
 40
0.6
176
     1
 40
30.0
176
     1
 62
     7
420
 16777215
176
     1
 90
        1
176
     1
 90
        4
176
     1
 62
     7
176
     1
 62
   257
176
     1
 90
        1
176
     1
 90
        1
176
     1
 40
1.0
176
     1
 90
        0
176
     1
 62
   257
176
     1
 40
1.0
176
     1
 90
        1
176
     1
 90
        6
176
     1
 90
        2
176
     1
 62
     7
176
     1
 90
        3
176
     1
 90
        0
176
     1
 90
        0
176
     1
290
     0
176
     1
 90
        1
176
     1
 40
0.0
176
     1
 90
        0
176
     1
290
     0
176
     1
290
     1
176
     1
290
     1
176
     1
290
     0
176
     1
290
     0
176
     1
290
     0
176
     1
290
     0
176
     1
290
     0
176
     1
290
     0
176
     1
 90
       50
176
     1
 40
0.0
176
     1
 40
1.0
176
     1
 90
        0
176
     1
 62
    18
420
        0
176
     1
 90
       50
176
     1
 90
        3
176
     1
 62
     5
420
      255
176
     1
290
     0
176
     1
 90
       50
176
     1
 90
       50
176
     1
 90
       50
176
     1
290
     0
176
     1
 90
       50
176
     1
 62
   256
176
     0
 40
1.0
176
     0
 90
        2
176
     1
  1
strokes_ogs.tif
176
     1
290
     0
176
     1
 40
1.0
176
     1
 40
1.0
176
     1
  0
VISUALSTYLE
  5
40
102
{ACAD_REACTORS
330
2A
102
}
330
2A
100
AcDbVisualStyle
  2
X-Ray
 70
    25
177
     3
291
     0
 70
    58
 90
        2
176
     1
 90
        2
176
     1
 90
        1
176
     1
 90
        1
176
     1
 40
0.5
176
     1
 40
30.0
176
     1
 62
     7
420
 16777215
176
     1
 90
        1
176
     1
 90
        0
176
     1
 62
     7
176
     1
 62
   257
176
     1
 90
        1
176
     1
 90
        1
176
     1
 40
1.0
176
     1
 90
        8
176
     1
 62
     7
176
     1
 40
1.0
176
     1
 90
        1
176
     1
 90
        6
176
     1
 90
        2
176
     1
 62
     7
176
     1
 90
        3
176
     1
 90
        0
176
     1
 90
        0
176
     1
290
     0
176
     1
 90
       13
176
     1
 40
0.0
176
     1
 90
        0
176
     1
290
     0
176
     1
290
     1
176
     1
290
     1
176
     1
290
     0
176
     1
290
     0
176
     1
290
     0
176
     1
290
     0
176
     1
290
     0
176
     1
290
     0
176
     1
 90
       50
176
     1
 40
0.0
176
     1
 40
1.0
176
     1
 90
        0
176
     1
 62
    18
420
        0
176
     1
 90
       50
176
     1
 90
        3
176
     1
 62
     5
420
      255
176
     1
290
     0
176
     1
 90
       50
176
     1
 90
       50
176
     1
 90
       50
176
     1
290
     0
176
     1
 90
       50
176
     1
 62
   256
176
     0
 40
1.0
176
     0
 90
        2
176
     1
  1
strokes_ogs.tif
176
     1
290
     0
176
     1
 40
1.0
176
     1
 40
1.0
176
     1
  0
DICTIONARYVAR
  5
47B
102
{ACAD_REACTORS
330
47A
102
}
330
47A
100
DictionaryVariables
280
     0
  1
1:1
  0
DICTIONARYVAR
  5
483
102
{ACAD_REACTORS
330
47A
102
}
330
47A
100
DictionaryVariables
280
     0
  1
3.500000
  0
DICTIONARYVAR
  5
484
102
{ACAD_REACTORS
330
47A
102
}
330
47A
100
DictionaryVariables
280
     0
  1
acadiso.lin
  0
DICTIONARYVAR
  5
480
102
{ACAD_REACTORS
330
47A
102
}
330
47A
100
DictionaryVariables
280
     0
  1
Standard
  0
DICTIONARYVAR
  5
47F
102
{ACAD_REACTORS
330
47A
102
}
330
47A
100
DictionaryVariables
280
     0
  1
Standard
  0
DICTIONARY
  5
47C
330
5A
100
AcDbDictionary
280
     1
281
     1
  3
ACAD_ROUNDTRIP_2008_TABLESTYLE_CELLSTYLEMAP
360
47D
  0
CELLSTYLEMAP
  5
47D
102
{ACAD_REACTORS
330
47C
102
}
330
47C
100
AcDbCellStyleMap
 90
        3
300
CELLSTYLE
  1
TABLEFORMAT_BEGIN
 90
        5
170
     1
 91
        0
 92
    32768
 62
   257
 93
        1
300
CONTENTFORMAT
  1
CONTENTFORMAT_BEGIN
 90
        0
 91
        0
 92
        4
 93
        0
300

 40
0.0
140
1.0
 94
        5
 62
     0
340
11
144
6.0
309
CONTENTFORMAT_END
171
     1
301
MARGIN
  1
CELLMARGIN_BEGIN
 40
1.5
 40
1.5
 40
1.5
 40
1.5
 40
1.5
 40
1.5
309
CELLMARGIN_END
 94
        6
 95
        1
302
GRIDFORMAT
  1
GRIDFORMAT_BEGIN
 90
        0
 91
        1
 62
     0
 92
       -2
340
14
 93
        0
 40
0.045
309
GRIDFORMAT_END
 95
        2
302
GRIDFORMAT
  1
GRIDFORMAT_BEGIN
 90
        0
 91
        1
 62
     0
 92
       -2
340
14
 93
        0
 40
0.045
309
GRIDFORMAT_END
 95
        4
302
GRIDFORMAT
  1
GRIDFORMAT_BEGIN
 90
        0
 91
        1
 62
     0
 92
       -2
340
14
 93
        0
 40
0.045
309
GRIDFORMAT_END
 95
        8
302
GRIDFORMAT
  1
GRIDFORMAT_BEGIN
 90
        0
 91
        1
 62
     0
 92
       -2
340
14
 93
        0
 40
0.045
309
GRIDFORMAT_END
 95
       16
302
GRIDFORMAT
  1
GRIDFORMAT_BEGIN
 90
        0
 91
        1
 62
     0
 92
       -2
340
14
 93
        0
 40
0.045
309
GRIDFORMAT_END
 95
       32
302
GRIDFORMAT
  1
GRIDFORMAT_BEGIN
 90
        0
 91
        1
 62
     0
 92
       -2
340
14
 93
        0
 40
0.045
309
GRIDFORMAT_END
309
TABLEFORMAT_END
  1
CELLSTYLE_BEGIN
 90
        1
 91
        1
300
_TITLE
309
CELLSTYLE_END
300
CELLSTYLE
  1
TABLEFORMAT_BEGIN
 90
        5
170
     1
 91
        0
 92
        0
 62
   257
 93
        1
300
CONTENTFORMAT
  1
CONTENTFORMAT_BEGIN
 90
        0
 91
        0
 92
        4
 93
        0
300

 40
0.0
140
1.0
 94
        5
 62
     0
340
11
144
4.5
309
CONTENTFORMAT_END
171
     1
301
MARGIN
  1
CELLMARGIN_BEGIN
 40
1.5
 40
1.5
 40
1.5
 40
1.5
 40
1.5
 40
1.5
309
CELLMARGIN_END
 94
        6
 95
        1
302
GRIDFORMAT
  1
GRIDFORMAT_BEGIN
 90
        0
 91
        1
 62
     0
 92
       -2
340
14
 93
        0
 40
0.045
309
GRIDFORMAT_END
 95
        2
302
GRIDFORMAT
  1
GRIDFORMAT_BEGIN
 90
        0
 91
        1
 62
     0
 92
       -2
340
14
 93
        0
 40
0.045
309
GRIDFORMAT_END
 95
        4
302
GRIDFORMAT
  1
GRIDFORMAT_BEGIN
 90
        0
 91
        1
 62
     0
 92
       -2
340
14
 93
        0
 40
0.045
309
GRIDFORMAT_END
 95
        8
302
GRIDFORMAT
  1
GRIDFORMAT_BEGIN
 90
        0
 91
        1
 62
     0
 92
       -2
340
14
 93
        0
 40
0.045
309
GRIDFORMAT_END
 95
       16
302
GRIDFORMAT
  1
GRIDFORMAT_BEGIN
 90
        0
 91
        1
 62
     0
 92
       -2
340
14
 93
        0
 40
0.045
309
GRIDFORMAT_END
 95
       32
302
GRIDFORMAT
  1
GRIDFORMAT_BEGIN
 90
        0
 91
        1
 62
     0
 92
       -2
340
14
 93
        0
 40
0.045
309
GRIDFORMAT_END
309
TABLEFORMAT_END
  1
CELLSTYLE_BEGIN
 90
        2
 91
        1
300
_HEADER
309
CELLSTYLE_END
300
CELLSTYLE
  1
TABLEFORMAT_BEGIN
 90
        5
170
     1
 91
        0
 92
        0
 62
   257
 93
        1
300
CONTENTFORMAT
  1
CONTENTFORMAT_BEGIN
 90
        0
 91
        0
 92
        4
 93
        0
300

 40
0.0
140
1.0
 94
        2
 62
     0
340
11
144
4.5
309
CONTENTFORMAT_END
171
     1
301
MARGIN
  1
CELLMARGIN_BEGIN
 40
1.5
 40
1.5
 40
1.5
 40
1.5
 40
1.5
 40
1.5
309
CELLMARGIN_END
 94
        6
 95
        1
302
GRIDFORMAT
  1
GRIDFORMAT_BEGIN
 90
        0
 91
        1
 62
     0
 92
       -2
340
14
 93
        0
 40
0.045
309
GRIDFORMAT_END
 95
        2
302
GRIDFORMAT
  1
GRIDFORMAT_BEGIN
 90
        0
 91
        1
 62
     0
 92
       -2
340
14
 93
        0
 40
0.045
309
GRIDFORMAT_END
 95
        4
302
GRIDFORMAT
  1
GRIDFORMAT_BEGIN
 90
        0
 91
        1
 62
     0
 92
       -2
340
14
 93
        0
 40
0.045
309
GRIDFORMAT_END
 95
        8
302
GRIDFORMAT
  1
GRIDFORMAT_BEGIN
 90
        0
 91
        1
 62
     0
 92
       -2
340
14
 93
        0
 40
0.045
309
GRIDFORMAT_END
 95
       16
302
GRIDFORMAT
  1
GRIDFORMAT_BEGIN
 90
        0
 91
        1
 62
     0
 92
       -2
340
14
 93
        0
 40
0.045
309
GRIDFORMAT_END
 95
       32
302
GRIDFORMAT
  1
GRIDFORMAT_BEGIN
 90
        0
 91
        1
 62
     0
 92
       -2
340
14
 93
        0
 40
0.045
309
GRIDFORMAT_END
309
TABLEFORMAT_END
  1
CELLSTYLE_BEGIN
 90
        3
 91
        2
300
_DATA
309
CELLSTYLE_END
  0
ENDSEC
  0
EOF
