  0
SECTION
  2
HEADER
  9
$ACADVER
  1
AC1032
  9
$ACADMAINTVER
 90
       55
  9
$DWGCODEPAGE
  3
ANSI_1251
  9
$LASTSAVEDBY
  1
rachkov
  9
$REQUIREDVERSIONS
160
                 0
  9
$INSBASE
 10
0.0
 20
0.0
 30
0.0
  9
$EXTMIN
 10
0.0
 20
0.0
 30
0.0
  9
$EXTMAX
 10
90.0
 20
110.0
 30
0.0
  9
$LIMMIN
 10
0.0
 20
0.0
  9
$LIMMAX
 10
90.0
 20
110.0
  9
$ORTHOMODE
 70
     0
  9
$REGENMODE
 70
     1
  9
$FILLMODE
 70
     1
  9
$QTEXTMODE
 70
     0
  9
$MIRRTEXT
 70
     1
  9
$LTSCALE
 40
1.0
  9
$ATTMODE
 70
     1
  9
$TEXTSIZE
 40
2.47
  9
$TRACEWID
 40
1.0
  9
$TEXTSTYLE
  7
STANDARD
  9
$CLAYER
  8
0
  9
$CELTYPE
  6
ByLayer
  9
$CECOLOR
 62
   256
  9
$CELTSCALE
 40
1.0
  9
$DISPSILH
 70
     0
  9
$DIMSCALE
 40
1.0
  9
$DIMASZ
 40
2.0
  9
$DIMEXO
 40
0.0
  9
$DIMDLI
 40
3.75
  9
$DIMRND
 40
0.0
  9
$DIMDLE
 40
0.0
  9
$DIMEXE
 40
1.0
  9
$DIMTP
 40
0.0
  9
$DIMTM
 40
0.0
  9
$DIMTXT
 40
2.47
  9
$DIMCEN
 40
2.5
  9
$DIMTSZ
 40
0.0
  9
$DIMTOL
 70
     0
  9
$DIMLIM
 70
     0
  9
$DIMTIH
 70
     1
  9
$DIMTOH
 70
     1
  9
$DIMSE1
 70
     0
  9
$DIMSE2
 70
     0
  9
$DIMTAD
 70
     1
  9
$DIMZIN
 70
     0
  9
$DIMBLK
  1

  9
$DIMASO
 70
     1
  9
$DIMSHO
 70
     1
  9
$DIMPOST
  1

  9
$DIMAPOST
  1

  9
$DIMALT
 70
     0
  9
$DIMALTD
 70
     3
  9
$DIMALTF
 40
0.0393700787
  9
$DIMLFAC
 40
20.0
  9
$DIMTOFL
 70
     1
  9
$DIMTVP
 40
0.0
  9
$DIMTIX
 70
     0
  9
$DIMSOXD
 70
     0
  9
$DIMSAH
 70
     0
  9
$DIMBLK1
  1

  9
$DIMBLK2
  1

  9
$DIMSTYLE
  2
ISO-25
  9
$DIMCLRD
 70
     0
  9
$DIMCLRE
 70
     0
  9
$DIMCLRT
 70
     0
  9
$DIMTFAC
 40
1.0
  9
$DIMGAP
 40
2.0
  9
$DIMJUST
 70
     0
  9
$DIMSD1
 70
     0
  9
$DIMSD2
 70
     0
  9
$DIMTOLJ
 70
     0
  9
$DIMTZIN
 70
     0
  9
$DIMALTZ
 70
     0
  9
$DIMALTTZ
 70
     0
  9
$DIMUPT
 70
     0
  9
$DIMDEC
 70
     1
  9
$DIMTDEC
 70
     1
  9
$DIMALTU
 70
     2
  9
$DIMALTTD
 70
     3
  9
$DIMTXSTY
  7
STANDARD
  9
$DIMAUNIT
 70
     0
  9
$DIMADEC
 70
     1
  9
$DIMALTRND
 40
0.0
  9
$DIMAZIN
 70
     0
  9
$DIMDSEP
 70
    44
  9
$DIMATFIT
 70
     3
  9
$DIMFRAC
 70
     0
  9
$DIMLDRBLK
  1

  9
$DIMLUNIT
 70
     2
  9
$DIMLWD
 70
    -2
  9
$DIMLWE
 70
    -2
  9
$DIMTMOVE
 70
     0
  9
$DIMFXL
 40
1.0
  9
$DIMFXLON
 70
     0
  9
$DIMJOGANG
 40
0.7853981634
  9
$DIMTFILL
 70
     0
  9
$DIMTFILLCLR
 70
     0
  9
$DIMARCSYM
 70
     0
  9
$DIMLTYPE
  6

  9
$DIMLTEX1
  6

  9
$DIMLTEX2
  6

  9
$DIMTXTDIRECTION
 70
     0
  9
$LUNITS
 70
     2
  9
$LUPREC
 70
     1
  9
$SKETCHINC
 40
1.0
  9
$FILLETRAD
 40
0.0
  9
$AUNITS
 70
     0
  9
$AUPREC
 70
     1
  9
$MENU
  1
.
  9
$ELEVATION
 40
0.0
  9
$PELEVATION
 40
0.0
  9
$THICKNESS
 40
0.0
  9
$LIMCHECK
 70
     0
  9
$CHAMFERA
 40
0.0
  9
$CHAMFERB
 40
0.0
  9
$CHAMFERC
 40
0.0
  9
$CHAMFERD
 40
0.0
  9
$SKPOLY
 70
     0
  9
$TDCREATE
 40
2460714.682571794
  9
$TDUCREATE
 40
2460714.557571794
  9
$TDUPDATE
 40
2460714.682572234
  9
$TDUUPDATE
 40
2460714.557572234
  9
$TDINDWG
 40
0.0000000116
  9
$TDUSRTIMER
 40
0.0000000116
  9
$USRTIMER
 70
     1
  9
$ANGBASE
 50
0.0
  9
$ANGDIR
 70
     0
  9
$PDMODE
 70
     0
  9
$PDSIZE
 40
-1.0
  9
$PLINEWID
 40
0.0
  9
$SPLFRAME
 70
     0
  9
$SPLINETYPE
 70
     6
  9
$SPLINESEGS
 70
     8
  9
$HANDSEED
  5
27A
  9
$SURFTAB1
 70
     6
  9
$SURFTAB2
 70
     6
  9
$SURFTYPE
 70
     6
  9
$SURFU
 70
     6
  9
$SURFV
 70
     6
  9
$UCSBASE
  2

  9
$UCSNAME
  2

  9
$UCSORG
 10
0.0
 20
0.0
 30
0.0
  9
$UCSXDIR
 10
1.0
 20
0.0
 30
0.0
  9
$UCSYDIR
 10
0.0
 20
1.0
 30
0.0
  9
$UCSORTHOREF
  2

  9
$UCSORTHOVIEW
 70
     0
  9
$UCSORGTOP
 10
0.0
 20
0.0
 30
0.0
  9
$UCSORGBOTTOM
 10
0.0
 20
0.0
 30
0.0
  9
$UCSORGLEFT
 10
0.0
 20
0.0
 30
0.0
  9
$UCSORGRIGHT
 10
0.0
 20
0.0
 30
0.0
  9
$UCSORGFRONT
 10
0.0
 20
0.0
 30
0.0
  9
$UCSORGBACK
 10
0.0
 20
0.0
 30
0.0
  9
$PUCSBASE
  2

  9
$PUCSNAME
  2

  9
$PUCSORG
 10
0.0
 20
0.0
 30
0.0
  9
$PUCSXDIR
 10
1.0
 20
0.0
 30
0.0
  9
$PUCSYDIR
 10
0.0
 20
1.0
 30
0.0
  9
$PUCSORTHOREF
  2

  9
$PUCSORTHOVIEW
 70
     0
  9
$PUCSORGTOP
 10
0.0
 20
0.0
 30
0.0
  9
$PUCSORGBOTTOM
 10
0.0
 20
0.0
 30
0.0
  9
$PUCSORGLEFT
 10
0.0
 20
0.0
 30
0.0
  9
$PUCSORGRIGHT
 10
0.0
 20
0.0
 30
0.0
  9
$PUCSORGFRONT
 10
0.0
 20
0.0
 30
0.0
  9
$PUCSORGBACK
 10
0.0
 20
0.0
 30
0.0
  9
$USERI1
 70
     0
  9
$USERI2
 70
     0
  9
$USERI3
 70
     0
  9
$USERI4
 70
     0
  9
$USERI5
 70
     0
  9
$USERR1
 40
0.0
  9
$USERR2
 40
0.0
  9
$USERR3
 40
0.0
  9
$USERR4
 40
0.0
  9
$USERR5
 40
0.0
  9
$WORLDVIEW
 70
     1
  9
$SHADEDGE
 70
     3
  9
$SHADEDIF
 70
    70
  9
$TILEMODE
 70
     1
  9
$MAXACTVP
 70
    64
  9
$PINSBASE
 10
0.0
 20
0.0
 30
0.0
  9
$PLIMCHECK
 70
     0
  9
$PEXTMIN
 10
1.0000000000E+20
 20
1.0000000000E+20
 30
1.0000000000E+20
  9
$PEXTMAX
 10
-1.0000000000E+20
 20
-1.0000000000E+20
 30
-1.0000000000E+20
  9
$PLIMMIN
 10
0.0
 20
0.0
  9
$PLIMMAX
 10
420.0
 20
297.0
  9
$UNITMODE
 70
     0
  9
$VISRETAIN
 70
     1
  9
$PLINEGEN
 70
     0
  9
$PSLTSCALE
 70
     1
  9
$TREEDEPTH
 70
  3020
  9
$CMLSTYLE
  2
Standard
  9
$CMLJUST
 70
     0
  9
$CMLSCALE
 40
20.0
  9
$PROXYGRAPHICS
 70
     1
  9
$MEASUREMENT
 70
     1
  9
$CELWEIGHT
370
    -1
  9
$ENDCAPS
280
     0
  9
$JOINSTYLE
280
     0
  9
$LWDISPLAY
290
     1
  9
$INSUNITS
 70
     4
  9
$HYPERLINKBASE
  1

  9
$STYLESHEET
  1

  9
$XEDIT
290
     1
  9
$CEPSNTYPE
380
     0
  9
$PSTYLEMODE
290
     1
  9
$FINGERPRINTGUID
  2
{06f66fda-fa83-4f62-8062-d36a43cde810}
  9
$VERSIONGUID
  2
{FAEB1C32-E019-11D5-929B-00C0DF256EC4}
  9
$EXTNAMES
290
     1
  9
$PSVPSCALE
 40
0.0
  9
$OLESTARTUP
290
     0
  9
$SORTENTS
280
   127
  9
$INDEXCTL
280
     0
  9
$HIDETEXT
280
     1
  9
$XCLIPFRAME
280
     2
  9
$HALOGAP
280
     0
  9
$OBSCOLOR
 70
   257
  9
$OBSLTYPE
280
     0
  9
$INTERSECTIONDISPLAY
280
     0
  9
$INTERSECTIONCOLOR
 70
   257
  9
$DIMASSOC
280
     2
  9
$PROJECTNAME
  1

  9
$CAMERADISPLAY
290
     0
  9
$LENSLENGTH
 40
50.0
  9
$CAMERAHEIGHT
 40
0.0
  9
$STEPSPERSEC
 40
2.0
  9
$STEPSIZE
 40
6.0
  9
$3DDWFPREC
 40
2.0
  9
$PSOLWIDTH
 40
5.0
  9
$PSOLHEIGHT
 40
80.0
  9
$LOFTANG1
 40
1.5707963268
  9
$LOFTANG2
 40
1.5707963268
  9
$LOFTMAG1
 40
0.0
  9
$LOFTMAG2
 40
0.0
  9
$LOFTPARAM
 70
     7
  9
$LOFTNORMALS
280
     1
  9
$LATITUDE
 40
37.795
  9
$LONGITUDE
 40
-122.394
  9
$NORTHDIRECTION
 40
0.0
  9
$TIMEZONE
 70
 -8000
  9
$LIGHTGLYPHDISPLAY
280
     1
  9
$TILEMODELIGHTSYNCH
280
     1
  9
$CMATERIAL
347
44
  9
$SOLIDHIST
280
     0
  9
$SHOWHIST
280
     1
  9
$DWFFRAME
280
     2
  9
$DGNFRAME
280
     2
  9
$REALWORLDSCALE
290
     1
  9
$INTERFERECOLOR
 62
   256
  9
$CSHADOW
280
     0
  9
$SHADOWPLANELOCATION
 40
0.0
  0
ENDSEC
  0
SECTION
  2
CLASSES
  0
CLASS
  1
ACDBDICTIONARYWDFLT
  2
AcDbDictionaryWithDefault
  3
ObjectDBX Classes
 90
        0
 91
        3
280
     0
281
     0
  0
CLASS
  1
VISUALSTYLE
  2
AcDbVisualStyle
  3
ObjectDBX Classes
 90
     4095
 91
        3
280
     0
281
     0
  0
CLASS
  1
MATERIAL
  2
AcDbMaterial
  3
ObjectDBX Classes
 90
     1153
 91
        3
280
     0
281
     0
  0
CLASS
  1
SCALE
  2
AcDbScale
  3
ObjectDBX Classes
 90
     1153
 91
        3
280
     0
281
     0
  0
CLASS
  1
TABLESTYLE
  2
AcDbTableStyle
  3
ObjectDBX Classes
 90
     4095
 91
        3
280
     0
281
     0
  0
CLASS
  1
MLEADERSTYLE
  2
AcDbMLeaderStyle
  3
ACDB_MLEADERSTYLE_CLASS
 90
     4095
 91
        3
280
     0
281
     0
  0
CLASS
  1
SUN
  2
AcDbSun
  3
SCENEOE
 90
     1153
 91
        3
280
     0
281
     0
  0
CLASS
  1
DICTIONARYVAR
  2
AcDbDictionaryVar
  3
ObjectDBX Classes
 90
        0
 91
        3
280
     0
281
     0
  0
CLASS
  1
CELLSTYLEMAP
  2
AcDbCellStyleMap
  3
ObjectDBX Classes
 90
     1152
 91
        3
280
     0
281
     0
  0
ENDSEC
  0
SECTION
  2
TABLES
  0
TABLE
  2
VPORT
  5
8
330
0
100
AcDbSymbolTable
 70
     1
  0
VPORT
  5
29
330
8
100
AcDbSymbolTableRecord
100
AcDbViewportTableRecord
  2
*Active
 70
     0
 10
0.0
 20
0.0
 11
1.0
 21
1.0
 12
45.0
 22
55.0
 13
0.0
 23
0.0
 14
10.0
 24
10.0
 15
10.0
 25
10.0
 16
0.0
 26
0.0
 36
1.0
 17
0.0
 27
0.0
 37
0.0
 40
110.0
 41
0.8181818182
 42
50.0
 43
0.0
 44
0.0
 50
0.0
 51
0.0
 71
     0
 72
  2000
 73
     1
 74
     3
 75
     0
 76
     0
 77
     0
 78
     0
281
     0
 65
     1
110
0.0
120
0.0
130
0.0
111
1.0
121
0.0
131
0.0
112
0.0
122
1.0
132
0.0
 79
     0
146
0.0
348
2F
 60
     3
 61
     5
292
     1
282
     1
141
0.0
142
0.0
 63
   250
361
5D
  0
ENDTAB
  0
TABLE
  2
LTYPE
  5
5
330
0
100
AcDbSymbolTable
 70
     8
  0
LTYPE
  5
14
330
5
100
AcDbSymbolTableRecord
100
AcDbLinetypeTableRecord
  2
ByBlock
 70
     0
  3

 72
    65
 73
     0
 40
0.0
  0
LTYPE
  5
15
330
5
100
AcDbSymbolTableRecord
100
AcDbLinetypeTableRecord
  2
ByLayer
 70
     0
  3

 72
    65
 73
     0
 40
0.0
  0
LTYPE
  5
16
330
5
100
AcDbSymbolTableRecord
100
AcDbLinetypeTableRecord
  2
Continuous
 70
     0
  3
Solid line
 72
    65
 73
     0
 40
0.0
  0
LTYPE
  5
5E
330
5
100
AcDbSymbolTableRecord
100
AcDbLinetypeTableRecord
  2
SLD-Сплошная
 70
     0
  3
SolidWorks Line Style
 72
    65
 73
     0
 40
0.0
  0
LTYPE
  5
5F
330
5
100
AcDbSymbolTableRecord
100
AcDbLinetypeTableRecord
  2
SLD-Штриховая
 70
     0
  3
SolidWorks Line Style
 72
    65
 73
     2
 40
1.905
 49
1.27
 74
     0
 49
-0.635
 74
     0
  0
LTYPE
  5
60
330
5
100
AcDbSymbolTableRecord
100
AcDbLinetypeTableRecord
  2
SLD-Штрихпункт.-с-двумя-точками
 70
     0
  3
SolidWorks Line Style
 72
    65
 73
     6
 40
12.7
 49
6.35
 74
     0
 49
-1.27
 74
     0
 49
1.27
 74
     0
 49
-1.27
 74
     0
 49
1.27
 74
     0
 49
-1.27
 74
     0
  0
LTYPE
  5
61
330
5
100
AcDbSymbolTableRecord
100
AcDbLinetypeTableRecord
  2
SLD-Штрихпункт.-утолщ.
 70
     0
  3
SolidWorks Line Style
 72
    65
 73
     4
 40
10.16
 49
6.35
 74
     0
 49
-1.27
 74
     0
 49
1.27
 74
     0
 49
-1.27
 74
     0
  0
LTYPE
  5
62
330
5
100
AcDbSymbolTableRecord
100
AcDbLinetypeTableRecord
  2
SLD-Осевая
 70
     0
  3
SolidWorks Line Style
 72
    65
 73
     4
 40
19.05
 49
15.24
 74
     0
 49
-1.27
 74
     0
 49
1.27
 74
     0
 49
-1.27
 74
     0
  0
LTYPE
  5
63
330
5
100
AcDbSymbolTableRecord
100
AcDbLinetypeTableRecord
  2
SLD-Сшитая
 70
     0
  3
SolidWorks Line Style
 72
    65
 73
     2
 40
0.635
 49
0.0
 74
     0
 49
-0.635
 74
     0
  0
LTYPE
  5
64
330
5
100
AcDbSymbolTableRecord
100
AcDbLinetypeTableRecord
  2
SLD-Тонкая-Толстая
 70
     0
  3
SolidWorks Line Style
 72
    65
 73
     4
 40
2.54
 49
0.0
 74
     0
 49
-1.27
 74
     0
 49
0.0
 74
     0
 49
-1.27
 74
     0
  0
ENDTAB
  0
TABLE
  2
LAYER
  5
2
330
0
100
AcDbSymbolTable
 70
     3
  0
LAYER
  5
10
330
2
100
AcDbSymbolTableRecord
100
AcDbLayerTableRecord
  2
0
 70
     0
 62
     7
  6
Continuous
370
    -3
390
F
347
46
348
0
  0
LAYER
  5
65
330
2
100
AcDbSymbolTableRecord
100
AcDbLayerTableRecord
  2
SLD-0
 70
     0
 62
     7
  6
SLD-Сплошная
370
    25
390
F
347
46
348
0
  0
LAYER
  5
66
330
2
100
AcDbSymbolTableRecord
100
AcDbLayerTableRecord
  2
OSNOVA
 70
     0
 62
     5
  6
SLD-Сплошная
370
    -3
390
F
347
46
348
0
  0
ENDTAB
  0
TABLE
  2
STYLE
  5
3
330
0
100
AcDbSymbolTable
 70
     1
  0
STYLE
  5
11
330
3
100
AcDbSymbolTableRecord
100
AcDbTextStyleTableRecord
  2
STANDARD
 70
     0
 40
0.0
 41
1.0
 50
0.0
 71
     0
 42
2.47
  3
GOST type A
  4

1001
ACAD
1000
GOST TYPE A
1071
 16777472
  0
ENDTAB
  0
TABLE
  2
VIEW
  5
6
330
0
100
AcDbSymbolTable
 70
     0
  0
ENDTAB
  0
TABLE
  2
UCS
  5
7
330
0
100
AcDbSymbolTable
 70
     0
  0
ENDTAB
  0
TABLE
  2
APPID
  5
9
330
0
100
AcDbSymbolTable
 70
     1
  0
APPID
  5
12
330
9
100
AcDbSymbolTableRecord
100
AcDbRegAppTableRecord
  2
ACAD
 70
     0
  0
ENDTAB
  0
TABLE
  2
DIMSTYLE
  5
A
330
0
100
AcDbSymbolTable
 70
     1
100
AcDbDimStyleTable
  0
DIMSTYLE
105
27
330
A
100
AcDbSymbolTableRecord
100
AcDbDimStyleTableRecord
  2
ISO-25
 70
     0
 41
2.5
 42
0.625
 43
3.75
 44
1.25
 73
     0
 74
     0
 77
     1
 78
     8
140
2.5
141
2.5
143
0.0393700787
147
0.625
171
     3
172
     1
178
     0
271
     2
272
     2
274
     3
278
    44
283
     0
284
     8
340
11
  0
ENDTAB
  0
TABLE
  2
BLOCK_RECORD
  5
1
330
0
100
AcDbSymbolTable
 70
     1
  0
BLOCK_RECORD
  5
1F
330
1
100
AcDbSymbolTableRecord
100
AcDbBlockTableRecord
  2
*Model_Space
340
22
 70
     0
280
     1
281
     0
  0
BLOCK_RECORD
  5
1B
330
1
100
AcDbSymbolTableRecord
100
AcDbBlockTableRecord
  2
*Paper_Space
340
1E
 70
     0
280
     1
281
     0
  0
BLOCK_RECORD
  5
23
330
1
100
AcDbSymbolTableRecord
100
AcDbBlockTableRecord
  2
*Paper_Space0
340
26
 70
     0
280
     1
281
     0
  0
ENDTAB
  0
ENDSEC
  0
SECTION
  2
BLOCKS
  0
BLOCK
  5
20
330
1F
100
AcDbEntity
  8
0
100
AcDbBlockBegin
  2
*Model_Space
 70
     0
 10
0.0
 20
0.0
 30
0.0
  3
*Model_Space
  1

  0
ENDBLK
  5
21
330
1F
100
AcDbEntity
  8
0
100
AcDbBlockEnd
  0
BLOCK
  5
1C
330
1B
100
AcDbEntity
 67
     1
  8
0
100
AcDbBlockBegin
  2
*Paper_Space
 70
     0
 10
0.0
 20
0.0
 30
0.0
  3
*Paper_Space
  1

  0
ENDBLK
  5
1D
330
1B
100
AcDbEntity
 67
     1
  8
0
100
AcDbBlockEnd
  0
BLOCK
  5
24
330
23
100
AcDbEntity
  8
0
100
AcDbBlockBegin
  2
*Paper_Space0
 70
     0
 10
0.0
 20
0.0
 30
0.0
  3
*Paper_Space0
  1

  0
ENDBLK
  5
25
330
23
100
AcDbEntity
  8
0
100
AcDbBlockEnd
  0
ENDSEC
  0
SECTION
  2
ENTITIES
  0
ARC
  5
67
330
1F
100
AcDbEntity
  8
0
  6
SLD-Сплошная
 62
     7
370
    25
100
AcDbCircle
 10
122.8583661594
 20
-88.6335655025
 30
0.0
 40
30.00000000000014
100
AcDbArc
 50
180.0
 51
0.0
  0
ARC
  5
68
330
1F
100
AcDbEntity
  8
0
  6
SLD-Сплошная
 62
     7
370
    25
100
AcDbCircle
 10
122.8583661594
 20
-88.6335655025
 30
0.0
 40
30.00000000000014
100
AcDbArc
 50
0.0
 51
180.0
  0
ARC
  5
69
330
1F
100
AcDbEntity
  8
0
  6
SLD-Сплошная
 62
     7
370
    25
100
AcDbCircle
 10
122.8583661594
 20
241.3664344975
 30
0.0
 40
25.00000000000085
100
AcDbArc
 50
180.0
 51
0.0
  0
ARC
  5
6A
330
1F
100
AcDbEntity
  8
0
  6
SLD-Сплошная
 62
     7
370
    25
100
AcDbCircle
 10
122.8583661594
 20
241.3664344975
 30
0.0
 40
25.00000000000085
100
AcDbArc
 50
0.0
 51
180.0
  0
LINE
  5
6B
330
1F
100
AcDbEntity
  8
0
  6
SLD-Сплошная
 62
     7
370
    25
100
AcDbLine
 10
-156.1416338406
 20
-60.6335655025
 30
0.0
 11
-156.1416338406
 21
-54.6335655025
 31
0.0
  0
LINE
  5
6C
330
1F
100
AcDbEntity
  8
0
  6
SLD-Сплошная
 62
     7
370
    25
100
AcDbLine
 10
-156.1416338406
 20
-54.6335655025
 30
0.0
 11
-126.1416338406
 21
-54.6335655025
 31
0.0
  0
LINE
  5
6D
330
1F
100
AcDbEntity
  8
0
  6
SLD-Сплошная
 62
     7
370
    25
100
AcDbLine
 10
-126.1416338406
 20
-54.6335655025
 30
0.0
 11
-126.1416338406
 21
207.3664344975
 31
0.0
  0
LINE
  5
6E
330
1F
100
AcDbEntity
  8
0
  6
SLD-Сплошная
 62
     7
370
    25
100
AcDbLine
 10
-126.1416338406
 20
207.3664344975
 30
0.0
 11
-156.1416338406
 21
207.3664344975
 31
0.0
  0
LINE
  5
6F
330
1F
100
AcDbEntity
  8
0
  6
SLD-Сплошная
 62
     7
370
    25
100
AcDbLine
 10
-156.1416338406
 20
207.3664344975
 30
0.0
 11
-156.1416338406
 21
213.3664344975
 31
0.0
  0
LINE
  5
70
330
1F
100
AcDbEntity
  8
0
  6
SLD-Сплошная
 62
     7
370
    25
100
AcDbLine
 10
-112.1416338406
 20
213.3664344975
 30
0.0
 11
-156.1416338406
 21
213.3664344975
 31
0.0
  0
LINE
  5
71
330
1F
100
AcDbEntity
  8
0
  6
SLD-Сплошная
 62
     7
370
    25
100
AcDbLine
 10
-112.1416338406
 20
213.3664344975
 30
0.0
 11
-112.1416338406
 21
243.3664344975
 31
0.0
  0
LINE
  5
72
330
1F
100
AcDbEntity
  8
0
  6
SLD-Сплошная
 62
     7
370
    25
100
AcDbLine
 10
-156.1416338406
 20
243.3664344975
 30
0.0
 11
-112.1416338406
 21
243.3664344975
 31
0.0
  0
LINE
  5
73
330
1F
100
AcDbEntity
  8
0
  6
SLD-Сплошная
 62
     7
370
    25
100
AcDbLine
 10
-156.1416338406
 20
243.3664344975
 30
0.0
 11
-156.1416338406
 21
249.3664344975
 31
0.0
  0
LINE
  5
74
330
1F
100
AcDbEntity
  8
0
  6
SLD-Сплошная
 62
     7
370
    25
100
AcDbLine
 10
-156.1416338406
 20
249.3664344975
 30
0.0
 11
-126.1416338406
 21
249.3664344975
 31
0.0
  0
LINE
  5
75
330
1F
100
AcDbEntity
  8
0
  6
SLD-Сплошная
 62
     7
370
    25
100
AcDbLine
 10
-126.1416338406
 20
249.3664344975
 30
0.0
 11
-126.1416338406
 21
287.9668976644
 31
0.0
  0
SPLINE
  5
76
330
1F
100
AcDbEntity
  8
0
  6
SLD-Сплошная
 62
     7
370
    25
100
AcDbSpline
210
0.0
220
0.0
230
1.0
 70
     8
 71
     3
 72
    54
 73
    50
 74
     0
 42
0.00000001
 43
0.00000001
 40
0.0
 40
0.0
 40
0.0
 40
0.0
 40
0.0141292374168499
 40
0.027120761751392
 40
0.0389762311893467
 40
0.0496978314184541
 40
0.0592885237700509
 40
0.0701174808741375
 40
0.0886646494574796
 40
0.1069169719488628
 40
0.1248940848362505
 40
0.1569619873651457
 40
0.1883767124312446
 40
0.2192788956136399
 40
0.2498162546347407
 40
0.2801520266789103
 40
0.3104653176264414
 40
0.3409082260548966
 40
0.3716309255140394
 40
0.3871455101412503
 40
0.4027843642192295
 40
0.4185648136828817
 40
0.4345037227221633
 40
0.4506174580164796
 40
0.4669218597716208
 40
0.4834322194205194
 40
0.5001632636964722
 40
0.5426968290726469
 40
0.5869462575902763
 40
0.6330865590021291
 40
0.6517670385007606
 40
0.670771826010097
 40
0.6901090389204294
 40
0.7097863832252914
 40
0.7298111722512196
 40
0.7501903452732521
 40
0.7674610855875046
 40
0.7847975288139697
 40
0.8022028003949487
 40
0.8196799888476629
 40
0.8372321447259613
 40
0.8548622796692917
 40
0.8725733655383959
 40
0.8857878610480965
 40
0.90357181866431
 40
0.9238834524246503
 40
0.946724572802039
 40
0.9720964479213671
 40
1.0
 40
1.0
 40
1.0
 40
1.0
 10
-126.1416338405619
 20
287.9668976643536
 30
0.0
 10
-126.1385203156035
 20
288.1358228942831
 30
0.0
 10
-126.1325439726409
 20
288.4600711731927
 30
0.0
 10
-126.1170210729479
 20
288.9258981093437
 30
0.0
 10
-126.0973267839067
 20
289.3507745377549
 30
0.0
 10
-126.0733222489556
 20
289.7346943017492
 30
0.0
 10
-126.0430408491756
 20
290.1058723627052
 30
0.0
 10
-125.9929352538921
 20
290.5691644306777
 30
0.0
 10
-125.9179506649494
 20
291.1338349589362
 30
0.0
 10
-125.8092282425253
 20
291.7798959333248
 30
0.0
 10
-125.64561491645
 20
292.5801623382964
 30
0.0
 10
-125.4020305754375
 20
293.5241088555651
 30
0.0
 10
-125.0450492642611
 20
294.5957537240096
 30
0.0
 10
-124.619474028441
 20
295.6223428862116
 30
0.0
 10
-124.1253803422809
 20
296.6033720065511
 30
0.0
 10
-123.5634094436327
 20
297.5389498367866
 30
0.0
 10
-122.9342731723811
 20
298.4293700831228
 30
0.0
 10
-122.2380252426855
 20
299.274315789292
 30
0.0
 10
-121.6041938383179
 20
299.93808716045
 30
0.0
 10
-121.0652788491654
 20
300.4452388839972
 30
0.0
 10
-120.6432029714105
 20
300.8153168002533
 30
0.0
 10
-120.2046438640976
 20
301.1737600689232
 30
0.0
 10
-119.7496347296385
 20
301.5205251720952
 30
0.0
 10
-119.278216167965
 20
301.8555591305175
 30
0.0
 10
-118.7904278906796
 20
302.1788091544865
 30
0.0
 10
-118.2863052281928
 20
302.4902339550691
 30
0.0
 10
-117.5008902141414
 20
302.9422724427214
 30
0.0
 10
-116.3957680968234
 20
303.5024894355649
 30
0.0
 10
-114.9305714603077
 20
304.121449346874
 30
0.0
 10
-113.6981192557307
 20
304.5509633981404
 30
0.0
 10
-112.7388577931579
 20
304.8419209918506
 30
0.0
 10
-112.0819805421456
 20
305.0250316739121
 30
0.0
 10
-111.409708330214
 20
305.1966476451724
 30
0.0
 10
-110.7220638658925
 20
305.3567109119766
 30
0.0
 10
-110.0190924338098
 20
305.5052086680566
 30
0.0
 10
-109.3415564965548
 20
305.6341852399056
 30
0.0
 10
-108.6936134402634
 20
305.7460884074004
 30
0.0
 10
-108.0792202682381
 20
305.8428953839135
 30
0.0
 10
-107.4610188581788
 20
305.9309540810783
 30
0.0
 10
-106.8390408078049
 20
306.0103118517308
 30
0.0
 10
-106.2133121013232
 20
306.0810070982834
 30
0.0
 10
-105.5838499589842
 20
306.1429662300468
 30
0.0
 10
-105.0052841811988
 20
306.1919602270538
 30
0.0
 10
-104.4242753530298
 20
306.2331918191634
 30
0.0
 10
-103.8116655392835
 20
306.2674837216338
 30
0.0
 10
-103.0837152165226
 20
306.2999128241374
 30
0.0
 10
-102.2647851985739
 20
306.3279211401144
 30
0.0
 10
-101.3548884840051
 20
306.3513696857384
 30
0.0
 10
-100.7179194644636
 20
306.3612562880334
 30
0.0
 10
-100.3843003994637
 20
306.3664344975105
 30
0.0
  0
LINE
  5
77
330
1F
100
AcDbEntity
  8
0
  6
SLD-Сплошная
 62
     7
370
    25
100
AcDbLine
 10
-100.3843003995
 20
306.3664344975
 30
0.0
 11
148.7401611592
 21
306.3664344975
 31
0.0
  0
SPLINE
  5
78
330
1F
100
AcDbEntity
  8
0
  6
SLD-Сплошная
 62
     7
370
    25
100
AcDbSpline
210
0.0
220
0.0
230
1.0
 70
     8
 71
     3
 72
    51
 73
    47
 74
     0
 42
0.00000001
 43
0.00000001
 40
0.0
 40
0.0
 40
0.0
 40
0.0
 40
0.0192556205858643
 40
0.0361042468132788
 40
0.0505468931165373
 40
0.0626516373433595
 40
0.0782591790802717
 40
0.109025676654943
 40
0.1405188012127715
 40
0.1567077141579896
 40
0.1726928104040186
 40
0.1884791559275427
 40
0.2040720104233555
 40
0.2194768317794627
 40
0.2346992801385673
 40
0.2497452214658558
 40
0.2831275319962959
 40
0.3157335138497894
 40
0.3476434716435315
 40
0.3789430677696027
 40
0.4097230610509672
 40
0.4400788712466445
 40
0.4701099617423347
 40
0.4999190465584619
 40
0.5303366353542415
 40
0.5607785234700778
 40
0.5913586369166887
 40
0.6221893694282546
 40
0.6429386289107613
 40
0.6638796658602811
 40
0.6850432265554808
 40
0.7064590988796932
 40
0.728156031539499
 40
0.7501616717167504
 40
0.7774056750479923
 40
0.8050467420957618
 40
0.8331252597407671
 40
0.8616797587619622
 40
0.8894184583347733
 40
0.9048620083583461
 40
0.9207739949742093
 40
0.9371595991696134
 40
0.9490686774775071
 40
0.9634416361179463
 40
0.9804185911364929
 40
0.9999999999999999
 40
0.9999999999999999
 40
0.9999999999999999
 40
0.9999999999999999
 10
148.7401611592122
 20
306.3664344975107
 30
0.0
 10
148.9853247716101
 20
306.3635555974915
 30
0.0
 10
149.4450060128444
 20
306.3581576662027
 30
0.0
 10
150.0884533500316
 20
306.3430724125733
 30
0.0
 10
150.6407133194402
 20
306.3246229191378
 30
0.0
 10
151.1768715312927
 20
306.2988701431646
 30
0.0
 10
151.9198943278285
 20
306.2497842818922
 30
0.0
 10
152.9075586564086
 20
306.1610615851108
 30
0.0
 10
153.8991855525584
 20
306.0391018967272
 30
0.0
 10
154.7007803688178
 20
305.917859364763
 30
0.0
 10
155.3027343478226
 20
305.8147825409514
 30
0.0
 10
155.8950636151146
 20
305.7011754628014
 30
0.0
 10
156.4777325955057
 20
305.5770708890696
 30
0.0
 10
157.05070271101
 20
305.4425082058419
 30
0.0
 10
157.613941389162
 20
305.2975185082062
 30
0.0
 10
158.3942858071679
 20
305.0784698697391
 30
0.0
 10
159.3774714624192
 20
304.7638450937067
 30
0.0
 10
160.5435684725966
 20
304.3216649715184
 30
0.0
 10
161.6594218286942
 20
303.8268283814623
 30
0.0
 10
162.7245650318846
 20
303.2797317730183
 30
0.0
 10
163.7385573073978
 20
302.6807817444812
 30
0.0
 10
164.700949819664
 20
302.0303953292384
 30
0.0
 10
165.6112938283121
 20
301.3289959452331
 30
0.0
 10
166.4761045232518
 20
300.5709452569707
 30
0.0
 10
167.2938118464508
 20
299.7548028193839
 30
0.0
 10
168.062674227924
 20
298.8793745306359
 30
0.0
 10
168.7759325757276
 20
297.9514651391688
 30
0.0
 10
169.3590527670419
 20
297.0820094676322
 30
0.0
 10
169.83240673283
 20
296.2888763016768
 30
0.0
 10
170.2137624883567
 20
295.5850015029013
 30
0.0
 10
170.5698230811846
 20
294.8585494522804
 30
0.0
 10
170.9004572573055
 20
294.1096517470164
 30
0.0
 10
171.2055960723273
 20
293.3384695937
 30
0.0
 10
171.5056469810451
 20
292.486184790596
 30
0.0
 10
171.7934000095645
 20
291.5500565368251
 30
0.0
 10
172.0610114134616
 20
290.5278373947763
 30
0.0
 10
172.2898537220964
 20
289.4791623420322
 30
0.0
 10
172.4768790894121
 20
288.4210045017222
 30
0.0
 10
172.602036605043
 20
287.515958620387
 30
0.0
 10
172.6819612339973
 20
286.7677238259818
 30
0.0
 10
172.7343655967551
 20
286.1620681792659
 30
0.0
 10
172.7722565821223
 20
285.6004310411183
 30
0.0
 10
172.7997650861582
 20
285.0578358367711
 30
0.0
 10
172.8217424579124
 20
284.5074557497201
 30
0.0
 10
172.8424484535429
 20
283.8592689619417
 30
0.0
 10
172.8528141044149
 20
283.3939039296738
 30
0.0
 10
172.8583661594389
 20
283.1446448819489
 30
0.0
  0
LINE
  5
79
330
1F
100
AcDbEntity
  8
0
  6
SLD-Сплошная
 62
     7
370
    25
100
AcDbLine
 10
172.8583661594
 20
283.1446448819
 30
0.0
 11
172.8583661594
 21
-130.4117758869
 31
0.0
  0
SPLINE
  5
7A
330
1F
100
AcDbEntity
  8
0
  6
SLD-Сплошная
 62
     7
370
    25
100
AcDbSpline
210
0.0
220
0.0
230
1.0
 70
     8
 71
     3
 72
    49
 73
    45
 74
     0
 42
0.00000001
 43
0.00000001
 40
0.0
 40
0.0
 40
0.0
 40
0.0
 40
0.019164700530464
 40
0.0359831998432843
 40
0.0504568767683505
 40
0.0626540571737215
 40
0.0783368920364552
 40
0.1091029984402981
 40
0.140504372214298
 40
0.1593533607172282
 40
0.1779314434364998
 40
0.1962491094109046
 40
0.2143173012202974
 40
0.232147420767217
 40
0.2497513325523633
 40
0.2826659068476112
 40
0.3149098274413487
 40
0.3465787897001171
 40
0.3777737807549933
 40
0.4086004462307639
 40
0.4391682509093986
 40
0.4695894540818979
 40
0.4999779397817373
 40
0.5298150094279459
 40
0.5598663814066552
 40
0.5902348431720205
 40
0.621020006183569
 40
0.6418240039759651
 40
0.6628829662739427
 40
0.6842231326834796
 40
0.7058697202229298
 40
0.7278468911558929
 40
0.7501777346851404
 40
0.7843865654458423
 40
0.8191648374670804
 40
0.8545731092031985
 40
0.8892987796937284
 40
0.9046981526266229
 40
0.920649805098046
 40
0.9371576239823597
 40
0.949080898288198
 40
0.9634573426868641
 40
0.9804302659334736
 40
1.0
 40
1.0
 40
1.0
 40
1.0
 10
172.8583661594392
 20
-130.4117758869281
 30
0.0
 10
172.8552012939435
 20
-130.6557769266296
 30
0.0
 10
172.8492590154597
 20
-131.1139076529404
 30
0.0
 10
172.8324736932411
 20
-131.7561657667586
 30
0.0
 10
172.8117460540961
 20
-132.3095343769717
 30
0.0
 10
172.7825575510498
 20
-132.8480541440325
 30
0.0
 10
172.7270995216769
 20
-133.5927687380466
 30
0.0
 10
172.6275341223276
 20
-134.5792208940425
 30
0.0
 10
172.485948268159
 20
-135.6013152683614
 30
0.0
 10
172.3370926526297
 20
-136.4650490280546
 30
0.0
 10
172.1985851190782
 20
-137.1612750461429
 30
0.0
 10
172.0439646934136
 20
-137.8439122284914
 30
0.0
 10
171.8732900025799
 20
-138.5128911863499
 30
0.0
 10
171.686617919352
 20
-139.1681485306651
 30
0.0
 10
171.4244944510143
 20
-139.9981066472937
 30
0.0
 10
171.0649818355741
 20
-140.9893282358648
 30
0.0
 10
170.5781391931449
 20
-142.1227809698277
 30
0.0
 10
170.0341817848832
 20
-143.2055682174323
 30
0.0
 10
169.4335262198739
 20
-144.2371632469349
 30
0.0
 10
168.7766020200169
 20
-145.2170674548476
 30
0.0
 10
168.0638489239368
 20
-146.14477327648
 30
0.0
 10
167.2957373648454
 20
-147.019794298889
 30
0.0
 10
166.4784000911509
 20
-147.8359048098632
 30
0.0
 10
165.6135635310603
 20
-148.5942836191023
 30
0.0
 10
164.7027739937993
 20
-149.2963673896073
 30
0.0
 10
163.7401285818629
 20
-149.9472167571939
 30
0.0
 10
162.841135864008
 20
-150.4784328310197
 30
0.0
 10
162.022433644225
 20
-150.9094429715474
 30
0.0
 10
161.2962351983581
 20
-151.2566999529159
 30
0.0
 10
160.5476483813923
 20
-151.5806365046977
 30
0.0
 10
159.7767892434442
 20
-151.8811194546224
 30
0.0
 10
158.9838041112281
 20
-152.1581018923277
 30
0.0
 10
158.0288638247125
 20
-152.4546271336463
 30
0.0
 10
156.9047757903689
 20
-152.7537374957973
 30
0.0
 10
155.6052847208743
 20
-153.0356091299144
 30
0.0
 10
154.2879031926261
 20
-153.2593601655177
 30
0.0
 10
153.2070938132641
 20
-153.3962612252875
 30
0.0
 10
152.3694349114861
 20
-153.4753199611002
 30
0.0
 10
151.7618094385081
 20
-153.52185930086
 30
0.0
 10
151.1976804664717
 20
-153.555698686417
 30
0.0
 10
150.6531766062523
 20
-153.5804775525453
 30
0.0
 10
150.1025471235581
 20
-153.6003426299697
 30
0.0
 10
149.4544643185983
 20
-153.6191231284814
 30
0.0
 10
148.9892812292783
 20
-153.6285285861923
 30
0.0
 10
148.7401611592126
 20
-153.6335655024898
 30
0.0
  0
LINE
  5
7B
330
1F
100
AcDbEntity
  8
0
  6
SLD-Сплошная
 62
     7
370
    25
100
AcDbLine
 10
148.7401611592
 20
-153.6335655025
 30
0.0
 11
-100.3843003995
 21
-153.6335655025
 31
0.0
  0
SPLINE
  5
7C
330
1F
100
AcDbEntity
  8
0
  6
SLD-Сплошная
 62
     7
370
    25
100
AcDbSpline
210
0.0
220
0.0
230
1.0
 70
     8
 71
     3
 72
    53
 73
    49
 74
     0
 42
0.00000001
 43
0.00000001
 40
0.0
 40
0.0
 40
0.0
 40
0.0
 40
0.0307329085790553
 40
0.0590165202454741
 40
0.0848537771903715
 40
0.0989353542056988
 40
0.1121697381036051
 40
0.1245581281321522
 40
0.140666800752425
 40
0.1569757806734164
 40
0.1730394725800609
 40
0.1888597793179028
 40
0.20443869291569
 40
0.2197782994457131
 40
0.234880784145448
 40
0.2497484368087755
 40
0.300899602570139
 40
0.3498335616634377
 40
0.3966795878788635
 40
0.4101072471802073
 40
0.4233704582400434
 40
0.4364734640325593
 40
0.4494206650372443
 40
0.4622166224765648
 40
0.4748660611834082
 40
0.4873738720343783
 40
0.4997451138817112
 40
0.5329885691600253
 40
0.5654058540425082
 40
0.597121400021277
 40
0.6282680501072666
 40
0.6589860289420714
 40
0.6894214867681048
 40
0.7197246618448777
 40
0.7500477587127019
 40
0.7743665018800707
 40
0.7989545674327095
 40
0.8238876205607688
 40
0.8492382375399475
 40
0.8750754761002756
 40
0.890519785832789
 40
0.9060660039899491
 40
0.9217299162853053
 40
0.9375269556074207
 40
0.949243175372444
 40
0.9635590810258702
 40
0.9804774652027743
 40
1.0
 40
1.0
 40
1.0
 40
1.0
 10
-100.3843003994637
 20
-153.6335655024903
 30
0.0
 10
-100.7517730448415
 20
-153.6294248791682
 30
0.0
 10
-101.4574321515873
 20
-153.6214736245875
 30
0.0
 10
-102.4717760100469
 20
-153.5949624109154
 30
0.0
 10
-103.2867338647143
 20
-153.5634549422168
 30
0.0
 10
-103.9214991690026
 20
-153.5309773165059
 30
0.0
 10
-104.3954044037376
 20
-153.5021787382843
 30
0.0
 10
-104.8931312155422
 20
-153.4662694513931
 30
0.0
 10
-105.4270347059885
 20
-153.4213684841647
 30
0.0
 10
-106.004170972138
 20
-153.3665340906978
 30
0.0
 10
-106.5771741803412
 20
-153.3050742723855
 30
0.0
 10
-107.1407153279918
 20
-153.2376559887019
 30
0.0
 10
-107.6947796545604
 20
-153.1642762591438
 30
0.0
 10
-108.2393538747146
 20
-153.0849721031882
 30
0.0
 10
-108.774432071397
 20
-152.9997787556549
 30
0.0
 10
-109.7302168722594
 20
-152.8341356808629
 30
0.0
 10
-111.0773183737648
 20
-152.5573524855028
 30
0.0
 10
-112.7779079560462
 20
-152.1126160187343
 30
0.0
 10
-114.0209869341359
 20
-151.7096017396776
 30
0.0
 10
-114.8456425901031
 20
-151.4042765832905
 30
0.0
 10
-115.2887125510835
 20
-151.2306565377566
 30
0.0
 10
-115.7230390632895
 20
-151.0507159792879
 30
0.0
 10
-116.1486111598381
 20
-150.8644745219737
 30
0.0
 10
-116.5654139324635
 20
-150.6719532567915
 30
0.0
 10
-116.9734326242271
 20
-150.4731751672306
 30
0.0
 10
-117.3726559777182
 20
-150.2681543152863
 30
0.0
 10
-117.9839665511825
 20
-149.9374223878195
 30
0.0
 10
-118.7863568284319
 20
-149.4598817911095
 30
0.0
 10
-119.7476171341372
 20
-148.8013478438305
 30
0.0
 10
-120.6432152635947
 20
-148.0956789473007
 30
0.0
 10
-121.4727526919088
 20
-147.3432828240972
 30
0.0
 10
-122.2358639969095
 20
-146.5445803974906
 30
0.0
 10
-122.9321928094947
 20
-145.7000231807385
 30
0.0
 10
-123.5613281183718
 20
-144.8100705413939
 30
0.0
 10
-124.0850484285797
 20
-143.9386232513347
 30
0.0
 10
-124.5179433200735
 20
-143.0953073064097
 30
0.0
 10
-124.8743916356423
 20
-142.2869518822345
 30
0.0
 10
-125.1882330816146
 20
-141.4479578312278
 30
0.0
 10
-125.4590945314443
 20
-140.5785009293842
 30
0.0
 10
-125.655236149764
 20
-139.8058404512292
 30
0.0
 10
-125.7941705088483
 20
-139.1405571819593
 30
0.0
 10
-125.8896138691784
 20
-138.5907910044787
 30
0.0
 10
-125.9674275445425
 20
-138.0340161931467
 30
0.0
 10
-126.0226206210399
 20
-137.5205747861736
 30
0.0
 10
-126.0611765932478
 20
-137.0218524268039
 30
0.0
 10
-126.091483377993
 20
-136.509145849154
 30
0.0
 10
-126.119673407012
 20
-135.90284333001
 30
0.0
 10
-126.1339730673383
 20
-135.4673408866118
 30
0.0
 10
-126.1416338405615
 20
-135.2340286693334
 30
0.0
  0
LINE
  5
7D
330
1F
100
AcDbEntity
  8
0
  6
SLD-Сплошная
 62
     7
370
    25
100
AcDbLine
 10
-126.1416338406
 20
-135.2340286693
 30
0.0
 11
-126.1416338406
 21
-96.6335655025
 31
0.0
  0
LINE
  5
7E
330
1F
100
AcDbEntity
  8
0
  6
SLD-Сплошная
 62
     7
370
    25
100
AcDbLine
 10
-126.1416338406
 20
-96.6335655025
 30
0.0
 11
-156.1416338406
 21
-96.6335655025
 31
0.0
  0
LINE
  5
7F
330
1F
100
AcDbEntity
  8
0
  6
SLD-Сплошная
 62
     7
370
    25
100
AcDbLine
 10
-156.1416338406
 20
-96.6335655025
 30
0.0
 11
-156.1416338406
 21
-90.6335655025
 31
0.0
  0
LINE
  5
80
330
1F
100
AcDbEntity
  8
0
  6
SLD-Сплошная
 62
     7
370
    25
100
AcDbLine
 10
-112.1416338406
 20
-90.6335655025
 30
0.0
 11
-156.1416338406
 21
-90.6335655025
 31
0.0
  0
LINE
  5
81
330
1F
100
AcDbEntity
  8
0
  6
SLD-Сплошная
 62
     7
370
    25
100
AcDbLine
 10
-112.1416338406
 20
-90.6335655025
 30
0.0
 11
-112.1416338406
 21
-60.6335655025
 31
0.0
  0
LINE
  5
82
330
1F
100
AcDbEntity
  8
0
  6
SLD-Сплошная
 62
     7
370
    25
100
AcDbLine
 10
-156.1416338406
 20
-60.6335655025
 30
0.0
 11
-112.1416338406
 21
-60.6335655025
 31
0.0
  0
SPLINE
  5
83
330
1F
100
AcDbEntity
  8
0
  6
SLD-Сплошная
 62
     7
370
    25
100
AcDbSpline
210
0.0
220
0.0
230
1.0
 70
     8
 71
     3
 72
    36
 73
    32
 74
     0
 42
0.00000001
 43
0.00000001
 40
0.0
 40
0.0
 40
0.0
 40
0.0
 40
0.0187046895550511
 40
0.0353722716793649
 40
0.0500072122372559
 40
0.0626707119310902
 40
0.0782127725576072
 40
0.1089868760802349
 40
0.1398352647141766
 40
0.1763361527453554
 40
0.2129751638978891
 40
0.2498581959215441
 40
0.2998994645682985
 40
0.3496841383512629
 40
0.3994623629585465
 40
0.4494843798269531
 40
0.4999968062159927
 40
0.5502059316046066
 40
0.6000838537264902
 40
0.6498706880629613
 40
0.6998078640565758
 40
0.7501346475210763
 40
0.7964395605558213
 40
0.8430994729206662
 40
0.890673074576338
 40
0.9092192081101707
 40
0.9271861565099281
 40
0.9428310822036238
 40
0.9582974448287941
 40
0.9773525777267896
 40
0.9999999999999999
 40
0.9999999999999999
 40
0.9999999999999999
 40
0.9999999999999999
 10
-136.1416338405617
 20
326.3664344975107
 30
0.0
 10
-136.3276373754146
 20
326.3627279885914
 30
0.0
 10
-136.6793870020938
 20
326.3557186426147
 30
0.0
 10
-137.1764832714141
 20
326.336954671832
 30
0.0
 10
-137.6132653581327
 20
326.3132550552035
 30
0.0
 10
-138.0382566587021
 20
326.2793558084852
 30
0.0
 10
-138.6219068350222
 20
326.2163815191342
 30
0.0
 10
-139.3826768182365
 20
326.1091293705088
 30
0.0
 10
-140.342905419461
 20
325.9290177142664
 30
0.0
 10
-141.3497458042353
 20
325.687224947259
 30
0.0
 10
-142.3991664121845
 20
325.3732334286561
 30
0.0
 10
-143.5562087051959
 20
324.9561726569605
 30
0.0
 10
-144.8049001802167
 20
324.4143175392779
 30
0.0
 10
-146.1234508301409
 20
323.721728623149
 30
0.0
 10
-147.3859028907614
 20
322.9318633753966
 30
0.0
 10
-148.5910322669255
 20
322.0446068487141
 30
0.0
 10
-149.7297317225458
 20
321.0666904880412
 30
0.0
 10
-150.7930901741599
 20
320.0089761863491
 30
0.0
 10
-151.7698678266341
 20
318.8799713448146
 30
0.0
 10
-152.6573714421631
 20
317.6826678501127
 30
0.0
 10
-153.4544595772641
 20
316.4180258433901
 30
0.0
 10
-154.1393596996838
 20
315.1284590399973
 30
0.0
 10
-154.7167939433087
 20
313.8232598605185
 30
0.0
 10
-155.1916303347685
 20
312.5066602673263
 30
0.0
 10
-155.5001850846495
 20
311.4267546443655
 30
0.0
 10
-155.6907172119215
 20
310.6120574740252
 30
0.0
 10
-155.7936591978899
 20
310.1033558658128
 30
0.0
 10
-155.8760848395867
 20
309.621975030048
 30
0.0
 10
-155.944525907967
 20
309.1274762150832
 30
0.0
 10
-156.0135991843288
 20
308.5628600038224
 30
0.0
 10
-156.0570927530326
 20
308.1503212354166
 30
0.0
 10
-156.0807128216964
 20
307.9262836517769
 30
0.0
  0
SPLINE
  5
84
330
1F
100
AcDbEntity
  8
0
  6
SLD-Сплошная
 62
     7
370
    25
100
AcDbSpline
210
0.0
220
0.0
230
1.0
 70
     8
 71
     3
 72
     9
 73
     5
 74
     0
 42
0.00000001
 43
0.00000001
 40
0.0
 40
0.0
 40
0.0
 40
0.0
 40
0.4971737970783184
 40
1.0
 40
1.0
 40
1.0
 40
1.0
 10
-130.3843003994638
 20
326.3664344975107
 30
0.0
 10
-131.3387980835492
 20
326.3681212484137
 30
0.0
 10
-133.258645206818
 20
326.3715139270162
 30
0.0
 10
-135.1770231457565
 20
326.3681340089022
 30
0.0
 10
-136.1416338405617
 20
326.3664344975107
 30
0.0
  0
SPLINE
  5
85
330
1F
100
AcDbEntity
  8
0
  6
SLD-Сплошная
 62
     7
370
    25
100
AcDbSpline
210
0.0
220
0.0
230
1.0
 70
     8
 71
     3
 72
     9
 73
     5
 74
     0
 42
0.00000001
 43
0.00000001
 40
0.0
 40
0.0
 40
0.0
 40
0.0
 40
0.5028262029218413
 40
1.0
 40
1.0
 40
1.0
 40
1.0
 10
-136.1416338405612
 20
-173.63356550249
 30
0.0
 10
-135.1770231457558
 20
-173.6352650138815
 30
0.0
 10
-133.2586452068173
 20
-173.6386449319956
 30
0.0
 10
-131.3387980835486
 20
-173.6352522533931
 30
0.0
 10
-130.3843003994635
 20
-173.6335655024901
 30
0.0
  0
SPLINE
  5
86
330
1F
100
AcDbEntity
  8
0
  6
SLD-Сплошная
 62
     7
370
    25
100
AcDbSpline
210
0.0
220
0.0
230
1.0
 70
     8
 71
     3
 72
    36
 73
    32
 74
     0
 42
0.00000001
 43
0.00000001
 40
0.0
 40
0.0
 40
0.0
 40
0.0
 40
0.019029531073474
 40
0.0349864656598709
 40
0.0478740959251902
 40
0.0622356377049291
 40
0.0777744652950508
 40
0.1091504471101871
 40
0.1399488415345385
 40
0.1765636381945317
 40
0.2133845159777976
 40
0.250303144626255
 40
0.3002425914539757
 40
0.3499404524093211
 40
0.3996397035422675
 40
0.4495833006131271
 40
0.5000106677776017
 40
0.5502934730175829
 40
0.6002418513526707
 40
0.6501016911391868
 40
0.7001201872518815
 40
0.7503652370499068
 40
0.7853154069834128
 40
0.820182640557817
 40
0.8553139557745267
 40
0.891017479931949
 40
0.912600824662308
 40
0.931565398830557
 40
0.9503233570317002
 40
0.97313153664374
 40
1.0
 40
1.0
 40
1.0
 40
1.0
 10
-156.080712821696
 20
-155.1934146567561
 30
0.0
 10
-156.0624055131327
 20
-155.3818376719601
 30
0.0
 10
-156.0287468790918
 20
-155.7282600470314
 30
0.0
 10
-155.9749922094574
 20
-156.2015753379632
 30
0.0
 10
-155.9190891392214
 20
-156.6278652674161
 30
0.0
 10
-155.8507956848532
 20
-157.0481140592436
 30
0.0
 10
-155.7393482181398
 20
-157.6475215778783
 30
0.0
 10
-155.5717029777031
 20
-158.4026383334522
 30
0.0
 10
-155.315560691164
 20
-159.3519653508432
 30
0.0
 10
-154.9949312499051
 20
-160.3389580055502
 30
0.0
 10
-154.5983000032371
 20
-161.3636291012928
 30
0.0
 10
-154.0931808191975
 20
-162.4867502844281
 30
0.0
 10
-153.4563541679176
 20
-163.6890262536872
 30
0.0
 10
-152.6627833811721
 20
-164.9475373860886
 30
0.0
 10
-151.7762053956583
 20
-166.1423485803873
 30
0.0
 10
-150.7973767513536
 20
-167.2722074537957
 30
0.0
 10
-149.7335531638167
 20
-168.3302607451917
 30
0.0
 10
-148.5954807534216
 20
-169.3076713430854
 30
0.0
 10
-147.3917481845884
 20
-170.1931993661091
 30
0.0
 10
-146.1271631700021
 20
-170.9842414486816
 30
0.0
 10
-144.8045398026747
 20
-171.6801453129443
 30
0.0
 10
-143.5701109603034
 20
-172.2176246019818
 30
0.0
 10
-142.4461017830064
 20
-172.6235113108772
 30
0.0
 10
-141.4461715943752
 20
-172.9265796129011
 30
0.0
 10
-140.4242231937286
 20
-173.1780444037299
 30
0.0
 10
-139.5208392483456
 20
-173.3538046067127
 30
0.0
 10
-138.7700734765122
 20
-173.4658273495077
 30
0.0
 10
-138.1835757513438
 20
-173.5337654310694
 30
0.0
 10
-137.5827552941485
 20
-173.5772186201451
 30
0.0
 10
-136.9027766408041
 20
-173.6115528607348
 30
0.0
 10
-136.4088062101507
 20
-173.6258387399734
 30
0.0
 10
-136.1416338405612
 20
-173.63356550249
 30
0.0
  0
ARC
  5
87
330
1F
100
AcDbEntity
  8
0
  6
SLD-Сплошная
 62
     7
370
    25
100
AcDbCircle
 10
122.8583661594
 20
241.3664344975
 30
0.0
 40
14.00000000000001
100
AcDbArc
 50
180.0
 51
0.0
  0
ARC
  5
88
330
1F
100
AcDbEntity
  8
0
  6
SLD-Сплошная
 62
     7
370
    25
100
AcDbCircle
 10
122.8583661594
 20
241.3664344975
 30
0.0
 40
14.00000000000001
100
AcDbArc
 50
0.0
 51
180.0
  0
ARC
  5
89
330
1F
100
AcDbEntity
  8
0
  6
SLD-Сплошная
 62
     7
370
    25
100
AcDbCircle
 10
122.8583661594
 20
241.3664344975
 30
0.0
 40
8.0
100
AcDbArc
 50
180.0
 51
0.0
  0
ARC
  5
8A
330
1F
100
AcDbEntity
  8
0
  6
SLD-Сплошная
 62
     7
370
    25
100
AcDbCircle
 10
122.8583661594
 20
241.3664344975
 30
0.0
 40
8.0
100
AcDbArc
 50
0.0
 51
180.0
  0
LINE
  5
8B
330
1F
100
AcDbEntity
  8
0
  6
SLD-Сплошная
 62
     7
370
    25
100
AcDbLine
 10
119.5410163932
 20
245.1074491364
 30
0.0
 11
121.2772273294
 21
236.6230180073
 31
0.0
  0
LINE
  5
8C
330
1F
100
AcDbEntity
  8
0
  6
SLD-Сплошная
 62
     7
370
    25
100
AcDbLine
 10
127.7568547558
 20
242.3688363489
 30
0.0
 11
119.5410163932
 21
245.1074491364
 31
0.0
  0
LINE
  5
8D
330
1F
100
AcDbEntity
  8
0
  6
SLD-Сплошная
 62
     7
370
    25
100
AcDbLine
 10
121.2772273294
 20
236.6230180073
 30
0.0
 11
127.7568547558
 21
242.3688363489
 31
0.0
  0
ARC
  5
8E
330
1F
100
AcDbEntity
  8
0
  6
SLD-Сплошная
 62
     7
370
    25
100
AcDbCircle
 10
122.8583661594
 20
-88.6335655025
 30
0.0
 40
14.00000000000001
100
AcDbArc
 50
180.0
 51
0.0
  0
ARC
  5
8F
330
1F
100
AcDbEntity
  8
0
  6
SLD-Сплошная
 62
     7
370
    25
100
AcDbCircle
 10
122.8583661594
 20
-88.6335655025
 30
0.0
 40
14.00000000000001
100
AcDbArc
 50
0.0
 51
180.0
  0
LINE
  5
90
330
1F
100
AcDbEntity
  8
0
  6
SLD-Сплошная
 62
     7
370
    25
100
AcDbLine
 10
130.3198921589
 20
-91.5189822418
 30
0.0
 11
124.0808766891
 21
-80.7275255326
 31
0.0
  0
ARC
  5
91
330
1F
100
AcDbEntity
  8
0
  6
SLD-Сплошная
 62
     7
370
    25
100
AcDbCircle
 10
122.8583661594
 20
-88.6335655025
 30
0.0
 40
7.999999999999986
100
AcDbArc
 50
338.8582155963
 51
0.0
  0
ARC
  5
92
330
1F
100
AcDbEntity
  8
0
  6
SLD-Сплошная
 62
     7
370
    25
100
AcDbCircle
 10
122.8583661594
 20
-88.6335655025
 30
0.0
 40
8.00000000000014
100
AcDbArc
 50
0.0
 51
81.2099732933
  0
ARC
  5
93
330
1F
100
AcDbEntity
  8
0
  6
SLD-Сплошная
 62
     7
370
    25
100
AcDbCircle
 10
122.8583661594
 20
-88.6335655025
 30
0.0
 40
8.000000000000007
100
AcDbArc
 50
98.8582155963
 51
201.2099732933
  0
LINE
  5
94
330
1F
100
AcDbEntity
  8
0
  6
SLD-Сплошная
 62
     7
370
    25
100
AcDbLine
 10
121.6264473564
 20
-80.7289860663
 30
0.0
 11
115.4002794374
 21
-91.5278603123
 31
0.0
  0
ARC
  5
95
330
1F
100
AcDbEntity
  8
0
  6
SLD-Сплошная
 62
     7
370
    25
100
AcDbCircle
 10
122.8583661594
 20
-88.6335655025
 30
0.0
 40
8.00000000000055
100
AcDbArc
 50
218.8582155963
 51
321.2099732933
  0
LINE
  5
96
330
1F
100
AcDbEntity
  8
0
  6
SLD-Сплошная
 62
     7
370
    25
100
AcDbLine
 10
116.628758963
 20
-93.6527281994
 30
0.0
 11
129.0939423518
 21
-93.6453106625
 31
0.0
  0
SPLINE
  5
97
330
1F
100
AcDbEntity
  8
0
  6
SLD-Сплошная
 62
     7
370
    25
100
AcDbSpline
210
0.0
220
0.0
230
1.0
 70
     8
 71
     3
 72
     9
 73
     5
 74
     0
 42
0.00000001
 43
0.00000001
 40
0.0
 40
0.0
 40
0.0
 40
0.0
 40
0.5020858551855152
 40
1.0
 40
1.0
 40
1.0
 40
1.0
 10
173.8583661594391
 20
326.3664344975112
 30
0.0
 10
173.1694346424462
 20
326.3677435925873
 30
0.0
 10
171.7972957744067
 20
326.3703509057842
 30
0.0
 10
170.4239629820594
 20
326.3677363311862
 30
0.0
 10
169.7401611592121
 20
326.3664344975112
 30
0.0
  0
SPLINE
  5
98
330
1F
100
AcDbEntity
  8
0
  6
SLD-Сплошная
 62
     7
370
    25
100
AcDbSpline
210
0.0
220
0.0
230
1.0
 70
     8
 71
     3
 72
    39
 73
    35
 74
     0
 42
0.00000001
 43
0.00000001
 40
0.0
 40
0.0
 40
0.0
 40
0.0
 40
0.018703932280204
 40
0.0353697014076385
 40
0.0500018632275058
 40
0.0626618367394803
 40
0.078204699136543
 40
0.1089743478748836
 40
0.1398401613448114
 40
0.1763661107753284
 40
0.2129912430480153
 40
0.2498252910298523
 40
0.2916766727110442
 40
0.3332594605759193
 40
0.374727054952928
 40
0.4162341333405984
 40
0.4579349338416894
 40
0.4999815627085077
 40
0.5422174199831642
 40
0.5840166654227158
 40
0.6255317840114084
 40
0.6669184014682336
 40
0.7083335922426504
 40
0.7499341072238789
 40
0.7967219094925442
 40
0.8431749592736832
 40
0.8900403719457091
 40
0.9060850273987591
 40
0.9218945366697674
 40
0.9374177990701075
 40
0.9509992965526051
 40
0.9642569521281491
 40
0.9805898417407288
 40
1.0
 40
1.0
 40
1.0
 40
1.0
 10
193.8583661594392
 20
306.3664344975112
 30
0.0
 10
193.8543663115915
 20
306.5621555998488
 30
0.0
 10
193.8468024783863
 20
306.9322701214985
 30
0.0
 10
193.8259464901824
 20
307.4552103356933
 30
0.0
 10
193.7995447310755
 20
307.9145907436513
 30
0.0
 10
193.761946915222
 20
308.3615008293521
 30
0.0
 10
193.6923263544538
 20
308.9750957510001
 30
0.0
 10
193.5736311188639
 20
309.7747952080557
 30
0.0
 10
193.3742814370958
 20
310.7836035904505
 30
0.0
 10
193.1067570489233
 20
311.8401589150644
 30
0.0
 10
192.7596798627803
 20
312.9390777769686
 30
0.0
 10
192.3295443587414
 20
314.0680906281805
 30
0.0
 10
191.8104380882644
 20
315.2165465387035
 30
0.0
 10
191.1950025248631
 20
316.3717219272788
 30
0.0
 10
190.5066134810255
 20
317.4807603707301
 30
0.0
 10
189.7455990752865
 20
318.54281099783
 30
0.0
 10
188.9122702966923
 20
319.5569943785753
 30
0.0
 10
188.0090870657797
 20
320.519938755233
 30
0.0
 10
187.0455119325292
 20
321.4239244582923
 30
0.0
 10
186.0293291343238
 20
322.2596053548478
 30
0.0
 10
184.9673605108303
 20
323.0210832556713
 30
0.0
 10
183.8605782317541
 20
323.7081862706331
 30
0.0
 10
182.7099060762461
 20
324.3208897036686
 30
0.0
 10
181.4698132326418
 20
324.8796540757792
 30
0.0
 10
180.1450309027591
 20
325.3719858538281
 30
0.0
 10
178.7346666885314
 20
325.7810402734679
 30
0.0
 10
177.6134969225595
 20
326.0199308207
 30
0.0
 10
176.8000362112359
 20
326.1534788124075
 30
0.0
 10
176.3084080271564
 20
326.2201223228407
 30
0.0
 10
175.840827245267
 20
326.2702653648911
 30
0.0
 10
175.3987573434311
 20
326.3051947093566
 30
0.0
 10
174.9476231902429
 20
326.3293257048447
 30
0.0
 10
174.4353120195826
 20
326.3503487453493
 30
0.0
 10
174.0614116619217
 20
326.3607734123798
 30
0.0
 10
173.8583661594391
 20
326.3664344975112
 30
0.0
  0
SPLINE
  5
99
330
1F
100
AcDbEntity
  8
0
  6
SLD-Сплошная
 62
     7
370
    25
100
AcDbSpline
210
0.0
220
0.0
230
1.0
 70
     8
 71
     3
 72
     9
 73
     5
 74
     0
 42
0.00000001
 43
0.00000001
 40
0.0
 40
0.0
 40
0.0
 40
0.0
 40
0.4983473120665127
 40
1.0
 40
1.0
 40
1.0
 40
1.0
 10
193.8583661594392
 20
303.1446448819493
 30
0.0
 10
193.8592043167502
 20
303.6800001746442
 30
0.0
 10
193.8608861905975
 20
304.7542615978172
 30
0.0
 10
193.8592080188214
 20
305.8278606481493
 30
0.0
 10
193.8583661594392
 20
306.3664344975112
 30
0.0
  0
SPLINE
  5
9A
330
1F
100
AcDbEntity
  8
0
  6
SLD-Сплошная
 62
     7
370
    25
100
AcDbSpline
210
0.0
220
0.0
230
1.0
 70
     8
 71
     3
 72
     9
 73
     5
 74
     0
 42
0.00000001
 43
0.00000001
 40
0.0
 40
0.0
 40
0.0
 40
0.0
 40
0.5016526879665698
 40
1.0
 40
1.0
 40
1.0
 40
1.0
 10
193.8583661594396
 20
-153.6335655024897
 30
0.0
 10
193.8592080188224
 20
-153.0949916530923
 30
0.0
 10
193.8608861905992
 20
-152.0213926027601
 30
0.0
 10
193.859204316751
 20
-150.9471311795872
 30
0.0
 10
193.8583661594397
 20
-150.4117758869278
 30
0.0
  0
SPLINE
  5
9B
330
1F
100
AcDbEntity
  8
0
  6
SLD-Сплошная
 62
     7
370
    25
100
AcDbSpline
210
0.0
220
0.0
230
1.0
 70
     8
 71
     3
 72
    38
 73
    34
 74
     0
 42
0.00000001
 43
0.00000001
 40
0.0
 40
0.0
 40
0.0
 40
0.0
 40
0.018702987124942
 40
0.0353685667009633
 40
0.0500013981937934
 40
0.0626629781579149
 40
0.0782035581465598
 40
0.1089737356735037
 40
0.1398352304115583
 40
0.1763510068233594
 40
0.2129790213573212
 40
0.2498306050261523
 40
0.2916530705369058
 40
0.3332177073288637
 40
0.3746788811254231
 40
0.4161921117706734
 40
0.4579123368899488
 40
0.4999922076479037
 40
0.5505682668512678
 40
0.6005806994888959
 40
0.6502937017456597
 40
0.6999762470275293
 40
0.7498978012001164
 40
0.7967130029634091
 40
0.8431590024252893
 40
0.8900369911681416
 40
0.9060808023187915
 40
0.9218898489028412
 40
0.9374148214219487
 40
0.9509987251581775
 40
0.9642571808444845
 40
0.9805902758483924
 40
1.0
 40
1.0
 40
1.0
 40
1.0
 10
173.8583661594396
 20
-173.6335655024898
 30
0.0
 10
174.0540193911032
 20
-173.6295532462555
 30
0.0
 10
174.4240123942595
 20
-173.6219658084151
 30
0.0
 10
174.9468131528905
 20
-173.6011363386372
 30
0.0
 10
175.4061167415553
 20
-173.5747723686162
 30
0.0
 10
175.852958208798
 20
-173.5372011098814
 30
0.0
 10
176.4664885454577
 20
-173.4675947152852
 30
0.0
 10
177.266077965405
 20
-173.3489400012295
 30
0.0
 10
178.2747191603948
 20
-173.1496623384654
 30
0.0
 10
179.3311518272095
 20
-172.882226440678
 30
0.0
 10
180.4301668848674
 20
-172.5351828550521
 30
0.0
 10
181.559067714958
 20
-172.1051322595667
 30
0.0
 10
182.7072088216318
 20
-171.5862541042808
 30
0.0
 10
183.861877903242
 20
-170.9712521343261
 30
0.0
 10
184.9707546926982
 20
-170.2831533411446
 30
0.0
 10
186.0329782720779
 20
-169.5222012946119
 30
0.0
 10
187.0476603569191
 20
-168.6886140881332
 30
0.0
 10
188.074750403934
 20
-167.7253850248509
 30
0.0
 10
189.0911361110268
 20
-166.6282795313435
 30
0.0
 10
190.0678887189056
 20
-165.3919951276016
 30
0.0
 10
190.9379755775211
 20
-164.0896856442359
 30
0.0
 10
191.7011129217405
 20
-162.7230589746557
 30
0.0
 10
192.3407666692326
 20
-161.3278879203107
 30
0.0
 10
192.8635871875055
 20
-159.921220658672
 30
0.0
 10
193.2727969858584
 20
-158.5105662996218
 30
0.0
 10
193.5117330964977
 20
-157.3893803192073
 30
0.0
 10
193.6453133506091
 20
-156.5757960260421
 30
0.0
 10
193.7119749441179
 20
-156.0841468771476
 30
0.0
 10
193.7621477645118
 20
-155.6164941479369
 30
0.0
 10
193.7971181600306
 20
-155.1743175880093
 30
0.0
 10
193.8212983821961
 20
-154.723063402537
 30
0.0
 10
193.8423448491514
 20
-154.2106360216805
 30
0.0
 10
193.8527278117843
 20
-153.836652775023
 30
0.0
 10
193.8583661594396
 20
-153.6335655024897
 30
0.0
  0
SPLINE
  5
9C
330
1F
100
AcDbEntity
  8
0
  6
SLD-Сплошная
 62
     7
370
    25
100
AcDbSpline
210
0.0
220
0.0
230
1.0
 70
     8
 71
     3
 72
     9
 73
     5
 74
     0
 42
0.00000001
 43
0.00000001
 40
0.0
 40
0.0
 40
0.0
 40
0.0
 40
0.4979141447954828
 40
1.0
 40
1.0
 40
1.0
 40
1.0
 10
169.7401611592126
 20
-173.6335655024898
 30
0.0
 10
170.4239629820338
 20
-173.6348673361651
 30
0.0
 10
171.797295774381
 20
-173.6374819107638
 30
0.0
 10
173.1694346424206
 20
-173.6348745975664
 30
0.0
 10
173.8583661594396
 20
-173.6335655024898
 30
0.0
  0
LINE
  5
9D
330
1F
100
AcDbEntity
  8
0
  6
SLD-Сплошная
 62
     7
370
    25
100
AcDbLine
 10
-130.3843003995
 20
326.3664344975
 30
0.0
 11
169.7401611592
 21
326.3664344975
 31
0.0
  0
LINE
  5
9E
330
1F
100
AcDbEntity
  8
0
  6
SLD-Сплошная
 62
     7
370
    25
100
AcDbLine
 10
193.8583661594
 20
303.1446448819
 30
0.0
 11
193.8583661594
 21
-150.4117758869
 31
0.0
  0
LINE
  5
9F
330
1F
100
AcDbEntity
  8
0
  6
SLD-Сплошная
 62
     7
370
    25
100
AcDbLine
 10
169.7401611592
 20
-173.6335655025
 30
0.0
 11
-130.3843003995
 21
-173.6335655025
 31
0.0
  0
LINE
  5
A0
330
1F
100
AcDbEntity
  8
0
  6
SLD-Сплошная
 62
     7
370
    25
100
AcDbLine
 10
-156.1416338406
 20
306.3664344975
 30
0.0
 11
-156.1416338406
 21
249.3664344975
 31
0.0
  0
SPLINE
  5
A1
330
1F
100
AcDbEntity
  8
0
  6
SLD-Сплошная
 62
     7
370
    25
100
AcDbSpline
210
0.0
220
0.0
230
1.0
 70
     8
 71
     3
 72
     9
 73
     5
 74
     0
 42
0.00000001
 43
0.00000001
 40
0.0
 40
0.0
 40
0.0
 40
0.0
 40
0.4999279558717061
 40
1.0
 40
1.0
 40
1.0
 40
1.0
 10
-156.1416338405616
 20
306.3664344975109
 30
0.0
 10
-156.139092127432
 20
306.6266990621204
 30
0.0
 10
-156.1340079686051
 20
307.1473032042825
 30
0.0
 10
-156.098479577074
 20
307.666598561158
 30
0.0
 10
-156.0807128216965
 20
307.9262836517769
 30
0.0
  0
SPLINE
  5
A2
330
1F
100
AcDbEntity
  8
0
  6
SLD-Сплошная
 62
     7
370
    25
100
AcDbSpline
210
0.0
220
0.0
230
1.0
 70
     8
 71
     3
 72
     9
 73
     5
 74
     0
 42
0.00000001
 43
0.00000001
 40
0.0
 40
0.0
 40
0.0
 40
0.0
 40
0.5000720441320382
 40
1.0
 40
1.0
 40
1.0
 40
1.0
 10
-156.080712821696
 20
-155.1934146567561
 30
0.0
 10
-156.0984795770736
 20
-154.9337295661351
 30
0.0
 10
-156.1340079686047
 20
-154.4144342092598
 30
0.0
 10
-156.1390921274315
 20
-153.8938300670976
 30
0.0
 10
-156.1416338405611
 20
-153.6335655024901
 30
0.0
  0
LINE
  5
A3
330
1F
100
AcDbEntity
  8
0
  6
SLD-Сплошная
 62
     7
370
    25
100
AcDbLine
 10
-156.1416338406
 20
-96.6335655025
 30
0.0
 11
-156.1416338406
 21
-153.6335655025
 31
0.0
  0
ARC
  5
A4
330
1F
100
AcDbEntity
  8
0
  6
SLD-Сплошная
 62
     7
370
    25
100
AcDbCircle
 10
122.8583661594
 20
241.3664344975
 30
0.0
 40
20.95854811567349
100
AcDbArc
 50
0.0
 51
180.0
  0
ARC
  5
A5
330
1F
100
AcDbEntity
  8
0
  6
SLD-Сплошная
 62
     7
370
    25
100
AcDbCircle
 10
122.8583661594
 20
241.3664344975
 30
0.0
 40
20.95854811567349
100
AcDbArc
 50
180.0
 51
0.0
  0
ARC
  5
A6
330
1F
100
AcDbEntity
  8
0
  6
SLD-Сплошная
 62
     7
370
    25
100
AcDbCircle
 10
122.8583661594
 20
-88.6335655025
 30
0.0
 40
25.95854811567247
100
AcDbArc
 50
0.0
 51
180.0
  0
ARC
  5
A7
330
1F
100
AcDbEntity
  8
0
  6
SLD-Сплошная
 62
     7
370
    25
100
AcDbCircle
 10
122.8583661594
 20
-88.6335655025
 30
0.0
 40
25.95854811567247
100
AcDbArc
 50
180.0
 51
0.0
  0
LINE
  5
A8
330
1F
100
AcDbEntity
  8
0
  6
SLD-Сплошная
 62
     7
370
    25
100
AcDbLine
 10
-156.1416338406
 20
207.3664344975
 30
0.0
 11
-156.1416338406
 21
-54.6335655025
 31
0.0
  0
LINE
  5
A9
330
1F
100
AcDbEntity
  8
0
  6
SLD-Сплошная
 62
     7
370
    25
100
AcDbLine
 10
-157.1267994247
 20
-90.6335655025
 30
0.0
 11
-112.1416338406
 21
-90.6335655025
 31
0.0
  0
LINE
  5
AA
330
1F
100
AcDbEntity
  8
0
  6
SLD-Сплошная
 62
     7
370
    25
100
AcDbLine
 10
-157.1267994247
 20
-81.6335655025
 30
0.0
 11
-157.1267994247
 21
-90.6335655025
 31
0.0
  0
LINE
  5
AB
330
1F
100
AcDbEntity
  8
0
  6
SLD-Сплошная
 62
     7
370
    25
100
AcDbLine
 10
-145.1416338406
 20
-81.6335655025
 30
0.0
 11
-157.1267994247
 21
-81.6335655025
 31
0.0
  0
LINE
  5
AC
330
1F
100
AcDbEntity
  8
0
  6
SLD-Сплошная
 62
     7
370
    25
100
AcDbLine
 10
-145.1416338406
 20
-69.6335655025
 30
0.0
 11
-145.1416338406
 21
-81.6335655025
 31
0.0
  0
LINE
  5
AD
330
1F
100
AcDbEntity
  8
0
  6
SLD-Сплошная
 62
     7
370
    25
100
AcDbLine
 10
-156.1416338406
 20
-69.6335655025
 30
0.0
 11
-145.1416338406
 21
-69.6335655025
 31
0.0
  0
LINE
  5
AE
330
1F
100
AcDbEntity
  8
0
  6
SLD-Сплошная
 62
     7
370
    25
100
AcDbLine
 10
-156.1416338406
 20
-60.6335655025
 30
0.0
 11
-156.1416338406
 21
-69.6335655025
 31
0.0
  0
LINE
  5
AF
330
1F
100
AcDbEntity
  8
0
  6
SLD-Сплошная
 62
     7
370
    25
100
AcDbLine
 10
-145.1416338406
 20
234.3664344975
 30
0.0
 11
-145.1416338406
 21
222.3664344975
 31
0.0
  0
LINE
  5
B0
330
1F
100
AcDbEntity
  8
0
  6
SLD-Сплошная
 62
     7
370
    25
100
AcDbLine
 10
-156.1416338406
 20
234.3664344975
 30
0.0
 11
-145.1416338406
 21
234.3664344975
 31
0.0
  0
LINE
  5
B1
330
1F
100
AcDbEntity
  8
0
  6
SLD-Сплошная
 62
     7
370
    25
100
AcDbLine
 10
-156.1416338406
 20
243.3664344975
 30
0.0
 11
-156.1416338406
 21
234.3664344975
 31
0.0
  0
LINE
  5
B2
330
1F
100
AcDbEntity
  8
0
  6
SLD-Сплошная
 62
     7
370
    25
100
AcDbLine
 10
-156.1416338406
 20
222.3664344975
 30
0.0
 11
-156.1416338406
 21
213.3664344975
 31
0.0
  0
LINE
  5
B3
330
1F
100
AcDbEntity
  8
0
  6
SLD-Сплошная
 62
     7
370
    25
100
AcDbLine
 10
-145.1416338406
 20
222.3664344975
 30
0.0
 11
-156.1416338406
 21
222.3664344975
 31
0.0
  0
LINE
  5
B4
330
1F
100
AcDbEntity
  8
0
  6
SLD-Сплошная
 62
     7
370
    25
100
AcDbLine
 10
-147.1416338406
 20
-81.6335655025
 30
0.0
 11
-147.1416338406
 21
-69.6335655025
 31
0.0
  0
LINE
  5
B5
330
1F
100
AcDbEntity
  8
0
  6
SLD-Сплошная
 62
     7
370
    25
100
AcDbLine
 10
-147.1416338406
 20
-81.6335655025
 30
0.0
 11
-156.1416338406
 21
-81.6335655025
 31
0.0
  0
LINE
  5
B6
330
1F
100
AcDbEntity
  8
0
  6
SLD-Сплошная
 62
     7
370
    25
100
AcDbLine
 10
-156.1416338406
 20
-81.6335655025
 30
0.0
 11
-156.1416338406
 21
-69.6335655025
 31
0.0
  0
LINE
  5
B7
330
1F
100
AcDbEntity
  8
0
  6
SLD-Сплошная
 62
     7
370
    25
100
AcDbLine
 10
-147.1416338406
 20
-69.6335655025
 30
0.0
 11
-156.1416338406
 21
-69.6335655025
 31
0.0
  0
LINE
  5
B8
330
1F
100
AcDbEntity
  8
0
  6
SLD-Сплошная
 62
     7
370
    25
100
AcDbLine
 10
-147.1416338406
 20
234.3664344975
 30
0.0
 11
-156.1416338406
 21
234.3664344975
 31
0.0
  0
LINE
  5
B9
330
1F
100
AcDbEntity
  8
0
  6
SLD-Сплошная
 62
     7
370
    25
100
AcDbLine
 10
-147.1416338406
 20
222.3664344975
 30
0.0
 11
-147.1416338406
 21
234.3664344975
 31
0.0
  0
LINE
  5
BA
330
1F
100
AcDbEntity
  8
0
  6
SLD-Сплошная
 62
     7
370
    25
100
AcDbLine
 10
-147.1416338406
 20
222.3664344975
 30
0.0
 11
-156.1416338406
 21
222.3664344975
 31
0.0
  0
LINE
  5
BB
330
1F
100
AcDbEntity
  8
0
  6
SLD-Сплошная
 62
     7
370
    25
100
AcDbLine
 10
-156.1416338406
 20
222.3664344975
 30
0.0
 11
-156.1416338406
 21
234.3664344975
 31
0.0
  0
LINE
  5
BC
330
1F
100
AcDbEntity
  8
0
  6
SLD-Сплошная
 62
     7
370
    25
100
AcDbLine
 10
553.3384796518
 20
255.3664344975
 30
0.0
 11
550.3384796518
 21
255.3664344975
 31
0.0
  0
LINE
  5
BD
330
1F
100
AcDbEntity
  8
0
  6
SLD-Сплошная
 62
     7
370
    25
100
AcDbLine
 10
550.3384796518
 20
227.3664344975
 30
0.0
 11
553.3384796518
 21
227.3664344975
 31
0.0
  0
LINE
  5
BE
330
1F
100
AcDbEntity
  8
0
  6
SLD-Сплошная
 62
     7
370
    25
100
AcDbLine
 10
553.3384796518
 20
-74.6335655025
 30
0.0
 11
550.3384796518
 21
-74.6335655025
 31
0.0
  0
LINE
  5
BF
330
1F
100
AcDbEntity
  8
0
  6
SLD-Сплошная
 62
     7
370
    25
100
AcDbLine
 10
550.3384796518
 20
-102.6335655025
 30
0.0
 11
553.3384796518
 21
-102.6335655025
 31
0.0
  0
LINE
  5
C0
330
1F
100
AcDbEntity
  8
0
  6
SLD-Сплошная
 62
     7
370
    25
100
AcDbLine
 10
516.3384796518
 20
326.3334182214
 30
0.0
 11
326.3384796518
 21
319.3664344975
 31
0.0
  0
LINE
  5
C1
330
1F
100
AcDbEntity
  8
0
  6
SLD-Сплошная
 62
     7
370
    25
100
AcDbLine
 10
326.3384796518
 20
-166.6335655025
 30
0.0
 11
516.3384796518
 21
-173.6005492263
 31
0.0
  0
LINE
  5
C2
330
1F
100
AcDbEntity
  8
0
  6
SLD-Сплошная
 62
     7
370
    25
100
AcDbLine
 10
326.3384796518
 20
-101.2560534357
 30
0.0
 11
324.3384796518
 21
-101.2560534357
 31
0.0
  0
LINE
  5
C3
330
1F
100
AcDbEntity
  8
0
  6
SLD-Сплошная
 62
     7
370
    25
100
AcDbLine
 10
324.3384796518
 20
-116.2560534357
 30
0.0
 11
326.3384796518
 21
-116.2560534357
 31
0.0
  0
LINE
  5
C4
330
1F
100
AcDbEntity
  8
0
  6
SLD-Сплошная
 62
     7
370
    25
100
AcDbLine
 10
326.3384796518
 20
268.9889224308
 30
0.0
 11
324.3384796518
 21
268.9889224308
 31
0.0
  0
LINE
  5
C5
330
1F
100
AcDbEntity
  8
0
  6
SLD-Сплошная
 62
     7
370
    25
100
AcDbLine
 10
324.3384796518
 20
253.9889224308
 30
0.0
 11
326.3384796518
 21
253.9889224308
 31
0.0
  0
LINE
  5
C6
330
1F
100
AcDbEntity
  8
0
  6
SLD-Сплошная
 62
     7
370
    25
100
AcDbLine
 10
324.3384796518
 20
-146.2560534357
 30
0.0
 11
326.3384796518
 21
-146.2560534357
 31
0.0
  0
LINE
  5
C7
330
1F
100
AcDbEntity
  8
0
  6
SLD-Сплошная
 62
     7
370
    25
100
AcDbLine
 10
326.3384796518
 20
-131.2560534357
 30
0.0
 11
324.3384796518
 21
-131.2560534357
 31
0.0
  0
LINE
  5
C8
330
1F
100
AcDbEntity
  8
0
  6
SLD-Сплошная
 62
     7
370
    25
100
AcDbLine
 10
324.3384796518
 20
283.9889224308
 30
0.0
 11
326.3384796518
 21
283.9889224308
 31
0.0
  0
LINE
  5
C9
330
1F
100
AcDbEntity
  8
0
  6
SLD-Сплошная
 62
     7
370
    25
100
AcDbLine
 10
326.3384796518
 20
298.9889224308
 30
0.0
 11
324.3384796518
 21
298.9889224308
 31
0.0
  0
SPLINE
  5
CA
330
1F
100
AcDbEntity
  8
0
  6
SLD-Сплошная
 62
     7
370
    25
100
AcDbSpline
210
0.0
220
0.0
230
1.0
 70
     8
 71
     3
 72
    36
 73
    32
 74
     0
 42
0.00000001
 43
0.00000001
 40
0.0
 40
0.0
 40
0.0
 40
0.0
 40
0.0187046895550511
 40
0.0353722716793649
 40
0.0500072122372559
 40
0.0626707119310902
 40
0.0782127725576072
 40
0.1089868760802349
 40
0.1398352647141766
 40
0.1763361527453554
 40
0.2129751638978891
 40
0.2498581959215441
 40
0.2998994645682985
 40
0.3496841383512629
 40
0.3994623629585465
 40
0.4494843798269531
 40
0.4999968062159927
 40
0.5502059316046066
 40
0.6000838537264902
 40
0.6498706880629613
 40
0.6998078640565758
 40
0.7501346475210763
 40
0.7964395605558213
 40
0.8430994729206662
 40
0.890673074576338
 40
0.9092192081101707
 40
0.9271861565099281
 40
0.9428310822036238
 40
0.9582974448287941
 40
0.9773525777267896
 40
0.9999999999999999
 40
0.9999999999999999
 40
0.9999999999999999
 40
0.9999999999999999
 10
539.2037035115346
 20
326.3664344975106
 30
0.0
 10
539.1966541695775
 20
326.3627279885913
 30
0.0
 10
539.1833232218419
 20
326.3557186426146
 30
0.0
 10
539.165902796621
 20
326.336954671832
 30
0.0
 10
539.1523345230945
 20
326.3132550552035
 30
0.0
 10
539.1425372106778
 20
326.2793558084851
 30
0.0
 10
539.1342157436181
 20
326.2163815191342
 30
0.0
 10
539.1292993251622
 20
326.1091293705088
 30
0.0
 10
539.1327640241128
 20
325.9290177142664
 30
0.0
 10
539.1464286816442
 20
325.687224947259
 30
0.0
 10
539.1704459830718
 20
325.373233428656
 30
0.0
 10
539.2057894651177
 20
324.9561726569605
 30
0.0
 10
539.2519006721628
 20
324.4143175392779
 30
0.0
 10
539.3072533390949
 20
323.721728623149
 30
0.0
 10
539.3639092641469
 20
322.9318633753966
 30
0.0
 10
539.4182551087274
 20
322.0446068487141
 30
0.0
 10
539.4662493886894
 20
321.0666904880412
 30
0.0
 10
539.5041351622052
 20
320.0089761863491
 30
0.0
 10
539.5309852304649
 20
318.8799713448146
 30
0.0
 10
539.5461400452295
 20
317.6826678501126
 30
0.0
 10
539.5491778429113
 20
316.4180258433901
 30
0.0
 10
539.5396496864262
 20
315.1284590399973
 30
0.0
 10
539.5195294001194
 20
313.8232598605185
 30
0.0
 10
539.4915663508119
 20
312.5066602673263
 30
0.0
 10
539.4626349413004
 20
311.4267546443655
 30
0.0
 10
539.4389310633609
 20
310.6120574740252
 30
0.0
 10
539.4242218510865
 20
310.1033558658128
 30
0.0
 10
539.4109639882694
 20
309.6219750300479
 30
0.0
 10
539.3987530635261
 20
309.1274762150832
 30
0.0
 10
539.3832980045821
 20
308.5628600038223
 30
0.0
 10
539.3687292290754
 20
308.1503212354166
 30
0.0
 10
539.3608173586985
 20
307.9262836517769
 30
0.0
  0
SPLINE
  5
CB
330
1F
100
AcDbEntity
  8
0
  6
SLD-Сплошная
 62
     7
370
    25
100
AcDbSpline
210
0.0
220
0.0
230
1.0
 70
     8
 71
     3
 72
     9
 73
     5
 74
     0
 42
0.00000001
 43
0.00000001
 40
0.0
 40
0.0
 40
0.0
 40
0.0
 40
0.4971737970783184
 40
1.0
 40
1.0
 40
1.0
 40
1.0
 10
539.3384796517819
 20
326.3664344975107
 30
0.0
 10
539.3318165649719
 20
326.3681212484137
 30
0.0
 10
539.3184146382229
 20
326.3715139270162
 30
0.0
 10
539.2420843703148
 20
326.3681340089021
 30
0.0
 10
539.2037035115346
 20
326.3664344975106
 30
0.0
  0
LINE
  5
CC
330
1F
100
AcDbEntity
  8
0
  6
SLD-Сплошная
 62
     7
370
    25
100
AcDbLine
 10
550.3384796518
 20
306.3664344975
 30
0.0
 11
539.3384796518
 21
326.3664344975
 31
0.0
  0
SPLINE
  5
CD
330
1F
100
AcDbEntity
  8
0
  6
SLD-Сплошная
 62
     7
370
    25
100
AcDbSpline
210
0.0
220
0.0
230
1.0
 70
     8
 71
     3
 72
    54
 73
    50
 74
     0
 42
0.00000001
 43
0.00000001
 40
0.0
 40
0.0
 40
0.0
 40
0.0
 40
0.0141292374168499
 40
0.027120761751392
 40
0.0389762311893467
 40
0.0496978314184541
 40
0.0592885237700509
 40
0.0701174808741375
 40
0.0886646494574796
 40
0.1069169719488628
 40
0.1248940848362505
 40
0.1569619873651457
 40
0.1883767124312446
 40
0.2192788956136399
 40
0.2498162546347407
 40
0.2801520266789103
 40
0.3104653176264414
 40
0.3409082260548966
 40
0.3716309255140394
 40
0.3871455101412503
 40
0.4027843642192295
 40
0.4185648136828817
 40
0.4345037227221633
 40
0.4506174580164796
 40
0.4669218597716208
 40
0.4834322194205194
 40
0.5001632636964722
 40
0.5426968290726469
 40
0.5869462575902763
 40
0.6330865590021291
 40
0.6517670385007606
 40
0.670771826010097
 40
0.6901090389204294
 40
0.7097863832252914
 40
0.7298111722512196
 40
0.7501903452732521
 40
0.7674610855875046
 40
0.7847975288139697
 40
0.8022028003949487
 40
0.8196799888476629
 40
0.8372321447259613
 40
0.8548622796692917
 40
0.8725733655383959
 40
0.8857878610480965
 40
0.90357181866431
 40
0.9238834524246503
 40
0.946724572802039
 40
0.9720964479213671
 40
1.0
 40
1.0
 40
1.0
 40
1.0
 10
550.3384796517819
 20
287.9668976643535
 30
0.0
 10
550.3392378498698
 20
288.1358228942831
 30
0.0
 10
550.3406931944929
 20
288.4600711731927
 30
0.0
 10
550.3407366160429
 20
288.9258981093437
 30
0.0
 10
550.3399570590324
 20
289.3507745377549
 30
0.0
 10
550.3388688639146
 20
289.7346943017492
 30
0.0
 10
550.3380641813322
 20
290.1058723627051
 30
0.0
 10
550.3384299848537
 20
290.5691644306776
 30
0.0
 10
550.3384674359821
 20
291.1338349589361
 30
0.0
 10
550.338552762389
 20
291.7798959333247
 30
0.0
 10
550.3385225919939
 20
292.5801623382964
 30
0.0
 10
550.3384643136159
 20
293.5241088555651
 30
0.0
 10
550.3384354037511
 20
294.5957537240096
 30
0.0
 10
550.3384665878127
 20
295.6223428862116
 30
0.0
 10
550.3386672814507
 20
296.603372006551
 30
0.0
 10
550.3389111667153
 20
297.5389498367866
 30
0.0
 10
550.3390032424896
 20
298.4293700831228
 30
0.0
 10
550.3390033143792
 20
299.2743157892919
 30
0.0
 10
550.3389313481771
 20
299.93808716045
 30
0.0
 10
550.3388479596294
 20
300.4452388839972
 30
0.0
 10
550.3387766224564
 20
300.8153168002532
 30
0.0
 10
550.3387021309184
 20
301.1737600689231
 30
0.0
 10
550.3386305588062
 20
301.5205251720951
 30
0.0
 10
550.3385684597882
 20
301.8555591305175
 30
0.0
 10
550.3385238189576
 20
302.1788091544864
 30
0.0
 10
550.3385023369119
 20
302.4902339550691
 30
0.0
 10
550.3385313868871
 20
302.9422724427214
 30
0.0
 10
550.338628231312
 20
303.5024894355649
 30
0.0
 10
550.3387124542799
 20
304.121449346874
 30
0.0
 10
550.3387482691476
 20
304.5509633981403
 30
0.0
 10
550.3387567662096
 20
304.8419209918505
 30
0.0
 10
550.3387574750865
 20
305.025031673912
 30
0.0
 10
550.3387536468538
 20
305.1966476451723
 30
0.0
 10
550.338752266744
 20
305.3567109119766
 30
0.0
 10
550.3387391958272
 20
305.5052086680566
 30
0.0
 10
550.3387816461412
 20
305.6341852399055
 30
0.0
 10
550.3386674233303
 20
305.7460884074003
 30
0.0
 10
550.338328922277
 20
305.8428953839135
 30
0.0
 10
550.3379256626006
 20
305.9309540810783
 30
0.0
 10
550.3375552253488
 20
306.0103118517308
 30
0.0
 10
550.3373168113005
 20
306.0810070982833
 30
0.0
 10
550.3373649111135
 20
306.1429662300468
 30
0.0
 10
550.337599915941
 20
306.1919602270538
 30
0.0
 10
550.3386310274842
 20
306.2331918191634
 30
0.0
 10
550.3410754543883
 20
306.2674837216338
 30
0.0
 10
550.3436643641394
 20
306.2999128241373
 30
0.0
 10
550.3451250471021
 20
306.3279211401144
 30
0.0
 10
550.3443425723768
 20
306.3513696857383
 30
0.0
 10
550.3404949063668
 20
306.3612562880333
 30
0.0
 10
550.3384796517824
 20
306.3664344975104
 30
0.0
  0
LINE
  5
CE
330
1F
100
AcDbEntity
  8
0
  6
SLD-Сплошная
 62
     7
370
    25
100
AcDbLine
 10
526.3384796518
 20
306.3664344975
 30
0.0
 11
526.3384796518
 21
326.3664344975
 31
0.0
  0
LINE
  5
CF
330
1F
100
AcDbEntity
  8
0
  6
SLD-Сплошная
 62
     7
370
    25
100
AcDbLine
 10
539.2037035115
 20
326.3664344975
 30
0.0
 11
526.3384796518
 21
326.3664344975
 31
0.0
  0
SPLINE
  5
D0
330
1F
100
AcDbEntity
  8
0
  6
SLD-Сплошная
 62
     7
370
    25
100
AcDbSpline
210
0.0
220
0.0
230
1.0
 70
     8
 71
     3
 72
     9
 73
     5
 74
     0
 42
0.00000001
 43
0.00000001
 40
0.0
 40
0.0
 40
0.0
 40
0.0
 40
0.4999279558717061
 40
1.0
 40
1.0
 40
1.0
 40
1.0
 10
539.3384796517811
 20
306.3664344975109
 30
0.0
 10
539.3401098656653
 20
306.6266990621203
 30
0.0
 10
539.3433707632912
 20
307.1473032042825
 30
0.0
 10
539.3550012682896
 20
307.6665985611579
 30
0.0
 10
539.3608173586983
 20
307.9262836517769
 30
0.0
  0
SPLINE
  5
D1
330
1F
100
AcDbEntity
  8
0
  6
SLD-Сплошная
 62
     7
370
    25
100
AcDbSpline
210
0.0
220
0.0
230
1.0
 70
     8
 71
     3
 72
     9
 73
     5
 74
     0
 42
0.00000001
 43
0.00000001
 40
0.0
 40
0.0
 40
0.0
 40
0.0
 40
0.5028262029218413
 40
1.0
 40
1.0
 40
1.0
 40
1.0
 10
539.2037035115341
 20
-173.63356550249
 30
0.0
 10
539.2420843703143
 20
-173.6352650138815
 30
0.0
 10
539.3184146382224
 20
-173.6386449319956
 30
0.0
 10
539.3318165649712
 20
-173.6352522533932
 30
0.0
 10
539.3384796517811
 20
-173.6335655024901
 30
0.0
  0
SPLINE
  5
D2
330
1F
100
AcDbEntity
  8
0
  6
SLD-Сплошная
 62
     7
370
    25
100
AcDbSpline
210
0.0
220
0.0
230
1.0
 70
     8
 71
     3
 72
    36
 73
    32
 74
     0
 42
0.00000001
 43
0.00000001
 40
0.0
 40
0.0
 40
0.0
 40
0.0
 40
0.019029531073474
 40
0.0349864656598709
 40
0.0478740959251902
 40
0.0622356377049291
 40
0.0777744652950508
 40
0.1091504471101871
 40
0.1399488415345385
 40
0.1765636381945317
 40
0.2133845159777976
 40
0.250303144626255
 40
0.3002425914539757
 40
0.3499404524093211
 40
0.3996397035422675
 40
0.4495833006131271
 40
0.5000106677776017
 40
0.5502934730175829
 40
0.6002418513526707
 40
0.6501016911391868
 40
0.7001201872518815
 40
0.7503652370499068
 40
0.7853154069834128
 40
0.820182640557817
 40
0.8553139557745267
 40
0.891017479931949
 40
0.912600824662308
 40
0.931565398830557
 40
0.9503233570317002
 40
0.97313153664374
 40
1.0
 40
1.0
 40
1.0
 40
1.0
 10
539.3608173586977
 20
-155.1934146567561
 30
0.0
 10
539.3670058281328
 20
-155.3818376719601
 30
0.0
 10
539.3783835479801
 20
-155.7282600470314
 30
0.0
 10
539.3912101296241
 20
-156.2015753379632
 30
0.0
 10
539.4024683839917
 20
-156.6278652674161
 30
0.0
 10
539.4150588723919
 20
-157.0481140592436
 30
0.0
 10
539.4329666046107
 20
-157.6475215778783
 30
0.0
 10
539.4548412173492
 20
-158.4026383334522
 30
0.0
 10
539.4801280926604
 20
-159.3519653508432
 30
0.0
 10
539.5036575908487
 20
-160.3389580055503
 30
0.0
 10
539.5239482112912
 20
-161.3636291012929
 30
0.0
 10
539.5397576359305
 20
-162.4867502844281
 30
0.0
 10
539.5479926581172
 20
-163.6890262536872
 30
0.0
 10
539.5451462698069
 20
-164.9475373860886
 30
0.0
 10
539.5304823466602
 20
-166.1423485803873
 30
0.0
 10
539.5041546671898
 20
-167.2722074537957
 30
0.0
 10
539.4664040141433
 20
-168.3302607451917
 30
0.0
 10
539.4185528641517
 20
-169.3076713430854
 30
0.0
 10
539.3647294446706
 20
-170.1931993661091
 30
0.0
 10
539.3082786659146
 20
-170.9842414486816
 30
0.0
 10
539.2524739137723
 20
-171.6801453129443
 30
0.0
 10
539.2061522890818
 20
-172.2176246019818
 30
0.0
 10
539.1719569229707
 20
-172.6235113108772
 30
0.0
 10
539.1486570632076
 20
-172.9265796129011
 30
0.0
 10
539.1339722202704
 20
-173.1780444037299
 30
0.0
 10
539.1287150539139
 20
-173.3538046067127
 30
0.0
 10
539.1319750094033
 20
-173.4658273495077
 30
0.0
 10
539.139536043272
 20
-173.5337654310694
 30
0.0
 10
539.1558486578541
 20
-173.5772186201451
 30
0.0
 10
539.1776906899015
 20
-173.6115528607348
 30
0.0
 10
539.1945726267736
 20
-173.6258387399735
 30
0.0
 10
539.2037035115341
 20
-173.63356550249
 30
0.0
  0
SPLINE
  5
D3
330
1F
100
AcDbEntity
  8
0
  6
SLD-Сплошная
 62
     7
370
    25
100
AcDbSpline
210
0.0
220
0.0
230
1.0
 70
     8
 71
     3
 72
    53
 73
    49
 74
     0
 42
0.00000001
 43
0.00000001
 40
0.0
 40
0.0
 40
0.0
 40
0.0
 40
0.0307329085790553
 40
0.0590165202454741
 40
0.0848537771903715
 40
0.0989353542056988
 40
0.1121697381036051
 40
0.1245581281321522
 40
0.140666800752425
 40
0.1569757806734164
 40
0.1730394725800609
 40
0.1888597793179028
 40
0.20443869291569
 40
0.2197782994457131
 40
0.234880784145448
 40
0.2497484368087755
 40
0.300899602570139
 40
0.3498335616634377
 40
0.3966795878788635
 40
0.4101072471802073
 40
0.4233704582400434
 40
0.4364734640325593
 40
0.4494206650372443
 40
0.4622166224765648
 40
0.4748660611834082
 40
0.4873738720343783
 40
0.4997451138817112
 40
0.5329885691600253
 40
0.5654058540425082
 40
0.597121400021277
 40
0.6282680501072666
 40
0.6589860289420714
 40
0.6894214867681048
 40
0.7197246618448777
 40
0.7500477587127019
 40
0.7743665018800707
 40
0.7989545674327095
 40
0.8238876205607688
 40
0.8492382375399475
 40
0.8750754761002756
 40
0.890519785832789
 40
0.9060660039899491
 40
0.9217299162853053
 40
0.9375269556074207
 40
0.949243175372444
 40
0.9635590810258702
 40
0.9804774652027743
 40
1.0
 40
1.0
 40
1.0
 40
1.0
 10
550.3384796517818
 20
-153.6335655024903
 30
0.0
 10
550.3397614960301
 20
-153.6294248791682
 30
0.0
 10
550.3422230263742
 20
-153.6214736245876
 30
0.0
 10
550.3419629505023
 20
-153.5949624109155
 30
0.0
 10
550.3405860889883
 20
-153.5634549422168
 30
0.0
 10
550.339325579601
 20
-153.5309773165059
 30
0.0
 10
550.3385389991344
 20
-153.5021787382844
 30
0.0
 10
550.338362323133
 20
-153.4662694513932
 30
0.0
 10
550.3386673805295
 20
-153.4213684841647
 30
0.0
 10
550.3387197166505
 20
-153.3665340906978
 30
0.0
 10
550.3387512236689
 20
-153.3050742723855
 30
0.0
 10
550.3387174861073
 20
-153.2376559887019
 30
0.0
 10
550.3386562408397
 20
-153.1642762591438
 30
0.0
 10
550.3385852581431
 20
-153.0849721031882
 30
0.0
 10
550.3385236236372
 20
-152.999778755655
 30
0.0
 10
550.3384908073683
 20
-152.834135680863
 30
0.0
 10
550.3385513702881
 20
-152.5573524855029
 30
0.0
 10
550.3386138470283
 20
-152.1126160187344
 30
0.0
 10
550.3386414831376
 20
-151.7096017396776
 30
0.0
 10
550.3386380133699
 20
-151.4042765832906
 30
0.0
 10
550.3386309730122
 20
-151.2306565377566
 30
0.0
 10
550.3386187035579
 20
-151.0507159792879
 30
0.0
 10
550.3386014429601
 20
-150.8644745219737
 30
0.0
 10
550.3385797311009
 20
-150.6719532567915
 30
0.0
 10
550.3385537875197
 20
-150.4731751672306
 30
0.0
 10
550.3385259784484
 20
-150.2681543152863
 30
0.0
 10
550.3384723190603
 20
-149.9374223878196
 30
0.0
 10
550.3384596226308
 20
-149.4598817911095
 30
0.0
 10
550.3385494044643
 20
-148.8013478438305
 30
0.0
 10
550.3386731475364
 20
-148.0956789473007
 30
0.0
 10
550.3387877321757
 20
-147.3432828240972
 30
0.0
 10
550.338857422417
 20
-146.5445803974906
 30
0.0
 10
550.3388526802271
 20
-145.7000231807386
 30
0.0
 10
550.338775766648
 20
-144.810070541394
 30
0.0
 10
550.3385749421204
 20
-143.9386232513347
 30
0.0
 10
550.3384692791799
 20
-143.0953073064098
 30
0.0
 10
550.3384935936829
 20
-142.2869518822345
 30
0.0
 10
550.3384439895622
 20
-141.4479578312278
 30
0.0
 10
550.3382635987498
 20
-140.5785009293842
 30
0.0
 10
550.3377065276719
 20
-139.8058404512292
 30
0.0
 10
550.3373708966708
 20
-139.1405571819593
 30
0.0
 10
550.3377390161191
 20
-138.5907910044788
 30
0.0
 10
550.3387731286119
 20
-138.0340161931467
 30
0.0
 10
550.3402737600746
 20
-137.5205747861736
 30
0.0
 10
550.342789069989
 20
-137.021852426804
 30
0.0
 10
550.3446035604103
 20
-136.509145849154
 30
0.0
 10
550.344404117855
 20
-135.90284333001
 30
0.0
 10
550.3405463683129
 20
-135.4673408866118
 30
0.0
 10
550.3384796517811
 20
-135.2340286693334
 30
0.0
  0
LINE
  5
D4
330
1F
100
AcDbEntity
  8
0
  6
SLD-Сплошная
 62
     7
370
    25
100
AcDbLine
 10
539.3384796518
 20
-173.6335655025
 30
0.0
 11
550.3384796518
 21
-153.6335655025
 31
0.0
  0
LINE
  5
D5
330
1F
100
AcDbEntity
  8
0
  6
SLD-Сплошная
 62
     7
370
    25
100
AcDbLine
 10
526.3384796518
 20
-173.6335655025
 30
0.0
 11
526.3384796518
 21
-153.6335655025
 31
0.0
  0
SPLINE
  5
D6
330
1F
100
AcDbEntity
  8
0
  6
SLD-Сплошная
 62
     7
370
    25
100
AcDbSpline
210
0.0
220
0.0
230
1.0
 70
     8
 71
     3
 72
     9
 73
     5
 74
     0
 42
0.00000001
 43
0.00000001
 40
0.0
 40
0.0
 40
0.0
 40
0.0
 40
0.5000720441320382
 40
1.0
 40
1.0
 40
1.0
 40
1.0
 10
539.3608173586975
 20
-155.1934146567561
 30
0.0
 10
539.3550012682888
 20
-154.9337295661352
 30
0.0
 10
539.3433707632905
 20
-154.4144342092598
 30
0.0
 10
539.3401098656648
 20
-153.8938300670977
 30
0.0
 10
539.3384796517804
 20
-153.6335655024901
 30
0.0
  0
LINE
  5
D7
330
1F
100
AcDbEntity
  8
0
  6
SLD-Сплошная
 62
     7
370
    25
100
AcDbLine
 10
526.3384796518
 20
-173.6335655025
 30
0.0
 11
539.2037035115
 21
-173.6335655025
 31
0.0
  0
LINE
  5
D8
330
1F
100
AcDbEntity
  8
0
  6
SLD-Сплошная
 62
     7
370
    25
100
AcDbLine
 10
550.3384796518
 20
-135.2340286693
 30
0.0
 11
550.3384796518
 21
-96.6335655025
 31
0.0
  0
LINE
  5
D9
330
1F
100
AcDbEntity
  8
0
  6
SLD-Сплошная
 62
     7
370
    25
100
AcDbLine
 10
539.3384796518
 20
-96.6335655025
 30
0.0
 11
539.3384796518
 21
-153.6335655025
 31
0.0
  0
LINE
  5
DA
330
1F
100
AcDbEntity
  8
0
  6
SLD-Сплошная
 62
     7
370
    25
100
AcDbLine
 10
541.3384796518
 20
-90.6335655025
 30
0.0
 11
526.3384796518
 21
-90.6335655025
 31
0.0
  0
LINE
  5
DB
330
1F
100
AcDbEntity
  8
0
  6
SLD-Сплошная
 62
     7
370
    25
100
AcDbLine
 10
550.3384796518
 20
-96.6335655025
 30
0.0
 11
550.3384796518
 21
-90.6335655025
 31
0.0
  0
LINE
  5
DC
330
1F
100
AcDbEntity
  8
0
  6
SLD-Сплошная
 62
     7
370
    25
100
AcDbLine
 10
550.3384796518
 20
-96.6335655025
 30
0.0
 11
539.3384796518
 21
-96.6335655025
 31
0.0
  0
LINE
  5
DD
330
1F
100
AcDbEntity
  8
0
  6
SLD-Сплошная
 62
     7
370
    25
100
AcDbLine
 10
526.3384796518
 20
-153.6335655025
 30
0.0
 11
526.3384796518
 21
-90.6335655025
 31
0.0
  0
LINE
  5
DE
330
1F
100
AcDbEntity
  8
0
  6
SLD-Сплошная
 62
     7
370
    25
100
AcDbLine
 10
526.3384796518
 20
243.3664344975
 30
0.0
 11
526.3384796518
 21
306.3664344975
 31
0.0
  0
LINE
  5
DF
330
1F
100
AcDbEntity
  8
0
  6
SLD-Сплошная
 62
     7
370
    25
100
AcDbLine
 10
539.3384796518
 20
306.3664344975
 30
0.0
 11
539.3384796518
 21
249.3664344975
 31
0.0
  0
LINE
  5
E0
330
1F
100
AcDbEntity
  8
0
  6
SLD-Сплошная
 62
     7
370
    25
100
AcDbLine
 10
539.3384796518
 20
249.3664344975
 30
0.0
 11
550.3384796518
 21
249.3664344975
 31
0.0
  0
LINE
  5
E1
330
1F
100
AcDbEntity
  8
0
  6
SLD-Сплошная
 62
     7
370
    25
100
AcDbLine
 10
550.3384796518
 20
243.3664344975
 30
0.0
 11
550.3384796518
 21
249.3664344975
 31
0.0
  0
LINE
  5
E2
330
1F
100
AcDbEntity
  8
0
  6
SLD-Сплошная
 62
     7
370
    25
100
AcDbLine
 10
526.3384796518
 20
243.3664344975
 30
0.0
 11
550.3384796518
 21
243.3664344975
 31
0.0
  0
LINE
  5
E3
330
1F
100
AcDbEntity
  8
0
  6
SLD-Сплошная
 62
     7
370
    25
100
AcDbLine
 10
550.3384796518
 20
249.3664344975
 30
0.0
 11
550.3384796518
 21
287.9668976644
 31
0.0
  0
LINE
  5
E4
330
1F
100
AcDbEntity
  8
0
  6
SLD-Сплошная
 62
     7
370
    25
100
AcDbLine
 10
550.3384796518
 20
213.3664344975
 30
0.0
 11
526.3384796518
 21
213.3664344975
 31
0.0
  0
LINE
  5
E5
330
1F
100
AcDbEntity
  8
0
  6
SLD-Сплошная
 62
     7
370
    25
100
AcDbLine
 10
550.3384796518
 20
207.3664344975
 30
0.0
 11
539.3384796518
 21
207.3664344975
 31
0.0
  0
LINE
  5
E6
330
1F
100
AcDbEntity
  8
0
  6
SLD-Сплошная
 62
     7
370
    25
100
AcDbLine
 10
539.3384796518
 20
207.3664344975
 30
0.0
 11
539.3384796518
 21
-54.6335655025
 31
0.0
  0
LINE
  5
E7
330
1F
100
AcDbEntity
  8
0
  6
SLD-Сплошная
 62
     7
370
    25
100
AcDbLine
 10
539.3384796518
 20
-54.6335655025
 30
0.0
 11
550.3384796518
 21
-54.6335655025
 31
0.0
  0
LINE
  5
E8
330
1F
100
AcDbEntity
  8
0
  6
SLD-Сплошная
 62
     7
370
    25
100
AcDbLine
 10
526.3384796518
 20
-60.6335655025
 30
0.0
 11
550.3384796518
 21
-60.6335655025
 31
0.0
  0
LINE
  5
E9
330
1F
100
AcDbEntity
  8
0
  6
SLD-Сплошная
 62
     7
370
    25
100
AcDbLine
 10
526.3384796518
 20
-60.6335655025
 30
0.0
 11
526.3384796518
 21
213.3664344975
 31
0.0
  0
LINE
  5
EA
330
1F
100
AcDbEntity
  8
0
  6
SLD-Сплошная
 62
     7
370
    25
100
AcDbLine
 10
550.3384796518
 20
-60.6335655025
 30
0.0
 11
550.3384796518
 21
-54.6335655025
 31
0.0
  0
LINE
  5
EB
330
1F
100
AcDbEntity
  8
0
  6
SLD-Сплошная
 62
     7
370
    25
100
AcDbLine
 10
550.3384796518
 20
207.3664344975
 30
0.0
 11
550.3384796518
 21
213.3664344975
 31
0.0
  0
LINE
  5
EC
330
1F
100
AcDbEntity
  8
0
  6
SLD-Сплошная
 62
     7
370
    25
100
AcDbLine
 10
550.3384796518
 20
-54.6335655025
 30
0.0
 11
550.3384796518
 21
207.3664344975
 31
0.0
  0
LINE
  5
ED
330
1F
100
AcDbEntity
  8
0
  6
SLD-Сплошная
 62
     7
370
    25
100
AcDbLine
 10
553.3384796518
 20
241.3664344975
 30
0.0
 11
553.3384796518
 21
255.3664344975
 31
0.0
  0
LINE
  5
EE
330
1F
100
AcDbEntity
  8
0
  6
SLD-Сплошная
 62
     7
370
    25
100
AcDbLine
 10
553.3384796518
 20
227.3664344975
 30
0.0
 11
553.3384796518
 21
241.3664344975
 31
0.0
  0
LINE
  5
EF
330
1F
100
AcDbEntity
  8
0
  6
SLD-Сплошная
 62
     7
370
    25
100
AcDbLine
 10
553.3384796518
 20
-88.6335655025
 30
0.0
 11
553.3384796518
 21
-74.6335655025
 31
0.0
  0
LINE
  5
F0
330
1F
100
AcDbEntity
  8
0
  6
SLD-Сплошная
 62
     7
370
    25
100
AcDbLine
 10
553.3384796518
 20
-102.6335655025
 30
0.0
 11
553.3384796518
 21
-88.6335655025
 31
0.0
  0
LINE
  5
F1
330
1F
100
AcDbEntity
  8
0
  6
SLD-Сплошная
 62
     7
370
    25
100
AcDbLine
 10
541.3384796518
 20
-81.6335655025
 30
0.0
 11
541.3384796518
 21
-90.6335655025
 31
0.0
  0
LINE
  5
F2
330
1F
100
AcDbEntity
  8
0
  6
SLD-Сплошная
 62
     7
370
    25
100
AcDbLine
 10
550.3384796518
 20
-81.6335655025
 30
0.0
 11
541.3384796518
 21
-81.6335655025
 31
0.0
  0
LINE
  5
F3
330
1F
100
AcDbEntity
  8
0
  6
SLD-Сплошная
 62
     7
370
    25
100
AcDbLine
 10
550.3384796518
 20
-81.6335655025
 30
0.0
 11
550.3384796518
 21
-90.6335655025
 31
0.0
  0
LINE
  5
F4
330
1F
100
AcDbEntity
  8
0
  6
SLD-Сплошная
 62
     7
370
    25
100
AcDbLine
 10
550.3384796518
 20
-90.6335655025
 30
0.0
 11
541.3384796518
 21
-90.6335655025
 31
0.0
  0
LINE
  5
F5
330
1F
100
AcDbEntity
  8
0
  6
SLD-Сплошная
 62
     7
370
    25
100
AcDbLine
 10
541.3384796518
 20
-60.6335655025
 30
0.0
 11
550.3384796518
 21
-60.6335655025
 31
0.0
  0
LINE
  5
F6
330
1F
100
AcDbEntity
  8
0
  6
SLD-Сплошная
 62
     7
370
    25
100
AcDbLine
 10
550.3384796518
 20
-69.6335655025
 30
0.0
 11
541.3384796518
 21
-69.6335655025
 31
0.0
  0
LINE
  5
F7
330
1F
100
AcDbEntity
  8
0
  6
SLD-Сплошная
 62
     7
370
    25
100
AcDbLine
 10
550.3384796518
 20
-60.6335655025
 30
0.0
 11
550.3384796518
 21
-69.6335655025
 31
0.0
  0
LINE
  5
F8
330
1F
100
AcDbEntity
  8
0
  6
SLD-Сплошная
 62
     7
370
    25
100
AcDbLine
 10
541.3384796518
 20
-60.6335655025
 30
0.0
 11
541.3384796518
 21
-69.6335655025
 31
0.0
  0
LINE
  5
F9
330
1F
100
AcDbEntity
  8
0
  6
SLD-Сплошная
 62
     7
370
    25
100
AcDbLine
 10
541.3384796518
 20
222.3664344975
 30
0.0
 11
541.3384796518
 21
213.3664344975
 31
0.0
  0
LINE
  5
FA
330
1F
100
AcDbEntity
  8
0
  6
SLD-Сплошная
 62
     7
370
    25
100
AcDbLine
 10
550.3384796518
 20
222.3664344975
 30
0.0
 11
541.3384796518
 21
222.3664344975
 31
0.0
  0
LINE
  5
FB
330
1F
100
AcDbEntity
  8
0
  6
SLD-Сплошная
 62
     7
370
    25
100
AcDbLine
 10
541.3384796518
 20
213.3664344975
 30
0.0
 11
550.3384796518
 21
213.3664344975
 31
0.0
  0
LINE
  5
FC
330
1F
100
AcDbEntity
  8
0
  6
SLD-Сплошная
 62
     7
370
    25
100
AcDbLine
 10
550.3384796518
 20
222.3664344975
 30
0.0
 11
550.3384796518
 21
213.3664344975
 31
0.0
  0
LINE
  5
FD
330
1F
100
AcDbEntity
  8
0
  6
SLD-Сплошная
 62
     7
370
    25
100
AcDbLine
 10
541.3384796518
 20
243.3664344975
 30
0.0
 11
541.3384796518
 21
234.3664344975
 31
0.0
  0
LINE
  5
FE
330
1F
100
AcDbEntity
  8
0
  6
SLD-Сплошная
 62
     7
370
    25
100
AcDbLine
 10
550.3384796518
 20
234.3664344975
 30
0.0
 11
541.3384796518
 21
234.3664344975
 31
0.0
  0
LINE
  5
FF
330
1F
100
AcDbEntity
  8
0
  6
SLD-Сплошная
 62
     7
370
    25
100
AcDbLine
 10
541.3384796518
 20
243.3664344975
 30
0.0
 11
550.3384796518
 21
243.3664344975
 31
0.0
  0
LINE
  5
100
330
1F
100
AcDbEntity
  8
0
  6
SLD-Сплошная
 62
     7
370
    25
100
AcDbLine
 10
550.3384796518
 20
243.3664344975
 30
0.0
 11
550.3384796518
 21
234.3664344975
 31
0.0
  0
LINE
  5
101
330
1F
100
AcDbEntity
  8
0
  6
SLD-Сплошная
 62
     7
370
    25
100
AcDbLine
 10
550.3384796518
 20
-81.6335655025
 30
0.0
 11
550.3384796518
 21
-69.6335655025
 31
0.0
  0
LINE
  5
102
330
1F
100
AcDbEntity
  8
0
  6
SLD-Сплошная
 62
     7
370
    25
100
AcDbLine
 10
539.3384796518
 20
-81.6335655025
 30
0.0
 11
541.3384796518
 21
-81.6335655025
 31
0.0
  0
LINE
  5
103
330
1F
100
AcDbEntity
  8
0
  6
SLD-Сплошная
 62
     7
370
    25
100
AcDbLine
 10
539.3384796518
 20
-90.6335655025
 30
0.0
 11
539.3384796518
 21
-81.6335655025
 31
0.0
  0
LINE
  5
104
330
1F
100
AcDbEntity
  8
0
  6
SLD-Сплошная
 62
     7
370
    25
100
AcDbLine
 10
526.3384796518
 20
-90.6335655025
 30
0.0
 11
539.3384796518
 21
-90.6335655025
 31
0.0
  0
LINE
  5
105
330
1F
100
AcDbEntity
  8
0
  6
SLD-Сплошная
 62
     7
370
    25
100
AcDbLine
 10
526.3384796518
 20
-60.6335655025
 30
0.0
 11
526.3384796518
 21
-90.6335655025
 31
0.0
  0
LINE
  5
106
330
1F
100
AcDbEntity
  8
0
  6
SLD-Сплошная
 62
     7
370
    25
100
AcDbLine
 10
539.3384796518
 20
-69.6335655025
 30
0.0
 11
539.3384796518
 21
-60.6335655025
 31
0.0
  0
LINE
  5
107
330
1F
100
AcDbEntity
  8
0
  6
SLD-Сплошная
 62
     7
370
    25
100
AcDbLine
 10
550.3384796518
 20
-69.6335655025
 30
0.0
 11
539.3384796518
 21
-69.6335655025
 31
0.0
  0
LINE
  5
108
330
1F
100
AcDbEntity
  8
0
  6
SLD-Сплошная
 62
     7
370
    25
100
AcDbLine
 10
539.3384796518
 20
-60.6335655025
 30
0.0
 11
526.3384796518
 21
-60.6335655025
 31
0.0
  0
LINE
  5
109
330
1F
100
AcDbEntity
  8
0
  6
SLD-Сплошная
 62
     7
370
    25
100
AcDbLine
 10
550.3384796518
 20
222.3664344975
 30
0.0
 11
550.3384796518
 21
234.3664344975
 31
0.0
  0
LINE
  5
10A
330
1F
100
AcDbEntity
  8
0
  6
SLD-Сплошная
 62
     7
370
    25
100
AcDbLine
 10
539.3384796518
 20
222.3664344975
 30
0.0
 11
550.3384796518
 21
222.3664344975
 31
0.0
  0
LINE
  5
10B
330
1F
100
AcDbEntity
  8
0
  6
SLD-Сплошная
 62
     7
370
    25
100
AcDbLine
 10
539.3384796518
 20
213.3664344975
 30
0.0
 11
539.3384796518
 21
222.3664344975
 31
0.0
  0
LINE
  5
10C
330
1F
100
AcDbEntity
  8
0
  6
SLD-Сплошная
 62
     7
370
    25
100
AcDbLine
 10
526.3384796518
 20
243.3664344975
 30
0.0
 11
526.3384796518
 21
213.3664344975
 31
0.0
  0
LINE
  5
10D
330
1F
100
AcDbEntity
  8
0
  6
SLD-Сплошная
 62
     7
370
    25
100
AcDbLine
 10
539.3384796518
 20
243.3664344975
 30
0.0
 11
526.3384796518
 21
243.3664344975
 31
0.0
  0
LINE
  5
10E
330
1F
100
AcDbEntity
  8
0
  6
SLD-Сплошная
 62
     7
370
    25
100
AcDbLine
 10
539.3384796518
 20
234.3664344975
 30
0.0
 11
539.3384796518
 21
243.3664344975
 31
0.0
  0
LINE
  5
10F
330
1F
100
AcDbEntity
  8
0
  6
SLD-Сплошная
 62
     7
370
    25
100
AcDbLine
 10
550.3384796518
 20
234.3664344975
 30
0.0
 11
539.3384796518
 21
234.3664344975
 31
0.0
  0
LINE
  5
110
330
1F
100
AcDbEntity
  8
0
  6
SLD-Сплошная
 62
     7
370
    25
100
AcDbLine
 10
526.3384796518
 20
213.3664344975
 30
0.0
 11
539.3384796518
 21
213.3664344975
 31
0.0
  0
LINE
  5
111
330
1F
100
AcDbEntity
  8
0
  6
SLD-Сплошная
 62
     7
370
    25
100
AcDbLine
 10
516.3384796518
 20
-105.6335655025
 30
0.0
 11
516.3384796518
 21
-153.6335655025
 31
0.0
  0
LINE
  5
112
330
1F
100
AcDbEntity
  8
0
  6
SLD-Сплошная
 62
     7
370
    25
100
AcDbLine
 10
496.3384796518
 20
-103.1335655025
 30
0.0
 11
516.3384796518
 21
-105.6335655025
 31
0.0
  0
LINE
  5
113
330
1F
100
AcDbEntity
  8
0
  6
SLD-Сплошная
 62
     7
370
    25
100
AcDbLine
 10
496.3384796518
 20
-48.1335655025
 30
0.0
 11
496.3384796518
 21
-103.1335655025
 31
0.0
  0
LINE
  5
114
330
1F
100
AcDbEntity
  8
0
  6
SLD-Сплошная
 62
     7
370
    25
100
AcDbLine
 10
516.3384796518
 20
-45.6335655025
 30
0.0
 11
496.3384796518
 21
-48.1335655025
 31
0.0
  0
LINE
  5
115
330
1F
100
AcDbEntity
  8
0
  6
SLD-Сплошная
 62
     7
370
    25
100
AcDbLine
 10
516.3384796518
 20
198.3664344975
 30
0.0
 11
516.3384796518
 21
-45.6335655025
 31
0.0
  0
LINE
  5
116
330
1F
100
AcDbEntity
  8
0
  6
SLD-Сплошная
 62
     7
370
    25
100
AcDbLine
 10
516.3384796518
 20
198.3664344975
 30
0.0
 11
496.3384796518
 21
200.8664344975
 31
0.0
  0
LINE
  5
117
330
1F
100
AcDbEntity
  8
0
  6
SLD-Сплошная
 62
     7
370
    25
100
AcDbLine
 10
496.3384796518
 20
200.8664344975
 30
0.0
 11
496.3384796518
 21
255.8664344975
 31
0.0
  0
LINE
  5
118
330
1F
100
AcDbEntity
  8
0
  6
SLD-Сплошная
 62
     7
370
    25
100
AcDbLine
 10
496.3384796518
 20
255.8664344975
 30
0.0
 11
516.3384796518
 21
258.3664344975
 31
0.0
  0
LINE
  5
119
330
1F
100
AcDbEntity
  8
0
  6
SLD-Сплошная
 62
     7
370
    25
100
AcDbLine
 10
516.3384796518
 20
258.3664344975
 30
0.0
 11
516.3384796518
 21
306.3664344975
 31
0.0
  0
LINE
  5
11A
330
1F
100
AcDbEntity
  8
0
  6
SLD-Сплошная
 62
     7
370
    25
100
AcDbLine
 10
526.3384796518
 20
306.3664344975
 30
0.0
 11
526.3384796518
 21
-153.6335655025
 31
0.0
  0
LINE
  5
11B
330
1F
100
AcDbEntity
  8
0
  6
SLD-Сплошная
 62
     7
370
    25
100
AcDbLine
 10
526.3384796518
 20
-173.6335655025
 30
0.0
 11
516.3384796518
 21
-173.6335655025
 31
0.0
  0
LINE
  5
11C
330
1F
100
AcDbEntity
  8
0
  6
SLD-Сплошная
 62
     7
370
    25
100
AcDbLine
 10
516.3384796518
 20
-153.6335655025
 30
0.0
 11
516.3384796518
 21
-173.6335655025
 31
0.0
  0
LINE
  5
11D
330
1F
100
AcDbEntity
  8
0
  6
SLD-Сплошная
 62
     7
370
    25
100
AcDbLine
 10
526.3384796518
 20
326.3664344975
 30
0.0
 11
516.3384796518
 21
326.3664344975
 31
0.0
  0
LINE
  5
11E
330
1F
100
AcDbEntity
  8
0
  6
SLD-Сплошная
 62
     7
370
    25
100
AcDbLine
 10
516.3384796518
 20
306.3664344975
 30
0.0
 11
516.3384796518
 21
326.3664344975
 31
0.0
  0
SPLINE
  5
11F
330
1F
100
AcDbEntity
  8
0
  6
SLD-Сплошная
 62
     7
370
    25
100
AcDbSpline
210
0.0
220
0.0
230
1.0
 70
     8
 71
     3
 72
    12
 73
     8
 74
     0
 42
0.00000001
 43
0.00000001
 40
0.0
 40
0.0
 40
0.0
 40
0.0
 40
0.2499999999999999
 40
0.2499999999999999
 40
0.4999999999999998
 40
0.4999999999999998
 40
1.0
 40
1.0
 40
1.0
 40
1.0
 10
326.3384796517831
 20
293.3664362346694
 30
0.0
 10
342.1685006959995
 20
292.7862757154321
 30
0.0
 10
357.9999071152107
 20
292.2442823286517
 30
0.0
 10
389.6642845013552
 20
291.2136243329033
 30
0.0
 10
405.497302408013
 20
290.7251938928438
 30
0.0
 10
452.9982194463093
 20
289.3203460778016
 30
0.0
 10
484.6679000904667
 20
288.4633638302068
 30
0.0
 10
516.3384796517827
 20
287.6568677636211
 30
0.0
  0
LINE
  5
120
330
1F
100
AcDbEntity
  8
0
  6
SLD-Сплошная
 62
     7
370
    25
100
AcDbLine
 10
326.3384796518
 20
293.3664362347
 30
0.0
 11
326.3384796518
 21
319.3664344975
 31
0.0
  0
LINE
  5
121
330
1F
100
AcDbEntity
  8
0
  6
SLD-Сплошная
 62
     7
370
    25
100
AcDbLine
 10
326.3384796518
 20
-140.6335672396
 30
0.0
 11
326.3384796518
 21
-166.6335655025
 31
0.0
  0
SPLINE
  5
122
330
1F
100
AcDbEntity
  8
0
  6
SLD-Сплошная
 62
     7
370
    25
100
AcDbSpline
210
0.0
220
0.0
230
1.0
 70
     8
 71
     3
 72
    12
 73
     8
 74
     0
 42
0.00000001
 43
0.00000001
 40
0.0
 40
0.0
 40
0.0
 40
0.0
 40
0.2499999999999999
 40
0.2499999999999999
 40
0.4999999999999998
 40
0.4999999999999998
 40
1.0
 40
1.0
 40
1.0
 40
1.0
 10
326.3384796517831
 20
-140.633567239649
 30
0.0
 10
342.1685006959995
 20
-140.0534067204116
 30
0.0
 10
357.9999071152107
 20
-139.5114133336312
 30
0.0
 10
389.6642845013552
 20
-138.480755337883
 30
0.0
 10
405.497302408013
 20
-137.9923248978234
 30
0.0
 10
452.9982194463093
 20
-136.5874770827811
 30
0.0
 10
484.6679000904667
 20
-135.7304948351862
 30
0.0
 10
516.3384796517828
 20
-134.9239987686006
 30
0.0
  0
LINE
  5
123
330
1F
100
AcDbEntity
  8
0
  6
SLD-Сплошная
 62
     7
370
    25
100
AcDbLine
 10
326.3384796518
 20
293.3664362347
 30
0.0
 11
326.3384796518
 21
-140.6335672396
 31
0.0
  0
LINE
  5
124
330
1F
100
AcDbEntity
  8
0
  6
SLD-Сплошная
 62
     7
370
    25
100
AcDbLine
 10
324.3384796518
 20
246.4889224308
 30
0.0
 11
324.3384796518
 21
241.4889224308
 31
0.0
  0
LINE
  5
125
330
1F
100
AcDbEntity
  8
0
  6
SLD-Сплошная
 62
     7
370
    25
100
AcDbLine
 10
324.3384796518
 20
246.4889224308
 30
0.0
 11
326.3384796518
 21
246.4889224308
 31
0.0
  0
LINE
  5
126
330
1F
100
AcDbEntity
  8
0
  6
SLD-Сплошная
 62
     7
370
    25
100
AcDbLine
 10
326.3384796518
 20
241.4889224308
 30
0.0
 11
324.3384796518
 21
241.4889224308
 31
0.0
  0
LINE
  5
127
330
1F
100
AcDbEntity
  8
0
  6
SLD-Сплошная
 62
     7
370
    25
100
AcDbLine
 10
326.3384796518
 20
-88.7560534357
 30
0.0
 11
324.3384796518
 21
-88.7560534357
 31
0.0
  0
LINE
  5
128
330
1F
100
AcDbEntity
  8
0
  6
SLD-Сплошная
 62
     7
370
    25
100
AcDbLine
 10
324.3384796518
 20
-93.7560534357
 30
0.0
 11
326.3384796518
 21
-93.7560534357
 31
0.0
  0
LINE
  5
129
330
1F
100
AcDbEntity
  8
0
  6
SLD-Сплошная
 62
     7
370
    25
100
AcDbLine
 10
324.3384796518
 20
-88.7560534357
 30
0.0
 11
324.3384796518
 21
-93.7560534357
 31
0.0
  0
LINE
  5
12A
330
1F
100
AcDbEntity
  8
0
  6
SLD-Сплошная
 62
     7
370
    25
100
AcDbLine
 10
324.3384796518
 20
196.4889224308
 30
0.0
 11
326.3384796518
 21
196.4889224308
 31
0.0
  0
LINE
  5
12B
330
1F
100
AcDbEntity
  8
0
  6
SLD-Сплошная
 62
     7
370
    25
100
AcDbLine
 10
326.3384796518
 20
191.4889224308
 30
0.0
 11
324.3384796518
 21
191.4889224308
 31
0.0
  0
LINE
  5
12C
330
1F
100
AcDbEntity
  8
0
  6
SLD-Сплошная
 62
     7
370
    25
100
AcDbLine
 10
324.3384796518
 20
191.4889224308
 30
0.0
 11
324.3384796518
 21
196.4889224308
 31
0.0
  0
LINE
  5
12D
330
1F
100
AcDbEntity
  8
0
  6
SLD-Сплошная
 62
     7
370
    25
100
AcDbLine
 10
324.3384796518
 20
78.8664344975
 30
0.0
 11
324.3384796518
 21
73.8664344975
 31
0.0
  0
LINE
  5
12E
330
1F
100
AcDbEntity
  8
0
  6
SLD-Сплошная
 62
     7
370
    25
100
AcDbLine
 10
326.3384796518
 20
78.8664344975
 30
0.0
 11
324.3384796518
 21
78.8664344975
 31
0.0
  0
LINE
  5
12F
330
1F
100
AcDbEntity
  8
0
  6
SLD-Сплошная
 62
     7
370
    25
100
AcDbLine
 10
324.3384796518
 20
73.8664344975
 30
0.0
 11
326.3384796518
 21
73.8664344975
 31
0.0
  0
LINE
  5
130
330
1F
100
AcDbEntity
  8
0
  6
SLD-Сплошная
 62
     7
370
    25
100
AcDbLine
 10
324.3384796518
 20
-43.7560534357
 30
0.0
 11
326.3384796518
 21
-43.7560534357
 31
0.0
  0
LINE
  5
131
330
1F
100
AcDbEntity
  8
0
  6
SLD-Сплошная
 62
     7
370
    25
100
AcDbLine
 10
326.3384796518
 20
-38.7560534357
 30
0.0
 11
324.3384796518
 21
-38.7560534357
 31
0.0
  0
LINE
  5
132
330
1F
100
AcDbEntity
  8
0
  6
SLD-Сплошная
 62
     7
370
    25
100
AcDbLine
 10
324.3384796518
 20
-38.7560534357
 30
0.0
 11
324.3384796518
 21
-43.7560534357
 31
0.0
  0
LINE
  5
133
330
1F
100
AcDbEntity
  8
0
  6
SLD-Сплошная
 62
     7
370
    25
100
AcDbLine
 10
324.3384796518
 20
-101.2560534357
 30
0.0
 11
324.3384796518
 21
-108.7560534357
 31
0.0
  0
LINE
  5
134
330
1F
100
AcDbEntity
  8
0
  6
SLD-Сплошная
 62
     7
370
    25
100
AcDbLine
 10
324.3384796518
 20
-108.7560534357
 30
0.0
 11
324.3384796518
 21
-116.2560534357
 31
0.0
  0
LINE
  5
135
330
1F
100
AcDbEntity
  8
0
  6
SLD-Сплошная
 62
     7
370
    25
100
AcDbLine
 10
324.3384796518
 20
261.4889224308
 30
0.0
 11
324.3384796518
 21
268.9889224308
 31
0.0
  0
LINE
  5
136
330
1F
100
AcDbEntity
  8
0
  6
SLD-Сплошная
 62
     7
370
    25
100
AcDbLine
 10
324.3384796518
 20
253.9889224308
 30
0.0
 11
324.3384796518
 21
261.4889224308
 31
0.0
  0
LINE
  5
137
330
1F
100
AcDbEntity
  8
0
  6
SLD-Сплошная
 62
     7
370
    25
100
AcDbLine
 10
326.3384796518
 20
-123.7560534357
 30
0.0
 11
324.3384796518
 21
-123.7560534357
 31
0.0
  0
LINE
  5
138
330
1F
100
AcDbEntity
  8
0
  6
SLD-Сплошная
 62
     7
370
    25
100
AcDbLine
 10
324.3384796518
 20
-123.7560534357
 30
0.0
 11
324.3384796518
 21
-116.2560534357
 31
0.0
  0
LINE
  5
139
330
1F
100
AcDbEntity
  8
0
  6
SLD-Сплошная
 62
     7
370
    25
100
AcDbLine
 10
324.3384796518
 20
-101.2560534357
 30
0.0
 11
324.3384796518
 21
-93.7560534357
 31
0.0
  0
LINE
  5
13A
330
1F
100
AcDbEntity
  8
0
  6
SLD-Сплошная
 62
     7
370
    25
100
AcDbLine
 10
326.3384796518
 20
276.4889224308
 30
0.0
 11
324.3384796518
 21
276.4889224308
 31
0.0
  0
LINE
  5
13B
330
1F
100
AcDbEntity
  8
0
  6
SLD-Сплошная
 62
     7
370
    25
100
AcDbLine
 10
324.3384796518
 20
276.4889224308
 30
0.0
 11
324.3384796518
 21
268.9889224308
 31
0.0
  0
LINE
  5
13C
330
1F
100
AcDbEntity
  8
0
  6
SLD-Сплошная
 62
     7
370
    25
100
AcDbLine
 10
324.3384796518
 20
253.9889224308
 30
0.0
 11
324.3384796518
 21
246.4889224308
 31
0.0
  0
LINE
  5
13D
330
1F
100
AcDbEntity
  8
0
  6
SLD-Сплошная
 62
     7
370
    25
100
AcDbLine
 10
324.3384796518
 20
-138.7560534357
 30
0.0
 11
324.3384796518
 21
-146.2560534357
 31
0.0
  0
LINE
  5
13E
330
1F
100
AcDbEntity
  8
0
  6
SLD-Сплошная
 62
     7
370
    25
100
AcDbLine
 10
324.3384796518
 20
-131.2560534357
 30
0.0
 11
324.3384796518
 21
-138.7560534357
 31
0.0
  0
LINE
  5
13F
330
1F
100
AcDbEntity
  8
0
  6
SLD-Сплошная
 62
     7
370
    25
100
AcDbLine
 10
324.3384796518
 20
283.9889224308
 30
0.0
 11
324.3384796518
 21
291.4889224308
 31
0.0
  0
LINE
  5
140
330
1F
100
AcDbEntity
  8
0
  6
SLD-Сплошная
 62
     7
370
    25
100
AcDbLine
 10
324.3384796518
 20
291.4889224308
 30
0.0
 11
324.3384796518
 21
298.9889224308
 31
0.0
  0
LINE
  5
141
330
1F
100
AcDbEntity
  8
0
  6
SLD-Сплошная
 62
     7
370
    25
100
AcDbLine
 10
324.3425416073
 20
-38.7560532892
 30
0.0
 11
324.3384796518
 21
73.8664344975
 31
0.0
  0
LINE
  5
142
330
1F
100
AcDbEntity
  8
0
  6
SLD-Сплошная
 62
     7
370
    25
100
AcDbLine
 10
324.3425416073
 20
191.4889222842
 30
0.0
 11
324.3384796518
 21
78.8664344975
 31
0.0
  0
LINE
  5
143
330
1F
100
AcDbEntity
  8
0
  6
SLD-Сплошная
 62
     7
370
    25
100
AcDbLine
 10
324.3384796518
 20
-131.2560534357
 30
0.0
 11
324.3384796518
 21
-123.7560534357
 31
0.0
  0
LINE
  5
144
330
1F
100
AcDbEntity
  8
0
  6
SLD-Сплошная
 62
     7
370
    25
100
AcDbLine
 10
324.3384796518
 20
283.9889224308
 30
0.0
 11
324.3384796518
 21
276.4889224308
 31
0.0
  0
LINE
  5
145
330
1F
100
AcDbEntity
  8
0
  6
SLD-Сплошная
 62
     7
370
    25
100
AcDbLine
 10
1020.2302254493
 20
-81.6335655025
 30
0.0
 11
1019.2450598651
 21
-81.6335655025
 31
0.0
  0
LINE
  5
146
330
1F
100
AcDbEntity
  8
0
  6
SLD-Сплошная
 62
     7
370
    25
100
AcDbLine
 10
1020.2302254493
 20
-81.6335655025
 30
0.0
 11
1020.2302254493
 21
-90.6335655025
 31
0.0
  0
LINE
  5
147
330
1F
100
AcDbEntity
  8
0
  6
SLD-Сплошная
 62
     7
370
    25
100
AcDbLine
 10
1020.2302254493
 20
-90.6335655025
 30
0.0
 11
1019.2450598651
 21
-90.6335655025
 31
0.0
  0
LINE
  5
148
330
1F
100
AcDbEntity
  8
0
  6
SLD-Сплошная
 62
     7
370
    25
100
AcDbLine
 10
699.2450598651
 20
-43.7560534357
 30
0.0
 11
989.2450598651
 21
-43.7560534357
 31
0.0
  0
LINE
  5
149
330
1F
100
AcDbEntity
  8
0
  6
SLD-Сплошная
 62
     7
370
    25
100
AcDbLine
 10
699.2450598651
 20
-38.7560534357
 30
0.0
 11
699.2450598651
 21
-43.7560534357
 31
0.0
  0
LINE
  5
14A
330
1F
100
AcDbEntity
  8
0
  6
SLD-Сплошная
 62
     7
370
    25
100
AcDbLine
 10
699.2450598651
 20
-38.7560534357
 30
0.0
 11
759.2450598651
 21
-38.7560534357
 31
0.0
  0
LINE
  5
14B
330
1F
100
AcDbEntity
  8
0
  6
SLD-Сплошная
 62
     7
370
    25
100
AcDbLine
 10
764.2450598651
 20
-38.7560534357
 30
0.0
 11
924.2450598651
 21
-38.7560534357
 31
0.0
  0
LINE
  5
14C
330
1F
100
AcDbEntity
  8
0
  6
SLD-Сплошная
 62
     7
370
    25
100
AcDbLine
 10
929.2450598651
 20
-38.7560534357
 30
0.0
 11
989.2450598651
 21
-38.7560534357
 31
0.0
  0
LINE
  5
14D
330
1F
100
AcDbEntity
  8
0
  6
SLD-Сплошная
 62
     7
370
    25
100
AcDbLine
 10
989.2450598651
 20
-38.7560534357
 30
0.0
 11
989.2450598651
 21
-43.7560534357
 31
0.0
  0
LINE
  5
14E
330
1F
100
AcDbEntity
  8
0
  6
SLD-Сплошная
 62
     7
370
    25
100
AcDbLine
 10
929.2450598651
 20
191.4889224308
 30
0.0
 11
989.2450598651
 21
191.4889224308
 31
0.0
  0
LINE
  5
14F
330
1F
100
AcDbEntity
  8
0
  6
SLD-Сплошная
 62
     7
370
    25
100
AcDbLine
 10
764.2450598651
 20
191.4889224308
 30
0.0
 11
924.2450598651
 21
191.4889224308
 31
0.0
  0
LINE
  5
150
330
1F
100
AcDbEntity
  8
0
  6
SLD-Сплошная
 62
     7
370
    25
100
AcDbLine
 10
699.2450598651
 20
191.4889224308
 30
0.0
 11
759.2450598651
 21
191.4889224308
 31
0.0
  0
LINE
  5
151
330
1F
100
AcDbEntity
  8
0
  6
SLD-Сплошная
 62
     7
370
    25
100
AcDbLine
 10
699.2450598651
 20
191.4889224308
 30
0.0
 11
699.2450598651
 21
196.4889224308
 31
0.0
  0
LINE
  5
152
330
1F
100
AcDbEntity
  8
0
  6
SLD-Сплошная
 62
     7
370
    25
100
AcDbLine
 10
699.2450598651
 20
196.4889224308
 30
0.0
 11
989.2450598651
 21
196.4889224308
 31
0.0
  0
LINE
  5
153
330
1F
100
AcDbEntity
  8
0
  6
SLD-Сплошная
 62
     7
370
    25
100
AcDbLine
 10
989.2450598651
 20
191.4889224308
 30
0.0
 11
989.2450598651
 21
196.4889224308
 31
0.0
  0
LINE
  5
154
330
1F
100
AcDbEntity
  8
0
  6
SLD-Сплошная
 62
     7
370
    25
100
AcDbLine
 10
759.2450598651
 20
191.4889222842
 30
0.0
 11
759.2450598651
 21
78.8664344975
 31
0.0
  0
LINE
  5
155
330
1F
100
AcDbEntity
  8
0
  6
SLD-Сплошная
 62
     7
370
    25
100
AcDbLine
 10
764.2450598651
 20
191.4889222842
 30
0.0
 11
764.2450598651
 21
78.8664344975
 31
0.0
  0
LINE
  5
156
330
1F
100
AcDbEntity
  8
0
  6
SLD-Сплошная
 62
     7
370
    25
100
AcDbLine
 10
929.2450598651
 20
-38.7560532892
 30
0.0
 11
929.2450598651
 21
73.8664344975
 31
0.0
  0
LINE
  5
157
330
1F
100
AcDbEntity
  8
0
  6
SLD-Сплошная
 62
     7
370
    25
100
AcDbLine
 10
924.2450598651
 20
-38.7560532892
 30
0.0
 11
924.2450598651
 21
73.8664344975
 31
0.0
  0
LINE
  5
158
330
1F
100
AcDbEntity
  8
0
  6
SLD-Сплошная
 62
     7
370
    25
100
AcDbLine
 10
924.2450598651
 20
191.4889222842
 30
0.0
 11
924.2450598651
 21
78.8664344975
 31
0.0
  0
LINE
  5
159
330
1F
100
AcDbEntity
  8
0
  6
SLD-Сплошная
 62
     7
370
    25
100
AcDbLine
 10
929.2450598651
 20
191.4889222842
 30
0.0
 11
929.2450598651
 21
78.8664344975
 31
0.0
  0
LINE
  5
15A
330
1F
100
AcDbEntity
  8
0
  6
SLD-Сплошная
 62
     7
370
    25
100
AcDbLine
 10
764.2450598651
 20
-38.7560532892
 30
0.0
 11
764.2450598651
 21
73.8664344975
 31
0.0
  0
LINE
  5
15B
330
1F
100
AcDbEntity
  8
0
  6
SLD-Сплошная
 62
     7
370
    25
100
AcDbLine
 10
759.2450598651
 20
-38.7560532892
 30
0.0
 11
759.2450598651
 21
73.8664344975
 31
0.0
  0
LINE
  5
15C
330
1F
100
AcDbEntity
  8
0
  6
SLD-Сплошная
 62
     7
370
    25
100
AcDbLine
 10
699.2450598651
 20
78.8664344975
 30
0.0
 11
699.2450598651
 21
73.8664344975
 31
0.0
  0
LINE
  5
15D
330
1F
100
AcDbEntity
  8
0
  6
SLD-Сплошная
 62
     7
370
    25
100
AcDbLine
 10
989.2450598651
 20
78.8664344975
 30
0.0
 11
989.2450598651
 21
73.8664344975
 31
0.0
  0
LINE
  5
15E
330
1F
100
AcDbEntity
  8
0
  6
SLD-Сплошная
 62
     7
370
    25
100
AcDbLine
 10
699.2450598651
 20
73.8664344975
 30
0.0
 11
759.2450598651
 21
73.8664344975
 31
0.0
  0
LINE
  5
15F
330
1F
100
AcDbEntity
  8
0
  6
SLD-Сплошная
 62
     7
370
    25
100
AcDbLine
 10
699.2450598651
 20
78.8664344975
 30
0.0
 11
759.2450598651
 21
78.8664344975
 31
0.0
  0
LINE
  5
160
330
1F
100
AcDbEntity
  8
0
  6
SLD-Сплошная
 62
     7
370
    25
100
AcDbLine
 10
929.2450598651
 20
78.8664344975
 30
0.0
 11
989.2450598651
 21
78.8664344975
 31
0.0
  0
LINE
  5
161
330
1F
100
AcDbEntity
  8
0
  6
SLD-Сплошная
 62
     7
370
    25
100
AcDbLine
 10
929.2450598651
 20
73.8664344975
 30
0.0
 11
989.2450598651
 21
73.8664344975
 31
0.0
  0
LINE
  5
162
330
1F
100
AcDbEntity
  8
0
  6
SLD-Сплошная
 62
     7
370
    25
100
AcDbLine
 10
764.2450598651
 20
78.8664344975
 30
0.0
 11
924.2450598651
 21
78.8664344975
 31
0.0
  0
LINE
  5
163
330
1F
100
AcDbEntity
  8
0
  6
SLD-Сплошная
 62
     7
370
    25
100
AcDbLine
 10
764.2450598651
 20
73.8664344975
 30
0.0
 11
924.2450598651
 21
73.8664344975
 31
0.0
  0
LINE
  5
164
330
1F
100
AcDbEntity
  8
0
  6
SLD-Сплошная
 62
     7
370
    25
100
AcDbLine
 10
864.2450598651
 20
-93.7560534357
 30
0.0
 11
864.2450598651
 21
-138.7548992901
 31
0.0
  0
LINE
  5
165
330
1F
100
AcDbEntity
  8
0
  6
SLD-Сплошная
 62
     7
370
    25
100
AcDbLine
 10
864.2450598651
 20
-138.7548992901
 30
0.0
 11
859.2450598651
 21
-138.7548271561
 31
0.0
  0
LINE
  5
166
330
1F
100
AcDbEntity
  8
0
  6
SLD-Сплошная
 62
     7
370
    25
100
AcDbLine
 10
859.2450598651
 20
-138.7548271561
 30
0.0
 11
859.2450598651
 21
-93.7560534357
 31
0.0
  0
LINE
  5
167
330
1F
100
AcDbEntity
  8
0
  6
SLD-Сплошная
 62
     7
370
    25
100
AcDbLine
 10
829.2450598651
 20
-93.7560534357
 30
0.0
 11
859.2450598651
 21
-93.7560534357
 31
0.0
  0
LINE
  5
168
330
1F
100
AcDbEntity
  8
0
  6
SLD-Сплошная
 62
     7
370
    25
100
AcDbLine
 10
829.2450598651
 20
-138.7548271561
 30
0.0
 11
829.2450598651
 21
-93.7560534357
 31
0.0
  0
LINE
  5
169
330
1F
100
AcDbEntity
  8
0
  6
SLD-Сплошная
 62
     7
370
    25
100
AcDbLine
 10
824.2450598651
 20
-138.7548992901
 30
0.0
 11
829.2450598651
 21
-138.7548271561
 31
0.0
  0
LINE
  5
16A
330
1F
100
AcDbEntity
  8
0
  6
SLD-Сплошная
 62
     7
370
    25
100
AcDbLine
 10
824.2450598651
 20
-93.7560534357
 30
0.0
 11
824.2450598651
 21
-138.7548992901
 31
0.0
  0
LINE
  5
16B
330
1F
100
AcDbEntity
  8
0
  6
SLD-Сплошная
 62
     7
370
    25
100
AcDbLine
 10
734.2450598651
 20
-93.7560534357
 30
0.0
 11
824.2450598651
 21
-93.7560534357
 31
0.0
  0
LINE
  5
16C
330
1F
100
AcDbEntity
  8
0
  6
SLD-Сплошная
 62
     7
370
    25
100
AcDbLine
 10
734.2450598651
 20
-118.7560534357
 30
0.0
 11
734.2450598651
 21
-93.7560534357
 31
0.0
  0
LINE
  5
16D
330
1F
100
AcDbEntity
  8
0
  6
SLD-Сплошная
 62
     7
370
    25
100
AcDbLine
 10
764.2450598651
 20
-118.7560534357
 30
0.0
 11
734.2450598651
 21
-118.7560534357
 31
0.0
  0
LINE
  5
16E
330
1F
100
AcDbEntity
  8
0
  6
SLD-Сплошная
 62
     7
370
    25
100
AcDbLine
 10
764.2450598651
 20
-138.7557648982
 30
0.0
 11
764.2450598651
 21
-118.7560534357
 31
0.0
  0
LINE
  5
16F
330
1F
100
AcDbEntity
  8
0
  6
SLD-Сплошная
 62
     7
370
    25
100
AcDbLine
 10
759.2450598651
 20
-138.7558370322
 30
0.0
 11
764.2450598651
 21
-138.7557648982
 31
0.0
  0
LINE
  5
170
330
1F
100
AcDbEntity
  8
0
  6
SLD-Сплошная
 62
     7
370
    25
100
AcDbLine
 10
759.2450598651
 20
-123.7560534357
 30
0.0
 11
759.2450598651
 21
-138.7558370322
 31
0.0
  0
LINE
  5
171
330
1F
100
AcDbEntity
  8
0
  6
SLD-Сплошная
 62
     7
370
    25
100
AcDbLine
 10
729.2450598651
 20
-123.7560534357
 30
0.0
 11
759.2450598651
 21
-123.7560534357
 31
0.0
  0
LINE
  5
172
330
1F
100
AcDbEntity
  8
0
  6
SLD-Сплошная
 62
     7
370
    25
100
AcDbLine
 10
729.2450598651
 20
-93.7560534357
 30
0.0
 11
729.2450598651
 21
-123.7560534357
 31
0.0
  0
LINE
  5
173
330
1F
100
AcDbEntity
  8
0
  6
SLD-Сплошная
 62
     7
370
    25
100
AcDbLine
 10
699.2450598651
 20
-93.7560534357
 30
0.0
 11
729.2450598651
 21
-93.7560534357
 31
0.0
  0
LINE
  5
174
330
1F
100
AcDbEntity
  8
0
  6
SLD-Сплошная
 62
     7
370
    25
100
AcDbLine
 10
699.2450598651
 20
-88.7560534357
 30
0.0
 11
699.2450598651
 21
-93.7560534357
 31
0.0
  0
LINE
  5
175
330
1F
100
AcDbEntity
  8
0
  6
SLD-Сплошная
 62
     7
370
    25
100
AcDbLine
 10
699.2450598651
 20
-88.7560534357
 30
0.0
 11
989.2450598651
 21
-88.7560534357
 31
0.0
  0
LINE
  5
176
330
1F
100
AcDbEntity
  8
0
  6
SLD-Сплошная
 62
     7
370
    25
100
AcDbLine
 10
989.2450598651
 20
-88.7560534357
 30
0.0
 11
989.2450598651
 21
-93.7560534357
 31
0.0
  0
LINE
  5
177
330
1F
100
AcDbEntity
  8
0
  6
SLD-Сплошная
 62
     7
370
    25
100
AcDbLine
 10
959.2450598651
 20
-93.7560534357
 30
0.0
 11
989.2450598651
 21
-93.7560534357
 31
0.0
  0
LINE
  5
178
330
1F
100
AcDbEntity
  8
0
  6
SLD-Сплошная
 62
     7
370
    25
100
AcDbLine
 10
959.2450598651
 20
-123.7560534357
 30
0.0
 11
959.2450598651
 21
-93.7560534357
 31
0.0
  0
LINE
  5
179
330
1F
100
AcDbEntity
  8
0
  6
SLD-Сплошная
 62
     7
370
    25
100
AcDbLine
 10
929.2450598651
 20
-123.7560534357
 30
0.0
 11
959.2450598651
 21
-123.7560534357
 31
0.0
  0
LINE
  5
17A
330
1F
100
AcDbEntity
  8
0
  6
SLD-Сплошная
 62
     7
370
    25
100
AcDbLine
 10
929.2450598651
 20
-138.7558370322
 30
0.0
 11
929.2450598651
 21
-123.7560534357
 31
0.0
  0
LINE
  5
17B
330
1F
100
AcDbEntity
  8
0
  6
SLD-Сплошная
 62
     7
370
    25
100
AcDbLine
 10
924.2450598651
 20
-138.7557648982
 30
0.0
 11
929.2450598651
 21
-138.7558370322
 31
0.0
  0
LINE
  5
17C
330
1F
100
AcDbEntity
  8
0
  6
SLD-Сплошная
 62
     7
370
    25
100
AcDbLine
 10
924.2450598651
 20
-118.7560534357
 30
0.0
 11
924.2450598651
 21
-138.7557648982
 31
0.0
  0
LINE
  5
17D
330
1F
100
AcDbEntity
  8
0
  6
SLD-Сплошная
 62
     7
370
    25
100
AcDbLine
 10
954.2450598651
 20
-118.7560534357
 30
0.0
 11
924.2450598651
 21
-118.7560534357
 31
0.0
  0
LINE
  5
17E
330
1F
100
AcDbEntity
  8
0
  6
SLD-Сплошная
 62
     7
370
    25
100
AcDbLine
 10
954.2450598651
 20
-93.7560534357
 30
0.0
 11
954.2450598651
 21
-118.7560534357
 31
0.0
  0
LINE
  5
17F
330
1F
100
AcDbEntity
  8
0
  6
SLD-Сплошная
 62
     7
370
    25
100
AcDbLine
 10
864.2450598651
 20
-93.7560534357
 30
0.0
 11
954.2450598651
 21
-93.7560534357
 31
0.0
  0
LINE
  5
180
330
1F
100
AcDbEntity
  8
0
  6
SLD-Сплошная
 62
     7
370
    25
100
AcDbLine
 10
954.2450598651
 20
271.4889224308
 30
0.0
 11
924.2450598651
 21
271.4889224308
 31
0.0
  0
LINE
  5
181
330
1F
100
AcDbEntity
  8
0
  6
SLD-Сплошная
 62
     7
370
    25
100
AcDbLine
 10
924.2450598651
 20
271.4889224308
 30
0.0
 11
924.2450598651
 21
291.4886338932
 31
0.0
  0
LINE
  5
182
330
1F
100
AcDbEntity
  8
0
  6
SLD-Сплошная
 62
     7
370
    25
100
AcDbLine
 10
924.2450598651
 20
291.4886338932
 30
0.0
 11
929.2450598651
 21
291.4887060272
 31
0.0
  0
LINE
  5
183
330
1F
100
AcDbEntity
  8
0
  6
SLD-Сплошная
 62
     7
370
    25
100
AcDbLine
 10
929.2450598651
 20
291.4887060272
 30
0.0
 11
929.2450598651
 21
276.4889224308
 31
0.0
  0
LINE
  5
184
330
1F
100
AcDbEntity
  8
0
  6
SLD-Сплошная
 62
     7
370
    25
100
AcDbLine
 10
929.2450598651
 20
276.4889224308
 30
0.0
 11
959.2450598651
 21
276.4889224308
 31
0.0
  0
LINE
  5
185
330
1F
100
AcDbEntity
  8
0
  6
SLD-Сплошная
 62
     7
370
    25
100
AcDbLine
 10
959.2450598651
 20
276.4889224308
 30
0.0
 11
959.2450598651
 21
246.4889224308
 31
0.0
  0
LINE
  5
186
330
1F
100
AcDbEntity
  8
0
  6
SLD-Сплошная
 62
     7
370
    25
100
AcDbLine
 10
959.2450598651
 20
246.4889224308
 30
0.0
 11
989.2450598651
 21
246.4889224308
 31
0.0
  0
LINE
  5
187
330
1F
100
AcDbEntity
  8
0
  6
SLD-Сплошная
 62
     7
370
    25
100
AcDbLine
 10
989.2450598651
 20
246.4889224308
 30
0.0
 11
989.2450598651
 21
241.4889224308
 31
0.0
  0
LINE
  5
188
330
1F
100
AcDbEntity
  8
0
  6
SLD-Сплошная
 62
     7
370
    25
100
AcDbLine
 10
989.2450598651
 20
241.4889224308
 30
0.0
 11
699.2450598651
 21
241.4889224308
 31
0.0
  0
LINE
  5
189
330
1F
100
AcDbEntity
  8
0
  6
SLD-Сплошная
 62
     7
370
    25
100
AcDbLine
 10
729.2450598651
 20
246.4889224308
 30
0.0
 11
729.2450598651
 21
276.4889224308
 31
0.0
  0
LINE
  5
18A
330
1F
100
AcDbEntity
  8
0
  6
SLD-Сплошная
 62
     7
370
    25
100
AcDbLine
 10
729.2450598651
 20
276.4889224308
 30
0.0
 11
759.2450598651
 21
276.4889224308
 31
0.0
  0
LINE
  5
18B
330
1F
100
AcDbEntity
  8
0
  6
SLD-Сплошная
 62
     7
370
    25
100
AcDbLine
 10
759.2450598651
 20
276.4889224308
 30
0.0
 11
759.2450598651
 21
291.4887060272
 31
0.0
  0
LINE
  5
18C
330
1F
100
AcDbEntity
  8
0
  6
SLD-Сплошная
 62
     7
370
    25
100
AcDbLine
 10
759.2450598651
 20
291.4887060272
 30
0.0
 11
764.2450598651
 21
291.4886338932
 31
0.0
  0
LINE
  5
18D
330
1F
100
AcDbEntity
  8
0
  6
SLD-Сплошная
 62
     7
370
    25
100
AcDbLine
 10
764.2450598651
 20
291.4886338932
 30
0.0
 11
764.2450598651
 21
271.4889224308
 31
0.0
  0
LINE
  5
18E
330
1F
100
AcDbEntity
  8
0
  6
SLD-Сплошная
 62
     7
370
    25
100
AcDbLine
 10
764.2450598651
 20
271.4889224308
 30
0.0
 11
734.2450598651
 21
271.4889224308
 31
0.0
  0
LINE
  5
18F
330
1F
100
AcDbEntity
  8
0
  6
SLD-Сплошная
 62
     7
370
    25
100
AcDbLine
 10
734.2450598651
 20
271.4889224308
 30
0.0
 11
734.2450598651
 21
246.4889224308
 31
0.0
  0
LINE
  5
190
330
1F
100
AcDbEntity
  8
0
  6
SLD-Сплошная
 62
     7
370
    25
100
AcDbLine
 10
734.2450598651
 20
246.4889224308
 30
0.0
 11
824.2450598651
 21
246.4889224308
 31
0.0
  0
LINE
  5
191
330
1F
100
AcDbEntity
  8
0
  6
SLD-Сплошная
 62
     7
370
    25
100
AcDbLine
 10
824.2450598651
 20
246.4889224308
 30
0.0
 11
824.2450598651
 21
291.4877682851
 31
0.0
  0
LINE
  5
192
330
1F
100
AcDbEntity
  8
0
  6
SLD-Сплошная
 62
     7
370
    25
100
AcDbLine
 10
824.2450598651
 20
291.4877682851
 30
0.0
 11
829.2450598651
 21
291.4876961511
 31
0.0
  0
LINE
  5
193
330
1F
100
AcDbEntity
  8
0
  6
SLD-Сплошная
 62
     7
370
    25
100
AcDbLine
 10
829.2450598651
 20
291.4876961511
 30
0.0
 11
829.2450598651
 21
246.4889224308
 31
0.0
  0
LINE
  5
194
330
1F
100
AcDbEntity
  8
0
  6
SLD-Сплошная
 62
     7
370
    25
100
AcDbLine
 10
829.2450598651
 20
246.4889224308
 30
0.0
 11
859.2450598651
 21
246.4889224308
 31
0.0
  0
LINE
  5
195
330
1F
100
AcDbEntity
  8
0
  6
SLD-Сплошная
 62
     7
370
    25
100
AcDbLine
 10
859.2450598651
 20
291.4876961511
 30
0.0
 11
859.2450598651
 21
246.4889224308
 31
0.0
  0
LINE
  5
196
330
1F
100
AcDbEntity
  8
0
  6
SLD-Сплошная
 62
     7
370
    25
100
AcDbLine
 10
864.2450598651
 20
291.4877682851
 30
0.0
 11
859.2450598651
 21
291.4876961511
 31
0.0
  0
LINE
  5
197
330
1F
100
AcDbEntity
  8
0
  6
SLD-Сплошная
 62
     7
370
    25
100
AcDbLine
 10
864.2450598651
 20
246.4889224308
 30
0.0
 11
864.2450598651
 21
291.4877682851
 31
0.0
  0
LINE
  5
198
330
1F
100
AcDbEntity
  8
0
  6
SLD-Сплошная
 62
     7
370
    25
100
AcDbLine
 10
864.2450598651
 20
246.4889224308
 30
0.0
 11
954.2450598651
 21
246.4889224308
 31
0.0
  0
LINE
  5
199
330
1F
100
AcDbEntity
  8
0
  6
SLD-Сплошная
 62
     7
370
    25
100
AcDbLine
 10
954.2450598651
 20
246.4889224308
 30
0.0
 11
954.2450598651
 21
271.4889224308
 31
0.0
  0
LINE
  5
19A
330
1F
100
AcDbEntity
  8
0
  6
SLD-Сплошная
 62
     7
370
    25
100
AcDbLine
 10
699.2450598651
 20
246.4889224308
 30
0.0
 11
729.2450598651
 21
246.4889224308
 31
0.0
  0
LINE
  5
19B
330
1F
100
AcDbEntity
  8
0
  6
SLD-Сплошная
 62
     7
370
    25
100
AcDbLine
 10
699.2450598651
 20
241.4889224308
 30
0.0
 11
699.2450598651
 21
246.4889224308
 31
0.0
  0
ARC
  5
19C
330
1F
100
AcDbEntity
  8
0
  6
SLD-Сплошная
 62
     7
370
    25
100
AcDbCircle
 10
714.2450598651
 20
261.4889224308
 30
0.0
 40
7.500000000000114
100
AcDbArc
 50
180.0
 51
0.0
  0
ARC
  5
19D
330
1F
100
AcDbEntity
  8
0
  6
SLD-Сплошная
 62
     7
370
    25
100
AcDbCircle
 10
714.2450598651
 20
261.4889224308
 30
0.0
 40
7.500000000000114
100
AcDbArc
 50
0.0
 51
180.0
  0
ARC
  5
19E
330
1F
100
AcDbEntity
  8
0
  6
SLD-Сплошная
 62
     7
370
    25
100
AcDbCircle
 10
714.2450598651
 20
-108.7560534357
 30
0.0
 40
7.500000000000114
100
AcDbArc
 50
180.0
 51
0.0
  0
ARC
  5
19F
330
1F
100
AcDbEntity
  8
0
  6
SLD-Сплошная
 62
     7
370
    25
100
AcDbCircle
 10
714.2450598651
 20
-108.7560534357
 30
0.0
 40
7.500000000000114
100
AcDbArc
 50
0.0
 51
180.0
  0
ARC
  5
1A0
330
1F
100
AcDbEntity
  8
0
  6
SLD-Сплошная
 62
     7
370
    25
100
AcDbCircle
 10
744.2450598651
 20
291.4889224308
 30
0.0
 40
7.500000000000114
100
AcDbArc
 50
180.0
 51
0.0
  0
ARC
  5
1A1
330
1F
100
AcDbEntity
  8
0
  6
SLD-Сплошная
 62
     7
370
    25
100
AcDbCircle
 10
744.2450598651
 20
291.4889224308
 30
0.0
 40
7.500000000000114
100
AcDbArc
 50
0.0
 51
180.0
  0
ARC
  5
1A2
330
1F
100
AcDbEntity
  8
0
  6
SLD-Сплошная
 62
     7
370
    25
100
AcDbCircle
 10
744.2450598651
 20
-138.7560534357
 30
0.0
 40
7.500000000000114
100
AcDbArc
 50
180.0
 51
0.0
  0
ARC
  5
1A3
330
1F
100
AcDbEntity
  8
0
  6
SLD-Сплошная
 62
     7
370
    25
100
AcDbCircle
 10
744.2450598651
 20
-138.7560534357
 30
0.0
 40
7.500000000000114
100
AcDbArc
 50
0.0
 51
180.0
  0
ARC
  5
1A4
330
1F
100
AcDbEntity
  8
0
  6
SLD-Сплошная
 62
     7
370
    25
100
AcDbCircle
 10
809.2450598651
 20
-108.7560534357
 30
0.0
 40
7.5
100
AcDbArc
 50
0.0
 51
180.0
  0
ARC
  5
1A5
330
1F
100
AcDbEntity
  8
0
  6
SLD-Сплошная
 62
     7
370
    25
100
AcDbCircle
 10
809.2450598651
 20
-108.7560534357
 30
0.0
 40
7.5
100
AcDbArc
 50
180.0
 51
0.0
  0
ARC
  5
1A6
330
1F
100
AcDbEntity
  8
0
  6
SLD-Сплошная
 62
     7
370
    25
100
AcDbCircle
 10
809.2450598651
 20
261.4889224308
 30
0.0
 40
7.5
100
AcDbArc
 50
0.0
 51
180.0
  0
ARC
  5
1A7
330
1F
100
AcDbEntity
  8
0
  6
SLD-Сплошная
 62
     7
370
    25
100
AcDbCircle
 10
809.2450598651
 20
261.4889224308
 30
0.0
 40
7.5
100
AcDbArc
 50
180.0
 51
0.0
  0
ARC
  5
1A8
330
1F
100
AcDbEntity
  8
0
  6
SLD-Сплошная
 62
     7
370
    25
100
AcDbCircle
 10
879.2450598651
 20
-108.7560534357
 30
0.0
 40
7.500000000001364
100
AcDbArc
 50
0.0
 51
180.0
  0
ARC
  5
1A9
330
1F
100
AcDbEntity
  8
0
  6
SLD-Сплошная
 62
     7
370
    25
100
AcDbCircle
 10
879.2450598651
 20
-108.7560534357
 30
0.0
 40
7.500000000001364
100
AcDbArc
 50
180.0
 51
0.0
  0
ARC
  5
1AA
330
1F
100
AcDbEntity
  8
0
  6
SLD-Сплошная
 62
     7
370
    25
100
AcDbCircle
 10
879.2450598651
 20
261.4889224308
 30
0.0
 40
7.500000000001364
100
AcDbArc
 50
180.0
 51
0.0
  0
ARC
  5
1AB
330
1F
100
AcDbEntity
  8
0
  6
SLD-Сплошная
 62
     7
370
    25
100
AcDbCircle
 10
879.2450598651
 20
261.4889224308
 30
0.0
 40
7.500000000001364
100
AcDbArc
 50
0.0
 51
180.0
  0
ARC
  5
1AC
330
1F
100
AcDbEntity
  8
0
  6
SLD-Сплошная
 62
     7
370
    25
100
AcDbCircle
 10
944.2450598651
 20
-138.7560534357
 30
0.0
 40
7.500000000001137
100
AcDbArc
 50
0.0
 51
180.0
  0
ARC
  5
1AD
330
1F
100
AcDbEntity
  8
0
  6
SLD-Сплошная
 62
     7
370
    25
100
AcDbCircle
 10
944.2450598651
 20
-138.7560534357
 30
0.0
 40
7.500000000001137
100
AcDbArc
 50
180.0
 51
0.0
  0
ARC
  5
1AE
330
1F
100
AcDbEntity
  8
0
  6
SLD-Сплошная
 62
     7
370
    25
100
AcDbCircle
 10
944.2450598651
 20
291.4889224308
 30
0.0
 40
7.500000000001023
100
AcDbArc
 50
0.0
 51
180.0
  0
ARC
  5
1AF
330
1F
100
AcDbEntity
  8
0
  6
SLD-Сплошная
 62
     7
370
    25
100
AcDbCircle
 10
944.2450598651
 20
291.4889224308
 30
0.0
 40
7.500000000001023
100
AcDbArc
 50
180.0
 51
0.0
  0
ARC
  5
1B0
330
1F
100
AcDbEntity
  8
0
  6
SLD-Сплошная
 62
     7
370
    25
100
AcDbCircle
 10
974.2450598651
 20
261.4889224308
 30
0.0
 40
7.500000000001478
100
AcDbArc
 50
0.0
 51
180.0
  0
ARC
  5
1B1
330
1F
100
AcDbEntity
  8
0
  6
SLD-Сплошная
 62
     7
370
    25
100
AcDbCircle
 10
974.2450598651
 20
261.4889224308
 30
0.0
 40
7.500000000001478
100
AcDbArc
 50
180.0
 51
0.0
  0
ARC
  5
1B2
330
1F
100
AcDbEntity
  8
0
  6
SLD-Сплошная
 62
     7
370
    25
100
AcDbCircle
 10
974.2450598651
 20
-108.7560534357
 30
0.0
 40
7.500000000001592
100
AcDbArc
 50
180.0
 51
0.0
  0
ARC
  5
1B3
330
1F
100
AcDbEntity
  8
0
  6
SLD-Сплошная
 62
     7
370
    25
100
AcDbCircle
 10
974.2450598651
 20
-108.7560534357
 30
0.0
 40
7.500000000001592
100
AcDbArc
 50
0.0
 51
180.0
  0
ARC
  5
1B4
330
1F
100
AcDbEntity
  8
0
  6
SLD-Сплошная
 62
     7
370
    25
100
AcDbCircle
 10
689.2450598651
 20
306.3664344975
 30
0.0
 40
13.00000000000013
100
AcDbArc
 50
43.8130614604
 51
278.8498830984
  0
LINE
  5
1B5
330
1F
100
AcDbEntity
  8
0
  6
SLD-Сплошная
 62
     7
370
    25
100
AcDbLine
 10
989.8642283455
 20
315.3664344975
 30
0.0
 11
698.6258913848
 21
315.3664344975
 31
0.0
  0
ARC
  5
1B6
330
1F
100
AcDbEntity
  8
0
  6
SLD-Сплошная
 62
     7
370
    25
100
AcDbCircle
 10
999.2450598651
 20
306.3664344975
 30
0.0
 40
13.00000000000016
100
AcDbArc
 50
270.0296200497
 51
136.1869385396
  0
LINE
  5
1B7
330
1F
100
AcDbEntity
  8
0
  6
SLD-Сплошная
 62
     7
370
    25
100
AcDbLine
 10
999.2517804409
 20
293.3664362347
 30
0.0
 11
999.2517804409
 21
-140.6335672396
 31
0.0
  0
ARC
  5
1B8
330
1F
100
AcDbEntity
  8
0
  6
SLD-Сплошная
 62
     7
370
    25
100
AcDbCircle
 10
999.2450598651
 20
-153.6335655025
 30
0.0
 40
13.00000000000013
100
AcDbArc
 50
223.8130614604
 51
89.9703799503
  0
LINE
  5
1B9
330
1F
100
AcDbEntity
  8
0
  6
SLD-Сплошная
 62
     7
370
    25
100
AcDbLine
 10
989.8642283455
 20
-162.6335655025
 30
0.0
 11
698.6258913848
 21
-162.6335655025
 31
0.0
  0
ARC
  5
1BA
330
1F
100
AcDbEntity
  8
0
  6
SLD-Сплошная
 62
     7
370
    25
100
AcDbCircle
 10
689.2450598651
 20
-153.6335655025
 30
0.0
 40
13.00000000000015
100
AcDbArc
 50
81.1501169016
 51
316.1869385396
  0
LINE
  5
1BB
330
1F
100
AcDbEntity
  8
0
  6
SLD-Сплошная
 62
     7
370
    25
100
AcDbLine
 10
691.2450598651
 20
-140.7883329238
 30
0.0
 11
691.2450598651
 21
293.5212019188
 31
0.0
  0
SPLINE
  5
1BC
330
1F
100
AcDbEntity
  8
0
  6
SLD-Сплошная
 62
     7
370
    25
100
AcDbSpline
210
0.0
220
0.0
230
1.0
 70
     8
 71
     3
 72
    12
 73
     8
 74
     0
 42
0.00000001
 43
0.00000001
 40
0.0
 40
0.0
 40
0.0
 40
0.0
 40
0.2499999999999999
 40
0.2499999999999999
 40
0.4999999999999998
 40
0.4999999999999998
 40
1.0
 40
1.0
 40
1.0
 40
1.0
 10
691.2450598651267
 20
293.521201918845
 30
0.0
 10
690.6646606685415
 20
292.8434416762444
 30
0.0
 10
690.0841802812276
 20
292.2180979015153
 30
0.0
 10
688.9231358020518
 20
291.0365042038377
 30
0.0
 10
688.342568478013
 20
290.4807118543796
 30
0.0
 10
686.6007688229865
 20
288.8891778366832
 30
0.0
 10
685.4394435545546
 20
287.9278907087155
 30
0.0
 10
684.278076141268
 20
287.0271089737033
 30
0.0
  0
ARC
  5
1BD
330
1F
100
AcDbEntity
  8
0
  6
SLD-Сплошная
 62
     7
370
    25
100
AcDbCircle
 10
689.2450598651
 20
306.3664344975
 30
0.0
 40
19.9669837238589
100
AcDbArc
 50
53.0985335938
 51
255.5958618159
  0
LINE
  5
1BE
330
1F
100
AcDbEntity
  8
0
  6
SLD-Сплошная
 62
     7
370
    25
100
AcDbLine
 10
701.2340493885
 20
322.3334182214
 30
0.0
 11
700.9069636548
 21
321.3664344975
 31
0.0
  0
LINE
  5
1BF
330
1F
100
AcDbEntity
  8
0
  6
SLD-Сплошная
 62
     7
370
    25
100
AcDbLine
 10
700.9069636548
 20
321.3664344975
 30
0.0
 11
700.9069636548
 21
321.3599568832
 31
0.0
  0
SPLINE
  5
1C0
330
1F
100
AcDbEntity
  8
0
  6
SLD-Сплошная
 62
     7
370
    25
100
AcDbSpline
210
0.0
220
0.0
230
1.0
 70
     8
 71
     3
 72
     8
 73
     4
 74
     0
 42
0.00000001
 43
0.00000001
 40
0.0
 40
0.0
 40
0.0
 40
0.0
 40
1.0
 40
1.0
 40
1.0
 40
1.0
 10
700.9047416078105
 20
321.3599567900937
 30
0.0
 10
700.2193443112574
 20
319.3620782038175
 30
0.0
 10
699.4777527766653
 20
317.3642265463669
 30
0.0
 10
698.6258913847737
 20
315.3664344975102
 30
0.0
  0
SPLINE
  5
1C1
330
1F
100
AcDbEntity
  8
0
  6
SLD-Сплошная
 62
     7
370
    25
100
AcDbSpline
210
0.0
220
0.0
230
1.0
 70
     8
 71
     3
 72
     8
 73
     4
 74
     0
 42
0.00000001
 43
0.00000001
 40
0.0
 40
0.0
 40
0.0
 40
0.0
 40
1.0
 40
1.0
 40
1.0
 40
1.0
 10
698.6258913847737
 20
-162.6335655024897
 30
0.0
 10
699.4777529293106
 20
-164.6313579093313
 30
0.0
 10
700.2193452382581
 20
-166.6292118999802
 30
0.0
 10
700.9047416717118
 20
-168.6270879813395
 30
0.0
  0
LINE
  5
1C2
330
1F
100
AcDbEntity
  8
0
  6
SLD-Сплошная
 62
     7
370
    25
100
AcDbLine
 10
700.9069636548
 20
-168.6335655025
 30
0.0
 11
700.9029877956
 21
-168.6284515957
 31
0.0
  0
LINE
  5
1C3
330
1F
100
AcDbEntity
  8
0
  6
SLD-Сплошная
 62
     7
370
    25
100
AcDbLine
 10
701.2340493885
 20
-169.6005492263
 30
0.0
 11
700.9069636548
 21
-168.6335655025
 31
0.0
  0
ARC
  5
1C4
330
1F
100
AcDbEntity
  8
0
  6
SLD-Сплошная
 62
     7
370
    25
100
AcDbCircle
 10
689.2450598651
 20
-153.6335655025
 30
0.0
 40
19.96698372385887
100
AcDbArc
 50
104.4041381842
 51
306.9014664062
  0
SPLINE
  5
1C5
330
1F
100
AcDbEntity
  8
0
  6
SLD-Сплошная
 62
     7
370
    25
100
AcDbSpline
210
0.0
220
0.0
230
1.0
 70
     8
 71
     3
 72
    12
 73
     8
 74
     0
 42
0.00000001
 43
0.00000001
 40
0.0
 40
0.0
 40
0.0
 40
0.0
 40
0.2499999999999999
 40
0.2499999999999999
 40
0.4999999999999998
 40
0.4999999999999998
 40
1.0
 40
1.0
 40
1.0
 40
1.0
 10
691.2450598651266
 20
-140.7883329238245
 30
0.0
 10
690.6646606685415
 20
-140.1105726812239
 30
0.0
 10
690.0841802812275
 20
-139.4852289064947
 30
0.0
 10
688.9231358020517
 20
-138.3036352088174
 30
0.0
 10
688.3425684780129
 20
-137.7478428593593
 30
0.0
 10
686.6007688229865
 20
-136.1563088416627
 30
0.0
 10
685.4394435545545
 20
-135.1950217136951
 30
0.0
 10
684.2780761412679
 20
-134.2942399786829
 30
0.0
  0
LINE
  5
1C6
330
1F
100
AcDbEntity
  8
0
  6
SLD-Сплошная
 62
     7
370
    25
100
AcDbLine
 10
701.2340493885
 20
322.3334182214
 30
0.0
 11
987.2560703418
 21
322.3334182214
 31
0.0
  0
LINE
  5
1C7
330
1F
100
AcDbEntity
  8
0
  6
SLD-Сплошная
 62
     7
370
    25
100
AcDbLine
 10
987.5831560754
 20
321.3664344975
 30
0.0
 11
987.2560703418
 21
322.3334182214
 31
0.0
  0
SPLINE
  5
1C8
330
1F
100
AcDbEntity
  8
0
  6
SLD-Сплошная
 62
     7
370
    25
100
AcDbSpline
210
0.0
220
0.0
230
1.0
 70
     8
 71
     3
 72
     8
 73
     4
 74
     0
 42
0.00000001
 43
0.00000001
 40
0.0
 40
0.0
 40
0.0
 40
0.0
 40
1.0
 40
1.0
 40
1.0
 40
1.0
 10
987.5831560754361
 20
321.3664344975098
 30
0.0
 10
988.2691634095983
 20
319.3663966150048
 30
0.0
 10
989.011446288929
 20
317.3663856963802
 30
0.0
 10
989.8642283454797
 20
315.3664344975103
 30
0.0
  0
LINE
  5
1C9
330
1F
100
AcDbEntity
  8
0
  6
SLD-Сплошная
 62
     7
370
    25
100
AcDbLine
 10
684.2780761413
 20
-103.634934539
 30
0.0
 11
685.194784526
 21
-100.6587440629
 31
0.0
  0
LINE
  5
1CA
330
1F
100
AcDbEntity
  8
0
  6
SLD-Сплошная
 62
     7
370
    25
100
AcDbLine
 10
685.194784526
 20
-100.6587440629
 30
0.0
 11
685.194784526
 21
-46.6097559787
 31
0.0
  0
LINE
  5
1CB
330
1F
100
AcDbEntity
  8
0
  6
SLD-Сплошная
 62
     7
370
    25
100
AcDbLine
 10
685.194784526
 20
-46.6097559787
 30
0.0
 11
684.2780761413
 21
-43.6335655025
 31
0.0
  0
LINE
  5
1CC
330
1F
100
AcDbEntity
  8
0
  6
SLD-Сплошная
 62
     7
370
    25
100
AcDbLine
 10
684.2780761413
 20
46.3664344975
 30
0.0
 11
684.2780761413
 21
-43.6335655025
 31
0.0
  0
LINE
  5
1CD
330
1F
100
AcDbEntity
  8
0
  6
SLD-Сплошная
 62
     7
370
    25
100
AcDbLine
 10
684.2780761413
 20
46.3664344975
 30
0.0
 11
685.194784526
 21
49.3426249737
 31
0.0
  0
LINE
  5
1CE
330
1F
100
AcDbEntity
  8
0
  6
SLD-Сплошная
 62
     7
370
    25
100
AcDbLine
 10
685.194784526
 20
49.3426249737
 30
0.0
 11
685.194784526
 21
103.3902440213
 31
0.0
  0
LINE
  5
1CF
330
1F
100
AcDbEntity
  8
0
  6
SLD-Сплошная
 62
     7
370
    25
100
AcDbLine
 10
684.2780761413
 20
106.3664344975
 30
0.0
 11
685.194784526
 21
103.3902440213
 31
0.0
  0
LINE
  5
1D0
330
1F
100
AcDbEntity
  8
0
  6
SLD-Сплошная
 62
     7
370
    25
100
AcDbLine
 10
684.2780761413
 20
106.3664344975
 30
0.0
 11
684.2780761413
 21
196.3664344975
 31
0.0
  0
LINE
  5
1D1
330
1F
100
AcDbEntity
  8
0
  6
SLD-Сплошная
 62
     7
370
    25
100
AcDbLine
 10
685.194784526
 20
199.3426249737
 30
0.0
 11
684.2780761413
 21
196.3664344975
 31
0.0
  0
LINE
  5
1D2
330
1F
100
AcDbEntity
  8
0
  6
SLD-Сплошная
 62
     7
370
    25
100
AcDbLine
 10
685.194784526
 20
253.3916130579
 30
0.0
 11
685.194784526
 21
199.3426249737
 31
0.0
  0
LINE
  5
1D3
330
1F
100
AcDbEntity
  8
0
  6
SLD-Сплошная
 62
     7
370
    25
100
AcDbLine
 10
684.2780761413
 20
256.3678035341
 30
0.0
 11
685.194784526
 21
253.3916130579
 31
0.0
  0
LINE
  5
1D4
330
1F
100
AcDbEntity
  8
0
  6
SLD-Сплошная
 62
     7
370
    25
100
AcDbLine
 10
684.2780761413
 20
287.0271089737
 30
0.0
 11
684.2780761413
 21
256.3678035341
 31
0.0
  0
LINE
  5
1D5
330
1F
100
AcDbEntity
  8
0
  6
SLD-Сплошная
 62
     7
370
    25
100
AcDbLine
 10
684.2780761413
 20
-134.2942399787
 30
0.0
 11
684.2780761413
 21
-103.634934539
 31
0.0
  0
SPLINE
  5
1D6
330
1F
100
AcDbEntity
  8
0
  6
SLD-Сплошная
 62
     7
370
    25
100
AcDbSpline
210
0.0
220
0.0
230
1.0
 70
     8
 71
     3
 72
     8
 73
     4
 74
     0
 42
0.00000001
 43
0.00000001
 40
0.0
 40
0.0
 40
0.0
 40
0.0
 40
1.0
 40
1.0
 40
1.0
 40
1.0
 10
989.8642283454797
 20
-162.6335655024897
 30
0.0
 10
989.0114461647481
 20
-164.6335169925896
 30
0.0
 10
988.2691625263996
 20
-166.6335301949278
 30
0.0
 10
987.5831560754357
 20
-168.6335655024892
 30
0.0
  0
LINE
  5
1D7
330
1F
100
AcDbEntity
  8
0
  6
SLD-Сплошная
 62
     7
370
    25
100
AcDbLine
 10
987.5831560754
 20
-168.6335655025
 30
0.0
 11
987.2560703418
 21
-169.6005492263
 31
0.0
  0
LINE
  5
1D8
330
1F
100
AcDbEntity
  8
0
  6
SLD-Сплошная
 62
     7
370
    25
100
AcDbLine
 10
701.2340493885
 20
-169.6005492263
 30
0.0
 11
987.2560703418
 21
-169.6005492263
 31
0.0
  0
ARC
  5
1D9
330
1F
100
AcDbEntity
  8
0
  6
SLD-Сплошная
 62
     7
370
    25
100
AcDbCircle
 10
999.2450598651
 20
306.3664344975
 30
0.0
 40
19.96698372385886
100
AcDbArc
 50
290.4421690064
 51
126.9014664062
  0
SPLINE
  5
1DA
330
1F
100
AcDbEntity
  8
0
  6
SLD-Сплошная
 62
     7
370
    25
100
AcDbSpline
210
0.0
220
0.0
230
1.0
 70
     8
 71
     3
 72
    12
 73
     8
 74
     0
 42
0.00000001
 43
0.00000001
 40
0.0
 40
0.0
 40
0.0
 40
0.0
 40
0.2499999999999999
 40
0.2499999999999999
 40
0.4999999999999998
 40
0.4999999999999998
 40
1.0
 40
1.0
 40
1.0
 40
1.0
 10
999.2517804409207
 20
293.3664362346694
 30
0.0
 10
999.8322409617806
 20
292.7862757154321
 30
0.0
 10
1000.412752282036
 20
292.2442823286517
 30
0.0
 10
1001.573832291906
 20
291.2136243329033
 30
0.0
 10
1002.154402702723
 20
290.7251938928438
 30
0.0
 10
1003.896182259956
 20
289.3203460778016
 30
0.0
 10
1005.05745673147
 20
288.4633638302068
 30
0.0
 10
1006.218764164779
 20
287.6568677636211
 30
0.0
  0
ARC
  5
1DB
330
1F
100
AcDbEntity
  8
0
  6
SLD-Сплошная
 62
     7
370
    25
100
AcDbCircle
 10
999.2450598651
 20
-153.6335655025
 30
0.0
 40
19.96698372385879
100
AcDbArc
 50
233.0985335938
 51
69.5578309936
  0
SPLINE
  5
1DC
330
1F
100
AcDbEntity
  8
0
  6
SLD-Сплошная
 62
     7
370
    25
100
AcDbSpline
210
0.0
220
0.0
230
1.0
 70
     8
 71
     3
 72
    12
 73
     8
 74
     0
 42
0.00000001
 43
0.00000001
 40
0.0
 40
0.0
 40
0.0
 40
0.0
 40
0.2499999999999999
 40
0.2499999999999999
 40
0.4999999999999998
 40
0.4999999999999998
 40
1.0
 40
1.0
 40
1.0
 40
1.0
 10
999.2517804409206
 20
-140.633567239649
 30
0.0
 10
999.8322409617806
 20
-140.0534067204116
 30
0.0
 10
1000.412752282035
 20
-139.5114133336312
 30
0.0
 10
1001.573832291906
 20
-138.480755337883
 30
0.0
 10
1002.154402702723
 20
-137.9923248978234
 30
0.0
 10
1003.896182259955
 20
-136.5874770827811
 30
0.0
 10
1005.057456731469
 20
-135.7304948351862
 30
0.0
 10
1006.218764164779
 20
-134.9239987686006
 30
0.0
  0
LINE
  5
1DD
330
1F
100
AcDbEntity
  8
0
  6
SLD-Сплошная
 62
     7
370
    25
100
AcDbLine
 10
1006.2187641648
 20
287.6568677636
 30
0.0
 11
1006.2187641648
 21
258.3664344975
 31
0.0
  0
LINE
  5
1DE
330
1F
100
AcDbEntity
  8
0
  6
SLD-Сплошная
 62
     7
370
    25
100
AcDbLine
 10
1005.485397457
 20
255.8664344975
 30
0.0
 11
1006.2187641648
 21
258.3664344975
 31
0.0
  0
LINE
  5
1DF
330
1F
100
AcDbEntity
  8
0
  6
SLD-Сплошная
 62
     7
370
    25
100
AcDbLine
 10
1005.485397457
 20
200.8664344975
 30
0.0
 11
1005.485397457
 21
255.8664344975
 31
0.0
  0
LINE
  5
1E0
330
1F
100
AcDbEntity
  8
0
  6
SLD-Сплошная
 62
     7
370
    25
100
AcDbLine
 10
1005.485397457
 20
200.8664344975
 30
0.0
 11
1006.2187641648
 21
198.3664344975
 31
0.0
  0
LINE
  5
1E1
330
1F
100
AcDbEntity
  8
0
  6
SLD-Сплошная
 62
     7
370
    25
100
AcDbLine
 10
1006.2187641648
 20
-45.6335655025
 30
0.0
 11
1006.2187641648
 21
198.3664344975
 31
0.0
  0
LINE
  5
1E2
330
1F
100
AcDbEntity
  8
0
  6
SLD-Сплошная
 62
     7
370
    25
100
AcDbLine
 10
1005.485397457
 20
-48.1335655025
 30
0.0
 11
1006.2187641648
 21
-45.6335655025
 31
0.0
  0
LINE
  5
1E3
330
1F
100
AcDbEntity
  8
0
  6
SLD-Сплошная
 62
     7
370
    25
100
AcDbLine
 10
1005.485397457
 20
-48.1335655025
 30
0.0
 11
1005.485397457
 21
-103.1335655025
 31
0.0
  0
LINE
  5
1E4
330
1F
100
AcDbEntity
  8
0
  6
SLD-Сплошная
 62
     7
370
    25
100
AcDbLine
 10
1005.485397457
 20
-103.1335655025
 30
0.0
 11
1006.2187641648
 21
-105.6335655025
 31
0.0
  0
LINE
  5
1E5
330
1F
100
AcDbEntity
  8
0
  6
SLD-Сплошная
 62
     7
370
    25
100
AcDbLine
 10
1006.2187641648
 20
-134.9239987686
 30
0.0
 11
1006.2187641648
 21
-105.6335655025
 31
0.0
  0
LINE
  5
1E6
330
1F
100
AcDbEntity
  8
0
  6
SLD-Сплошная
 62
     7
370
    25
100
AcDbLine
 10
677.2450598651
 20
253.3916130579
 30
0.0
 11
677.2450598651
 21
199.3426249737
 31
0.0
  0
LINE
  5
1E7
330
1F
100
AcDbEntity
  8
0
  6
SLD-Сплошная
 62
     7
370
    25
100
AcDbLine
 10
685.194784526
 20
253.3916130579
 30
0.0
 11
677.2450598651
 21
253.3916130579
 31
0.0
  0
LINE
  5
1E8
330
1F
100
AcDbEntity
  8
0
  6
SLD-Сплошная
 62
     7
370
    25
100
AcDbLine
 10
685.194784526
 20
199.3426249737
 30
0.0
 11
677.2450598651
 21
199.3426249737
 31
0.0
  0
LINE
  5
1E9
330
1F
100
AcDbEntity
  8
0
  6
SLD-Сплошная
 62
     7
370
    25
100
AcDbLine
 10
684.2780761413
 20
-103.634934539
 30
0.0
 11
677.2450598651
 21
-103.634934539
 31
0.0
  0
LINE
  5
1EA
330
1F
100
AcDbEntity
  8
0
  6
SLD-Сплошная
 62
     7
370
    25
100
AcDbLine
 10
685.194784526
 20
-100.6587440629
 30
0.0
 11
677.2450598651
 21
-100.6587440629
 31
0.0
  0
LINE
  5
1EB
330
1F
100
AcDbEntity
  8
0
  6
SLD-Сплошная
 62
     7
370
    25
100
AcDbLine
 10
677.2450598651
 20
-103.634934539
 30
0.0
 11
677.2450598651
 21
-100.6587440629
 31
0.0
  0
LINE
  5
1EC
330
1F
100
AcDbEntity
  8
0
  6
SLD-Сплошная
 62
     7
370
    25
100
AcDbLine
 10
677.2450598651
 20
253.3916130579
 30
0.0
 11
677.2450598651
 21
256.3678035341
 31
0.0
  0
LINE
  5
1ED
330
1F
100
AcDbEntity
  8
0
  6
SLD-Сплошная
 62
     7
370
    25
100
AcDbLine
 10
684.2780761413
 20
256.3678035341
 30
0.0
 11
677.2450598651
 21
256.3678035341
 31
0.0
  0
LINE
  5
1EE
330
1F
100
AcDbEntity
  8
0
  6
SLD-Сплошная
 62
     7
370
    25
100
AcDbLine
 10
685.194784526
 20
-46.6097559787
 30
0.0
 11
677.2450598651
 21
-46.6097559787
 31
0.0
  0
LINE
  5
1EF
330
1F
100
AcDbEntity
  8
0
  6
SLD-Сплошная
 62
     7
370
    25
100
AcDbLine
 10
677.2450598651
 20
-46.6097559787
 30
0.0
 11
677.2450598651
 21
-100.6587440629
 31
0.0
  0
LINE
  5
1F0
330
1F
100
AcDbEntity
  8
0
  6
SLD-Сплошная
 62
     7
370
    25
100
AcDbLine
 10
684.2780761413
 20
196.3664344975
 30
0.0
 11
677.2450598651
 21
196.3664344975
 31
0.0
  0
LINE
  5
1F1
330
1F
100
AcDbEntity
  8
0
  6
SLD-Сплошная
 62
     7
370
    25
100
AcDbLine
 10
677.2450598651
 20
199.3426249737
 30
0.0
 11
677.2450598651
 21
196.3664344975
 31
0.0
  0
LINE
  5
1F2
330
1F
100
AcDbEntity
  8
0
  6
SLD-Сплошная
 62
     7
370
    25
100
AcDbLine
 10
684.2780761413
 20
-43.6335655025
 30
0.0
 11
677.2450598651
 21
-43.6335655025
 31
0.0
  0
LINE
  5
1F3
330
1F
100
AcDbEntity
  8
0
  6
SLD-Сплошная
 62
     7
370
    25
100
AcDbLine
 10
677.2450598651
 20
-43.6335655025
 30
0.0
 11
677.2450598651
 21
-46.6097559787
 31
0.0
  0
LINE
  5
1F4
330
1F
100
AcDbEntity
  8
0
  6
SLD-Сплошная
 62
     7
370
    25
100
AcDbLine
 10
669.2450598651
 20
46.3664344975
 30
0.0
 11
684.2780761413
 21
46.3664344975
 31
0.0
  0
LINE
  5
1F5
330
1F
100
AcDbEntity
  8
0
  6
SLD-Сплошная
 62
     7
370
    25
100
AcDbLine
 10
669.2450598651
 20
46.3664344975
 30
0.0
 11
669.2450598651
 21
49.3426249737
 31
0.0
  0
LINE
  5
1F6
330
1F
100
AcDbEntity
  8
0
  6
SLD-Сплошная
 62
     7
370
    25
100
AcDbLine
 10
669.2450598651
 20
49.3426249737
 30
0.0
 11
685.194784526
 21
49.3426249737
 31
0.0
  0
LINE
  5
1F7
330
1F
100
AcDbEntity
  8
0
  6
SLD-Сплошная
 62
     7
370
    25
100
AcDbLine
 10
685.194784526
 20
103.3902440213
 30
0.0
 11
669.2450598651
 21
103.3902440213
 31
0.0
  0
LINE
  5
1F8
330
1F
100
AcDbEntity
  8
0
  6
SLD-Сплошная
 62
     7
370
    25
100
AcDbLine
 10
669.2450598651
 20
49.3426249737
 30
0.0
 11
669.2450598651
 21
103.3902440213
 31
0.0
  0
LINE
  5
1F9
330
1F
100
AcDbEntity
  8
0
  6
SLD-Сплошная
 62
     7
370
    25
100
AcDbLine
 10
669.2450598651
 20
106.3664344975
 30
0.0
 11
684.2780761413
 21
106.3664344975
 31
0.0
  0
LINE
  5
1FA
330
1F
100
AcDbEntity
  8
0
  6
SLD-Сплошная
 62
     7
370
    25
100
AcDbLine
 10
669.2450598651
 20
106.3664344975
 30
0.0
 11
669.2450598651
 21
103.3902440213
 31
0.0
  0
LINE
  5
1FB
330
1F
100
AcDbEntity
  8
0
  6
SLD-Сплошная
 62
     7
370
    25
100
AcDbLine
 10
1019.2450598651
 20
-45.6335655025
 30
0.0
 11
1019.2450598651
 21
-48.1335655025
 31
0.0
  0
LINE
  5
1FC
330
1F
100
AcDbEntity
  8
0
  6
SLD-Сплошная
 62
     7
370
    25
100
AcDbLine
 10
1019.2450598651
 20
-48.1335655025
 30
0.0
 11
1005.485397457
 21
-48.1335655025
 31
0.0
  0
LINE
  5
1FD
330
1F
100
AcDbEntity
  8
0
  6
SLD-Сплошная
 62
     7
370
    25
100
AcDbLine
 10
1019.2450598651
 20
-45.6335655025
 30
0.0
 11
1006.2187641648
 21
-45.6335655025
 31
0.0
  0
LINE
  5
1FE
330
1F
100
AcDbEntity
  8
0
  6
SLD-Сплошная
 62
     7
370
    25
100
AcDbLine
 10
1019.2450598651
 20
-103.1335655025
 30
0.0
 11
1019.2450598651
 21
-105.6335655025
 31
0.0
  0
LINE
  5
1FF
330
1F
100
AcDbEntity
  8
0
  6
SLD-Сплошная
 62
     7
370
    25
100
AcDbLine
 10
1006.2187641648
 20
-105.6335655025
 30
0.0
 11
1019.2450598651
 21
-105.6335655025
 31
0.0
  0
LINE
  5
200
330
1F
100
AcDbEntity
  8
0
  6
SLD-Сплошная
 62
     7
370
    25
100
AcDbLine
 10
1005.485397457
 20
-103.1335655025
 30
0.0
 11
1019.2450598651
 21
-103.1335655025
 31
0.0
  0
LINE
  5
201
330
1F
100
AcDbEntity
  8
0
  6
SLD-Сплошная
 62
     7
370
    25
100
AcDbLine
 10
1019.2450598651
 20
200.8664344975
 30
0.0
 11
1019.2450598651
 21
255.8664344975
 31
0.0
  0
LINE
  5
202
330
1F
100
AcDbEntity
  8
0
  6
SLD-Сплошная
 62
     7
370
    25
100
AcDbLine
 10
1019.2450598651
 20
200.8664344975
 30
0.0
 11
1005.485397457
 21
200.8664344975
 31
0.0
  0
LINE
  5
203
330
1F
100
AcDbEntity
  8
0
  6
SLD-Сплошная
 62
     7
370
    25
100
AcDbLine
 10
1005.485397457
 20
255.8664344975
 30
0.0
 11
1019.2450598651
 21
255.8664344975
 31
0.0
  0
LINE
  5
204
330
1F
100
AcDbEntity
  8
0
  6
SLD-Сплошная
 62
     7
370
    25
100
AcDbLine
 10
1019.2450598651
 20
198.3664344975
 30
0.0
 11
1019.2450598651
 21
200.8664344975
 31
0.0
  0
LINE
  5
205
330
1F
100
AcDbEntity
  8
0
  6
SLD-Сплошная
 62
     7
370
    25
100
AcDbLine
 10
1019.2450598651
 20
198.3664344975
 30
0.0
 11
1006.2187641648
 21
198.3664344975
 31
0.0
  0
LINE
  5
206
330
1F
100
AcDbEntity
  8
0
  6
SLD-Сплошная
 62
     7
370
    25
100
AcDbLine
 10
1006.2187641648
 20
258.3664344975
 30
0.0
 11
1019.2450598651
 21
258.3664344975
 31
0.0
  0
LINE
  5
207
330
1F
100
AcDbEntity
  8
0
  6
SLD-Сплошная
 62
     7
370
    25
100
AcDbLine
 10
1019.2450598651
 20
255.8664344975
 30
0.0
 11
1019.2450598651
 21
258.3664344975
 31
0.0
  0
LINE
  5
208
330
1F
100
AcDbEntity
  8
0
  6
SLD-Сплошная
 62
     7
370
    25
100
AcDbLine
 10
1019.2450598651
 20
-48.1335655025
 30
0.0
 11
1019.2450598651
 21
-103.1335655025
 31
0.0
  0
ARC
  5
209
330
1F
100
AcDbEntity
  8
0
  6
SLD-Сплошная
 62
     7
370
    25
100
AcDbCircle
 10
689.2450598651
 20
306.3664344975
 30
0.0
 40
20.00000000000011
100
AcDbArc
 50
90.0
 51
180.0
  0
LINE
  5
20A
330
1F
100
AcDbEntity
  8
0
  6
SLD-Сплошная
 62
     7
370
    25
100
AcDbLine
 10
999.2450598651
 20
326.3664344975
 30
0.0
 11
689.2450598651
 21
326.3664344975
 31
0.0
  0
ARC
  5
20B
330
1F
100
AcDbEntity
  8
0
  6
SLD-Сплошная
 62
     7
370
    25
100
AcDbCircle
 10
999.2450598651
 20
306.3664344975
 30
0.0
 40
20.0
100
AcDbArc
 50
0.0
 51
90.0
  0
LINE
  5
20C
330
1F
100
AcDbEntity
  8
0
  6
SLD-Сплошная
 62
     7
370
    25
100
AcDbLine
 10
1019.2450598651
 20
258.3664344975
 30
0.0
 11
1019.2450598651
 21
306.3664344975
 31
0.0
  0
LINE
  5
20D
330
1F
100
AcDbEntity
  8
0
  6
SLD-Сплошная
 62
     7
370
    25
100
AcDbLine
 10
669.2450598651
 20
306.3664344975
 30
0.0
 11
669.2450598651
 21
106.3664344975
 31
0.0
  0
ARC
  5
20E
330
1F
100
AcDbEntity
  8
0
  6
SLD-Сплошная
 62
     7
370
    25
100
AcDbCircle
 10
999.2450598651
 20
-153.6335655025
 30
0.0
 40
20.0
100
AcDbArc
 50
270.0
 51
0.0
  0
LINE
  5
20F
330
1F
100
AcDbEntity
  8
0
  6
SLD-Сплошная
 62
     7
370
    25
100
AcDbLine
 10
999.2450598651
 20
-173.6335655025
 30
0.0
 11
689.2450598651
 21
-173.6335655025
 31
0.0
  0
ARC
  5
210
330
1F
100
AcDbEntity
  8
0
  6
SLD-Сплошная
 62
     7
370
    25
100
AcDbCircle
 10
689.2450598651
 20
-153.6335655025
 30
0.0
 40
20.00000000000011
100
AcDbArc
 50
180.0
 51
270.0
  0
LINE
  5
211
330
1F
100
AcDbEntity
  8
0
  6
SLD-Сплошная
 62
     7
370
    25
100
AcDbLine
 10
1019.2450598651
 20
-105.6335655025
 30
0.0
 11
1019.2450598651
 21
-153.6335655025
 31
0.0
  0
LINE
  5
212
330
1F
100
AcDbEntity
  8
0
  6
SLD-Сплошная
 62
     7
370
    25
100
AcDbLine
 10
669.2450598651
 20
-153.6335655025
 30
0.0
 11
669.2450598651
 21
46.3664344975
 31
0.0
  0
LINE
  5
213
330
1F
100
AcDbEntity
  8
0
  6
SLD-Сплошная
 62
     7
370
    25
100
AcDbLine
 10
1019.2450598651
 20
198.3664344975
 30
0.0
 11
1019.2450598651
 21
-45.6335655025
 31
0.0
  0
LINE
  5
214
330
1F
100
AcDbEntity
  8
0
  6
SLD-Сплошная
 62
     7
370
    25
100
AcDbLine
 10
-156.1086175644
 20
573.5436413511
 30
0.0
 11
-149.1416338406
 21
383.5436413511
 31
0.0
  0
LINE
  5
215
330
1F
100
AcDbEntity
  8
0
  6
SLD-Сплошная
 62
     7
370
    25
100
AcDbLine
 10
186.8583661594
 20
383.5436413511
 30
0.0
 11
193.8253498833
 21
573.5436413511
 31
0.0
  0
SPLINE
  5
216
330
1F
100
AcDbEntity
  8
0
  6
SLD-Сплошная
 62
     7
370
    25
100
AcDbSpline
210
0.0
220
0.0
230
1.0
 70
     8
 71
     3
 72
     9
 73
     5
 74
     0
 42
0.00000001
 43
0.00000001
 40
0.0
 40
0.0
 40
0.0
 40
0.0
 40
0.5028262029218413
 40
1.0
 40
1.0
 40
1.0
 40
1.0
 10
-136.1416338405612
 20
596.40886521084
 30
0.0
 10
-135.1770231457558
 20
596.4472460696201
 30
0.0
 10
-133.2586452068173
 20
596.5235763375282
 30
0.0
 10
-131.3387980835486
 20
596.536978264277
 30
0.0
 10
-130.3843003994635
 20
596.5436413510869
 30
0.0
  0
SPLINE
  5
217
330
1F
100
AcDbEntity
  8
0
  6
SLD-Сплошная
 62
     7
370
    25
100
AcDbSpline
210
0.0
220
0.0
230
1.0
 70
     8
 71
     3
 72
    36
 73
    32
 74
     0
 42
0.00000001
 43
0.00000001
 40
0.0
 40
0.0
 40
0.0
 40
0.0
 40
0.019029531073474
 40
0.0349864656598709
 40
0.0478740959251902
 40
0.0622356377049291
 40
0.0777744652950508
 40
0.1091504471101871
 40
0.1399488415345385
 40
0.1765636381945317
 40
0.2133845159777976
 40
0.250303144626255
 40
0.3002425914539757
 40
0.3499404524093211
 40
0.3996397035422675
 40
0.4495833006131271
 40
0.5000106677776017
 40
0.5502934730175829
 40
0.6002418513526707
 40
0.6501016911391868
 40
0.7001201872518815
 40
0.7503652370499068
 40
0.7853154069834128
 40
0.820182640557817
 40
0.8553139557745267
 40
0.891017479931949
 40
0.912600824662308
 40
0.931565398830557
 40
0.9503233570317002
 40
0.97313153664374
 40
1.0
 40
1.0
 40
1.0
 40
1.0
 10
-156.080712821696
 20
596.5659790580034
 30
0.0
 10
-156.0624055131327
 20
596.5721675274385
 30
0.0
 10
-156.0287468790918
 20
596.5835452472859
 30
0.0
 10
-155.9749922094574
 20
596.5963718289299
 30
0.0
 10
-155.9190891392214
 20
596.6076300832975
 30
0.0
 10
-155.8507956848532
 20
596.6202205716977
 30
0.0
 10
-155.7393482181398
 20
596.6381283039165
 30
0.0
 10
-155.5717029777031
 20
596.660002916655
 30
0.0
 10
-155.315560691164
 20
596.685289791966
 30
0.0
 10
-154.9949312499051
 20
596.7088192901545
 30
0.0
 10
-154.5983000032372
 20
596.729109910597
 30
0.0
 10
-154.0931808191976
 20
596.7449193352363
 30
0.0
 10
-153.4563541679176
 20
596.753154357423
 30
0.0
 10
-152.6627833811721
 20
596.7503079691127
 30
0.0
 10
-151.7762053956583
 20
596.735644045966
 30
0.0
 10
-150.7973767513537
 20
596.7093163664956
 30
0.0
 10
-149.7335531638167
 20
596.6715657134491
 30
0.0
 10
-148.5954807534216
 20
596.6237145634575
 30
0.0
 10
-147.3917481845884
 20
596.5698911439764
 30
0.0
 10
-146.1271631700021
 20
596.5134403652204
 30
0.0
 10
-144.8045398026747
 20
596.4576356130782
 30
0.0
 10
-143.5701109603034
 20
596.4113139883876
 30
0.0
 10
-142.4461017830065
 20
596.3771186222765
 30
0.0
 10
-141.4461715943752
 20
596.3538187625135
 30
0.0
 10
-140.4242231937286
 20
596.3391339195762
 30
0.0
 10
-139.5208392483457
 20
596.3338767532197
 30
0.0
 10
-138.7700734765122
 20
596.3371367087092
 30
0.0
 10
-138.1835757513438
 20
596.3446977425778
 30
0.0
 10
-137.5827552941485
 20
596.3610103571599
 30
0.0
 10
-136.9027766408042
 20
596.3828523892073
 30
0.0
 10
-136.4088062101507
 20
596.3997343260794
 30
0.0
 10
-136.1416338405612
 20
596.40886521084
 30
0.0
  0
LINE
  5
218
330
1F
100
AcDbEntity
  8
0
  6
SLD-Сплошная
 62
     7
370
    25
100
AcDbLine
 10
-126.1416338406
 20
607.5436413511
 30
0.0
 11
-156.0807128217
 21
596.565979058
 31
0.0
  0
SPLINE
  5
219
330
1F
100
AcDbEntity
  8
0
  6
SLD-Сплошная
 62
     7
370
    25
100
AcDbSpline
210
0.0
220
0.0
230
1.0
 70
     8
 71
     3
 72
    53
 73
    49
 74
     0
 42
0.00000001
 43
0.00000001
 40
0.0
 40
0.0
 40
0.0
 40
0.0
 40
0.0307329085790553
 40
0.0590165202454741
 40
0.0848537771903715
 40
0.0989353542056988
 40
0.1121697381036051
 40
0.1245581281321522
 40
0.140666800752425
 40
0.1569757806734164
 40
0.1730394725800609
 40
0.1888597793179028
 40
0.20443869291569
 40
0.2197782994457131
 40
0.234880784145448
 40
0.2497484368087755
 40
0.300899602570139
 40
0.3498335616634377
 40
0.3966795878788635
 40
0.4101072471802073
 40
0.4233704582400434
 40
0.4364734640325593
 40
0.4494206650372443
 40
0.4622166224765648
 40
0.4748660611834082
 40
0.4873738720343783
 40
0.4997451138817112
 40
0.5329885691600253
 40
0.5654058540425082
 40
0.597121400021277
 40
0.6282680501072666
 40
0.6589860289420714
 40
0.6894214867681048
 40
0.7197246618448777
 40
0.7500477587127019
 40
0.7743665018800707
 40
0.7989545674327095
 40
0.8238876205607688
 40
0.8492382375399475
 40
0.8750754761002756
 40
0.890519785832789
 40
0.9060660039899491
 40
0.9217299162853053
 40
0.9375269556074207
 40
0.949243175372444
 40
0.9635590810258702
 40
0.9804774652027743
 40
1.0
 40
1.0
 40
1.0
 40
1.0
 10
-100.3843003994637
 20
607.5436413510876
 30
0.0
 10
-100.7517730448415
 20
607.5449231953359
 30
0.0
 10
-101.4574321515873
 20
607.5473847256799
 30
0.0
 10
-102.4717760100469
 20
607.5471246498081
 30
0.0
 10
-103.2867338647143
 20
607.5457477882941
 30
0.0
 10
-103.9214991690026
 20
607.5444872789068
 30
0.0
 10
-104.3954044037376
 20
607.5437006984401
 30
0.0
 10
-104.8931312155422
 20
607.5435240224388
 30
0.0
 10
-105.4270347059885
 20
607.5438290798354
 30
0.0
 10
-106.004170972138
 20
607.5438814159564
 30
0.0
 10
-106.5771741803412
 20
607.5439129229748
 30
0.0
 10
-107.1407153279918
 20
607.5438791854131
 30
0.0
 10
-107.6947796545604
 20
607.5438179401455
 30
0.0
 10
-108.2393538747146
 20
607.5437469574489
 30
0.0
 10
-108.774432071397
 20
607.543685322943
 30
0.0
 10
-109.7302168722594
 20
607.5436525066741
 30
0.0
 10
-111.0773183737648
 20
607.5437130695939
 30
0.0
 10
-112.7779079560462
 20
607.5437755463341
 30
0.0
 10
-114.0209869341359
 20
607.5438031824434
 30
0.0
 10
-114.8456425901031
 20
607.5437997126758
 30
0.0
 10
-115.2887125510835
 20
607.543792672318
 30
0.0
 10
-115.7230390632895
 20
607.5437804028637
 30
0.0
 10
-116.1486111598381
 20
607.5437631422659
 30
0.0
 10
-116.5654139324636
 20
607.5437414304068
 30
0.0
 10
-116.9734326242271
 20
607.5437154868255
 30
0.0
 10
-117.3726559777182
 20
607.5436876777543
 30
0.0
 10
-117.9839665511825
 20
607.5436340183661
 30
0.0
 10
-118.7863568284319
 20
607.5436213219366
 30
0.0
 10
-119.7476171341373
 20
607.5437111037701
 30
0.0
 10
-120.6432152635948
 20
607.5438348468422
 30
0.0
 10
-121.4727526919088
 20
607.5439494314815
 30
0.0
 10
-122.2358639969096
 20
607.5440191217228
 30
0.0
 10
-122.9321928094947
 20
607.5440143795329
 30
0.0
 10
-123.5613281183718
 20
607.5439374659538
 30
0.0
 10
-124.0850484285797
 20
607.5437366414262
 30
0.0
 10
-124.5179433200735
 20
607.5436309784857
 30
0.0
 10
-124.8743916356423
 20
607.5436552929887
 30
0.0
 10
-125.1882330816146
 20
607.5436056888678
 30
0.0
 10
-125.4590945314443
 20
607.5434252980556
 30
0.0
 10
-125.655236149764
 20
607.5428682269777
 30
0.0
 10
-125.7941705088483
 20
607.5425325959766
 30
0.0
 10
-125.8896138691784
 20
607.5429007154249
 30
0.0
 10
-125.9674275445425
 20
607.5439348279177
 30
0.0
 10
-126.0226206210399
 20
607.5454354593804
 30
0.0
 10
-126.0611765932478
 20
607.5479507692946
 30
0.0
 10
-126.091483377993
 20
607.5497652597161
 30
0.0
 10
-126.119673407012
 20
607.5495658171608
 30
0.0
 10
-126.1339730673383
 20
607.5457080676186
 30
0.0
 10
-126.1416338405616
 20
607.5436413510869
 30
0.0
  0
LINE
  5
21A
330
1F
100
AcDbEntity
  8
0
  6
SLD-Сплошная
 62
     7
370
    25
100
AcDbLine
 10
-136.1416338406
 20
583.5436413511
 30
0.0
 11
-156.1416338406
 21
583.5436413511
 31
0.0
  0
LINE
  5
21B
330
1F
100
AcDbEntity
  8
0
  6
SLD-Сплошная
 62
     7
370
    25
100
AcDbLine
 10
-156.1416338406
 20
596.5436413511
 30
0.0
 11
-156.1416338406
 21
583.5436413511
 31
0.0
  0
SPLINE
  5
21C
330
1F
100
AcDbEntity
  8
0
  6
SLD-Сплошная
 62
     7
370
    25
100
AcDbSpline
210
0.0
220
0.0
230
1.0
 70
     8
 71
     3
 72
     9
 73
     5
 74
     0
 42
0.00000001
 43
0.00000001
 40
0.0
 40
0.0
 40
0.0
 40
0.0
 40
0.5000720441320382
 40
1.0
 40
1.0
 40
1.0
 40
1.0
 10
-156.080712821696
 20
596.5659790580033
 30
0.0
 10
-156.0984795770736
 20
596.5601629675946
 30
0.0
 10
-156.1340079686047
 20
596.5485324625963
 30
0.0
 10
-156.1390921274315
 20
596.5452715649704
 30
0.0
 10
-156.1416338405611
 20
596.5436413510862
 30
0.0
  0
LINE
  5
21D
330
1F
100
AcDbEntity
  8
0
  6
SLD-Сплошная
 62
     7
370
    25
100
AcDbLine
 10
193.8583661594
 20
596.5436413511
 30
0.0
 11
172.8583661594
 21
607.5436413511
 31
0.0
  0
SPLINE
  5
21E
330
1F
100
AcDbEntity
  8
0
  6
SLD-Сплошная
 62
     7
370
    25
100
AcDbSpline
210
0.0
220
0.0
230
1.0
 70
     8
 71
     3
 72
     9
 73
     5
 74
     0
 42
0.00000001
 43
0.00000001
 40
0.0
 40
0.0
 40
0.0
 40
0.0
 40
0.5016526879665698
 40
1.0
 40
1.0
 40
1.0
 40
1.0
 10
193.8583661594396
 20
596.4762625087557
 30
0.0
 10
193.8592080188224
 20
596.4954773782852
 30
0.0
 10
193.8608861905991
 20
596.5337805110908
 30
0.0
 10
193.8592043167509
 20
596.5403616554786
 30
0.0
 10
193.8583661594397
 20
596.5436413510945
 30
0.0
  0
SPLINE
  5
21F
330
1F
100
AcDbEntity
  8
0
  6
SLD-Сплошная
 62
     7
370
    25
100
AcDbSpline
210
0.0
220
0.0
230
1.0
 70
     8
 71
     3
 72
    38
 73
    34
 74
     0
 42
0.00000001
 43
0.00000001
 40
0.0
 40
0.0
 40
0.0
 40
0.0
 40
0.018702987124942
 40
0.0353685667009633
 40
0.0500013981937934
 40
0.0626629781579149
 40
0.0782035581465598
 40
0.1089737356735037
 40
0.1398352304115583
 40
0.1763510068233594
 40
0.2129790213573212
 40
0.2498306050261523
 40
0.2916530705369058
 40
0.3332177073288637
 40
0.3746788811254231
 40
0.4161921117706734
 40
0.4579123368899488
 40
0.4999922076479037
 40
0.5505682668512678
 40
0.6005806994888959
 40
0.6502937017456597
 40
0.6999762470275293
 40
0.7498978012001164
 40
0.7967130029634091
 40
0.8431590024252893
 40
0.8900369911681416
 40
0.9060808023187915
 40
0.9218898489028412
 40
0.9374148214219487
 40
0.9509987251581775
 40
0.9642571808444845
 40
0.9805902758483924
 40
1.0
 40
1.0
 40
1.0
 40
1.0
 10
173.8583661594396
 20
596.441026854167
 30
0.0
 10
174.0540193911031
 20
596.432978256839
 30
0.0
 10
174.4240123942595
 20
596.4177578351199
 30
0.0
 10
174.9468131528905
 20
596.3966671633276
 30
0.0
 10
175.4061167415552
 20
596.379409780608
 30
0.0
 10
175.852958208798
 20
596.3657652977394
 30
0.0
 10
176.4664885454577
 20
596.3518437615083
 30
0.0
 10
177.266077965405
 20
596.3383970441469
 30
0.0
 10
178.2747191603948
 20
596.329003350952
 30
0.0
 10
179.3311518272095
 20
596.3267179643572
 30
0.0
 10
180.4301668848674
 20
596.3312988670742
 30
0.0
 10
181.559067714958
 20
596.3413772672509
 30
0.0
 10
182.7072088216318
 20
596.35479677978
 30
0.0
 10
183.861877903242
 20
596.3701396875636
 30
0.0
 10
184.9707546926982
 20
596.3856076604792
 30
0.0
 10
186.0329782720779
 20
596.3998340297652
 30
0.0
 10
187.047660356919
 20
596.4114747913337
 30
0.0
 10
188.0747504039339
 20
596.4197358061947
 30
0.0
 10
189.0911361110268
 20
596.4217800533082
 30
0.0
 10
190.0678887189056
 20
596.4177404514508
 30
0.0
 10
190.937975577521
 20
596.40968020208
 30
0.0
 10
191.7011129217404
 20
596.3996492173549
 30
0.0
 10
192.3407666692325
 20
596.3902140524358
 30
0.0
 10
192.8635871875055
 20
596.3826283681003
 30
0.0
 10
193.2727969858583
 20
596.3813511970777
 30
0.0
 10
193.5117330964976
 20
596.3875177808121
 30
0.0
 10
193.6453133506091
 20
596.3964098613716
 30
0.0
 10
193.7119749441179
 20
596.4042118101363
 30
0.0
 10
193.7621477645118
 20
596.4141569286861
 30
0.0
 10
193.7971181600305
 20
596.4263780227641
 30
0.0
 10
193.8212983821961
 20
596.4415048750024
 30
0.0
 10
193.8423448491513
 20
596.4587436797144
 30
0.0
 10
193.8527278117842
 20
596.4700971423235
 30
0.0
 10
193.8583661594396
 20
596.4762625087557
 30
0.0
  0
SPLINE
  5
220
330
1F
100
AcDbEntity
  8
0
  6
SLD-Сплошная
 62
     7
370
    25
100
AcDbSpline
210
0.0
220
0.0
230
1.0
 70
     8
 71
     3
 72
     9
 73
     5
 74
     0
 42
0.00000001
 43
0.00000001
 40
0.0
 40
0.0
 40
0.0
 40
0.0
 40
0.4979141447954828
 40
1.0
 40
1.0
 40
1.0
 40
1.0
 10
169.7401611592126
 20
596.543641351094
 30
0.0
 10
170.4239629820338
 20
596.5385794246222
 30
0.0
 10
171.797295774381
 20
596.5284131609704
 30
0.0
 10
173.1694346424206
 20
596.4702365217985
 30
0.0
 10
173.8583661594396
 20
596.441026854167
 30
0.0
  0
SPLINE
  5
221
330
1F
100
AcDbEntity
  8
0
  6
SLD-Сплошная
 62
     7
370
    25
100
AcDbSpline
210
0.0
220
0.0
230
1.0
 70
     8
 71
     3
 72
    49
 73
    45
 74
     0
 42
0.00000001
 43
0.00000001
 40
0.0
 40
0.0
 40
0.0
 40
0.0
 40
0.019164700530464
 40
0.0359831998432843
 40
0.0504568767683505
 40
0.0626540571737215
 40
0.0783368920364552
 40
0.1091029984402981
 40
0.140504372214298
 40
0.1593533607172282
 40
0.1779314434364998
 40
0.1962491094109046
 40
0.2143173012202974
 40
0.232147420767217
 40
0.2497513325523633
 40
0.2826659068476112
 40
0.3149098274413487
 40
0.3465787897001171
 40
0.3777737807549933
 40
0.4086004462307639
 40
0.4391682509093986
 40
0.4695894540818979
 40
0.4999779397817373
 40
0.5298150094279459
 40
0.5598663814066552
 40
0.5902348431720205
 40
0.621020006183569
 40
0.6418240039759651
 40
0.6628829662739427
 40
0.6842231326834796
 40
0.7058697202229298
 40
0.7278468911558929
 40
0.7501777346851404
 40
0.7843865654458423
 40
0.8191648374670804
 40
0.8545731092031985
 40
0.8892987796937284
 40
0.9046981526266229
 40
0.920649805098046
 40
0.9371576239823597
 40
0.949080898288198
 40
0.9634573426868641
 40
0.9804302659334736
 40
1.0
 40
1.0
 40
1.0
 40
1.0
 10
172.8583661594392
 20
607.543641351094
 30
0.0
 10
172.8552012939435
 20
607.5446130816638
 30
0.0
 10
172.8492590154597
 20
607.5464375805767
 30
0.0
 10
172.8324736932411
 20
607.5456858916338
 30
0.0
 10
172.8117460540961
 20
607.5440425198537
 30
0.0
 10
172.7825575510498
 20
607.5430391448749
 30
0.0
 10
172.7270995216769
 20
607.5434595615916
 30
0.0
 10
172.6275341223276
 20
607.5438426553114
 30
0.0
 10
172.485948268159
 20
607.5437567529078
 30
0.0
 10
172.3370926526297
 20
607.5436931059477
 30
0.0
 10
172.1985851190782
 20
607.5436664459542
 30
0.0
 10
172.0439646934136
 20
607.5436513342086
 30
0.0
 10
171.8732900025799
 20
607.543643292904
 30
0.0
 10
171.6866179193519
 20
607.5436383222494
 30
0.0
 10
171.4244944510143
 20
607.5436246560026
 30
0.0
 10
171.064981835574
 20
607.5436307411074
 30
0.0
 10
170.5781391931449
 20
607.543666451056
 30
0.0
 10
170.0341817848832
 20
607.5436917648484
 30
0.0
 10
169.4335262198739
 20
607.5436936046004
 30
0.0
 10
168.7766020200169
 20
607.5436692142122
 30
0.0
 10
168.0638489239368
 20
607.5436325954919
 30
0.0
 10
167.2957373648453
 20
607.5436036740653
 30
0.0
 10
166.4784000911509
 20
607.5436444773225
 30
0.0
 10
165.6135635310602
 20
607.5437232632065
 30
0.0
 10
164.7027739937993
 20
607.5437422863166
 30
0.0
 10
163.7401285818629
 20
607.5437221704846
 30
0.0
 10
162.841135864008
 20
607.5436736224257
 30
0.0
 10
162.0224336442249
 20
607.5436248503453
 30
0.0
 10
161.2962351983581
 20
607.5435889796379
 30
0.0
 10
160.5476483813923
 20
607.5435693582527
 30
0.0
 10
159.7767892434441
 20
607.5435895130153
 30
0.0
 10
158.9838041112281
 20
607.5436340056925
 30
0.0
 10
158.0288638247125
 20
607.5438850937172
 30
0.0
 10
156.9047757903689
 20
607.5436863673598
 30
0.0
 10
155.6052847208743
 20
607.5427780797704
 30
0.0
 10
154.2879031926261
 20
607.5422105550559
 30
0.0
 10
153.2070938132641
 20
607.5422231929239
 30
0.0
 10
152.3694349114861
 20
607.5442008645406
 30
0.0
 10
151.7618094385081
 20
607.5460393083814
 30
0.0
 10
151.1976804664717
 20
607.5477942445107
 30
0.0
 10
150.6531766062522
 20
607.5496927069844
 30
0.0
 10
150.1025471235581
 20
607.5506528850512
 30
0.0
 10
149.4544643185983
 20
607.5496278602039
 30
0.0
 10
148.9892812292783
 20
607.5457292034982
 30
0.0
 10
148.7401611592126
 20
607.5436413510935
 30
0.0
  0
LINE
  5
222
330
1F
100
AcDbEntity
  8
0
  6
SLD-Сплошная
 62
     7
370
    25
100
AcDbLine
 10
193.8583661594
 20
583.5436413511
 30
0.0
 11
193.8583661594
 21
596.4762625088
 31
0.0
  0
LINE
  5
223
330
1F
100
AcDbEntity
  8
0
  6
SLD-Сплошная
 62
     7
370
    25
100
AcDbLine
 10
193.8583661594
 20
583.5436413511
 30
0.0
 11
173.8583661594
 21
583.5436413511
 31
0.0
  0
LINE
  5
224
330
1F
100
AcDbEntity
  8
0
  6
SLD-Сплошная
 62
     7
370
    25
100
AcDbLine
 10
169.7401611592
 20
596.5436413511
 30
0.0
 11
-130.3843003995
 21
596.5436413511
 31
0.0
  0
LINE
  5
225
330
1F
100
AcDbEntity
  8
0
  6
SLD-Сплошная
 62
     7
370
    25
100
AcDbLine
 10
173.8583661594
 20
583.5436413511
 30
0.0
 11
-136.1416338406
 21
583.5436413511
 31
0.0
  0
LINE
  5
226
330
1F
100
AcDbEntity
  8
0
  6
SLD-Сплошная
 62
     7
370
    25
100
AcDbLine
 10
148.7401611592
 20
607.5436413511
 30
0.0
 11
-100.3843003995
 21
607.5436413511
 31
0.0
  0
LINE
  5
227
330
1F
100
AcDbEntity
  8
0
  6
SLD-Сплошная
 62
     7
370
    25
100
AcDbLine
 10
108.8583661594
 20
610.5436413511
 30
0.0
 11
108.8583661594
 21
607.5436413511
 31
0.0
  0
LINE
  5
228
330
1F
100
AcDbEntity
  8
0
  6
SLD-Сплошная
 62
     7
370
    25
100
AcDbLine
 10
136.8583661594
 20
610.5436413511
 30
0.0
 11
108.8583661594
 21
610.5436413511
 31
0.0
  0
LINE
  5
229
330
1F
100
AcDbEntity
  8
0
  6
SLD-Сплошная
 62
     7
370
    25
100
AcDbLine
 10
136.8583661594
 20
607.5436413511
 30
0.0
 11
136.8583661594
 21
610.5436413511
 31
0.0
  0
LINE
  5
22A
330
1F
100
AcDbEntity
  8
0
  6
SLD-Сплошная
 62
     7
370
    25
100
AcDbLine
 10
-156.1416338406
 20
607.5436413511
 30
0.0
 11
-156.1416338406
 21
596.5436413511
 31
0.0
  0
LINE
  5
22B
330
1F
100
AcDbEntity
  8
0
  6
SLD-Сплошная
 62
     7
370
    25
100
AcDbLine
 10
-126.1416338406
 20
607.5436413511
 30
0.0
 11
-156.1416338406
 21
607.5436413511
 31
0.0
  0
LINE
  5
22C
330
1F
100
AcDbEntity
  8
0
  6
SLD-Сплошная
 62
     7
370
    25
100
AcDbLine
 10
-157.1267994247
 20
607.5436413511
 30
0.0
 11
-157.1267994247
 21
598.5436413511
 31
0.0
  0
LINE
  5
22D
330
1F
100
AcDbEntity
  8
0
  6
SLD-Сплошная
 62
     7
370
    25
100
AcDbLine
 10
-157.1267994247
 20
607.5436413511
 30
0.0
 11
-156.1416338406
 21
607.5436413511
 31
0.0
  0
LINE
  5
22E
330
1F
100
AcDbEntity
  8
0
  6
SLD-Сплошная
 62
     7
370
    25
100
AcDbLine
 10
-157.1267994247
 20
598.5436413511
 30
0.0
 11
-156.1416338406
 21
598.5436413511
 31
0.0
  0
LINE
  5
22F
330
1F
100
AcDbEntity
  8
0
  6
SLD-Сплошная
 62
     7
370
    25
100
AcDbLine
 10
193.8583661594
 20
583.5436413511
 30
0.0
 11
193.8583661594
 21
573.5436413511
 31
0.0
  0
LINE
  5
230
330
1F
100
AcDbEntity
  8
0
  6
SLD-Сплошная
 62
     7
370
    25
100
AcDbLine
 10
173.8583661594
 20
573.5436413511
 30
0.0
 11
193.8583661594
 21
573.5436413511
 31
0.0
  0
LINE
  5
231
330
1F
100
AcDbEntity
  8
0
  6
SLD-Сплошная
 62
     7
370
    25
100
AcDbLine
 10
-156.1416338406
 20
583.5436413511
 30
0.0
 11
-156.1416338406
 21
573.5436413511
 31
0.0
  0
LINE
  5
232
330
1F
100
AcDbEntity
  8
0
  6
SLD-Сплошная
 62
     7
370
    25
100
AcDbLine
 10
-156.1416338406
 20
573.5436413511
 30
0.0
 11
-136.1416338406
 21
573.5436413511
 31
0.0
  0
LINE
  5
233
330
1F
100
AcDbEntity
  8
0
  6
SLD-Сплошная
 62
     7
370
    25
100
AcDbLine
 10
-136.1416338406
 20
573.5436413511
 30
0.0
 11
173.8583661594
 21
573.5436413511
 31
0.0
  0
LINE
  5
234
330
1F
100
AcDbEntity
  8
0
  6
SLD-Сплошная
 62
     7
370
    25
100
AcDbLine
 10
-124.4797300509
 20
547.172558137
 30
0.0
 11
-124.1526443172
 21
573.5436413511
 31
0.0
  0
SPLINE
  5
235
330
1F
100
AcDbEntity
  8
0
  6
SLD-Сплошная
 62
     7
370
    25
100
AcDbSpline
210
0.0
220
0.0
230
1.0
 70
     8
 71
     3
 72
     8
 73
     4
 74
     0
 42
0.00000001
 43
0.00000001
 40
0.0
 40
0.0
 40
0.0
 40
0.0
 40
1.0
 40
1.0
 40
1.0
 40
1.0
 10
-126.7608023209147
 20
383.5436413510889
 30
0.0
 10
-125.9080201401831
 20
438.0852906759868
 30
0.0
 10
-125.1657365018345
 20
492.6286229853369
 30
0.0
 10
-124.4797300508707
 20
547.1725581369757
 30
0.0
  0
LINE
  5
236
330
1F
100
AcDbEntity
  8
0
  6
SLD-Сплошная
 62
     7
370
    25
100
AcDbLine
 10
-149.1416338406
 20
383.5436413511
 30
0.0
 11
-126.7608023209
 21
383.5436413511
 31
0.0
  0
SPLINE
  5
237
330
1F
100
AcDbEntity
  8
0
  6
SLD-Сплошная
 62
     7
370
    25
100
AcDbSpline
210
0.0
220
0.0
230
1.0
 70
     8
 71
     3
 72
     8
 73
     4
 74
     0
 42
0.00000001
 43
0.00000001
 40
0.0
 40
0.0
 40
0.0
 40
0.0
 40
1.0
 40
1.0
 40
1.0
 40
1.0
 10
164.4775346397913
 20
383.5436413510889
 30
0.0
 10
163.6256730952544
 20
438.0264092668532
 30
0.0
 10
162.8840807863069
 20
492.5108566645663
 30
0.0
 10
162.1986843528532
 20
546.9959065087786
 30
0.0
  0
LINE
  5
238
330
1F
100
AcDbEntity
  8
0
  6
SLD-Сплошная
 62
     7
370
    25
100
AcDbLine
 10
162.1964623697
 20
547.172558137
 30
0.0
 11
162.200438229
 21
546.9959039435
 31
0.0
  0
LINE
  5
239
330
1F
100
AcDbEntity
  8
0
  6
SLD-Сплошная
 62
     7
370
    25
100
AcDbLine
 10
161.8693766361
 20
573.5436413511
 30
0.0
 11
162.1964623697
 21
547.172558137
 31
0.0
  0
LINE
  5
23A
330
1F
100
AcDbEntity
  8
0
  6
SLD-Сплошная
 62
     7
370
    25
100
AcDbLine
 10
164.4775346398
 20
383.5436413511
 30
0.0
 11
186.8583661594
 21
383.5436413511
 31
0.0
  0
LINE
  5
23B
330
1F
100
AcDbEntity
  8
0
  6
SLD-Сплошная
 62
     7
370
    25
100
AcDbLine
 10
-126.7608023209
 20
383.5436413511
 30
0.0
 11
164.4775346398
 21
383.5436413511
 31
0.0
  0
LINE
  5
23C
330
1F
100
AcDbEntity
  8
0
  6
SLD-Сплошная
 62
     7
370
    25
100
AcDbLine
 10
126.3583661594
 20
383.5436413511
 30
0.0
 11
126.3583661594
 21
381.5436413511
 31
0.0
  0
LINE
  5
23D
330
1F
100
AcDbEntity
  8
0
  6
SLD-Сплошная
 62
     7
370
    25
100
AcDbLine
 10
111.3583661594
 20
381.5436413511
 30
0.0
 11
111.3583661594
 21
383.5436413511
 31
0.0
  0
LINE
  5
23E
330
1F
100
AcDbEntity
  8
0
  6
SLD-Сплошная
 62
     7
370
    25
100
AcDbLine
 10
111.3583661594
 20
381.5436413511
 30
0.0
 11
126.3583661594
 21
381.5436413511
 31
0.0
  0
LINE
  5
23F
330
1F
100
AcDbEntity
  8
0
  6
SLD-Сплошная
 62
     7
370
    25
100
AcDbLine
 10
-73.6416338406
 20
383.5436413511
 30
0.0
 11
-73.6416338406
 21
381.5436413511
 31
0.0
  0
LINE
  5
240
330
1F
100
AcDbEntity
  8
0
  6
SLD-Сплошная
 62
     7
370
    25
100
AcDbLine
 10
-88.6416338406
 20
381.5436413511
 30
0.0
 11
-88.6416338406
 21
383.5436413511
 31
0.0
  0
LINE
  5
241
330
1F
100
AcDbEntity
  8
0
  6
SLD-Сплошная
 62
     7
370
    25
100
AcDbLine
 10
-88.6416338406
 20
381.5436413511
 30
0.0
 11
-73.6416338406
 21
381.5436413511
 31
0.0
  0
LINE
  5
242
330
1F
100
AcDbEntity
  8
0
  6
SLD-Сплошная
 62
     7
370
    25
100
AcDbLine
 10
-61.1416338406
 20
383.5436413511
 30
0.0
 11
-61.1416338406
 21
381.5436413511
 31
0.0
  0
LINE
  5
243
330
1F
100
AcDbEntity
  8
0
  6
SLD-Сплошная
 62
     7
370
    25
100
AcDbLine
 10
-61.1416338406
 20
381.5436413511
 30
0.0
 11
-66.1416338406
 21
381.5436413511
 31
0.0
  0
LINE
  5
244
330
1F
100
AcDbEntity
  8
0
  6
SLD-Сплошная
 62
     7
370
    25
100
AcDbLine
 10
-66.1416338406
 20
383.5436413511
 30
0.0
 11
-66.1416338406
 21
381.5436413511
 31
0.0
  0
LINE
  5
245
330
1F
100
AcDbEntity
  8
0
  6
SLD-Сплошная
 62
     7
370
    25
100
AcDbLine
 10
103.8583661594
 20
381.5436413511
 30
0.0
 11
103.8583661594
 21
383.5436413511
 31
0.0
  0
LINE
  5
246
330
1F
100
AcDbEntity
  8
0
  6
SLD-Сплошная
 62
     7
370
    25
100
AcDbLine
 10
103.8583661594
 20
381.5436413511
 30
0.0
 11
98.8583661594
 21
381.5436413511
 31
0.0
  0
LINE
  5
247
330
1F
100
AcDbEntity
  8
0
  6
SLD-Сплошная
 62
     7
370
    25
100
AcDbLine
 10
98.8583661594
 20
383.5436413511
 30
0.0
 11
98.8583661594
 21
381.5436413511
 31
0.0
  0
LINE
  5
248
330
1F
100
AcDbEntity
  8
0
  6
SLD-Сплошная
 62
     7
370
    25
100
AcDbLine
 10
3.8583661594
 20
383.5436413511
 30
0.0
 11
3.8583661594
 21
381.5436413511
 31
0.0
  0
LINE
  5
249
330
1F
100
AcDbEntity
  8
0
  6
SLD-Сплошная
 62
     7
370
    25
100
AcDbLine
 10
-1.1416338406
 20
383.5436413511
 30
0.0
 11
-1.1416338406
 21
381.5436413511
 31
0.0
  0
LINE
  5
24A
330
1F
100
AcDbEntity
  8
0
  6
SLD-Сплошная
 62
     7
370
    25
100
AcDbLine
 10
-1.1416338406
 20
381.5436413511
 30
0.0
 11
3.8583661594
 21
381.5436413511
 31
0.0
  0
LINE
  5
24B
330
1F
100
AcDbEntity
  8
0
  6
SLD-Сплошная
 62
     7
370
    25
100
AcDbLine
 10
33.8583661594
 20
383.5436413511
 30
0.0
 11
33.8583661594
 21
381.5436413511
 31
0.0
  0
LINE
  5
24C
330
1F
100
AcDbEntity
  8
0
  6
SLD-Сплошная
 62
     7
370
    25
100
AcDbLine
 10
38.8583661594
 20
383.5436413511
 30
0.0
 11
38.8583661594
 21
381.5436413511
 31
0.0
  0
LINE
  5
24D
330
1F
100
AcDbEntity
  8
0
  6
SLD-Сплошная
 62
     7
370
    25
100
AcDbLine
 10
38.8583661594
 20
381.5436413511
 30
0.0
 11
33.8583661594
 21
381.5436413511
 31
0.0
  0
LINE
  5
24E
330
1F
100
AcDbEntity
  8
0
  6
SLD-Сплошная
 62
     7
370
    25
100
AcDbLine
 10
133.8583661594
 20
383.5436413511
 30
0.0
 11
133.8583661594
 21
381.5436413511
 31
0.0
  0
LINE
  5
24F
330
1F
100
AcDbEntity
  8
0
  6
SLD-Сплошная
 62
     7
370
    25
100
AcDbLine
 10
133.8583661594
 20
381.5436413511
 30
0.0
 11
126.3583661594
 21
381.5436413511
 31
0.0
  0
LINE
  5
250
330
1F
100
AcDbEntity
  8
0
  6
SLD-Сплошная
 62
     7
370
    25
100
AcDbLine
 10
111.3583661594
 20
381.5436413511
 30
0.0
 11
103.8583661594
 21
381.5436413511
 31
0.0
  0
LINE
  5
251
330
1F
100
AcDbEntity
  8
0
  6
SLD-Сплошная
 62
     7
370
    25
100
AcDbLine
 10
-96.1416338406
 20
383.5436413511
 30
0.0
 11
-96.1416338406
 21
381.5436413511
 31
0.0
  0
LINE
  5
252
330
1F
100
AcDbEntity
  8
0
  6
SLD-Сплошная
 62
     7
370
    25
100
AcDbLine
 10
-66.1416338406
 20
381.5436413511
 30
0.0
 11
-73.6416338406
 21
381.5436413511
 31
0.0
  0
LINE
  5
253
330
1F
100
AcDbEntity
  8
0
  6
SLD-Сплошная
 62
     7
370
    25
100
AcDbLine
 10
-88.6416338406
 20
381.5436413511
 30
0.0
 11
-96.1416338406
 21
381.5436413511
 31
0.0
  0
LINE
  5
254
330
1F
100
AcDbEntity
  8
0
  6
SLD-Сплошная
 62
     7
370
    25
100
AcDbLine
 10
-103.6416338406
 20
383.5436413511
 30
0.0
 11
-103.6416338406
 21
381.5436413511
 31
0.0
  0
LINE
  5
255
330
1F
100
AcDbEntity
  8
0
  6
SLD-Сплошная
 62
     7
370
    25
100
AcDbLine
 10
-118.6416338406
 20
381.5436413511
 30
0.0
 11
-103.6416338406
 21
381.5436413511
 31
0.0
  0
LINE
  5
256
330
1F
100
AcDbEntity
  8
0
  6
SLD-Сплошная
 62
     7
370
    25
100
AcDbLine
 10
-118.6416338406
 20
381.5436413511
 30
0.0
 11
-118.6416338406
 21
383.5436413511
 31
0.0
  0
LINE
  5
257
330
1F
100
AcDbEntity
  8
0
  6
SLD-Сплошная
 62
     7
370
    25
100
AcDbLine
 10
156.3583661594
 20
383.5436413511
 30
0.0
 11
156.3583661594
 21
381.5436413511
 31
0.0
  0
LINE
  5
258
330
1F
100
AcDbEntity
  8
0
  6
SLD-Сплошная
 62
     7
370
    25
100
AcDbLine
 10
141.3583661594
 20
381.5436413511
 30
0.0
 11
156.3583661594
 21
381.5436413511
 31
0.0
  0
LINE
  5
259
330
1F
100
AcDbEntity
  8
0
  6
SLD-Сплошная
 62
     7
370
    25
100
AcDbLine
 10
141.3583661594
 20
381.5436413511
 30
0.0
 11
141.3583661594
 21
383.5436413511
 31
0.0
  0
LINE
  5
25A
330
1F
100
AcDbEntity
  8
0
  6
SLD-Сплошная
 62
     7
370
    25
100
AcDbLine
 10
-8.6416338406
 20
381.5436413511
 30
0.0
 11
-8.6416338406
 21
383.5436413511
 31
0.0
  0
LINE
  5
25B
330
1F
100
AcDbEntity
  8
0
  6
SLD-Сплошная
 62
     7
370
    25
100
AcDbLine
 10
-8.6416338406
 20
381.5436413511
 30
0.0
 11
-23.6416338406
 21
381.5436413511
 31
0.0
  0
LINE
  5
25C
330
1F
100
AcDbEntity
  8
0
  6
SLD-Сплошная
 62
     7
370
    25
100
AcDbLine
 10
-23.6416338406
 20
383.5436413511
 30
0.0
 11
-23.6416338406
 21
381.5436413511
 31
0.0
  0
LINE
  5
25D
330
1F
100
AcDbEntity
  8
0
  6
SLD-Сплошная
 62
     7
370
    25
100
AcDbLine
 10
61.3583661594
 20
383.5436413511
 30
0.0
 11
61.3583661594
 21
381.5436413511
 31
0.0
  0
LINE
  5
25E
330
1F
100
AcDbEntity
  8
0
  6
SLD-Сплошная
 62
     7
370
    25
100
AcDbLine
 10
46.3583661594
 20
381.5436413511
 30
0.0
 11
46.3583661594
 21
383.5436413511
 31
0.0
  0
LINE
  5
25F
330
1F
100
AcDbEntity
  8
0
  6
SLD-Сплошная
 62
     7
370
    25
100
AcDbLine
 10
46.3583661594
 20
381.5436413511
 30
0.0
 11
61.3583661594
 21
381.5436413511
 31
0.0
  0
LINE
  5
260
330
1F
100
AcDbEntity
  8
0
  6
SLD-Сплошная
 62
     7
370
    25
100
AcDbLine
 10
-155.3752508566
 20
553.5436413511
 30
0.0
 11
-156.1416338406
 21
553.5436413511
 31
0.0
  0
LINE
  5
261
330
1F
100
AcDbEntity
  8
0
  6
SLD-Сплошная
 62
     7
370
    25
100
AcDbLine
 10
-156.1416338406
 20
553.5436413511
 30
0.0
 11
-156.1416338406
 21
573.5436413511
 31
0.0
  0
LINE
  5
262
330
1F
100
AcDbEntity
  8
0
  6
SLD-Сплошная
 62
     7
370
    25
100
AcDbLine
 10
98.8583661594
 20
381.5436413511
 30
0.0
 11
61.3583661594
 21
381.5436413511
 31
0.0
  0
LINE
  5
263
330
1F
100
AcDbEntity
  8
0
  6
SLD-Сплошная
 62
     7
370
    25
100
AcDbLine
 10
46.3583661594
 20
381.5436413511
 30
0.0
 11
38.8583661594
 21
381.5436413511
 31
0.0
  0
LINE
  5
264
330
1F
100
AcDbEntity
  8
0
  6
SLD-Сплошная
 62
     7
370
    25
100
AcDbLine
 10
163.8583661594
 20
381.5436413511
 30
0.0
 11
163.8583661594
 21
383.5436413511
 31
0.0
  0
LINE
  5
265
330
1F
100
AcDbEntity
  8
0
  6
SLD-Сплошная
 62
     7
370
    25
100
AcDbLine
 10
163.8583661594
 20
381.5436413511
 30
0.0
 11
156.3583661594
 21
381.5436413511
 31
0.0
  0
LINE
  5
266
330
1F
100
AcDbEntity
  8
0
  6
SLD-Сплошная
 62
     7
370
    25
100
AcDbLine
 10
141.3583661594
 20
381.5436413511
 30
0.0
 11
133.8583661594
 21
381.5436413511
 31
0.0
  0
LINE
  5
267
330
1F
100
AcDbEntity
  8
0
  6
SLD-Сплошная
 62
     7
370
    25
100
AcDbLine
 10
33.8583661594
 20
381.5436413511
 30
0.0
 11
3.8583661594
 21
381.5436413511
 31
0.0
  0
LINE
  5
268
330
1F
100
AcDbEntity
  8
0
  6
SLD-Сплошная
 62
     7
370
    25
100
AcDbLine
 10
-1.1416338406
 20
381.5436413511
 30
0.0
 11
-8.6416338406
 21
381.5436413511
 31
0.0
  0
LINE
  5
269
330
1F
100
AcDbEntity
  8
0
  6
SLD-Сплошная
 62
     7
370
    25
100
AcDbLine
 10
-23.6416338406
 20
381.5436413511
 30
0.0
 11
-61.1416338406
 21
381.5436413511
 31
0.0
  0
LINE
  5
26A
330
1F
100
AcDbEntity
  8
0
  6
SLD-Сплошная
 62
     7
370
    25
100
AcDbLine
 10
-126.1416338406
 20
381.5436413511
 30
0.0
 11
-126.1416338406
 21
383.5436413511
 31
0.0
  0
LINE
  5
26B
330
1F
100
AcDbEntity
  8
0
  6
SLD-Сплошная
 62
     7
370
    25
100
AcDbLine
 10
-96.1416338406
 20
381.5436413511
 30
0.0
 11
-103.6416338406
 21
381.5436413511
 31
0.0
  0
LINE
  5
26C
330
1F
100
AcDbEntity
  8
0
  6
SLD-Сплошная
 62
     7
370
    25
100
AcDbLine
 10
-118.6416338406
 20
381.5436413511
 30
0.0
 11
-126.1416338406
 21
381.5436413511
 31
0.0
  0
LINE
  5
26D
330
1F
100
AcDbEntity
  8
0
  6
SLD-Сплошная
 62
     7
370
    25
100
AcDbLine
 10
193.8583661594
 20
548.5436413511
 30
0.0
 11
192.9086414986
 21
548.5436413511
 31
0.0
  0
LINE
  5
26E
330
1F
100
AcDbEntity
  8
0
  6
SLD-Сплошная
 62
     7
370
    25
100
AcDbLine
 10
193.8583661594
 20
573.5436413511
 30
0.0
 11
193.8583661594
 21
548.5436413511
 31
0.0
  0
ENDSEC
  0
SECTION
  2
OBJECTS
  0
DICTIONARY
  5
C
330
0
100
AcDbDictionary
281
     1
  3
ACAD_DETAILVIEWSTYLE
350
276
  3
ACAD_GROUP
350
D
  3
ACAD_LAYOUT
350
1A
  3
ACAD_MATERIAL
350
43
  3
ACAD_MLEADERSTYLE
350
5B
  3
ACAD_MLINESTYLE
350
17
  3
ACAD_PLOTSETTINGS
350
19
  3
ACAD_PLOTSTYLENAME
350
E
  3
ACAD_SCALELIST
350
47
  3
ACAD_SECTIONVIEWSTYLE
350
277
  3
ACAD_TABLESTYLE
350
59
  3
ACAD_VISUALSTYLE
350
2A
  3
ACDB_RECOMPOSE_DATA
350
273
  3
AcDbVariableDictionary
350
26F
  0
SUN
  5
5D
330
29
100
AcDbSun
 90
        1
290
     0
 63
     7
421
 16777215
 40
1.0
291
     1
 91
  2455826
 92
 54000000
292
     0
 70
     2
 71
   256
280
     1
  0
DICTIONARY
  5
276
102
{ACAD_REACTORS
330
C
102
}
330
C
100
AcDbDictionary
281
     1
  0
DICTIONARY
  5
D
102
{ACAD_REACTORS
330
C
102
}
330
C
100
AcDbDictionary
281
     1
  0
DICTIONARY
  5
1A
102
{ACAD_REACTORS
330
C
102
}
330
C
100
AcDbDictionary
281
     1
  3
Layout1
350
1E
  3
Layout2
350
26
  3
Model
350
22
  0
DICTIONARY
  5
43
102
{ACAD_REACTORS
330
C
102
}
330
C
100
AcDbDictionary
281
     1
  3
ByBlock
350
45
  3
ByLayer
350
44
  3
Global
350
46
  0
DICTIONARY
  5
5B
102
{ACAD_REACTORS
330
C
102
}
330
C
100
AcDbDictionary
281
     1
  3
Standard
350
5C
  0
DICTIONARY
  5
17
102
{ACAD_REACTORS
330
C
102
}
330
C
100
AcDbDictionary
281
     1
  3
Standard
350
18
  0
DICTIONARY
  5
19
102
{ACAD_REACTORS
330
C
102
}
330
C
100
AcDbDictionary
281
     1
  0
ACDBDICTIONARYWDFLT
  5
E
102
{ACAD_REACTORS
330
C
102
}
330
C
100
AcDbDictionary
281
     1
  3
Normal
350
F
100
AcDbDictionaryWithDefault
340
F
  0
DICTIONARY
  5
47
102
{ACAD_REACTORS
330
C
102
}
330
C
100
AcDbDictionary
281
     1
  3
A0
350
48
  3
A1
350
49
  3
A2
350
4A
  3
A3
350
4B
  3
A4
350
4C
  3
A5
350
4D
  3
A6
350
4E
  3
A7
350
4F
  3
A8
350
50
  3
A9
350
51
  3
B0
350
52
  3
B1
350
53
  3
B2
350
54
  3
B3
350
55
  3
B4
350
56
  3
B5
350
57
  3
B6
350
58
  0
DICTIONARY
  5
277
102
{ACAD_REACTORS
330
C
102
}
330
C
100
AcDbDictionary
281
     1
  0
DICTIONARY
  5
59
102
{ACAD_REACTORS
330
C
102
}
330
C
100
AcDbDictionary
281
     1
  3
Standard
350
5A
  0
DICTIONARY
  5
2A
102
{ACAD_REACTORS
330
C
102
}
330
C
100
AcDbDictionary
281
     1
  3
2dWireframe
350
2F
  3
Basic
350
32
  3
Brighten
350
36
  3
ColorChange
350
3A
  3
Conceptual
350
34
  3
Dim
350
35
  3
EdgeColorOff
350
3D
  3
Facepattern
350
39
  3
Flat
350
2B
  3
FlatWithEdges
350
2C
  3
Gouraud
350
2D
  3
GouraudWithEdges
350
2E
  3
Hidden
350
31
  3
JitterOff
350
3B
  3
Linepattern
350
38
  3
OverhangOff
350
3C
  3
Realistic
350
33
  3
Shaded
350
42
  3
Shaded with edges
350
41
  3
Shades of Gray
350
3E
  3
Sketchy
350
3F
  3
Thicken
350
37
  3
Wireframe
350
30
  3
X-Ray
350
40
  0
XRECORD
  5
273
102
{ACAD_REACTORS
330
C
102
}
330
C
100
AcDbXrecord
280
     1
 90
        1
330
5A
  0
DICTIONARY
  5
26F
102
{ACAD_REACTORS
330
C
102
}
330
C
100
AcDbDictionary
281
     1
  3
CANNOSCALE
350
270
  3
CENTEREXE
350
278
  3
CENTERLTYPEFILE
350
279
  3
CMLEADERSTYLE
350
275
  3
CTABLESTYLE
350
274
  0
LAYOUT
  5
1E
102
{ACAD_REACTORS
330
1A
102
}
330
1A
100
AcDbPlotSettings
  1

  2
none_device
  4

  6

 40
0.0
 41
0.0
 42
0.0
 43
0.0
 44
0.0
 45
0.0
 46
0.0
 47
0.0
 48
0.0
 49
0.0
140
0.0
141
0.0
142
1.0
143
1.0
 70
   688
 72
     1
 73
     0
 74
     5
  7

 75
    16
 76
     0
 77
     2
 78
   300
147
1.0
148
0.0
149
0.0
100
AcDbLayout
  1
Layout1
 70
     1
 71
     1
 10
0.0
 20
0.0
 11
420.0
 21
297.0
 12
0.0
 22
0.0
 32
0.0
 14
1.0000000000E+20
 24
1.0000000000E+20
 34
1.0000000000E+20
 15
-1.0000000000E+20
 25
-1.0000000000E+20
 35
-1.0000000000E+20
146
0.0
 13
0.0
 23
0.0
 33
0.0
 16
1.0
 26
0.0
 36
0.0
 17
0.0
 27
1.0
 37
0.0
 76
     0
330
1B
  0
LAYOUT
  5
26
102
{ACAD_REACTORS
330
1A
102
}
330
1A
100
AcDbPlotSettings
  1

  2
none_device
  4

  6

 40
0.0
 41
0.0
 42
0.0
 43
0.0
 44
0.0
 45
0.0
 46
0.0
 47
0.0
 48
0.0
 49
0.0
140
0.0
141
0.0
142
1.0
143
1.0
 70
   688
 72
     1
 73
     0
 74
     5
  7

 75
    16
 76
     0
 77
     2
 78
   300
147
1.0
148
0.0
149
0.0
100
AcDbLayout
  1
Layout2
 70
     1
 71
     2
 10
0.0
 20
0.0
 11
0.0
 21
0.0
 12
0.0
 22
0.0
 32
0.0
 14
0.0
 24
0.0
 34
0.0
 15
0.0
 25
0.0
 35
0.0
146
0.0
 13
0.0
 23
0.0
 33
0.0
 16
1.0
 26
0.0
 36
0.0
 17
0.0
 27
1.0
 37
0.0
 76
     0
330
23
  0
LAYOUT
  5
22
102
{ACAD_REACTORS
330
1A
102
}
330
1A
100
AcDbPlotSettings
  1

  2
none_device
  4
Letter_(8.50_x_11.00_Inches)
  6

 40
6.35
 41
6.35
 42
6.35000508
 43
6.35000508
 44
215.9
 45
279.4
 46
0.0
 47
0.0
 48
0.0
 49
0.0
140
0.0
141
0.0
142
1.0
143
1.0
 70
  1712
 72
     1
 73
     0
 74
     0
  7

 75
     0
 76
     0
 77
     2
 78
   300
147
1.0
148
0.0
149
0.0
100
AcDbLayout
  1
Model
 70
     1
 71
     0
 10
0.0
 20
0.0
 11
90.0
 21
110.0
 12
0.0
 22
0.0
 32
0.0
 14
0.0
 24
0.0
 34
0.0
 15
90.0
 25
110.0
 35
0.0
146
0.0
 13
0.0
 23
0.0
 33
0.0
 16
1.0
 26
0.0
 36
0.0
 17
0.0
 27
1.0
 37
0.0
 76
     0
330
1F
331
29
  0
MATERIAL
  5
45
102
{ACAD_REACTORS
330
43
102
}
330
43
100
AcDbMaterial
  1
ByBlock
 72
     1
 94
      127
  0
MATERIAL
  5
44
102
{ACAD_REACTORS
330
43
102
}
330
43
100
AcDbMaterial
  1
ByLayer
 72
     1
 94
      127
  0
MATERIAL
  5
46
102
{ACAD_REACTORS
330
43
102
}
330
43
100
AcDbMaterial
  1
Global
 72
     1
 94
      127
  0
MLEADERSTYLE
  5
5C
102
{ACAD_REACTORS
330
5B
102
}
330
5B
100
AcDbMLeaderStyle
179
     2
170
     2
171
     1
172
     0
 90
        2
 40
0.0
 41
0.0
173
     1
 91
-1056964608
340
14
 92
       -2
290
     1
 42
2.0
291
     1
 43
8.0
  3
Standard
341
0
 44
4.0
300

342
11
174
     1
178
     6
175
     1
176
     0
 93
-1056964608
 45
4.0
292
     0
297
     0
 46
4.0
343
0
 94
-1056964608
 47
1.0
 49
1.0
140
1.0
293
     1
141
0.0
294
     1
177
     0
142
1.0
295
     0
296
     0
143
3.75
271
     0
272
     9
273
     9
298
     0
  0
MLINESTYLE
  5
18
102
{ACAD_REACTORS
330
17
102
}
330
17
100
AcDbMlineStyle
  2
Standard
 70
     0
  3

 62
   256
 51
90.0
 52
90.0
 71
     2
 49
0.5
 62
   256
  6
BYLAYER
 49
-0.5
 62
   256
  6
BYLAYER
  0
ACDBPLACEHOLDER
  5
F
102
{ACAD_REACTORS
330
E
102
}
330
E
  0
SCALE
  5
48
102
{ACAD_REACTORS
330
47
102
}
330
47
100
AcDbScale
 70
     0
300
1:1
140
1.0
141
1.0
290
     1
  0
SCALE
  5
49
102
{ACAD_REACTORS
330
47
102
}
330
47
100
AcDbScale
 70
     0
300
1:2
140
1.0
141
2.0
290
     0
  0
SCALE
  5
4A
102
{ACAD_REACTORS
330
47
102
}
330
47
100
AcDbScale
 70
     0
300
1:4
140
1.0
141
4.0
290
     0
  0
SCALE
  5
4B
102
{ACAD_REACTORS
330
47
102
}
330
47
100
AcDbScale
 70
     0
300
1:5
140
1.0
141
5.0
290
     0
  0
SCALE
  5
4C
102
{ACAD_REACTORS
330
47
102
}
330
47
100
AcDbScale
 70
     0
300
1:8
140
1.0
141
8.0
290
     0
  0
SCALE
  5
4D
102
{ACAD_REACTORS
330
47
102
}
330
47
100
AcDbScale
 70
     0
300
1:10
140
1.0
141
10.0
290
     0
  0
SCALE
  5
4E
102
{ACAD_REACTORS
330
47
102
}
330
47
100
AcDbScale
 70
     0
300
1:16
140
1.0
141
16.0
290
     0
  0
SCALE
  5
4F
102
{ACAD_REACTORS
330
47
102
}
330
47
100
AcDbScale
 70
     0
300
1:20
140
1.0
141
20.0
290
     0
  0
SCALE
  5
50
102
{ACAD_REACTORS
330
47
102
}
330
47
100
AcDbScale
 70
     0
300
1:30
140
1.0
141
30.0
290
     0
  0
SCALE
  5
51
102
{ACAD_REACTORS
330
47
102
}
330
47
100
AcDbScale
 70
     0
300
1:40
140
1.0
141
40.0
290
     0
  0
SCALE
  5
52
102
{ACAD_REACTORS
330
47
102
}
330
47
100
AcDbScale
 70
     0
300
1:50
140
1.0
141
50.0
290
     0
  0
SCALE
  5
53
102
{ACAD_REACTORS
330
47
102
}
330
47
100
AcDbScale
 70
     0
300
1:100
140
1.0
141
100.0
290
     0
  0
SCALE
  5
54
102
{ACAD_REACTORS
330
47
102
}
330
47
100
AcDbScale
 70
     0
300
2:1
140
2.0
141
1.0
290
     0
  0
SCALE
  5
55
102
{ACAD_REACTORS
330
47
102
}
330
47
100
AcDbScale
 70
     0
300
4:1
140
4.0
141
1.0
290
     0
  0
SCALE
  5
56
102
{ACAD_REACTORS
330
47
102
}
330
47
100
AcDbScale
 70
     0
300
8:1
140
8.0
141
1.0
290
     0
  0
SCALE
  5
57
102
{ACAD_REACTORS
330
47
102
}
330
47
100
AcDbScale
 70
     0
300
10:1
140
10.0
141
1.0
290
     0
  0
SCALE
  5
58
102
{ACAD_REACTORS
330
47
102
}
330
47
100
AcDbScale
 70
     0
300
100:1
140
100.0
141
1.0
290
     0
  0
TABLESTYLE
  5
5A
102
{ACAD_REACTORS
330
59
102
}
102
{ACAD_XDICTIONARY
360
271
102
}
330
59
100
AcDbTableStyle
  3
Standard
 70
     0
 71
     0
 40
0.06
 41
0.06
280
     0
281
     0
  7
STANDARD
140
4.5
170
     2
 62
     0
 63
   257
283
     0
 90
        4
 91
        0
  1

274
    -2
284
     1
 64
     0
275
    -2
285
     1
 65
     0
276
    -2
286
     1
 66
     0
277
    -2
287
     1
 67
     0
278
    -2
288
     1
 68
     0
279
    -2
289
     1
 69
     0
  7
STANDARD
140
6.0
170
     5
 62
     0
 63
   257
283
     0
 90
        4
 91
        0
  1

274
    -2
284
     1
 64
     0
275
    -2
285
     1
 65
     0
276
    -2
286
     1
 66
     0
277
    -2
287
     1
 67
     0
278
    -2
288
     1
 68
     0
279
    -2
289
     1
 69
     0
  7
STANDARD
140
4.5
170
     5
 62
     0
 63
   257
283
     0
 90
        4
 91
        0
  1

274
    -2
284
     1
 64
     0
275
    -2
285
     1
 65
     0
276
    -2
286
     1
 66
     0
277
    -2
287
     1
 67
     0
278
    -2
288
     1
 68
     0
279
    -2
289
     1
 69
     0
  0
VISUALSTYLE
  5
2F
102
{ACAD_REACTORS
330
2A
102
}
330
2A
100
AcDbVisualStyle
  2
2dWireframe
 70
     4
177
     3
291
     0
 70
    58
 90
        0
176
     1
 90
        2
176
     1
 90
        0
176
     1
 90
        0
176
     1
 40
0.6
176
     1
 40
30.0
176
     1
 62
     7
420
 16777215
176
     1
 90
        1
176
     1
 90
        4
176
     1
 62
     7
176
     1
 62
   257
176
     1
 90
        1
176
     1
 90
        1
176
     1
 40
1.0
176
     1
 90
        0
176
     1
 62
   257
176
     1
 40
1.0
176
     1
 90
        1
176
     1
 90
        6
176
     1
 90
        2
176
     1
 62
     7
176
     1
 90
        5
176
     1
 90
        0
176
     1
 90
        0
176
     1
290
     0
176
     1
 90
        1
176
     1
 40
0.0
176
     1
 90
        0
176
     1
290
     1
176
     1
290
     1
176
     1
290
     0
176
     1
290
     0
176
     1
290
     0
176
     1
290
     0
176
     1
290
     0
176
     1
290
     0
176
     1
290
     0
176
     1
 90
       50
176
     1
 40
0.0
176
     1
 40
1.0
176
     1
 90
        0
176
     1
 62
    18
420
        0
176
     1
 90
       50
176
     1
 90
        3
176
     1
 62
     5
420
      255
176
     1
290
     0
176
     1
 90
       50
176
     1
 90
       50
176
     1
 90
       50
176
     1
290
     0
176
     1
 90
       50
176
     1
 62
   256
176
     0
 40
1.0
176
     0
 90
        2
176
     1
  1
strokes_ogs.tif
176
     1
290
     0
176
     1
 40
1.0
176
     1
 40
1.0
176
     1
  0
VISUALSTYLE
  5
32
102
{ACAD_REACTORS
330
2A
102
}
330
2A
100
AcDbVisualStyle
  2
Basic
 70
     7
177
     3
291
     1
 70
    58
 90
        1
176
     1
 90
        0
176
     1
 90
        1
176
     1
 90
        0
176
     1
 40
0.6
176
     1
 40
30.0
176
     1
 62
     7
420
 16777215
176
     1
 90
        0
176
     1
 90
        4
176
     1
 62
     7
176
     1
 62
   257
176
     1
 90
        1
176
     1
 90
        1
176
     1
 40
1.0
176
     1
 90
        8
176
     1
 62
     7
176
     1
 40
1.0
176
     1
 90
        1
176
     1
 90
        6
176
     1
 90
        2
176
     1
 62
     7
176
     1
 90
        5
176
     1
 90
        0
176
     1
 90
        0
176
     1
290
     0
176
     1
 90
        1
176
     1
 40
0.0
176
     1
 90
        0
176
     1
290
     0
176
     1
290
     1
176
     1
290
     1
176
     1
290
     0
176
     1
290
     0
176
     1
290
     0
176
     1
290
     0
176
     1
290
     0
176
     1
290
     0
176
     1
 90
       50
176
     1
 40
0.0
176
     1
 40
1.0
176
     1
 90
        0
176
     1
 62
    18
420
        0
176
     1
 90
       50
176
     1
 90
        3
176
     1
 62
     5
420
      255
176
     1
290
     0
176
     1
 90
       50
176
     1
 90
       50
176
     1
 90
       50
176
     1
290
     0
176
     1
 90
       50
176
     1
 62
   256
176
     0
 40
1.0
176
     0
 90
        2
176
     1
  1
strokes_ogs.tif
176
     1
290
     0
176
     1
 40
1.0
176
     1
 40
1.0
176
     1
  0
VISUALSTYLE
  5
36
102
{ACAD_REACTORS
330
2A
102
}
330
2A
100
AcDbVisualStyle
  2
Brighten
 70
    12
177
     3
291
     1
 70
    58
 90
        2
176
     1
 90
        2
176
     1
 90
        0
176
     1
 90
        0
176
     1
 40
0.6
176
     1
 40
30.0
176
     1
 62
     7
420
 16777215
176
     1
 90
        1
176
     1
 90
        4
176
     1
 62
     7
176
     1
 62
   257
176
     1
 90
        1
176
     1
 90
        1
176
     1
 40
1.0
176
     1
 90
        8
176
     1
 62
     7
176
     1
 40
1.0
176
     1
 90
        1
176
     1
 90
        6
176
     1
 90
        2
176
     1
 62
     7
176
     1
 90
        5
176
     1
 90
        0
176
     1
 90
        0
176
     1
290
     0
176
     1
 90
        1
176
     1
 40
50.0
176
     1
 90
        0
176
     1
290
     0
176
     1
290
     1
176
     1
290
     1
176
     1
290
     0
176
     1
290
     0
176
     1
290
     0
176
     1
290
     0
176
     1
290
     0
176
     1
290
     0
176
     1
 90
       50
176
     1
 40
0.0
176
     1
 40
1.0
176
     1
 90
        0
176
     1
 62
    18
420
        0
176
     1
 90
       50
176
     1
 90
        3
176
     1
 62
     5
420
      255
176
     1
290
     0
176
     1
 90
       50
176
     1
 90
       50
176
     1
 90
       50
176
     1
290
     0
176
     1
 90
       50
176
     1
 62
   256
176
     0
 40
1.0
176
     0
 90
        2
176
     1
  1
strokes_ogs.tif
176
     1
290
     0
176
     1
 40
1.0
176
     1
 40
1.0
176
     1
  0
VISUALSTYLE
  5
3A
102
{ACAD_REACTORS
330
2A
102
}
330
2A
100
AcDbVisualStyle
  2
ColorChange
 70
    16
177
     3
291
     1
 70
    58
 90
        2
176
     1
 90
        2
176
     1
 90
        3
176
     1
 90
        0
176
     1
 40
0.6
176
     1
 40
30.0
176
     1
 62
     8
420
  8421504
176
     1
 90
        1
176
     1
 90
        4
176
     1
 62
     7
176
     1
 62
   257
176
     1
 90
        1
176
     1
 90
        1
176
     1
 40
1.0
176
     1
 90
        8
176
     1
 62
     8
420
  8421504
176
     1
 40
1.0
176
     1
 90
        1
176
     1
 90
        6
176
     1
 90
        2
176
     1
 62
     7
176
     1
 90
        5
176
     1
 90
        0
176
     1
 90
        0
176
     1
290
     0
176
     1
 90
        1
176
     1
 40
0.0
176
     1
 90
        0
176
     1
290
     0
176
     1
290
     1
176
     1
290
     1
176
     1
290
     0
176
     1
290
     0
176
     1
290
     0
176
     1
290
     0
176
     1
290
     0
176
     1
290
     0
176
     1
 90
       50
176
     1
 40
0.0
176
     1
 40
1.0
176
     1
 90
        0
176
     1
 62
    18
420
        0
176
     1
 90
       50
176
     1
 90
        3
176
     1
 62
     5
420
      255
176
     1
290
     0
176
     1
 90
       50
176
     1
 90
       50
176
     1
 90
       50
176
     1
290
     0
176
     1
 90
       50
176
     1
 62
   256
176
     0
 40
1.0
176
     0
 90
        2
176
     1
  1
strokes_ogs.tif
176
     1
290
     0
176
     1
 40
1.0
176
     1
 40
1.0
176
     1
  0
VISUALSTYLE
  5
34
102
{ACAD_REACTORS
330
2A
102
}
330
2A
100
AcDbVisualStyle
  2
Conceptual
 70
     9
177
     3
291
     0
 70
    58
 90
        3
176
     1
 90
        2
176
     1
 90
        0
176
     1
 90
        0
176
     1
 40
0.6
176
     1
 40
30.0
176
     1
 62
     7
420
 16777215
176
     1
 90
        2
176
     1
 90
        2
176
     1
 62
     7
176
     1
 62
   257
176
     1
 90
        1
176
     1
 90
        1
176
     1
 40
179.0
176
     1
 90
        8
176
     1
 62
     7
176
     1
 40
1.0
176
     1
 90
        1
176
     1
 90
        6
176
     1
 90
        2
176
     1
 62
     7
176
     1
 90
        3
176
     1
 90
        0
176
     1
 90
        0
176
     1
290
     0
176
     1
 90
        1
176
     1
 40
0.0
176
     1
 90
        0
176
     1
290
     0
176
     1
290
     1
176
     1
290
     1
176
     1
290
     0
176
     1
290
     0
176
     1
290
     0
176
     1
290
     0
176
     1
290
     0
176
     1
290
     0
176
     1
 90
       50
176
     1
 40
0.0
176
     1
 40
1.0
176
     1
 90
        0
176
     1
 62
    18
420
        0
176
     1
 90
       50
176
     1
 90
        3
176
     1
 62
     5
420
      255
176
     1
290
     0
176
     1
 90
       50
176
     1
 90
       50
176
     1
 90
       50
176
     1
290
     0
176
     1
 90
       50
176
     1
 62
   256
176
     0
 40
1.0
176
     0
 90
        2
176
     1
  1
strokes_ogs.tif
176
     1
290
     0
176
     1
 40
1.0
176
     1
 40
1.0
176
     1
  0
VISUALSTYLE
  5
35
102
{ACAD_REACTORS
330
2A
102
}
330
2A
100
AcDbVisualStyle
  2
Dim
 70
    11
177
     3
291
     1
 70
    58
 90
        2
176
     1
 90
        2
176
     1
 90
        0
176
     1
 90
        0
176
     1
 40
0.6
176
     1
 40
30.0
176
     1
 62
     7
420
 16777215
176
     1
 90
        1
176
     1
 90
        4
176
     1
 62
     7
176
     1
 62
   257
176
     1
 90
        1
176
     1
 90
        1
176
     1
 40
1.0
176
     1
 90
        8
176
     1
 62
     7
176
     1
 40
1.0
176
     1
 90
        1
176
     1
 90
        6
176
     1
 90
        2
176
     1
 62
     7
176
     1
 90
        5
176
     1
 90
        0
176
     1
 90
        0
176
     1
290
     0
176
     1
 90
        1
176
     1
 40
-50.0
176
     1
 90
        0
176
     1
290
     0
176
     1
290
     1
176
     1
290
     1
176
     1
290
     0
176
     1
290
     0
176
     1
290
     0
176
     1
290
     0
176
     1
290
     0
176
     1
290
     0
176
     1
 90
       50
176
     1
 40
0.0
176
     1
 40
1.0
176
     1
 90
        0
176
     1
 62
    18
420
        0
176
     1
 90
       50
176
     1
 90
        3
176
     1
 62
     5
420
      255
176
     1
290
     0
176
     1
 90
       50
176
     1
 90
       50
176
     1
 90
       50
176
     1
290
     0
176
     1
 90
       50
176
     1
 62
   256
176
     0
 40
1.0
176
     0
 90
        2
176
     1
  1
strokes_ogs.tif
176
     1
290
     0
176
     1
 40
1.0
176
     1
 40
1.0
176
     1
  0
VISUALSTYLE
  5
3D
102
{ACAD_REACTORS
330
2A
102
}
330
2A
100
AcDbVisualStyle
  2
EdgeColorOff
 70
    22
177
     3
291
     1
 70
    58
 90
        2
176
     0
 90
        2
176
     0
 90
        0
176
     0
 90
        0
176
     0
 40
0.6
176
     0
 40
30.0
176
     0
 62
     7
420
 16777215
176
     0
 90
        1
176
     0
 90
        4
176
     0
 62
     7
176
     0
 62
   257
176
     0
 90
        1
176
     0
 90
        1
176
     0
 40
1.0
176
     0
 90
        8
176
     2
 62
     7
176
     0
 40
1.0
176
     0
 90
        1
176
     0
 90
        6
176
     0
 90
        2
176
     0
 62
     7
176
     0
 90
        5
176
     0
 90
        0
176
     0
 90
        0
176
     0
290
     0
176
     0
 90
        1
176
     0
 40
0.0
176
     0
 90
        0
176
     0
290
     0
176
     0
290
     1
176
     0
290
     1
176
     0
290
     0
176
     0
290
     0
176
     0
290
     0
176
     0
290
     0
176
     0
290
     0
176
     0
290
     0
176
     0
 90
       50
176
     0
 40
0.0
176
     0
 40
1.0
176
     0
 90
        0
176
     0
 62
    18
420
        0
176
     0
 90
       50
176
     0
 90
        3
176
     0
 62
     5
420
      255
176
     0
290
     0
176
     0
 90
       50
176
     0
 90
       50
176
     0
 90
       50
176
     0
290
     0
176
     0
 90
       50
176
     0
 62
   256
176
     0
 40
1.0
176
     0
 90
        2
176
     0
  1
strokes_ogs.tif
176
     0
290
     0
176
     0
 40
1.0
176
     0
 40
1.0
176
     0
  0
VISUALSTYLE
  5
39
102
{ACAD_REACTORS
330
2A
102
}
330
2A
100
AcDbVisualStyle
  2
Facepattern
 70
    15
177
     3
291
     1
 70
    58
 90
        2
176
     1
 90
        2
176
     1
 90
        0
176
     1
 90
        0
176
     1
 40
0.6
176
     1
 40
30.0
176
     1
 62
     7
420
 16777215
176
     1
 90
        1
176
     1
 90
        4
176
     1
 62
     7
176
     1
 62
   257
176
     1
 90
        1
176
     1
 90
        1
176
     1
 40
1.0
176
     1
 90
        8
176
     1
 62
     7
176
     1
 40
1.0
176
     1
 90
        1
176
     1
 90
        6
176
     1
 90
        2
176
     1
 62
     7
176
     1
 90
        5
176
     1
 90
        0
176
     1
 90
        0
176
     1
290
     0
176
     1
 90
        1
176
     1
 40
0.0
176
     1
 90
        0
176
     1
290
     0
176
     1
290
     1
176
     1
290
     1
176
     1
290
     0
176
     1
290
     0
176
     1
290
     0
176
     1
290
     0
176
     1
290
     0
176
     1
290
     0
176
     1
 90
       50
176
     1
 40
0.0
176
     1
 40
1.0
176
     1
 90
        0
176
     1
 62
    18
420
        0
176
     1
 90
       50
176
     1
 90
        3
176
     1
 62
     5
420
      255
176
     1
290
     0
176
     1
 90
       50
176
     1
 90
       50
176
     1
 90
       50
176
     1
290
     0
176
     1
 90
       50
176
     1
 62
   256
176
     0
 40
1.0
176
     0
 90
        2
176
     1
  1
strokes_ogs.tif
176
     1
290
     0
176
     1
 40
1.0
176
     1
 40
1.0
176
     1
  0
VISUALSTYLE
  5
2B
102
{ACAD_REACTORS
330
2A
102
}
330
2A
100
AcDbVisualStyle
  2
Flat
 70
     0
177
     3
291
     1
 70
    58
 90
        2
176
     1
 90
        1
176
     1
 90
        1
176
     1
 90
        2
176
     1
 40
0.6
176
     1
 40
30.0
176
     1
 62
     7
420
 16777215
176
     1
 90
        0
176
     1
 90
        0
176
     1
 62
     7
176
     1
 62
   257
176
     1
 90
        1
176
     1
 90
        1
176
     1
 40
1.0
176
     1
 90
        8
176
     1
 62
     7
176
     1
 40
1.0
176
     1
 90
        1
176
     1
 90
        6
176
     1
 90
        2
176
     1
 62
     7
176
     1
 90
        5
176
     1
 90
        0
176
     1
 90
        0
176
     1
290
     0
176
     1
 90
       13
176
     1
 40
0.0
176
     1
 90
        0
176
     1
290
     0
176
     1
290
     1
176
     1
290
     1
176
     1
290
     0
176
     1
290
     0
176
     1
290
     0
176
     1
290
     0
176
     1
290
     0
176
     1
290
     0
176
     1
 90
       50
176
     1
 40
0.0
176
     1
 40
1.0
176
     1
 90
        0
176
     1
 62
    18
420
        0
176
     1
 90
       50
176
     1
 90
        3
176
     1
 62
     5
420
      255
176
     1
290
     0
176
     1
 90
       50
176
     1
 90
       50
176
     1
 90
       50
176
     1
290
     0
176
     1
 90
       50
176
     1
 62
   256
176
     0
 40
1.0
176
     0
 90
        2
176
     1
  1
strokes_ogs.tif
176
     1
290
     0
176
     1
 40
1.0
176
     1
 40
1.0
176
     1
  0
VISUALSTYLE
  5
2C
102
{ACAD_REACTORS
330
2A
102
}
330
2A
100
AcDbVisualStyle
  2
FlatWithEdges
 70
     1
177
     3
291
     1
 70
    58
 90
        2
176
     1
 90
        1
176
     1
 90
        1
176
     1
 90
        2
176
     1
 40
0.6
176
     1
 40
30.0
176
     1
 62
     7
420
 16777215
176
     1
 90
        1
176
     1
 90
        0
176
     1
 62
     7
176
     1
 62
   257
176
     1
 90
        1
176
     1
 90
        1
176
     1
 40
1.0
176
     1
 90
        0
176
     1
 62
   257
176
     1
 40
1.0
176
     1
 90
        1
176
     1
 90
        6
176
     1
 90
        2
176
     1
 62
     7
176
     1
 90
        5
176
     1
 90
        0
176
     1
 90
        0
176
     1
290
     0
176
     1
 90
       13
176
     1
 40
0.0
176
     1
 90
        0
176
     1
290
     0
176
     1
290
     1
176
     1
290
     1
176
     1
290
     0
176
     1
290
     0
176
     1
290
     0
176
     1
290
     0
176
     1
290
     0
176
     1
290
     0
176
     1
 90
       50
176
     1
 40
0.0
176
     1
 40
1.0
176
     1
 90
        0
176
     1
 62
    18
420
        0
176
     1
 90
       50
176
     1
 90
        3
176
     1
 62
     5
420
      255
176
     1
290
     0
176
     1
 90
       50
176
     1
 90
       50
176
     1
 90
       50
176
     1
290
     0
176
     1
 90
       50
176
     1
 62
   256
176
     0
 40
1.0
176
     0
 90
        2
176
     1
  1
strokes_ogs.tif
176
     1
290
     0
176
     1
 40
1.0
176
     1
 40
1.0
176
     1
  0
VISUALSTYLE
  5
2D
102
{ACAD_REACTORS
330
2A
102
}
330
2A
100
AcDbVisualStyle
  2
Gouraud
 70
     2
177
     3
291
     1
 70
    58
 90
        2
176
     1
 90
        2
176
     1
 90
        1
176
     1
 90
        2
176
     1
 40
0.6
176
     1
 40
30.0
176
     1
 62
     7
420
 16777215
176
     1
 90
        0
176
     1
 90
        0
176
     1
 62
     7
176
     1
 62
   257
176
     1
 90
        1
176
     1
 90
        1
176
     1
 40
1.0
176
     1
 90
        0
176
     1
 62
     7
176
     1
 40
1.0
176
     1
 90
        1
176
     1
 90
        6
176
     1
 90
        2
176
     1
 62
     7
176
     1
 90
        5
176
     1
 90
        0
176
     1
 90
        0
176
     1
290
     0
176
     1
 90
       13
176
     1
 40
0.0
176
     1
 90
        0
176
     1
290
     0
176
     1
290
     1
176
     1
290
     1
176
     1
290
     0
176
     1
290
     0
176
     1
290
     0
176
     1
290
     0
176
     1
290
     0
176
     1
290
     0
176
     1
 90
       50
176
     1
 40
0.0
176
     1
 40
1.0
176
     1
 90
        0
176
     1
 62
    18
420
        0
176
     1
 90
       50
176
     1
 90
        3
176
     1
 62
     5
420
      255
176
     1
290
     0
176
     1
 90
       50
176
     1
 90
       50
176
     1
 90
       50
176
     1
290
     0
176
     1
 90
       50
176
     1
 62
   256
176
     0
 40
1.0
176
     0
 90
        2
176
     1
  1
strokes_ogs.tif
176
     1
290
     0
176
     1
 40
1.0
176
     1
 40
1.0
176
     1
  0
VISUALSTYLE
  5
2E
102
{ACAD_REACTORS
330
2A
102
}
330
2A
100
AcDbVisualStyle
  2
GouraudWithEdges
 70
     3
177
     3
291
     1
 70
    58
 90
        2
176
     1
 90
        2
176
     1
 90
        1
176
     1
 90
        2
176
     1
 40
0.6
176
     1
 40
30.0
176
     1
 62
     7
420
 16777215
176
     1
 90
        1
176
     1
 90
        0
176
     1
 62
     7
176
     1
 62
   257
176
     1
 90
        1
176
     1
 90
        1
176
     1
 40
1.0
176
     1
 90
        0
176
     1
 62
   257
176
     1
 40
1.0
176
     1
 90
        1
176
     1
 90
        6
176
     1
 90
        2
176
     1
 62
     7
176
     1
 90
        5
176
     1
 90
        0
176
     1
 90
        0
176
     1
290
     0
176
     1
 90
       13
176
     1
 40
0.0
176
     1
 90
        0
176
     1
290
     0
176
     1
290
     1
176
     1
290
     1
176
     1
290
     0
176
     1
290
     0
176
     1
290
     0
176
     1
290
     0
176
     1
290
     0
176
     1
290
     0
176
     1
 90
       50
176
     1
 40
0.0
176
     1
 40
1.0
176
     1
 90
        0
176
     1
 62
    18
420
        0
176
     1
 90
       50
176
     1
 90
        3
176
     1
 62
     5
420
      255
176
     1
290
     0
176
     1
 90
       50
176
     1
 90
       50
176
     1
 90
       50
176
     1
290
     0
176
     1
 90
       50
176
     1
 62
   256
176
     0
 40
1.0
176
     0
 90
        2
176
     1
  1
strokes_ogs.tif
176
     1
290
     0
176
     1
 40
1.0
176
     1
 40
1.0
176
     1
  0
VISUALSTYLE
  5
31
102
{ACAD_REACTORS
330
2A
102
}
330
2A
100
AcDbVisualStyle
  2
Hidden
 70
     6
177
     3
291
     0
 70
    58
 90
        1
176
     1
 90
        2
176
     1
 90
        2
176
     1
 90
        0
176
     1
 40
0.6
176
     1
 40
30.0
176
     1
 62
     7
420
 16777215
176
     1
 90
        2
176
     1
 90
        2
176
     1
 62
     7
176
     1
 62
   257
176
     1
 90
        2
176
     1
 90
        1
176
     1
 40
40.0
176
     1
 90
        0
176
     1
 62
   257
176
     1
 40
1.0
176
     1
 90
        1
176
     1
 90
        6
176
     1
 90
        2
176
     1
 62
     7
176
     1
 90
        3
176
     1
 90
        0
176
     1
 90
        0
176
     1
290
     0
176
     1
 90
        1
176
     1
 40
0.0
176
     1
 90
        0
176
     1
290
     0
176
     1
290
     1
176
     1
290
     1
176
     1
290
     0
176
     1
290
     0
176
     1
290
     0
176
     1
290
     0
176
     1
290
     0
176
     1
290
     0
176
     1
 90
       50
176
     1
 40
0.0
176
     1
 40
1.0
176
     1
 90
        0
176
     1
 62
    18
420
        0
176
     1
 90
       50
176
     1
 90
        3
176
     1
 62
     5
420
      255
176
     1
290
     0
176
     1
 90
       50
176
     1
 90
       50
176
     1
 90
       50
176
     1
290
     0
176
     1
 90
       50
176
     1
 62
   256
176
     0
 40
1.0
176
     0
 90
        2
176
     1
  1
strokes_ogs.tif
176
     1
290
     0
176
     1
 40
1.0
176
     1
 40
1.0
176
     1
  0
VISUALSTYLE
  5
3B
102
{ACAD_REACTORS
330
2A
102
}
330
2A
100
AcDbVisualStyle
  2
JitterOff
 70
    20
177
     3
291
     1
 70
    58
 90
        2
176
     0
 90
        2
176
     0
 90
        0
176
     0
 90
        0
176
     0
 40
0.6
176
     0
 40
30.0
176
     0
 62
     7
420
 16777215
176
     0
 90
        1
176
     0
 90
        4
176
     0
 62
     7
176
     0
 62
   257
176
     0
 90
        1
176
     0
 90
        1
176
     0
 40
1.0
176
     0
 90
       10
176
     2
 62
     7
176
     0
 40
1.0
176
     0
 90
        1
176
     0
 90
        6
176
     0
 90
        2
176
     0
 62
     7
176
     0
 90
        5
176
     0
 90
        0
176
     0
 90
        0
176
     0
290
     0
176
     0
 90
        1
176
     0
 40
0.0
176
     0
 90
        0
176
     0
290
     0
176
     0
290
     1
176
     0
290
     1
176
     0
290
     0
176
     0
290
     0
176
     0
290
     0
176
     0
290
     0
176
     0
290
     0
176
     0
290
     0
176
     0
 90
       50
176
     0
 40
0.0
176
     0
 40
1.0
176
     0
 90
        0
176
     0
 62
    18
420
        0
176
     0
 90
       50
176
     0
 90
        3
176
     0
 62
     5
420
      255
176
     0
290
     0
176
     0
 90
       50
176
     0
 90
       50
176
     0
 90
       50
176
     0
290
     0
176
     0
 90
       50
176
     0
 62
   256
176
     0
 40
1.0
176
     0
 90
        2
176
     0
  1
strokes_ogs.tif
176
     0
290
     0
176
     0
 40
1.0
176
     0
 40
1.0
176
     0
  0
VISUALSTYLE
  5
38
102
{ACAD_REACTORS
330
2A
102
}
330
2A
100
AcDbVisualStyle
  2
Linepattern
 70
    14
177
     3
291
     1
 70
    58
 90
        2
176
     1
 90
        2
176
     1
 90
        0
176
     1
 90
        0
176
     1
 40
0.6
176
     1
 40
30.0
176
     1
 62
     7
420
 16777215
176
     1
 90
        1
176
     1
 90
        4
176
     1
 62
     7
176
     1
 62
   257
176
     1
 90
        7
176
     1
 90
        7
176
     1
 40
1.0
176
     1
 90
        8
176
     1
 62
     7
176
     1
 40
1.0
176
     1
 90
        1
176
     1
 90
        6
176
     1
 90
        2
176
     1
 62
     7
176
     1
 90
        5
176
     1
 90
        0
176
     1
 90
        0
176
     1
290
     0
176
     1
 90
        1
176
     1
 40
0.0
176
     1
 90
        0
176
     1
290
     0
176
     1
290
     1
176
     1
290
     1
176
     1
290
     0
176
     1
290
     0
176
     1
290
     0
176
     1
290
     0
176
     1
290
     0
176
     1
290
     0
176
     1
 90
       50
176
     1
 40
0.0
176
     1
 40
1.0
176
     1
 90
        0
176
     1
 62
    18
420
        0
176
     1
 90
       50
176
     1
 90
        3
176
     1
 62
     5
420
      255
176
     1
290
     0
176
     1
 90
       50
176
     1
 90
       50
176
     1
 90
       50
176
     1
290
     0
176
     1
 90
       50
176
     1
 62
   256
176
     0
 40
1.0
176
     0
 90
        2
176
     1
  1
strokes_ogs.tif
176
     1
290
     0
176
     1
 40
1.0
176
     1
 40
1.0
176
     1
  0
VISUALSTYLE
  5
3C
102
{ACAD_REACTORS
330
2A
102
}
330
2A
100
AcDbVisualStyle
  2
OverhangOff
 70
    21
177
     3
291
     1
 70
    58
 90
        2
176
     0
 90
        2
176
     0
 90
        0
176
     0
 90
        0
176
     0
 40
0.6
176
     0
 40
30.0
176
     0
 62
     7
420
 16777215
176
     0
 90
        1
176
     0
 90
        4
176
     0
 62
     7
176
     0
 62
   257
176
     0
 90
        1
176
     0
 90
        1
176
     0
 40
1.0
176
     0
 90
        9
176
     2
 62
     7
176
     0
 40
1.0
176
     0
 90
        1
176
     0
 90
        6
176
     0
 90
        2
176
     0
 62
     7
176
     0
 90
        5
176
     0
 90
        0
176
     0
 90
        0
176
     0
290
     0
176
     0
 90
        1
176
     0
 40
0.0
176
     0
 90
        0
176
     0
290
     0
176
     0
290
     1
176
     0
290
     1
176
     0
290
     0
176
     0
290
     0
176
     0
290
     0
176
     0
290
     0
176
     0
290
     0
176
     0
290
     0
176
     0
 90
       50
176
     0
 40
0.0
176
     0
 40
1.0
176
     0
 90
        0
176
     0
 62
    18
420
        0
176
     0
 90
       50
176
     0
 90
        3
176
     0
 62
     5
420
      255
176
     0
290
     0
176
     0
 90
       50
176
     0
 90
       50
176
     0
 90
       50
176
     0
290
     0
176
     0
 90
       50
176
     0
 62
   256
176
     0
 40
1.0
176
     0
 90
        2
176
     0
  1
strokes_ogs.tif
176
     0
290
     0
176
     0
 40
1.0
176
     0
 40
1.0
176
     0
  0
VISUALSTYLE
  5
33
102
{ACAD_REACTORS
330
2A
102
}
330
2A
100
AcDbVisualStyle
  2
Realistic
 70
     8
177
     3
291
     0
 70
    58
 90
        2
176
     1
 90
        3
176
     1
 90
        0
176
     1
 90
        2
176
     1
 40
0.6
176
     1
 40
30.0
176
     1
 62
     7
420
 16777215
176
     1
 90
        0
176
     1
 90
        0
176
     1
 62
     7
176
     1
 62
   257
176
     1
 90
        1
176
     1
 90
        1
176
     1
 40
1.0
176
     1
 90
        8
176
     1
 62
   257
176
     1
 40
1.0
176
     1
 90
        1
176
     1
 90
        6
176
     1
 90
        2
176
     1
 62
     7
176
     1
 90
        3
176
     1
 90
        0
176
     1
 90
        0
176
     1
290
     0
176
     1
 90
       13
176
     1
 40
0.0
176
     1
 90
        0
176
     1
290
     0
176
     1
290
     1
176
     1
290
     1
176
     1
290
     0
176
     1
290
     0
176
     1
290
     0
176
     1
290
     0
176
     1
290
     0
176
     1
290
     0
176
     1
 90
       50
176
     1
 40
0.0
176
     1
 40
1.0
176
     1
 90
        0
176
     1
 62
    18
420
        0
176
     1
 90
       50
176
     1
 90
        3
176
     1
 62
     5
420
      255
176
     1
290
     0
176
     1
 90
       50
176
     1
 90
       50
176
     1
 90
       50
176
     1
290
     0
176
     1
 90
       50
176
     1
 62
   256
176
     0
 40
1.0
176
     0
 90
        2
176
     1
  1
strokes_ogs.tif
176
     1
290
     0
176
     1
 40
1.0
176
     1
 40
1.0
176
     1
  0
VISUALSTYLE
  5
42
102
{ACAD_REACTORS
330
2A
102
}
330
2A
100
AcDbVisualStyle
  2
Shaded
 70
    27
177
     3
291
     0
 70
    58
 90
        2
176
     1
 90
        2
176
     1
 90
        1
176
     1
 90
        2
176
     1
 40
0.6
176
     1
 40
30.0
176
     1
 62
     7
420
 16777215
176
     1
 90
        0
176
     1
 90
        4
176
     1
 62
     7
176
     1
 62
   257
176
     1
 90
        1
176
     1
 90
        1
176
     1
 40
1.0
176
     1
 90
        8
176
     1
 62
   257
176
     1
 40
1.0
176
     1
 90
        1
176
     1
 90
        6
176
     1
 90
        2
176
     1
 62
     8
420
  7895160
176
     1
 90
        3
176
     1
 90
        0
176
     1
 90
        0
176
     1
290
     0
176
     1
 90
        5
176
     1
 40
0.0
176
     1
 90
        0
176
     1
290
     0
176
     1
290
     1
176
     1
290
     1
176
     1
290
     0
176
     1
290
     0
176
     1
290
     0
176
     1
290
     0
176
     1
290
     0
176
     1
290
     0
176
     1
 90
       50
176
     1
 40
0.0
176
     1
 40
1.0
176
     1
 90
        0
176
     1
 62
    18
420
        0
176
     1
 90
       50
176
     1
 90
        3
176
     1
 62
     5
420
      255
176
     1
290
     0
176
     1
 90
       50
176
     1
 90
       50
176
     1
 90
       50
176
     1
290
     0
176
     1
 90
       50
176
     1
 62
   256
176
     0
 40
1.0
176
     0
 90
        2
176
     1
  1
strokes_ogs.tif
176
     1
290
     0
176
     1
 40
1.0
176
     1
 40
1.0
176
     1
  0
VISUALSTYLE
  5
41
102
{ACAD_REACTORS
330
2A
102
}
330
2A
100
AcDbVisualStyle
  2
Shaded with edges
 70
    26
177
     3
291
     0
 70
    58
 90
        2
176
     1
 90
        2
176
     1
 90
        1
176
     1
 90
        2
176
     1
 40
0.6
176
     1
 40
30.0
176
     1
 62
     7
420
 16777215
176
     1
 90
        1
176
     1
 90
       10
176
     1
 62
     7
176
     1
 62
   257
176
     1
 90
        2
176
     1
 90
        1
176
     1
 40
1.0
176
     1
 90
        8
176
     1
 62
   257
176
     1
 40
1.0
176
     1
 90
        1
176
     1
 90
        6
176
     1
 90
        2
176
     1
 62
     7
176
     1
 90
        3
176
     1
 90
        0
176
     1
 90
        0
176
     1
290
     0
176
     1
 90
        5
176
     1
 40
0.0
176
     1
 90
        0
176
     1
290
     0
176
     1
290
     1
176
     1
290
     1
176
     1
290
     0
176
     1
290
     0
176
     1
290
     0
176
     1
290
     0
176
     1
290
     0
176
     1
290
     0
176
     1
 90
       50
176
     1
 40
0.0
176
     1
 40
1.0
176
     1
 90
        0
176
     1
 62
    18
420
        0
176
     1
 90
       50
176
     1
 90
        3
176
     1
 62
     5
420
      255
176
     1
290
     0
176
     1
 90
       50
176
     1
 90
       50
176
     1
 90
       50
176
     1
290
     0
176
     1
 90
       50
176
     1
 62
   256
176
     0
 40
1.0
176
     0
 90
        2
176
     1
  1
strokes_ogs.tif
176
     1
290
     0
176
     1
 40
1.0
176
     1
 40
1.0
176
     1
  0
VISUALSTYLE
  5
3E
102
{ACAD_REACTORS
330
2A
102
}
330
2A
100
AcDbVisualStyle
  2
Shades of Gray
 70
    23
177
     3
291
     0
 70
    58
 90
        2
176
     1
 90
        2
176
     1
 90
        3
176
     1
 90
        0
176
     1
 40
0.6
176
     1
 40
30.0
176
     1
 62
     7
420
 16777215
176
     1
 90
        2
176
     1
 90
        2
176
     1
 62
     7
176
     1
 62
     7
176
     1
 90
        1
176
     1
 90
        1
176
     1
 40
40.0
176
     1
 90
        8
176
     1
 62
     7
176
     1
 40
1.0
176
     1
 90
        1
176
     1
 90
        6
176
     1
 90
        2
176
     1
 62
     7
176
     1
 90
        3
176
     1
 90
        0
176
     1
 90
        0
176
     1
290
     0
176
     1
 90
        1
176
     1
 40
0.0
176
     1
 90
        0
176
     1
290
     0
176
     1
290
     1
176
     1
290
     1
176
     1
290
     0
176
     1
290
     0
176
     1
290
     0
176
     1
290
     0
176
     1
290
     0
176
     1
290
     0
176
     1
 90
       50
176
     1
 40
0.0
176
     1
 40
1.0
176
     1
 90
        0
176
     1
 62
    18
420
        0
176
     1
 90
       50
176
     1
 90
        3
176
     1
 62
     5
420
      255
176
     1
290
     0
176
     1
 90
       50
176
     1
 90
       50
176
     1
 90
       50
176
     1
290
     0
176
     1
 90
       50
176
     1
 62
   256
176
     0
 40
1.0
176
     0
 90
        2
176
     1
  1
strokes_ogs.tif
176
     1
290
     0
176
     1
 40
1.0
176
     1
 40
1.0
176
     1
  0
VISUALSTYLE
  5
3F
102
{ACAD_REACTORS
330
2A
102
}
330
2A
100
AcDbVisualStyle
  2
Sketchy
 70
    24
177
     3
291
     0
 70
    58
 90
        1
176
     1
 90
        2
176
     1
 90
        2
176
     1
 90
        0
176
     1
 40
0.6
176
     1
 40
30.0
176
     1
 62
     7
420
 16777215
176
     1
 90
        2
176
     1
 90
        2
176
     1
 62
     7
176
     1
 62
     7
176
     1
 90
        1
176
     1
 90
        1
176
     1
 40
40.0
176
     1
 90
       11
176
     1
 62
     7
176
     1
 40
1.0
176
     1
 90
        1
176
     1
 90
        6
176
     1
 90
        2
176
     1
 62
     7
176
     1
 90
        6
176
     1
 90
        0
176
     1
 90
        0
176
     1
290
     0
176
     1
 90
        1
176
     1
 40
0.0
176
     1
 90
        0
176
     1
290
     0
176
     1
290
     1
176
     1
290
     1
176
     1
290
     0
176
     1
290
     0
176
     1
290
     0
176
     1
290
     0
176
     1
290
     0
176
     1
290
     0
176
     1
 90
       50
176
     1
 40
0.0
176
     1
 40
1.0
176
     1
 90
        0
176
     1
 62
    18
420
        0
176
     1
 90
       50
176
     1
 90
        3
176
     1
 62
     5
420
      255
176
     1
290
     0
176
     1
 90
       50
176
     1
 90
       50
176
     1
 90
       50
176
     1
290
     0
176
     1
 90
       50
176
     1
 62
   256
176
     0
 40
1.0
176
     0
 90
        2
176
     1
  1
strokes_ogs.tif
176
     1
290
     0
176
     1
 40
1.0
176
     1
 40
1.0
176
     1
  0
VISUALSTYLE
  5
37
102
{ACAD_REACTORS
330
2A
102
}
330
2A
100
AcDbVisualStyle
  2
Thicken
 70
    13
177
     3
291
     1
 70
    58
 90
        2
176
     1
 90
        2
176
     1
 90
        0
176
     1
 90
        0
176
     1
 40
0.6
176
     1
 40
30.0
176
     1
 62
     7
420
 16777215
176
     1
 90
        1
176
     1
 90
        4
176
     1
 62
     7
176
     1
 62
   257
176
     1
 90
        1
176
     1
 90
        1
176
     1
 40
1.0
176
     1
 90
       12
176
     1
 62
     7
176
     1
 40
1.0
176
     1
 90
        1
176
     1
 90
        6
176
     1
 90
        2
176
     1
 62
     7
176
     1
 90
        5
176
     1
 90
        0
176
     1
 90
        0
176
     1
290
     0
176
     1
 90
        1
176
     1
 40
0.0
176
     1
 90
        0
176
     1
290
     0
176
     1
290
     1
176
     1
290
     1
176
     1
290
     0
176
     1
290
     0
176
     1
290
     0
176
     1
290
     0
176
     1
290
     0
176
     1
290
     0
176
     1
 90
       50
176
     1
 40
0.0
176
     1
 40
1.0
176
     1
 90
        0
176
     1
 62
    18
420
        0
176
     1
 90
       50
176
     1
 90
        3
176
     1
 62
     5
420
      255
176
     1
290
     0
176
     1
 90
       50
176
     1
 90
       50
176
     1
 90
       50
176
     1
290
     0
176
     1
 90
       50
176
     1
 62
   256
176
     0
 40
1.0
176
     0
 90
        2
176
     1
  1
strokes_ogs.tif
176
     1
290
     0
176
     1
 40
1.0
176
     1
 40
1.0
176
     1
  0
VISUALSTYLE
  5
30
102
{ACAD_REACTORS
330
2A
102
}
330
2A
100
AcDbVisualStyle
  2
Wireframe
 70
     5
177
     3
291
     0
 70
    58
 90
        0
176
     1
 90
        2
176
     1
 90
        0
176
     1
 90
        0
176
     1
 40
0.6
176
     1
 40
30.0
176
     1
 62
     7
420
 16777215
176
     1
 90
        1
176
     1
 90
        4
176
     1
 62
     7
176
     1
 62
   257
176
     1
 90
        1
176
     1
 90
        1
176
     1
 40
1.0
176
     1
 90
        0
176
     1
 62
   257
176
     1
 40
1.0
176
     1
 90
        1
176
     1
 90
        6
176
     1
 90
        2
176
     1
 62
     7
176
     1
 90
        3
176
     1
 90
        0
176
     1
 90
        0
176
     1
290
     0
176
     1
 90
        1
176
     1
 40
0.0
176
     1
 90
        0
176
     1
290
     0
176
     1
290
     1
176
     1
290
     1
176
     1
290
     0
176
     1
290
     0
176
     1
290
     0
176
     1
290
     0
176
     1
290
     0
176
     1
290
     0
176
     1
 90
       50
176
     1
 40
0.0
176
     1
 40
1.0
176
     1
 90
        0
176
     1
 62
    18
420
        0
176
     1
 90
       50
176
     1
 90
        3
176
     1
 62
     5
420
      255
176
     1
290
     0
176
     1
 90
       50
176
     1
 90
       50
176
     1
 90
       50
176
     1
290
     0
176
     1
 90
       50
176
     1
 62
   256
176
     0
 40
1.0
176
     0
 90
        2
176
     1
  1
strokes_ogs.tif
176
     1
290
     0
176
     1
 40
1.0
176
     1
 40
1.0
176
     1
  0
VISUALSTYLE
  5
40
102
{ACAD_REACTORS
330
2A
102
}
330
2A
100
AcDbVisualStyle
  2
X-Ray
 70
    25
177
     3
291
     0
 70
    58
 90
        2
176
     1
 90
        2
176
     1
 90
        1
176
     1
 90
        1
176
     1
 40
0.5
176
     1
 40
30.0
176
     1
 62
     7
420
 16777215
176
     1
 90
        1
176
     1
 90
        0
176
     1
 62
     7
176
     1
 62
   257
176
     1
 90
        1
176
     1
 90
        1
176
     1
 40
1.0
176
     1
 90
        8
176
     1
 62
     7
176
     1
 40
1.0
176
     1
 90
        1
176
     1
 90
        6
176
     1
 90
        2
176
     1
 62
     7
176
     1
 90
        3
176
     1
 90
        0
176
     1
 90
        0
176
     1
290
     0
176
     1
 90
       13
176
     1
 40
0.0
176
     1
 90
        0
176
     1
290
     0
176
     1
290
     1
176
     1
290
     1
176
     1
290
     0
176
     1
290
     0
176
     1
290
     0
176
     1
290
     0
176
     1
290
     0
176
     1
290
     0
176
     1
 90
       50
176
     1
 40
0.0
176
     1
 40
1.0
176
     1
 90
        0
176
     1
 62
    18
420
        0
176
     1
 90
       50
176
     1
 90
        3
176
     1
 62
     5
420
      255
176
     1
290
     0
176
     1
 90
       50
176
     1
 90
       50
176
     1
 90
       50
176
     1
290
     0
176
     1
 90
       50
176
     1
 62
   256
176
     0
 40
1.0
176
     0
 90
        2
176
     1
  1
strokes_ogs.tif
176
     1
290
     0
176
     1
 40
1.0
176
     1
 40
1.0
176
     1
  0
DICTIONARYVAR
  5
270
102
{ACAD_REACTORS
330
26F
102
}
330
26F
100
DictionaryVariables
280
     0
  1
1:1
  0
DICTIONARYVAR
  5
278
102
{ACAD_REACTORS
330
26F
102
}
330
26F
100
DictionaryVariables
280
     0
  1
3.500000
  0
DICTIONARYVAR
  5
279
102
{ACAD_REACTORS
330
26F
102
}
330
26F
100
DictionaryVariables
280
     0
  1
acadiso.lin
  0
DICTIONARYVAR
  5
275
102
{ACAD_REACTORS
330
26F
102
}
330
26F
100
DictionaryVariables
280
     0
  1
Standard
  0
DICTIONARYVAR
  5
274
102
{ACAD_REACTORS
330
26F
102
}
330
26F
100
DictionaryVariables
280
     0
  1
Standard
  0
DICTIONARY
  5
271
330
5A
100
AcDbDictionary
280
     1
281
     1
  3
ACAD_ROUNDTRIP_2008_TABLESTYLE_CELLSTYLEMAP
360
272
  0
CELLSTYLEMAP
  5
272
102
{ACAD_REACTORS
330
271
102
}
330
271
100
AcDbCellStyleMap
 90
        3
300
CELLSTYLE
  1
TABLEFORMAT_BEGIN
 90
        5
170
     1
 91
        0
 92
    32768
 62
   257
 93
        1
300
CONTENTFORMAT
  1
CONTENTFORMAT_BEGIN
 90
        0
 91
        0
 92
        4
 93
        0
300

 40
0.0
140
1.0
 94
        5
 62
     0
340
11
144
6.0
309
CONTENTFORMAT_END
171
     1
301
MARGIN
  1
CELLMARGIN_BEGIN
 40
1.5
 40
1.5
 40
1.5
 40
1.5
 40
1.5
 40
1.5
309
CELLMARGIN_END
 94
        6
 95
        1
302
GRIDFORMAT
  1
GRIDFORMAT_BEGIN
 90
        0
 91
        1
 62
     0
 92
       -2
340
14
 93
        0
 40
0.045
309
GRIDFORMAT_END
 95
        2
302
GRIDFORMAT
  1
GRIDFORMAT_BEGIN
 90
        0
 91
        1
 62
     0
 92
       -2
340
14
 93
        0
 40
0.045
309
GRIDFORMAT_END
 95
        4
302
GRIDFORMAT
  1
GRIDFORMAT_BEGIN
 90
        0
 91
        1
 62
     0
 92
       -2
340
14
 93
        0
 40
0.045
309
GRIDFORMAT_END
 95
        8
302
GRIDFORMAT
  1
GRIDFORMAT_BEGIN
 90
        0
 91
        1
 62
     0
 92
       -2
340
14
 93
        0
 40
0.045
309
GRIDFORMAT_END
 95
       16
302
GRIDFORMAT
  1
GRIDFORMAT_BEGIN
 90
        0
 91
        1
 62
     0
 92
       -2
340
14
 93
        0
 40
0.045
309
GRIDFORMAT_END
 95
       32
302
GRIDFORMAT
  1
GRIDFORMAT_BEGIN
 90
        0
 91
        1
 62
     0
 92
       -2
340
14
 93
        0
 40
0.045
309
GRIDFORMAT_END
309
TABLEFORMAT_END
  1
CELLSTYLE_BEGIN
 90
        1
 91
        1
300
_TITLE
309
CELLSTYLE_END
300
CELLSTYLE
  1
TABLEFORMAT_BEGIN
 90
        5
170
     1
 91
        0
 92
        0
 62
   257
 93
        1
300
CONTENTFORMAT
  1
CONTENTFORMAT_BEGIN
 90
        0
 91
        0
 92
        4
 93
        0
300

 40
0.0
140
1.0
 94
        5
 62
     0
340
11
144
4.5
309
CONTENTFORMAT_END
171
     1
301
MARGIN
  1
CELLMARGIN_BEGIN
 40
1.5
 40
1.5
 40
1.5
 40
1.5
 40
1.5
 40
1.5
309
CELLMARGIN_END
 94
        6
 95
        1
302
GRIDFORMAT
  1
GRIDFORMAT_BEGIN
 90
        0
 91
        1
 62
     0
 92
       -2
340
14
 93
        0
 40
0.045
309
GRIDFORMAT_END
 95
        2
302
GRIDFORMAT
  1
GRIDFORMAT_BEGIN
 90
        0
 91
        1
 62
     0
 92
       -2
340
14
 93
        0
 40
0.045
309
GRIDFORMAT_END
 95
        4
302
GRIDFORMAT
  1
GRIDFORMAT_BEGIN
 90
        0
 91
        1
 62
     0
 92
       -2
340
14
 93
        0
 40
0.045
309
GRIDFORMAT_END
 95
        8
302
GRIDFORMAT
  1
GRIDFORMAT_BEGIN
 90
        0
 91
        1
 62
     0
 92
       -2
340
14
 93
        0
 40
0.045
309
GRIDFORMAT_END
 95
       16
302
GRIDFORMAT
  1
GRIDFORMAT_BEGIN
 90
        0
 91
        1
 62
     0
 92
       -2
340
14
 93
        0
 40
0.045
309
GRIDFORMAT_END
 95
       32
302
GRIDFORMAT
  1
GRIDFORMAT_BEGIN
 90
        0
 91
        1
 62
     0
 92
       -2
340
14
 93
        0
 40
0.045
309
GRIDFORMAT_END
309
TABLEFORMAT_END
  1
CELLSTYLE_BEGIN
 90
        2
 91
        1
300
_HEADER
309
CELLSTYLE_END
300
CELLSTYLE
  1
TABLEFORMAT_BEGIN
 90
        5
170
     1
 91
        0
 92
        0
 62
   257
 93
        1
300
CONTENTFORMAT
  1
CONTENTFORMAT_BEGIN
 90
        0
 91
        0
 92
        4
 93
        0
300

 40
0.0
140
1.0
 94
        2
 62
     0
340
11
144
4.5
309
CONTENTFORMAT_END
171
     1
301
MARGIN
  1
CELLMARGIN_BEGIN
 40
1.5
 40
1.5
 40
1.5
 40
1.5
 40
1.5
 40
1.5
309
CELLMARGIN_END
 94
        6
 95
        1
302
GRIDFORMAT
  1
GRIDFORMAT_BEGIN
 90
        0
 91
        1
 62
     0
 92
       -2
340
14
 93
        0
 40
0.045
309
GRIDFORMAT_END
 95
        2
302
GRIDFORMAT
  1
GRIDFORMAT_BEGIN
 90
        0
 91
        1
 62
     0
 92
       -2
340
14
 93
        0
 40
0.045
309
GRIDFORMAT_END
 95
        4
302
GRIDFORMAT
  1
GRIDFORMAT_BEGIN
 90
        0
 91
        1
 62
     0
 92
       -2
340
14
 93
        0
 40
0.045
309
GRIDFORMAT_END
 95
        8
302
GRIDFORMAT
  1
GRIDFORMAT_BEGIN
 90
        0
 91
        1
 62
     0
 92
       -2
340
14
 93
        0
 40
0.045
309
GRIDFORMAT_END
 95
       16
302
GRIDFORMAT
  1
GRIDFORMAT_BEGIN
 90
        0
 91
        1
 62
     0
 92
       -2
340
14
 93
        0
 40
0.045
309
GRIDFORMAT_END
 95
       32
302
GRIDFORMAT
  1
GRIDFORMAT_BEGIN
 90
        0
 91
        1
 62
     0
 92
       -2
340
14
 93
        0
 40
0.045
309
GRIDFORMAT_END
309
TABLEFORMAT_END
  1
CELLSTYLE_BEGIN
 90
        3
 91
        2
300
_DATA
309
CELLSTYLE_END
  0
ENDSEC
  0
EOF
