ISO-10303-21;
HEADER;
FILE_DESCRIPTION (( 'STEP AP203' ),
    '1' );
FILE_NAME ('CLP1K-100-1-2 Êðûøêà íà ëîòîê îñí. 100 ìì. äëèíà (2 ìåòðà).STEP',
    '2016-03-14T08:16:46',
    ( '' ),
    ( '' ),
    'SwSTEP 2.0',
    'SolidWorks 2014',
    '' );
FILE_SCHEMA (( 'CONFIG_CONTROL_DESIGN' ));
ENDSEC;

DATA;
#1 = DIRECTION ( 'NONE',  ( -0.0000000000000000000, -0.0000000000000000000, -1.000000000000000000 ) ) ;
#2 =( LENGTH_UNIT ( ) NAMED_UNIT ( * ) SI_UNIT ( .MILLI., .METRE. ) );
#3 = PERSON_AND_ORGANIZATION ( #143, #278 ) ;
#4 = LINE ( 'NONE', #142, #302 ) ;
#5 = ORIENTED_EDGE ( 'NONE', *, *, #216, .T. ) ;
#6 = APPROVAL_ROLE ( '' ) ;
#7 = VECTOR ( 'NONE', #244, 1000.000000000000000 ) ;
#8 = EDGE_LOOP ( 'NONE', ( #279, #5, #263, #148 ) ) ;
#9 = CARTESIAN_POINT ( 'NONE',  ( -1042.500000000000000, 0.6999999999999999600, 98.00000000000000000 ) ) ;
#10 = ADVANCED_FACE ( 'NONE', ( #141 ), #366, .T. ) ;
#11 = DIRECTION ( 'NONE',  ( -4.232467377468589100E-031, -3.437222986455592900E-015, -1.000000000000000000 ) ) ;
#12 = CC_DESIGN_PERSON_AND_ORGANIZATION_ASSIGNMENT ( #165, #262, ( #321 ) ) ;
#13 = DIRECTION ( 'NONE',  ( 0.0000000000000000000, -1.000000000000000000, 0.0000000000000000000 ) ) ;
#14 = PERSON_AND_ORGANIZATION ( #143, #278 ) ;
#15 = FACE_OUTER_BOUND ( 'NONE', #47, .T. ) ;
#16 = EDGE_LOOP ( 'NONE', ( #21, #88, #54, #317 ) ) ;
#17 = EDGE_CURVE ( 'NONE', #126, #290, #34, .T. ) ;
#18 = CARTESIAN_POINT ( 'NONE',  ( -1042.500000000000000, -16.14999999999999900, -1.700000000000056600 ) ) ;
#19 = VERTEX_POINT ( 'NONE', #229 ) ;
#20 = FACE_OUTER_BOUND ( 'NONE', #134, .T. ) ;
#21 = ORIENTED_EDGE ( 'NONE', *, *, #96, .T. ) ;
#22 = CALENDAR_DATE ( 2016, 14, 3 ) ;
#23 = CARTESIAN_POINT ( 'NONE',  ( -1042.500000000000000, 0.0000000000000000000, 98.00000000000000000 ) ) ;
#24 = LINE ( 'NONE', #30, #324 ) ;
#25 = ORIENTED_EDGE ( 'NONE', *, *, #273, .F. ) ;
#26 = CARTESIAN_POINT ( 'NONE',  ( -1042.500000000000000, -16.14999999999974300, 99.00000000000005700 ) ) ;
#27 = ORIENTED_EDGE ( 'NONE', *, *, #341, .F. ) ;
#28 = VECTOR ( 'NONE', #162, 1000.000000000000000 ) ;
#29 = DIRECTION ( 'NONE',  ( -1.000000000000000000, 1.231362467360036000E-016, -8.758115402030106700E-047 ) ) ;
#30 = CARTESIAN_POINT ( 'NONE',  ( 1042.500000000000000, -16.14999999999999900, 99.70000000000006000 ) ) ;
#31 = CARTESIAN_POINT ( 'NONE',  ( -1042.500000000000000, 0.0000000000000000000, -1.000000000000000000 ) ) ;
#32 = CC_DESIGN_PERSON_AND_ORGANIZATION_ASSIGNMENT ( #93, #99, ( #321 ) ) ;
#33 = DATE_AND_TIME ( #115, #184 ) ;
#34 = LINE ( 'NONE', #226, #185 ) ;
#35 = ORIENTED_EDGE ( 'NONE', *, *, #254, .F. ) ;
#36 =( NAMED_UNIT ( * ) SI_UNIT ( $, .STERADIAN. ) SOLID_ANGLE_UNIT ( ) );
#37 = EDGE_CURVE ( 'NONE', #224, #126, #116, .T. ) ;
#38 = DATE_TIME_ROLE ( 'creation_date' ) ;
#39 = DIRECTION ( 'NONE',  ( 0.0000000000000000000, 1.000000000000000000, 3.491481338843133700E-015 ) ) ;
#40 = FACE_OUTER_BOUND ( 'NONE', #71, .T. ) ;
#41 = VERTEX_POINT ( 'NONE', #123 ) ;
#42 = DIRECTION ( 'NONE',  ( -1.000000000000000000, -0.0000000000000000000, -0.0000000000000000000 ) ) ;
#43 = AXIS2_PLACEMENT_3D ( 'NONE', #72, #322, #160 ) ;
#44 = CARTESIAN_POINT ( 'NONE',  ( 1042.500000000000000, 0.7000000000000086200, 99.70000000000001700 ) ) ;
#45 = ADVANCED_FACE ( 'NONE', ( #261 ), #196, .T. ) ;
#46 = APPROVAL_DATE_TIME ( #125, #249 ) ;
#47 = EDGE_LOOP ( 'NONE', ( #358, #367, #276, #146 ) ) ;
#48 = ORIENTED_EDGE ( 'NONE', *, *, #117, .F. ) ;
#49 = CARTESIAN_POINT ( 'NONE',  ( -1042.500000000000000, -16.14999999999973900, 99.70000000000006000 ) ) ;
#50 = LINE ( 'NONE', #296, #118 ) ;
#51 = ORIENTED_EDGE ( 'NONE', *, *, #273, .T. ) ;
#52 = APPROVAL_PERSON_ORGANIZATION ( #133, #249, #6 ) ;
#53 = VERTEX_POINT ( 'NONE', #120 ) ;
#54 = ORIENTED_EDGE ( 'NONE', *, *, #188, .F. ) ;
#55 = PRODUCT_DEFINITION_SHAPE ( 'NONE', 'NONE',  #227 ) ;
#56 = SECURITY_CLASSIFICATION ( '', '', #293 ) ;
#57 = PLANE ( 'NONE',  #258 ) ;
#58 = EDGE_CURVE ( 'NONE', #285, #355, #174, .T. ) ;
#59 = ORIENTED_EDGE ( 'NONE', *, *, #231, .T. ) ;
#60 = FACE_OUTER_BOUND ( 'NONE', #351, .T. ) ;
#61 = CARTESIAN_POINT ( 'NONE',  ( 0.0000000000000000000, 2.444036937190193300E-015, -1.700000000000000200 ) ) ;
#62 = EDGE_LOOP ( 'NONE', ( #100, #332, #271, #149, #89, #339, #25, #236 ) ) ;
#63 = APPLICATION_PROTOCOL_DEFINITION ( 'international standard', 'config_control_design', 1994, #97 ) ;
#64 = VERTEX_POINT ( 'NONE', #31 ) ;
#65 = EDGE_LOOP ( 'NONE', ( #197, #27, #193, #76 ) ) ;
#66 = APPROVAL_ROLE ( '' ) ;
#67 = VECTOR ( 'NONE', #155, 1000.000000000000000 ) ;
#68 = CARTESIAN_POINT ( 'NONE',  ( -1042.500000000000000, 0.6999999999999999600, 98.00000000000000000 ) ) ;
#69 = DIRECTION ( 'NONE',  ( -0.0000000000000000000, -1.000000000000000000, -3.491481338843133700E-015 ) ) ;
#70 = ORIENTED_EDGE ( 'NONE', *, *, #98, .F. ) ;
#71 = EDGE_LOOP ( 'NONE', ( #303, #202, #59, #251 ) ) ;
#72 = CARTESIAN_POINT ( 'NONE',  ( 4.147818029919217500E-029, 3.368478526726481200E-013, 99.00000000000000000 ) ) ;
#73 = DIRECTION ( 'NONE',  ( -0.0000000000000000000, 1.000000000000000000, -3.437222986455592900E-015 ) ) ;
#74 = CC_DESIGN_PERSON_AND_ORGANIZATION_ASSIGNMENT ( #14, #128, ( #56 ) ) ;
#75 = CARTESIAN_POINT ( 'NONE',  ( -1043.489949493661200, 0.7000000000000086200, 99.70000000000001700 ) ) ;
#76 = ORIENTED_EDGE ( 'NONE', *, *, #79, .F. ) ;
#77 = CALENDAR_DATE ( 2016, 14, 3 ) ;
#78 = VECTOR ( 'NONE', #294, 1000.000000000000000 ) ;
#79 = EDGE_CURVE ( 'NONE', #126, #359, #24, .T. ) ;
#80 = AXIS2_PLACEMENT_3D ( 'NONE', #325, #13, #217 ) ;
#81 = CARTESIAN_POINT ( 'NONE',  ( 1042.500000000000000, -16.14999999999999900, 99.70000000000006000 ) ) ;
#82 = DATE_AND_TIME ( #163, #232 ) ;
#83 = LINE ( 'NONE', #167, #110 ) ;
#84 = ORIENTED_EDGE ( 'NONE', *, *, #176, .F. ) ;
#85 = PRODUCT ( 'CLP1K-100-1-2 Êðûøêà íà ëîòîê îñí. 100 ìì. äëèíà (2 ìåòðà)', 'CLP1K-100-1-2 Êðûøêà íà ëîòîê îñí. 100 ìì. äëèíà (2 ìåòðà)', '', ( #127 ) ) ;
#86 = CARTESIAN_POINT ( 'NONE',  ( -1042.500000000000000, 0.0000000000000000000, 98.00000000000000000 ) ) ;
#87 = LINE ( 'NONE', #75, #7 ) ;
#88 = ORIENTED_EDGE ( 'NONE', *, *, #194, .F. ) ;
#89 = ORIENTED_EDGE ( 'NONE', *, *, #96, .F. ) ;
#90 = DIRECTION ( 'NONE',  ( 0.0000000000000000000, -3.491481338843133400E-015, 1.000000000000000000 ) ) ;
#91 = CC_DESIGN_DATE_AND_TIME_ASSIGNMENT ( #82, #315, ( #56 ) ) ;
#92 = ORIENTED_EDGE ( 'NONE', *, *, #341, .T. ) ;
#93 = PERSON_AND_ORGANIZATION ( #143, #278 ) ;
#94 = VECTOR ( 'NONE', #1, 1000.000000000000000 ) ;
#95 = ORIENTED_EDGE ( 'NONE', *, *, #362, .F. ) ;
#96 = EDGE_CURVE ( 'NONE', #281, #64, #243, .T. ) ;
#97 = APPLICATION_CONTEXT ( 'configuration controlled 3d designs of mechanical parts and assemblies' ) ;
#98 = EDGE_CURVE ( 'NONE', #182, #41, #166, .T. ) ;
#99 = PERSON_AND_ORGANIZATION_ROLE ( 'design_supplier' ) ;
#100 = ORIENTED_EDGE ( 'NONE', *, *, #223, .T. ) ;
#101 = CARTESIAN_POINT ( 'NONE',  ( 1042.500000000000000, -16.14999999999999900, -1.700000000000056600 ) ) ;
#102 = CARTESIAN_POINT ( 'NONE',  ( 1042.500000000000000, -16.14999999999999900, -1.700000000000056600 ) ) ;
#103 =( GEOMETRIC_REPRESENTATION_CONTEXT ( 3 ) GLOBAL_UNCERTAINTY_ASSIGNED_CONTEXT ( ( #122 ) ) GLOBAL_UNIT_ASSIGNED_CONTEXT ( ( #2, #203, #36 ) ) REPRESENTATION_CONTEXT ( 'NONE', 'WORKASPACE' ) );
#104 = CARTESIAN_POINT ( 'NONE',  ( -1042.500000000000000, -16.14999999999973900, 99.70000000000006000 ) ) ;
#105 = ADVANCED_FACE ( 'NONE', ( #15 ), #361, .T. ) ;
#106 = DIRECTION ( 'NONE',  ( -0.0000000000000000000, -0.0000000000000000000, -1.000000000000000000 ) ) ;
#107 = EDGE_LOOP ( 'NONE', ( #95, #343, #248, #310 ) ) ;
#108 = DIRECTION ( 'NONE',  ( 1.000000000000000000, 0.0000000000000000000, 0.0000000000000000000 ) ) ;
#109 = LOCAL_TIME ( 11, 16, 46.00000000000000000, #173 ) ;
#110 = VECTOR ( 'NONE', #144, 1000.000000000000000 ) ;
#111 = DIRECTION ( 'NONE',  ( -0.0000000000000000000, 1.000000000000000000, 3.491481338843133700E-015 ) ) ;
#112 = DIRECTION ( 'NONE',  ( 0.0000000000000000000, -3.491481338843133400E-015, 1.000000000000000000 ) ) ;
#113 = DIRECTION ( 'NONE',  ( 0.0000000000000000000, 0.0000000000000000000, 1.000000000000000000 ) ) ;
#114 = LINE ( 'NONE', #215, #247 ) ;
#115 = CALENDAR_DATE ( 2016, 14, 3 ) ;
#116 = LINE ( 'NONE', #340, #253 ) ;
#117 = EDGE_CURVE ( 'NONE', #290, #129, #83, .T. ) ;
#118 = VECTOR ( 'NONE', #159, 1000.000000000000000 ) ;
#119 = CARTESIAN_POINT ( 'NONE',  ( 1042.500000000000000, 0.0000000000000000000, -1.000000000000000000 ) ) ;
#120 = CARTESIAN_POINT ( 'NONE',  ( 1042.500000000000000, 0.7000000000000001800, -1.700000000000000200 ) ) ;
#121 = AXIS2_PLACEMENT_3D ( 'NONE', #328, #354, #187 ) ;
#122 = UNCERTAINTY_MEASURE_WITH_UNIT (LENGTH_MEASURE( 1.000000000000000100E-005 ), #2, 'distance_accuracy_value', 'NONE');
#123 = CARTESIAN_POINT ( 'NONE',  ( 1042.500000000000000, -3.851859888774471700E-031, -1.000000000000000000 ) ) ;
#124 = ORIENTED_EDGE ( 'NONE', *, *, #17, .F. ) ;
#125 = DATE_AND_TIME ( #192, #269 ) ;
#126 = VERTEX_POINT ( 'NONE', #81 ) ;
#127 = MECHANICAL_CONTEXT ( 'NONE', #97, 'mechanical' ) ;
#128 = PERSON_AND_ORGANIZATION_ROLE ( 'classification_officer' ) ;
#129 = VERTEX_POINT ( 'NONE', #26 ) ;
#130 = LINE ( 'NONE', #238, #139 ) ;
#131 = DIRECTION ( 'NONE',  ( 1.000000000000000000, -0.0000000000000000000, -0.0000000000000000000 ) ) ;
#132 = ADVANCED_FACE ( 'NONE', ( #233 ), #57, .T. ) ;
#133 = PERSON_AND_ORGANIZATION ( #143, #278 ) ;
#134 = EDGE_LOOP ( 'NONE', ( #48, #124, #190, #51 ) ) ;
#135 = PLANE ( 'NONE',  #43 ) ;
#136 = CARTESIAN_POINT ( 'NONE',  ( 4.147818029919217500E-029, 0.0000000000000000000, 99.00000000000000000 ) ) ;
#137 = PLANE ( 'NONE',  #121 ) ;
#138 = EDGE_CURVE ( 'NONE', #359, #140, #221, .T. ) ;
#139 = VECTOR ( 'NONE', #69, 1000.000000000000000 ) ;
#140 = VERTEX_POINT ( 'NONE', #161 ) ;
#141 = FACE_OUTER_BOUND ( 'NONE', #107, .T. ) ;
#142 = CARTESIAN_POINT ( 'NONE',  ( 1042.500000000000000, -16.14999999999999900, -1.700000000000056600 ) ) ;
#143 = PERSON ( 'UNSPECIFIED', 'UNSPECIFIED', 'UNSPECIFIED', ('UNSPECIFIED'), ('UNSPECIFIED'), ('UNSPECIFIED') ) ;
#144 = DIRECTION ( 'NONE',  ( -1.000000000000000000, 1.231362467360036000E-016, -8.758115402030106700E-047 ) ) ;
#145 = MANIFOLD_SOLID_BREP ( 'Áîáûøêà-Âûòÿíóòü1', #352 ) ;
#146 = ORIENTED_EDGE ( 'NONE', *, *, #153, .T. ) ;
#147 = LINE ( 'NONE', #346, #206 ) ;
#148 = ORIENTED_EDGE ( 'NONE', *, *, #98, .T. ) ;
#149 = ORIENTED_EDGE ( 'NONE', *, *, #216, .F. ) ;
#150 = LOCAL_TIME ( 11, 16, 46.00000000000000000, #220 ) ;
#151 = APPLICATION_CONTEXT ( 'configuration controlled 3d designs of mechanical parts and assemblies' ) ;
#152 = FACE_OUTER_BOUND ( 'NONE', #8, .T. ) ;
#153 = EDGE_CURVE ( 'NONE', #205, #182, #4, .T. ) ;
#154 = APPROVAL_STATUS ( 'not_yet_approved' ) ;
#155 = DIRECTION ( 'NONE',  ( 0.0000000000000000000, -1.000000000000000000, 3.437222986455592900E-015 ) ) ;
#156 = ORIENTED_EDGE ( 'NONE', *, *, #223, .F. ) ;
#157 = DIRECTION ( 'NONE',  ( -0.0000000000000000000, -0.0000000000000000000, -1.000000000000000000 ) ) ;
#158 = ADVANCED_FACE ( 'NONE', ( #152 ), #200, .F. ) ;
#159 = DIRECTION ( 'NONE',  ( 0.0000000000000000000, 1.000000000000000000, -3.437222986455592900E-015 ) ) ;
#160 = DIRECTION ( 'NONE',  ( 0.0000000000000000000, 1.000000000000000000, -3.437222986455592900E-015 ) ) ;
#161 = CARTESIAN_POINT ( 'NONE',  ( -1042.500000000000000, 0.7000000000000086200, 99.70000000000001700 ) ) ;
#162 = DIRECTION ( 'NONE',  ( 1.000000000000000000, -1.477758086569391400E-045, -4.232467377468589100E-031 ) ) ;
#163 = CALENDAR_DATE ( 2016, 14, 3 ) ;
#164 = VECTOR ( 'NONE', #73, 1000.000000000000000 ) ;
#165 = PERSON_AND_ORGANIZATION ( #143, #278 ) ;
#166 = LINE ( 'NONE', #119, #308 ) ;
#167 = CARTESIAN_POINT ( 'NONE',  ( -1.988650384786442300E-015, -16.14999999999987400, 99.00000000000005700 ) ) ;
#168 = DIRECTION ( 'NONE',  ( -0.0000000000000000000, 0.0000000000000000000, -1.000000000000000000 ) ) ;
#169 = EDGE_CURVE ( 'NONE', #285, #205, #218, .T. ) ;
#170 = DIRECTION ( 'NONE',  ( 1.000000000000000000, 0.0000000000000000000, -0.0000000000000000000 ) ) ;
#171 = VECTOR ( 'NONE', #111, 1000.000000000000000 ) ;
#172 = CARTESIAN_POINT ( 'NONE',  ( 1042.500000000000000, 0.6999999999999999600, 98.00000000000000000 ) ) ;
#173 = COORDINATED_UNIVERSAL_TIME_OFFSET ( 3, 0, .AHEAD. ) ;
#174 = LINE ( 'NONE', #199, #313 ) ;
#175 = ORIENTED_EDGE ( 'NONE', *, *, #254, .T. ) ;
#176 = EDGE_CURVE ( 'NONE', #246, #290, #365, .T. ) ;
#177 = APPROVAL_STATUS ( 'not_yet_approved' ) ;
#178 = LINE ( 'NONE', #353, #257 ) ;
#179 = CARTESIAN_POINT ( 'NONE',  ( 0.0000000000000000000, -3.851859888774471700E-031, -1.000000000000000000 ) ) ;
#180 = DIRECTION ( 'NONE',  ( 0.0000000000000000000, 0.0000000000000000000, -1.000000000000000000 ) ) ;
#181 = DESIGN_CONTEXT ( 'detailed design', #151, 'design' ) ;
#182 = VERTEX_POINT ( 'NONE', #265 ) ;
#183 = CARTESIAN_POINT ( 'NONE',  ( -1042.500000000000000, -16.14999999999999900, -1.700000000000056600 ) ) ;
#184 = LOCAL_TIME ( 11, 16, 46.00000000000000000, #260 ) ;
#185 = VECTOR ( 'NONE', #225, 1000.000000000000000 ) ;
#186 = PLANE ( 'NONE',  #80 ) ;
#187 = DIRECTION ( 'NONE',  ( 0.0000000000000000000, -3.491481338843133400E-015, -1.000000000000000000 ) ) ;
#188 = EDGE_CURVE ( 'NONE', #246, #41, #147, .T. ) ;
#189 = LINE ( 'NONE', #240, #264 ) ;
#190 = ORIENTED_EDGE ( 'NONE', *, *, #79, .T. ) ;
#191 = AXIS2_PLACEMENT_3D ( 'NONE', #245, #113, #289 ) ;
#192 = CALENDAR_DATE ( 2016, 14, 3 ) ;
#193 = ORIENTED_EDGE ( 'NONE', *, *, #138, .F. ) ;
#194 = EDGE_CURVE ( 'NONE', #41, #64, #292, .T. ) ;
#195 = DIRECTION ( 'NONE',  ( -0.0000000000000000000, 1.000000000000000000, 3.491481338843133700E-015 ) ) ;
#196 = PLANE ( 'NONE',  #316 ) ;
#197 = ORIENTED_EDGE ( 'NONE', *, *, #37, .F. ) ;
#198 = LINE ( 'NONE', #9, #335 ) ;
#199 = CARTESIAN_POINT ( 'NONE',  ( -1042.500000000000000, -16.14999999999999900, -1.700000000000056600 ) ) ;
#200 = PLANE ( 'NONE',  #295 ) ;
#201 = PERSON_AND_ORGANIZATION ( #143, #278 ) ;
#202 = ORIENTED_EDGE ( 'NONE', *, *, #117, .T. ) ;
#203 =( NAMED_UNIT ( * ) PLANE_ANGLE_UNIT ( ) SI_UNIT ( $, .RADIAN. ) );
#204 = PERSON_AND_ORGANIZATION_ROLE ( 'creator' ) ;
#205 = VERTEX_POINT ( 'NONE', #102 ) ;
#206 = VECTOR ( 'NONE', #209, 1000.000000000000000 ) ;
#207 = EDGE_CURVE ( 'NONE', #355, #182, #345, .T. ) ;
#208 = DIRECTION ( 'NONE',  ( 0.0000000000000000000, 3.491481338843133700E-015, -1.000000000000000000 ) ) ;
#209 = DIRECTION ( 'NONE',  ( -0.0000000000000000000, -0.0000000000000000000, -1.000000000000000000 ) ) ;
#210 = CARTESIAN_POINT ( 'NONE',  ( 4.147818029919217500E-029, 3.392918896098382900E-013, 99.70000000000001700 ) ) ;
#211 = CC_DESIGN_PERSON_AND_ORGANIZATION_ASSIGNMENT ( #201, #314, ( #85 ) ) ;
#212 = ORIENTED_EDGE ( 'NONE', *, *, #17, .T. ) ;
#213 = DIRECTION ( 'NONE',  ( 0.0000000000000000000, 1.000000000000000000, -3.437222986455592900E-015 ) ) ;
#214 = ADVANCED_FACE ( 'NONE', ( #60 ), #266, .F. ) ;
#215 = CARTESIAN_POINT ( 'NONE',  ( -1043.489949493661200, 0.7000000000000001800, -1.700000000000000200 ) ) ;
#216 = EDGE_CURVE ( 'NONE', #64, #355, #130, .T. ) ;
#217 = DIRECTION ( 'NONE',  ( 0.0000000000000000000, -0.0000000000000000000, -1.000000000000000000 ) ) ;
#218 = LINE ( 'NONE', #101, #78 ) ;
#219 = ORIENTED_EDGE ( 'NONE', *, *, #37, .T. ) ;
#220 = COORDINATED_UNIVERSAL_TIME_OFFSET ( 3, 0, .AHEAD. ) ;
#221 = LINE ( 'NONE', #104, #164 ) ;
#222 = DIRECTION ( 'NONE',  ( -0.0000000000000000000, -1.000000000000000000, 3.437222986455592900E-015 ) ) ;
#223 = EDGE_CURVE ( 'NONE', #140, #19, #198, .T. ) ;
#224 = VERTEX_POINT ( 'NONE', #44 ) ;
#225 = DIRECTION ( 'NONE',  ( 0.0000000000000000000, -3.491481338843133400E-015, -1.000000000000000000 ) ) ;
#226 = CARTESIAN_POINT ( 'NONE',  ( 1042.500000000000000, -16.14999999999999900, 99.70000000000006000 ) ) ;
#227 = PRODUCT_DEFINITION ( 'UNKNOWN', '', #321, #181 ) ;
#228 = APPROVAL ( #154, 'UNSPECIFIED' ) ;
#229 = CARTESIAN_POINT ( 'NONE',  ( -1042.500000000000000, 0.7000000000000001800, -1.700000000000000200 ) ) ;
#230 = ADVANCED_BREP_SHAPE_REPRESENTATION ( 'CLP1K-100-1-2 ¦¨v°úð ýð ûþªþú þ¸ý. 100 üü. ôûøýð (2 üõª¨ð)', ( #145, #191 ), #103 ) ;
#231 = EDGE_CURVE ( 'NONE', #129, #281, #50, .T. ) ;
#232 = LOCAL_TIME ( 11, 16, 46.00000000000000000, #306 ) ;
#233 = FACE_OUTER_BOUND ( 'NONE', #62, .T. ) ;
#234 = APPROVAL_STATUS ( 'not_yet_approved' ) ;
#235 = CARTESIAN_POINT ( 'NONE',  ( 1042.500000000000000, 3.368478526726481200E-013, 99.00000000000000000 ) ) ;
#236 = ORIENTED_EDGE ( 'NONE', *, *, #138, .T. ) ;
#237 = CARTESIAN_POINT ( 'NONE',  ( 0.0000000000000000000, -16.15000000000000200, -1.000000000000056400 ) ) ;
#238 = CARTESIAN_POINT ( 'NONE',  ( -1042.500000000000000, 0.0000000000000000000, -1.000000000000000000 ) ) ;
#239 = ADVANCED_FACE ( 'NONE', ( #356 ), #319, .F. ) ;
#240 = CARTESIAN_POINT ( 'NONE',  ( 1042.500000000000000, 0.6999999999999999600, 98.00000000000000000 ) ) ;
#241 = CARTESIAN_POINT ( 'NONE',  ( -1042.500000000000000, 5.127050073817025300E-016, 99.00000000000000000 ) ) ;
#242 = APPROVAL_DATE_TIME ( #312, #336 ) ;
#243 = LINE ( 'NONE', #86, #94 ) ;
#244 = DIRECTION ( 'NONE',  ( 1.000000000000000000, 0.0000000000000000000, 0.0000000000000000000 ) ) ;
#245 = CARTESIAN_POINT ( 'NONE',  ( 0.0000000000000000000, 0.0000000000000000000, 0.0000000000000000000 ) ) ;
#246 = VERTEX_POINT ( 'NONE', #348 ) ;
#247 = VECTOR ( 'NONE', #108, 1000.000000000000000 ) ;
#248 = ORIENTED_EDGE ( 'NONE', *, *, #327, .F. ) ;
#249 = APPROVAL ( #177, 'UNSPECIFIED' ) ;
#250 = CC_DESIGN_APPROVAL ( #228, ( #56 ) ) ;
#251 = ORIENTED_EDGE ( 'NONE', *, *, #309, .T. ) ;
#252 = APPROVAL_PERSON_ORGANIZATION ( #323, #336, #66 ) ;
#253 = VECTOR ( 'NONE', #222, 1000.000000000000000 ) ;
#254 = EDGE_CURVE ( 'NONE', #224, #53, #189, .T. ) ;
#255 = CARTESIAN_POINT ( 'NONE',  ( 0.0000000000000000000, 0.0000000000000000000, -1.000000000000000000 ) ) ;
#256 = DIRECTION ( 'NONE',  ( 0.0000000000000000000, 1.000000000000000000, 3.491481338843133700E-015 ) ) ;
#257 = VECTOR ( 'NONE', #297, 1000.000000000000000 ) ;
#258 = AXIS2_PLACEMENT_3D ( 'NONE', #23, #326, #298 ) ;
#259 = DIRECTION ( 'NONE',  ( 0.0000000000000000000, 3.491481338843133700E-015, -1.000000000000000000 ) ) ;
#260 = COORDINATED_UNIVERSAL_TIME_OFFSET ( 3, 0, .AHEAD. ) ;
#261 = FACE_OUTER_BOUND ( 'NONE', #338, .T. ) ;
#262 = PERSON_AND_ORGANIZATION_ROLE ( 'creator' ) ;
#263 = ORIENTED_EDGE ( 'NONE', *, *, #207, .T. ) ;
#264 = VECTOR ( 'NONE', #106, 1000.000000000000000 ) ;
#265 = CARTESIAN_POINT ( 'NONE',  ( 1042.500000000000000, -16.15000000000000200, -1.000000000000056400 ) ) ;
#266 = PLANE ( 'NONE',  #330 ) ;
#267 = ADVANCED_FACE ( 'NONE', ( #40 ), #135, .T. ) ;
#268 = CC_DESIGN_APPROVAL ( #249, ( #227 ) ) ;
#269 = LOCAL_TIME ( 11, 16, 46.00000000000000000, #337 ) ;
#270 = CC_DESIGN_SECURITY_CLASSIFICATION ( #56, ( #321 ) ) ;
#271 = ORIENTED_EDGE ( 'NONE', *, *, #58, .T. ) ;
#272 = CARTESIAN_POINT ( 'NONE',  ( 1042.500000000000000, -16.15000000000000200, 99.00000000000005700 ) ) ;
#273 = EDGE_CURVE ( 'NONE', #359, #129, #178, .T. ) ;
#274 = CARTESIAN_POINT ( 'NONE',  ( 1042.500000000000000, 2.444036937190193300E-015, -1.700000000000000200 ) ) ;
#275 = DIRECTION ( 'NONE',  ( 0.0000000000000000000, -1.000000000000000000, -3.491481338843133700E-015 ) ) ;
#276 = ORIENTED_EDGE ( 'NONE', *, *, #169, .T. ) ;
#277 = VECTOR ( 'NONE', #131, 1000.000000000000000 ) ;
#278 = ORGANIZATION ( 'UNSPECIFIED', 'UNSPECIFIED', '' ) ;
#279 = ORIENTED_EDGE ( 'NONE', *, *, #194, .T. ) ;
#280 = DIRECTION ( 'NONE',  ( 0.0000000000000000000, 3.491481338843133400E-015, -1.000000000000000000 ) ) ;
#281 = VERTEX_POINT ( 'NONE', #241 ) ;
#282 = VECTOR ( 'NONE', #42, 1000.000000000000000 ) ;
#283 = AXIS2_PLACEMENT_3D ( 'NONE', #61, #259, #256 ) ;
#284 = ORIENTED_EDGE ( 'NONE', *, *, #327, .T. ) ;
#285 = VERTEX_POINT ( 'NONE', #183 ) ;
#286 = CC_DESIGN_PERSON_AND_ORGANIZATION_ASSIGNMENT ( #331, #204, ( #227 ) ) ;
#287 = PRODUCT_RELATED_PRODUCT_CATEGORY ( 'detail', '', ( #85 ) ) ;
#288 = EDGE_CURVE ( 'NONE', #19, #53, #114, .T. ) ;
#289 = DIRECTION ( 'NONE',  ( 1.000000000000000000, 0.0000000000000000000, 0.0000000000000000000 ) ) ;
#290 = VERTEX_POINT ( 'NONE', #272 ) ;
#291 = APPROVAL_DATE_TIME ( #364, #228 ) ;
#292 = LINE ( 'NONE', #179, #282 ) ;
#293 = SECURITY_CLASSIFICATION_LEVEL ( 'unclassified' ) ;
#294 = DIRECTION ( 'NONE',  ( 1.000000000000000000, 0.0000000000000000000, 0.0000000000000000000 ) ) ;
#295 = AXIS2_PLACEMENT_3D ( 'NONE', #255, #208, #39 ) ;
#296 = CARTESIAN_POINT ( 'NONE',  ( -1042.500000000000000, 3.368478526726481200E-013, 99.00000000000000000 ) ) ;
#297 = DIRECTION ( 'NONE',  ( 0.0000000000000000000, -3.491481338843133400E-015, -1.000000000000000000 ) ) ;
#298 = DIRECTION ( 'NONE',  ( 0.0000000000000000000, 0.0000000000000000000, 1.000000000000000000 ) ) ;
#299 = CARTESIAN_POINT ( 'NONE',  ( -1042.500000000000000, -16.15000000000000200, -1.000000000000056400 ) ) ;
#300 = ORIENTED_EDGE ( 'NONE', *, *, #153, .F. ) ;
#301 = APPROVAL_PERSON_ORGANIZATION ( #3, #228, #344 ) ;
#302 = VECTOR ( 'NONE', #112, 1000.000000000000000 ) ;
#303 = ORIENTED_EDGE ( 'NONE', *, *, #176, .T. ) ;
#304 = LINE ( 'NONE', #18, #369 ) ;
#305 = CC_DESIGN_DATE_AND_TIME_ASSIGNMENT ( #33, #38, ( #227 ) ) ;
#306 = COORDINATED_UNIVERSAL_TIME_OFFSET ( 3, 0, .AHEAD. ) ;
#307 = DIRECTION ( 'NONE',  ( 0.0000000000000000000, -1.000000000000000000, -3.491481338843133400E-015 ) ) ;
#308 = VECTOR ( 'NONE', #195, 1000.000000000000000 ) ;
#309 = EDGE_CURVE ( 'NONE', #281, #246, #318, .T. ) ;
#310 = ORIENTED_EDGE ( 'NONE', *, *, #169, .F. ) ;
#311 = LINE ( 'NONE', #274, #171 ) ;
#312 = DATE_AND_TIME ( #22, #109 ) ;
#313 = VECTOR ( 'NONE', #90, 1000.000000000000000 ) ;
#314 = PERSON_AND_ORGANIZATION_ROLE ( 'design_owner' ) ;
#315 = DATE_TIME_ROLE ( 'classification_date' ) ;
#316 = AXIS2_PLACEMENT_3D ( 'NONE', #172, #170, #168 ) ;
#317 = ORIENTED_EDGE ( 'NONE', *, *, #309, .F. ) ;
#318 = LINE ( 'NONE', #136, #28 ) ;
#319 = PLANE ( 'NONE',  #368 ) ;
#320 = ADVANCED_FACE ( 'NONE', ( #329 ), #186, .T. ) ;
#321 = PRODUCT_DEFINITION_FORMATION_WITH_SPECIFIED_SOURCE ( 'ANY', '', #85, .NOT_KNOWN. ) ;
#322 = DIRECTION ( 'NONE',  ( -4.232467377468589100E-031, -3.437222986455592900E-015, -1.000000000000000000 ) ) ;
#323 = PERSON_AND_ORGANIZATION ( #143, #278 ) ;
#324 = VECTOR ( 'NONE', #29, 1000.000000000000000 ) ;
#325 = CARTESIAN_POINT ( 'NONE',  ( -1042.500000000000000, 0.0000000000000000000, 98.00000000000000000 ) ) ;
#326 = DIRECTION ( 'NONE',  ( -1.000000000000000000, 0.0000000000000000000, 0.0000000000000000000 ) ) ;
#327 = EDGE_CURVE ( 'NONE', #205, #53, #311, .T. ) ;
#328 = CARTESIAN_POINT ( 'NONE',  ( 1042.500000000000000, -16.14999999999999900, 99.70000000000006000 ) ) ;
#329 = FACE_OUTER_BOUND ( 'NONE', #16, .T. ) ;
#330 = AXIS2_PLACEMENT_3D ( 'NONE', #68, #347, #180 ) ;
#331 = PERSON_AND_ORGANIZATION ( #143, #278 ) ;
#332 = ORIENTED_EDGE ( 'NONE', *, *, #362, .T. ) ;
#333 = CARTESIAN_POINT ( 'NONE',  ( 1042.500000000000000, -16.14999999999999900, -1.700000000000056600 ) ) ;
#334 = ORIENTED_EDGE ( 'NONE', *, *, #288, .F. ) ;
#335 = VECTOR ( 'NONE', #157, 1000.000000000000000 ) ;
#336 = APPROVAL ( #234, 'UNSPECIFIED' ) ;
#337 = COORDINATED_UNIVERSAL_TIME_OFFSET ( 3, 0, .AHEAD. ) ;
#338 = EDGE_LOOP ( 'NONE', ( #363, #70, #300, #284, #35, #219, #212, #84 ) ) ;
#339 = ORIENTED_EDGE ( 'NONE', *, *, #231, .F. ) ;
#340 = CARTESIAN_POINT ( 'NONE',  ( 1042.500000000000000, 2.444036937190193300E-015, 99.70000000000001700 ) ) ;
#341 = EDGE_CURVE ( 'NONE', #140, #224, #87, .T. ) ;
#342 = APPLICATION_PROTOCOL_DEFINITION ( 'international standard', 'config_control_design', 1994, #151 ) ;
#343 = ORIENTED_EDGE ( 'NONE', *, *, #288, .T. ) ;
#344 = APPROVAL_ROLE ( '' ) ;
#345 = LINE ( 'NONE', #237, #277 ) ;
#346 = CARTESIAN_POINT ( 'NONE',  ( 1042.500000000000000, 0.0000000000000000000, 98.00000000000000000 ) ) ;
#347 = DIRECTION ( 'NONE',  ( 0.0000000000000000000, -1.000000000000000000, 0.0000000000000000000 ) ) ;
#348 = CARTESIAN_POINT ( 'NONE',  ( 1042.500000000000000, 0.0000000000000000000, 99.00000000000000000 ) ) ;
#349 = ADVANCED_FACE ( 'NONE', ( #20 ), #137, .T. ) ;
#350 = SHAPE_DEFINITION_REPRESENTATION ( #55, #230 ) ;
#351 = EDGE_LOOP ( 'NONE', ( #175, #334, #156, #92 ) ) ;
#352 = CLOSED_SHELL ( 'NONE', ( #214, #132, #320, #45, #105, #10, #158, #349, #239, #267 ) ) ;
#353 = CARTESIAN_POINT ( 'NONE',  ( -1042.500000000000000, -16.14999999999973900, 99.70000000000006000 ) ) ;
#354 = DIRECTION ( 'NONE',  ( -1.231362467360036000E-016, -1.000000000000000000, 3.491481338843133400E-015 ) ) ;
#355 = VERTEX_POINT ( 'NONE', #299 ) ;
#356 = FACE_OUTER_BOUND ( 'NONE', #65, .T. ) ;
#357 = AXIS2_PLACEMENT_3D ( 'NONE', #333, #307, #280 ) ;
#358 = ORIENTED_EDGE ( 'NONE', *, *, #207, .F. ) ;
#359 = VERTEX_POINT ( 'NONE', #49 ) ;
#360 = CC_DESIGN_APPROVAL ( #336, ( #321 ) ) ;
#361 = PLANE ( 'NONE',  #357 ) ;
#362 = EDGE_CURVE ( 'NONE', #19, #285, #304, .T. ) ;
#363 = ORIENTED_EDGE ( 'NONE', *, *, #188, .T. ) ;
#364 = DATE_AND_TIME ( #77, #150 ) ;
#365 = LINE ( 'NONE', #235, #67 ) ;
#366 = PLANE ( 'NONE',  #283 ) ;
#367 = ORIENTED_EDGE ( 'NONE', *, *, #58, .F. ) ;
#368 = AXIS2_PLACEMENT_3D ( 'NONE', #210, #11, #213 ) ;
#369 = VECTOR ( 'NONE', #275, 1000.000000000000000 ) ;
ENDSEC;
END-ISO-10303-21;
