  0
SECTION
  2
HEADER
  9
$ACADVER
  1
AC1032
  9
$ACADMAINTVER
 90
       55
  9
$DWGCODEPAGE
  3
ANSI_1251
  9
$LASTSAVEDBY
  1
rachkov
  9
$REQUIREDVERSIONS
160
                 0
  9
$INSBASE
 10
0.0
 20
0.0
 30
0.0
  9
$EXTMIN
 10
0.0
 20
0.0
 30
0.0
  9
$EXTMAX
 10
90.0
 20
110.0
 30
0.0
  9
$LIMMIN
 10
0.0
 20
0.0
  9
$LIMMAX
 10
90.0
 20
110.0
  9
$ORTHOMODE
 70
     0
  9
$REGENMODE
 70
     1
  9
$FILLMODE
 70
     1
  9
$QTEXTMODE
 70
     0
  9
$MIRRTEXT
 70
     1
  9
$LTSCALE
 40
1.0
  9
$ATTMODE
 70
     1
  9
$TEXTSIZE
 40
2.47
  9
$TRACEWID
 40
1.0
  9
$TEXTSTYLE
  7
STANDARD
  9
$CLAYER
  8
0
  9
$CELTYPE
  6
ByLayer
  9
$CECOLOR
 62
   256
  9
$CELTSCALE
 40
1.0
  9
$DISPSILH
 70
     0
  9
$DIMSCALE
 40
1.0
  9
$DIMASZ
 40
2.0
  9
$DIMEXO
 40
0.0
  9
$DIMDLI
 40
3.75
  9
$DIMRND
 40
0.0
  9
$DIMDLE
 40
0.0
  9
$DIMEXE
 40
1.0
  9
$DIMTP
 40
0.0
  9
$DIMTM
 40
0.0
  9
$DIMTXT
 40
2.47
  9
$DIMCEN
 40
2.5
  9
$DIMTSZ
 40
0.0
  9
$DIMTOL
 70
     0
  9
$DIMLIM
 70
     0
  9
$DIMTIH
 70
     1
  9
$DIMTOH
 70
     1
  9
$DIMSE1
 70
     0
  9
$DIMSE2
 70
     0
  9
$DIMTAD
 70
     1
  9
$DIMZIN
 70
     0
  9
$DIMBLK
  1

  9
$DIMASO
 70
     1
  9
$DIMSHO
 70
     1
  9
$DIMPOST
  1

  9
$DIMAPOST
  1

  9
$DIMALT
 70
     0
  9
$DIMALTD
 70
     3
  9
$DIMALTF
 40
0.0393700787
  9
$DIMLFAC
 40
1.0
  9
$DIMTOFL
 70
     1
  9
$DIMTVP
 40
0.0
  9
$DIMTIX
 70
     0
  9
$DIMSOXD
 70
     0
  9
$DIMSAH
 70
     0
  9
$DIMBLK1
  1

  9
$DIMBLK2
  1

  9
$DIMSTYLE
  2
ISO-25
  9
$DIMCLRD
 70
     0
  9
$DIMCLRE
 70
     0
  9
$DIMCLRT
 70
     0
  9
$DIMTFAC
 40
1.0
  9
$DIMGAP
 40
2.0
  9
$DIMJUST
 70
     0
  9
$DIMSD1
 70
     0
  9
$DIMSD2
 70
     0
  9
$DIMTOLJ
 70
     0
  9
$DIMTZIN
 70
     0
  9
$DIMALTZ
 70
     0
  9
$DIMALTTZ
 70
     0
  9
$DIMUPT
 70
     0
  9
$DIMDEC
 70
     1
  9
$DIMTDEC
 70
     1
  9
$DIMALTU
 70
     2
  9
$DIMALTTD
 70
     3
  9
$DIMTXSTY
  7
STANDARD
  9
$DIMAUNIT
 70
     0
  9
$DIMADEC
 70
     1
  9
$DIMALTRND
 40
0.0
  9
$DIMAZIN
 70
     0
  9
$DIMDSEP
 70
    44
  9
$DIMATFIT
 70
     3
  9
$DIMFRAC
 70
     0
  9
$DIMLDRBLK
  1

  9
$DIMLUNIT
 70
     2
  9
$DIMLWD
 70
    -2
  9
$DIMLWE
 70
    -2
  9
$DIMTMOVE
 70
     0
  9
$DIMFXL
 40
1.0
  9
$DIMFXLON
 70
     0
  9
$DIMJOGANG
 40
0.7853981634
  9
$DIMTFILL
 70
     0
  9
$DIMTFILLCLR
 70
     0
  9
$DIMARCSYM
 70
     0
  9
$DIMLTYPE
  6

  9
$DIMLTEX1
  6

  9
$DIMLTEX2
  6

  9
$DIMTXTDIRECTION
 70
     0
  9
$LUNITS
 70
     2
  9
$LUPREC
 70
     1
  9
$SKETCHINC
 40
1.0
  9
$FILLETRAD
 40
0.0
  9
$AUNITS
 70
     0
  9
$AUPREC
 70
     1
  9
$MENU
  1
.
  9
$ELEVATION
 40
0.0
  9
$PELEVATION
 40
0.0
  9
$THICKNESS
 40
0.0
  9
$LIMCHECK
 70
     0
  9
$CHAMFERA
 40
0.0
  9
$CHAMFERB
 40
0.0
  9
$CHAMFERC
 40
0.0
  9
$CHAMFERD
 40
0.0
  9
$SKPOLY
 70
     0
  9
$TDCREATE
 40
2460716.948571505
  9
$TDUCREATE
 40
2460716.823571505
  9
$TDUPDATE
 40
2460716.948572176
  9
$TDUUPDATE
 40
2460716.823572176
  9
$TDINDWG
 40
0.0000000116
  9
$TDUSRTIMER
 40
0.0000000116
  9
$USRTIMER
 70
     1
  9
$ANGBASE
 50
0.0
  9
$ANGDIR
 70
     0
  9
$PDMODE
 70
     0
  9
$PDSIZE
 40
-1.0
  9
$PLINEWID
 40
0.0
  9
$SPLFRAME
 70
     0
  9
$SPLINETYPE
 70
     6
  9
$SPLINESEGS
 70
     8
  9
$HANDSEED
  5
22D
  9
$SURFTAB1
 70
     6
  9
$SURFTAB2
 70
     6
  9
$SURFTYPE
 70
     6
  9
$SURFU
 70
     6
  9
$SURFV
 70
     6
  9
$UCSBASE
  2

  9
$UCSNAME
  2

  9
$UCSORG
 10
0.0
 20
0.0
 30
0.0
  9
$UCSXDIR
 10
1.0
 20
0.0
 30
0.0
  9
$UCSYDIR
 10
0.0
 20
1.0
 30
0.0
  9
$UCSORTHOREF
  2

  9
$UCSORTHOVIEW
 70
     0
  9
$UCSORGTOP
 10
0.0
 20
0.0
 30
0.0
  9
$UCSORGBOTTOM
 10
0.0
 20
0.0
 30
0.0
  9
$UCSORGLEFT
 10
0.0
 20
0.0
 30
0.0
  9
$UCSORGRIGHT
 10
0.0
 20
0.0
 30
0.0
  9
$UCSORGFRONT
 10
0.0
 20
0.0
 30
0.0
  9
$UCSORGBACK
 10
0.0
 20
0.0
 30
0.0
  9
$PUCSBASE
  2

  9
$PUCSNAME
  2

  9
$PUCSORG
 10
0.0
 20
0.0
 30
0.0
  9
$PUCSXDIR
 10
1.0
 20
0.0
 30
0.0
  9
$PUCSYDIR
 10
0.0
 20
1.0
 30
0.0
  9
$PUCSORTHOREF
  2

  9
$PUCSORTHOVIEW
 70
     0
  9
$PUCSORGTOP
 10
0.0
 20
0.0
 30
0.0
  9
$PUCSORGBOTTOM
 10
0.0
 20
0.0
 30
0.0
  9
$PUCSORGLEFT
 10
0.0
 20
0.0
 30
0.0
  9
$PUCSORGRIGHT
 10
0.0
 20
0.0
 30
0.0
  9
$PUCSORGFRONT
 10
0.0
 20
0.0
 30
0.0
  9
$PUCSORGBACK
 10
0.0
 20
0.0
 30
0.0
  9
$USERI1
 70
     0
  9
$USERI2
 70
     0
  9
$USERI3
 70
     0
  9
$USERI4
 70
     0
  9
$USERI5
 70
     0
  9
$USERR1
 40
0.0
  9
$USERR2
 40
0.0
  9
$USERR3
 40
0.0
  9
$USERR4
 40
0.0
  9
$USERR5
 40
0.0
  9
$WORLDVIEW
 70
     1
  9
$SHADEDGE
 70
     3
  9
$SHADEDIF
 70
    70
  9
$TILEMODE
 70
     1
  9
$MAXACTVP
 70
    64
  9
$PINSBASE
 10
0.0
 20
0.0
 30
0.0
  9
$PLIMCHECK
 70
     0
  9
$PEXTMIN
 10
1.0000000000E+20
 20
1.0000000000E+20
 30
1.0000000000E+20
  9
$PEXTMAX
 10
-1.0000000000E+20
 20
-1.0000000000E+20
 30
-1.0000000000E+20
  9
$PLIMMIN
 10
0.0
 20
0.0
  9
$PLIMMAX
 10
420.0
 20
297.0
  9
$UNITMODE
 70
     0
  9
$VISRETAIN
 70
     1
  9
$PLINEGEN
 70
     0
  9
$PSLTSCALE
 70
     1
  9
$TREEDEPTH
 70
  3020
  9
$CMLSTYLE
  2
Standard
  9
$CMLJUST
 70
     0
  9
$CMLSCALE
 40
20.0
  9
$PROXYGRAPHICS
 70
     1
  9
$MEASUREMENT
 70
     1
  9
$CELWEIGHT
370
    -1
  9
$ENDCAPS
280
     0
  9
$JOINSTYLE
280
     0
  9
$LWDISPLAY
290
     1
  9
$INSUNITS
 70
     4
  9
$HYPERLINKBASE
  1

  9
$STYLESHEET
  1

  9
$XEDIT
290
     1
  9
$CEPSNTYPE
380
     0
  9
$PSTYLEMODE
290
     1
  9
$FINGERPRINTGUID
  2
{4871ca14-735b-4ef2-9a09-4f85d6c5836e}
  9
$VERSIONGUID
  2
{FAEB1C32-E019-11D5-929B-00C0DF256EC4}
  9
$EXTNAMES
290
     1
  9
$PSVPSCALE
 40
0.0
  9
$OLESTARTUP
290
     0
  9
$SORTENTS
280
   127
  9
$INDEXCTL
280
     0
  9
$HIDETEXT
280
     1
  9
$XCLIPFRAME
280
     2
  9
$HALOGAP
280
     0
  9
$OBSCOLOR
 70
   257
  9
$OBSLTYPE
280
     0
  9
$INTERSECTIONDISPLAY
280
     0
  9
$INTERSECTIONCOLOR
 70
   257
  9
$DIMASSOC
280
     2
  9
$PROJECTNAME
  1

  9
$CAMERADISPLAY
290
     0
  9
$LENSLENGTH
 40
50.0
  9
$CAMERAHEIGHT
 40
0.0
  9
$STEPSPERSEC
 40
2.0
  9
$STEPSIZE
 40
6.0
  9
$3DDWFPREC
 40
2.0
  9
$PSOLWIDTH
 40
5.0
  9
$PSOLHEIGHT
 40
80.0
  9
$LOFTANG1
 40
1.5707963268
  9
$LOFTANG2
 40
1.5707963268
  9
$LOFTMAG1
 40
0.0
  9
$LOFTMAG2
 40
0.0
  9
$LOFTPARAM
 70
     7
  9
$LOFTNORMALS
280
     1
  9
$LATITUDE
 40
37.795
  9
$LONGITUDE
 40
-122.394
  9
$NORTHDIRECTION
 40
0.0
  9
$TIMEZONE
 70
 -8000
  9
$LIGHTGLYPHDISPLAY
280
     1
  9
$TILEMODELIGHTSYNCH
280
     1
  9
$CMATERIAL
347
44
  9
$SOLIDHIST
280
     0
  9
$SHOWHIST
280
     1
  9
$DWFFRAME
280
     2
  9
$DGNFRAME
280
     2
  9
$REALWORLDSCALE
290
     1
  9
$INTERFERECOLOR
 62
   256
  9
$CSHADOW
280
     0
  9
$SHADOWPLANELOCATION
 40
0.0
  0
ENDSEC
  0
SECTION
  2
CLASSES
  0
CLASS
  1
ACDBDICTIONARYWDFLT
  2
AcDbDictionaryWithDefault
  3
ObjectDBX Classes
 90
        0
 91
        3
280
     0
281
     0
  0
CLASS
  1
VISUALSTYLE
  2
AcDbVisualStyle
  3
ObjectDBX Classes
 90
     4095
 91
        3
280
     0
281
     0
  0
CLASS
  1
MATERIAL
  2
AcDbMaterial
  3
ObjectDBX Classes
 90
     1153
 91
        3
280
     0
281
     0
  0
CLASS
  1
SCALE
  2
AcDbScale
  3
ObjectDBX Classes
 90
     1153
 91
        3
280
     0
281
     0
  0
CLASS
  1
TABLESTYLE
  2
AcDbTableStyle
  3
ObjectDBX Classes
 90
     4095
 91
        3
280
     0
281
     0
  0
CLASS
  1
MLEADERSTYLE
  2
AcDbMLeaderStyle
  3
ACDB_MLEADERSTYLE_CLASS
 90
     4095
 91
        3
280
     0
281
     0
  0
CLASS
  1
SUN
  2
AcDbSun
  3
SCENEOE
 90
     1153
 91
        3
280
     0
281
     0
  0
CLASS
  1
DICTIONARYVAR
  2
AcDbDictionaryVar
  3
ObjectDBX Classes
 90
        0
 91
        3
280
     0
281
     0
  0
CLASS
  1
CELLSTYLEMAP
  2
AcDbCellStyleMap
  3
ObjectDBX Classes
 90
     1152
 91
        3
280
     0
281
     0
  0
ENDSEC
  0
SECTION
  2
TABLES
  0
TABLE
  2
VPORT
  5
8
330
0
100
AcDbSymbolTable
 70
     1
  0
VPORT
  5
29
330
8
100
AcDbSymbolTableRecord
100
AcDbViewportTableRecord
  2
*Active
 70
     0
 10
0.0
 20
0.0
 11
1.0
 21
1.0
 12
45.0
 22
55.0
 13
0.0
 23
0.0
 14
10.0
 24
10.0
 15
10.0
 25
10.0
 16
0.0
 26
0.0
 36
1.0
 17
0.0
 27
0.0
 37
0.0
 40
110.0
 41
0.8181818182
 42
50.0
 43
0.0
 44
0.0
 50
0.0
 51
0.0
 71
     0
 72
  2000
 73
     1
 74
     3
 75
     0
 76
     0
 77
     0
 78
     0
281
     0
 65
     1
110
0.0
120
0.0
130
0.0
111
1.0
121
0.0
131
0.0
112
0.0
122
1.0
132
0.0
 79
     0
146
0.0
348
2F
 60
     3
 61
     5
292
     1
282
     1
141
0.0
142
0.0
 63
   250
361
5D
  0
ENDTAB
  0
TABLE
  2
LTYPE
  5
5
330
0
100
AcDbSymbolTable
 70
     8
  0
LTYPE
  5
14
330
5
100
AcDbSymbolTableRecord
100
AcDbLinetypeTableRecord
  2
ByBlock
 70
     0
  3

 72
    65
 73
     0
 40
0.0
  0
LTYPE
  5
15
330
5
100
AcDbSymbolTableRecord
100
AcDbLinetypeTableRecord
  2
ByLayer
 70
     0
  3

 72
    65
 73
     0
 40
0.0
  0
LTYPE
  5
16
330
5
100
AcDbSymbolTableRecord
100
AcDbLinetypeTableRecord
  2
Continuous
 70
     0
  3
Solid line
 72
    65
 73
     0
 40
0.0
  0
LTYPE
  5
5E
330
5
100
AcDbSymbolTableRecord
100
AcDbLinetypeTableRecord
  2
SLD-Сплошная
 70
     0
  3
SolidWorks Line Style
 72
    65
 73
     0
 40
0.0
  0
LTYPE
  5
5F
330
5
100
AcDbSymbolTableRecord
100
AcDbLinetypeTableRecord
  2
SLD-Штриховая
 70
     0
  3
SolidWorks Line Style
 72
    65
 73
     2
 40
1.905
 49
1.27
 74
     0
 49
-0.635
 74
     0
  0
LTYPE
  5
60
330
5
100
AcDbSymbolTableRecord
100
AcDbLinetypeTableRecord
  2
SLD-Штрихпункт.-с-двумя-точками
 70
     0
  3
SolidWorks Line Style
 72
    65
 73
     6
 40
12.7
 49
6.35
 74
     0
 49
-1.27
 74
     0
 49
1.27
 74
     0
 49
-1.27
 74
     0
 49
1.27
 74
     0
 49
-1.27
 74
     0
  0
LTYPE
  5
61
330
5
100
AcDbSymbolTableRecord
100
AcDbLinetypeTableRecord
  2
SLD-Штрихпункт.-утолщ.
 70
     0
  3
SolidWorks Line Style
 72
    65
 73
     4
 40
10.16
 49
6.35
 74
     0
 49
-1.27
 74
     0
 49
1.27
 74
     0
 49
-1.27
 74
     0
  0
LTYPE
  5
62
330
5
100
AcDbSymbolTableRecord
100
AcDbLinetypeTableRecord
  2
SLD-Осевая
 70
     0
  3
SolidWorks Line Style
 72
    65
 73
     4
 40
19.05
 49
15.24
 74
     0
 49
-1.27
 74
     0
 49
1.27
 74
     0
 49
-1.27
 74
     0
  0
LTYPE
  5
63
330
5
100
AcDbSymbolTableRecord
100
AcDbLinetypeTableRecord
  2
SLD-Сшитая
 70
     0
  3
SolidWorks Line Style
 72
    65
 73
     2
 40
0.635
 49
0.0
 74
     0
 49
-0.635
 74
     0
  0
LTYPE
  5
64
330
5
100
AcDbSymbolTableRecord
100
AcDbLinetypeTableRecord
  2
SLD-Тонкая-Толстая
 70
     0
  3
SolidWorks Line Style
 72
    65
 73
     4
 40
2.54
 49
0.0
 74
     0
 49
-1.27
 74
     0
 49
0.0
 74
     0
 49
-1.27
 74
     0
  0
ENDTAB
  0
TABLE
  2
LAYER
  5
2
330
0
100
AcDbSymbolTable
 70
     3
  0
LAYER
  5
10
330
2
100
AcDbSymbolTableRecord
100
AcDbLayerTableRecord
  2
0
 70
     0
 62
     7
  6
Continuous
370
    -3
390
F
347
46
348
0
  0
LAYER
  5
65
330
2
100
AcDbSymbolTableRecord
100
AcDbLayerTableRecord
  2
SLD-0
 70
     0
 62
     7
  6
SLD-Сплошная
370
    25
390
F
347
46
348
0
  0
LAYER
  5
66
330
2
100
AcDbSymbolTableRecord
100
AcDbLayerTableRecord
  2
OSNOVA
 70
     0
 62
     5
  6
SLD-Сплошная
370
    -3
390
F
347
46
348
0
  0
ENDTAB
  0
TABLE
  2
STYLE
  5
3
330
0
100
AcDbSymbolTable
 70
     1
  0
STYLE
  5
11
330
3
100
AcDbSymbolTableRecord
100
AcDbTextStyleTableRecord
  2
STANDARD
 70
     0
 40
0.0
 41
1.0
 50
0.0
 71
     0
 42
2.47
  3
GOST type A
  4

1001
ACAD
1000
GOST TYPE A
1071
 16777472
  0
ENDTAB
  0
TABLE
  2
VIEW
  5
6
330
0
100
AcDbSymbolTable
 70
     0
  0
ENDTAB
  0
TABLE
  2
UCS
  5
7
330
0
100
AcDbSymbolTable
 70
     0
  0
ENDTAB
  0
TABLE
  2
APPID
  5
9
330
0
100
AcDbSymbolTable
 70
     1
  0
APPID
  5
12
330
9
100
AcDbSymbolTableRecord
100
AcDbRegAppTableRecord
  2
ACAD
 70
     0
  0
ENDTAB
  0
TABLE
  2
DIMSTYLE
  5
A
330
0
100
AcDbSymbolTable
 70
     1
100
AcDbDimStyleTable
  0
DIMSTYLE
105
27
330
A
100
AcDbSymbolTableRecord
100
AcDbDimStyleTableRecord
  2
ISO-25
 70
     0
 41
2.5
 42
0.625
 43
3.75
 44
1.25
 73
     0
 74
     0
 77
     1
 78
     8
140
2.5
141
2.5
143
0.0393700787
147
0.625
171
     3
172
     1
178
     0
271
     2
272
     2
274
     3
278
    44
283
     0
284
     8
340
11
  0
ENDTAB
  0
TABLE
  2
BLOCK_RECORD
  5
1
330
0
100
AcDbSymbolTable
 70
     1
  0
BLOCK_RECORD
  5
1F
330
1
100
AcDbSymbolTableRecord
100
AcDbBlockTableRecord
  2
*Model_Space
340
22
 70
     0
280
     1
281
     0
  0
BLOCK_RECORD
  5
1B
330
1
100
AcDbSymbolTableRecord
100
AcDbBlockTableRecord
  2
*Paper_Space
340
1E
 70
     0
280
     1
281
     0
  0
BLOCK_RECORD
  5
23
330
1
100
AcDbSymbolTableRecord
100
AcDbBlockTableRecord
  2
*Paper_Space0
340
26
 70
     0
280
     1
281
     0
  0
ENDTAB
  0
ENDSEC
  0
SECTION
  2
BLOCKS
  0
BLOCK
  5
20
330
1F
100
AcDbEntity
  8
0
100
AcDbBlockBegin
  2
*Model_Space
 70
     0
 10
0.0
 20
0.0
 30
0.0
  3
*Model_Space
  1

  0
ENDBLK
  5
21
330
1F
100
AcDbEntity
  8
0
100
AcDbBlockEnd
  0
BLOCK
  5
1C
330
1B
100
AcDbEntity
 67
     1
  8
0
100
AcDbBlockBegin
  2
*Paper_Space
 70
     0
 10
0.0
 20
0.0
 30
0.0
  3
*Paper_Space
  1

  0
ENDBLK
  5
1D
330
1B
100
AcDbEntity
 67
     1
  8
0
100
AcDbBlockEnd
  0
BLOCK
  5
24
330
23
100
AcDbEntity
  8
0
100
AcDbBlockBegin
  2
*Paper_Space0
 70
     0
 10
0.0
 20
0.0
 30
0.0
  3
*Paper_Space0
  1

  0
ENDBLK
  5
25
330
23
100
AcDbEntity
  8
0
100
AcDbBlockEnd
  0
ENDSEC
  0
SECTION
  2
ENTITIES
  0
LINE
  5
67
330
1F
100
AcDbEntity
  8
0
  6
SLD-Сплошная
 62
     7
370
    25
100
AcDbLine
 10
-143.0433545943
 20
-141.0417390411
 30
0.0
 11
-143.0433545943
 21
-153.0417390411
 31
0.0
  0
LINE
  5
68
330
1F
100
AcDbEntity
  8
0
  6
SLD-Сплошная
 62
     7
370
    25
100
AcDbLine
 10
-154.0433545943
 20
-141.0417390411
 30
0.0
 11
-143.0433545943
 21
-141.0417390411
 31
0.0
  0
LINE
  5
69
330
1F
100
AcDbEntity
  8
0
  6
SLD-Сплошная
 62
     7
370
    25
100
AcDbLine
 10
-154.0433545943
 20
-132.0417390411
 30
0.0
 11
-154.0433545943
 21
-141.0417390411
 31
0.0
  0
LINE
  5
6A
330
1F
100
AcDbEntity
  8
0
  6
SLD-Сплошная
 62
     7
370
    25
100
AcDbLine
 10
-110.0433545943
 20
-162.0417390411
 30
0.0
 11
-110.0433545943
 21
-132.0417390411
 31
0.0
  0
LINE
  5
6B
330
1F
100
AcDbEntity
  8
0
  6
SLD-Сплошная
 62
     7
370
    25
100
AcDbLine
 10
-154.0433545943
 20
-162.0417390411
 30
0.0
 11
-110.0433545943
 21
-162.0417390411
 31
0.0
  0
LINE
  5
6C
330
1F
100
AcDbEntity
  8
0
  6
SLD-Сплошная
 62
     7
370
    25
100
AcDbLine
 10
-154.0433545943
 20
-153.0417390411
 30
0.0
 11
-154.0433545943
 21
-162.0417390411
 31
0.0
  0
LINE
  5
6D
330
1F
100
AcDbEntity
  8
0
  6
SLD-Сплошная
 62
     7
370
    25
100
AcDbLine
 10
-143.0433545943
 20
-153.0417390411
 30
0.0
 11
-154.0433545943
 21
-153.0417390411
 31
0.0
  0
LINE
  5
6E
330
1F
100
AcDbEntity
  8
0
  6
SLD-Сплошная
 62
     7
370
    25
100
AcDbLine
 10
-110.0433545943
 20
-132.0417390411
 30
0.0
 11
-154.0433545943
 21
-132.0417390411
 31
0.0
  0
LINE
  5
6F
330
1F
100
AcDbEntity
  8
0
  6
SLD-Сплошная
 62
     7
370
    25
100
AcDbLine
 10
-143.0433545943
 20
262.9582609589
 30
0.0
 11
-143.0433545943
 21
250.9582609589
 31
0.0
  0
LINE
  5
70
330
1F
100
AcDbEntity
  8
0
  6
SLD-Сплошная
 62
     7
370
    25
100
AcDbLine
 10
-145.0433545943
 20
262.9582609589
 30
0.0
 11
-143.0433545943
 21
262.9582609589
 31
0.0
  0
LINE
  5
71
330
1F
100
AcDbEntity
  8
0
  6
SLD-Сплошная
 62
     7
370
    25
100
AcDbLine
 10
-143.0433545943
 20
250.9582609589
 30
0.0
 11
-145.0433545943
 21
250.9582609589
 31
0.0
  0
LINE
  5
72
330
1F
100
AcDbEntity
  8
0
  6
SLD-Сплошная
 62
     7
370
    25
100
AcDbLine
 10
-154.0433545943
 20
250.9582609589
 30
0.0
 11
-154.0433545943
 21
241.9582609589
 31
0.0
  0
LINE
  5
73
330
1F
100
AcDbEntity
  8
0
  6
SLD-Сплошная
 62
     7
370
    25
100
AcDbLine
 10
-154.0433545943
 20
271.9582609589
 30
0.0
 11
-154.0433545943
 21
262.9582609589
 31
0.0
  0
LINE
  5
74
330
1F
100
AcDbEntity
  8
0
  6
SLD-Сплошная
 62
     7
370
    25
100
AcDbLine
 10
-145.0433545943
 20
250.9582609589
 30
0.0
 11
-145.0433545943
 21
262.9582609589
 31
0.0
  0
LINE
  5
75
330
1F
100
AcDbEntity
  8
0
  6
SLD-Сплошная
 62
     7
370
    25
100
AcDbLine
 10
-154.0433545943
 20
250.9582609589
 30
0.0
 11
-145.0433545943
 21
250.9582609589
 31
0.0
  0
LINE
  5
76
330
1F
100
AcDbEntity
  8
0
  6
SLD-Сплошная
 62
     7
370
    25
100
AcDbLine
 10
-154.0433545943
 20
250.9582609589
 30
0.0
 11
-154.0433545943
 21
262.9582609589
 31
0.0
  0
LINE
  5
77
330
1F
100
AcDbEntity
  8
0
  6
SLD-Сплошная
 62
     7
370
    25
100
AcDbLine
 10
-154.0433545943
 20
262.9582609589
 30
0.0
 11
-145.0433545943
 21
262.9582609589
 31
0.0
  0
LINE
  5
78
330
1F
100
AcDbEntity
  8
0
  6
SLD-Сплошная
 62
     7
370
    25
100
AcDbLine
 10
-154.0433545943
 20
-153.0417390411
 30
0.0
 11
-154.0433545943
 21
-141.0417390411
 31
0.0
  0
LINE
  5
79
330
1F
100
AcDbEntity
  8
0
  6
SLD-Сплошная
 62
     7
370
    25
100
AcDbLine
 10
-154.0433545943
 20
-153.0417390411
 30
0.0
 11
-145.0433545943
 21
-153.0417390411
 31
0.0
  0
LINE
  5
7A
330
1F
100
AcDbEntity
  8
0
  6
SLD-Сплошная
 62
     7
370
    25
100
AcDbLine
 10
-154.0433545943
 20
-141.0417390411
 30
0.0
 11
-145.0433545943
 21
-141.0417390411
 31
0.0
  0
LINE
  5
7B
330
1F
100
AcDbEntity
  8
0
  6
SLD-Сплошная
 62
     7
370
    25
100
AcDbLine
 10
-145.0433545943
 20
-153.0417390411
 30
0.0
 11
-145.0433545943
 21
-141.0417390411
 31
0.0
  0
LINE
  5
7C
330
1F
100
AcDbEntity
  8
0
  6
SLD-Сплошная
 62
     7
370
    25
100
AcDbLine
 10
-110.0433545943
 20
-132.0417390411
 30
0.0
 11
-154.0433545943
 21
-132.0417390411
 31
0.0
  0
LINE
  5
7D
330
1F
100
AcDbEntity
  8
0
  6
SLD-Сплошная
 62
     7
370
    25
100
AcDbLine
 10
-154.0433545943
 20
-132.0417390411
 30
0.0
 11
-154.0433545943
 21
-126.0417390411
 31
0.0
  0
LINE
  5
7E
330
1F
100
AcDbEntity
  8
0
  6
SLD-Сплошная
 62
     7
370
    25
100
AcDbLine
 10
-154.0433545943
 20
-126.0417390411
 30
0.0
 11
-124.0433545943
 21
-126.0417390411
 31
0.0
  0
LINE
  5
7F
330
1F
100
AcDbEntity
  8
0
  6
SLD-Сплошная
 62
     7
370
    25
100
AcDbLine
 10
-124.0433545943
 20
-126.0417390411
 30
0.0
 11
-124.0433545943
 21
235.9582609589
 31
0.0
  0
LINE
  5
80
330
1F
100
AcDbEntity
  8
0
  6
SLD-Сплошная
 62
     7
370
    25
100
AcDbLine
 10
-124.0433545943
 20
235.9582609589
 30
0.0
 11
-154.0433545943
 21
235.9582609589
 31
0.0
  0
LINE
  5
81
330
1F
100
AcDbEntity
  8
0
  6
SLD-Сплошная
 62
     7
370
    25
100
AcDbLine
 10
-154.0433545943
 20
235.9582609589
 30
0.0
 11
-154.0433545943
 21
241.9582609589
 31
0.0
  0
LINE
  5
82
330
1F
100
AcDbEntity
  8
0
  6
SLD-Сплошная
 62
     7
370
    25
100
AcDbLine
 10
-154.0433545943
 20
241.9582609589
 30
0.0
 11
-110.0433545943
 21
241.9582609589
 31
0.0
  0
LINE
  5
83
330
1F
100
AcDbEntity
  8
0
  6
SLD-Сплошная
 62
     7
370
    25
100
AcDbLine
 10
-110.0433545943
 20
241.9582609589
 30
0.0
 11
-110.0433545943
 21
271.9582609589
 31
0.0
  0
LINE
  5
84
330
1F
100
AcDbEntity
  8
0
  6
SLD-Сплошная
 62
     7
370
    25
100
AcDbLine
 10
-110.0433545943
 20
271.9582609589
 30
0.0
 11
-154.0433545943
 21
271.9582609589
 31
0.0
  0
LINE
  5
85
330
1F
100
AcDbEntity
  8
0
  6
SLD-Сплошная
 62
     7
370
    25
100
AcDbLine
 10
-154.0433545943
 20
271.9582609589
 30
0.0
 11
-154.0433545943
 21
277.9582609589
 31
0.0
  0
LINE
  5
86
330
1F
100
AcDbEntity
  8
0
  6
SLD-Сплошная
 62
     7
370
    25
100
AcDbLine
 10
-154.0433545943
 20
277.9582609589
 30
0.0
 11
-124.0433545943
 21
277.9582609589
 31
0.0
  0
LINE
  5
87
330
1F
100
AcDbEntity
  8
0
  6
SLD-Сплошная
 62
     7
370
    25
100
AcDbLine
 10
-124.0433545943
 20
277.9582609589
 30
0.0
 11
-124.0433545943
 21
316.5587241259
 31
0.0
  0
SPLINE
  5
88
330
1F
100
AcDbEntity
  8
0
  6
SLD-Сплошная
 62
     7
370
    25
100
AcDbSpline
210
0.0
220
0.0
230
1.0
 70
     8
 71
     3
 72
    28
 73
    24
 74
     0
 42
0.00000001
 43
0.00000001
 40
0.0
 40
0.0
 40
0.0
 40
0.0
 40
0.0182250338538497
 40
0.0312564258353941
 40
0.047157328111509
 40
0.0625040641828129
 40
0.093983760307393
 40
0.1250162769777969
 40
0.1883992331169769
 40
0.2499531661496629
 40
0.3104848459131562
 40
0.3715398317883115
 40
0.434302989111092
 40
0.4998666383819834
 40
0.5606636279759672
 40
0.624953926997588
 40
0.6854337315881073
 40
0.7500040369406585
 40
0.8749967527423017
 40
0.9044968858347755
 40
0.9374993823473935
 40
0.9635774328074127
 40
1.0
 40
1.0
 40
1.0
 40
1.0
 10
-124.0433545943302
 20
316.5587241258921
 30
0.0
 10
-124.0392000533487
 20
316.776524467942
 30
0.0
 10
-124.0320749032335
 20
317.1500579435336
 30
0.0
 10
-124.014183604978
 20
317.713458427256
 30
0.0
 10
-123.9842235737276
 20
318.2419541236368
 30
0.0
 10
-123.9190896924695
 20
318.9889719944604
 30
0.0
 10
-123.7969025085976
 20
319.9121790498722
 30
0.0
 10
-123.5134788497792
 20
321.3906647647415
 30
0.0
 10
-122.987338526527
 20
323.1857822208433
 30
0.0
 10
-122.0629145465216
 20
325.2093412709307
 30
0.0
 10
-120.8638105223842
 20
327.0505214634161
 30
0.0
 10
-119.3946284272963
 20
328.7034097448334
 30
0.0
 10
-117.6582749144056
 20
330.1670554460909
 30
0.0
 10
-115.7452989576315
 20
331.3831254929623
 30
0.0
 10
-113.6930558278633
 20
332.38215590017
 30
0.0
 10
-111.6125618010339
 20
333.1599275357418
 30
0.0
 10
-109.4337720496725
 20
333.7791971433235
 30
0.0
 10
-106.508798960664
 20
334.4009305806176
 30
0.0
 10
-103.9041924115899
 20
334.7251826602252
 30
0.0
 10
-101.6672642233938
 20
334.8610170329055
 30
0.0
 10
-100.6093336718578
 20
334.9054545510885
 30
0.0
 10
-99.46822495631264
 20
334.9370767889077
 30
0.0
 10
-98.72129724896833
 20
334.9504611508282
 30
0.0
 10
-98.286021156819
 20
334.9582609588892
 30
0.0
  0
LINE
  5
89
330
1F
100
AcDbEntity
  8
0
  6
SLD-Сплошная
 62
     7
370
    25
100
AcDbLine
 10
-98.2860211561
 20
334.9582609589
 30
0.0
 11
200.838440408
 21
334.9582609589
 31
0.0
  0
SPLINE
  5
8A
330
1F
100
AcDbEntity
  8
0
  6
SLD-Сплошная
 62
     7
370
    25
100
AcDbSpline
210
0.0
220
0.0
230
1.0
 70
     8
 71
     3
 72
    26
 73
    22
 74
     0
 42
0.00000001
 43
0.00000001
 40
0.0
 40
0.0
 40
0.0
 40
0.0
 40
0.018205965864532
 40
0.031262193000541
 40
0.0625170468300605
 40
0.0935207850124265
 40
0.1250404851177165
 40
0.189099206940315
 40
0.2500559177147551
 40
0.3791538292037572
 40
0.4996156261102532
 40
0.5618346281113121
 40
0.6247399041567613
 40
0.6860618615050631
 40
0.7498430647393142
 40
0.8124165236435638
 40
0.8749676220200975
 40
0.937482267591878
 40
0.9687401981921352
 40
0.9818242565041372
 40
1.0
 40
1.0
 40
1.0
 40
1.0
 10
200.8384404092621
 20
334.9582609589061
 30
0.0
 10
201.0700434759844
 20
334.9555094602542
 30
0.0
 10
201.4677383758465
 20
334.9507847517415
 30
0.0
 10
202.2629377733841
 20
334.9350540064905
 30
0.0
 10
203.220595127744
 20
334.8989480423599
 30
0.0
 10
204.4106754669384
 20
334.8108884683629
 30
0.0
 10
206.0120893657669
 20
334.6395065472321
 30
0.0
 10
207.9807759929748
 20
334.3236330117571
 30
0.0
 10
211.1229092536721
 20
333.5537336920925
 30
0.0
 10
214.8217669930713
 20
332.0748853098035
 30
0.0
 10
218.0869845498801
 20
329.7443620620108
 30
0.0
 10
220.225656487686
 20
327.4549282191111
 30
0.0
 10
221.6028825998559
 20
325.5148937380933
 30
0.0
 10
222.731850961312
 20
323.3997479984551
 30
0.0
 10
223.6045349732053
 20
321.1718732366734
 30
0.0
 10
224.2489745703029
 20
318.8530879440574
 30
0.0
 10
224.6798419473565
 20
316.5015151051915
 30
0.0
 10
224.8538374557857
 20
314.5181844719676
 30
0.0
 10
224.9144934904099
 20
313.1601053304855
 30
0.0
 10
224.9404331063853
 20
312.3651561799877
 30
0.0
 10
224.9506847028713
 20
311.9676170557094
 30
0.0
 10
224.9566454056709
 20
311.7364713434982
 30
0.0
  0
LINE
  5
8B
330
1F
100
AcDbEntity
  8
0
  6
SLD-Сплошная
 62
     7
370
    25
100
AcDbLine
 10
224.9566454057
 20
311.7364713435
 30
0.0
 11
224.9566454057
 21
-201.8199494255
 31
0.0
  0
SPLINE
  5
8C
330
1F
100
AcDbEntity
  8
0
  6
SLD-Сплошная
 62
     7
370
    25
100
AcDbSpline
210
0.0
220
0.0
230
1.0
 70
     8
 71
     3
 72
    26
 73
    22
 74
     0
 42
0.00000001
 43
0.00000001
 40
0.0
 40
0.0
 40
0.0
 40
0.0
 40
0.0182123523082933
 40
0.0312648971224225
 40
0.0625213839116063
 40
0.093605307404564
 40
0.1250505315691925
 40
0.1890318229856092
 40
0.2500691597850984
 40
0.3779239114922587
 40
0.4995777484433376
 40
0.5614383218678063
 40
0.624719351604696
 40
0.6857773907294437
 40
0.749828191796274
 40
0.8120568211864851
 40
0.8749504573222882
 40
0.904547368283832
 40
0.9374785071636802
 40
0.9635424903564669
 40
1.0
 40
1.0
 40
1.0
 40
1.0
 10
224.9566454056703
 20
-201.8199494254924
 30
0.0
 10
224.9536147622723
 20
-202.0516200541409
 30
0.0
 10
224.9484120980339
 20
-202.4493258665683
 30
0.0
 10
224.9310754011522
 20
-203.2445125848247
 30
0.0
 10
224.8900772912774
 20
-204.2029763117513
 30
0.0
 10
224.7909058152706
 20
-205.3922863816211
 30
0.0
 10
224.5986343085916
 20
-206.9903810281313
 30
0.0
 10
224.2435995705709
 20
-208.9520027220741
 30
0.0
 10
223.38330473445
 20
-212.0548332442694
 30
0.0
 10
221.7319879078079
 20
-215.6877913114951
 30
0.0
 10
219.1939557339098
 20
-218.7932949844842
 30
0.0
 10
216.7560427902565
 20
-220.7839155249002
 30
0.0
 10
214.7391355654098
 20
-222.0385283729351
 30
0.0
 10
212.5646360664675
 20
-223.0574100411694
 30
0.0
 10
210.307849667724
 20
-223.8358241474918
 30
0.0
 10
207.9689175444988
 20
-224.4136186386583
 30
0.0
 10
206.0232687703529
 20
-224.727237888027
 30
0.0
 10
204.4352865636179
 20
-224.8851629421541
 30
0.0
 10
203.3105230132538
 20
-224.9595776835963
 30
0.0
 10
202.0971939666555
 20
-225.009983651943
 30
0.0
 10
201.302084400174
 20
-225.0300423945356
 30
0.0
 10
200.8384404055632
 20
-225.0417390410539
 30
0.0
  0
LINE
  5
8D
330
1F
100
AcDbEntity
  8
0
  6
SLD-Сплошная
 62
     7
370
    25
100
AcDbLine
 10
200.8384404055
 20
-225.0417390411
 30
0.0
 11
-98.2860211532
 21
-225.0417390411
 31
0.0
  0
SPLINE
  5
8E
330
1F
100
AcDbEntity
  8
0
  6
SLD-Сплошная
 62
     7
370
    25
100
AcDbSpline
210
0.0
220
0.0
230
1.0
 70
     8
 71
     3
 72
    35
 73
    31
 74
     0
 42
0.00000001
 43
0.00000001
 40
0.0
 40
0.0
 40
0.0
 40
0.0
 40
0.0232382198501626
 40
0.0461066970846732
 40
0.0686086016749732
 40
0.0907472610585399
 40
0.1125261691660941
 40
0.1339489959487124
 40
0.1550195974186285
 40
0.1757420262143827
 40
0.1961205426969885
 40
0.2161596265785778
 40
0.2358639890788195
 40
0.2552385855962527
 40
0.2742886288726328
 40
0.2930196026165662
 40
0.3114372755397546
 40
0.4420510405364791
 40
0.5588565878147531
 40
0.667247237360509
 40
0.772628702004574
 40
0.7963029286963401
 40
0.820231185589801
 40
0.8444791212635324
 40
0.8691098282953469
 40
0.8941835099418142
 40
0.919757241224154
 40
0.9458848203325508
 40
0.9726167017927333
 40
1.0
 40
1.0
 40
1.0
 40
1.0
 10
-98.28602115323164
 20
-225.0417390410541
 30
0.0
 10
-98.56366666580979
 20
-225.0407229071621
 30
0.0
 10
-99.11454008158344
 20
-225.0387068070538
 30
0.0
 10
-99.93412407775153
 20
-225.0221353157087
 30
0.0
 10
-100.7402875691018
 20
-224.9956484212776
 30
0.0
 10
-101.532999682775
 20
-224.9583595994369
 30
0.0
 10
-102.3122295868472
 20
-224.9105576772445
 30
0.0
 10
-103.0779467446695
 20
-224.8522240609207
 30
0.0
 10
-103.8301208422739
 20
-224.7834204565468
 30
0.0
 10
-104.5687218387014
 20
-224.7041874909392
 30
0.0
 10
-105.2937198458654
 20
-224.6145712027061
 30
0.0
 10
-106.0050855541029
 20
-224.5146161057957
 30
0.0
 10
-106.7027886886047
 20
-224.4043669978983
 30
0.0
 10
-107.3868036242522
 20
-224.28386845353
 30
0.0
 10
-108.0570889498092
 20
-224.1531650313168
 30
0.0
 10
-108.7136618237088
 20
-224.0123008975394
 30
0.0
 10
-110.6647459135337
 20
-223.55393748435
 30
0.0
 10
-113.704269925426
 20
-222.5762788462907
 30
0.0
 10
-117.4615679349125
 20
-220.5226431137615
 30
0.0
 10
-120.42939358638
 20
-217.8563259546278
 30
0.0
 10
-121.9962453377764
 20
-215.4473226423195
 30
0.0
 10
-122.7413828877978
 20
-213.7779838230551
 30
0.0
 10
-123.0476929716859
 20
-212.9754946699748
 30
0.0
 10
-123.3133754209461
 20
-212.1467716986039
 30
0.0
 10
-123.5384714016702
 20
-211.2919447649371
 30
0.0
 10
-123.7227585306152
 20
-210.4112493652867
 30
0.0
 10
-123.8663650946017
 20
-209.5048887264332
 30
0.0
 10
-123.9682653703528
 20
-208.5730727586012
 30
0.0
 10
-124.0318404743647
 20
-207.6160028899997
 30
0.0
 10
-124.0394858769152
 20
-206.9693969625459
 30
0.0
 10
-124.0433545943294
 20
-206.6422022078972
 30
0.0
  0
LINE
  5
8F
330
1F
100
AcDbEntity
  8
0
  6
SLD-Сплошная
 62
     7
370
    25
100
AcDbLine
 10
-124.0433545943
 20
-206.6422022079
 30
0.0
 11
-124.0433545943
 21
-168.0417390411
 31
0.0
  0
LINE
  5
90
330
1F
100
AcDbEntity
  8
0
  6
SLD-Сплошная
 62
     7
370
    25
100
AcDbLine
 10
-124.0433545943
 20
-168.0417390411
 30
0.0
 11
-154.0433545943
 21
-168.0417390411
 31
0.0
  0
LINE
  5
91
330
1F
100
AcDbEntity
  8
0
  6
SLD-Сплошная
 62
     7
370
    25
100
AcDbLine
 10
-154.0433545943
 20
-168.0417390411
 30
0.0
 11
-154.0433545943
 21
-162.0417390411
 31
0.0
  0
LINE
  5
92
330
1F
100
AcDbEntity
  8
0
  6
SLD-Сплошная
 62
     7
370
    25
100
AcDbLine
 10
-154.0433545943
 20
-162.0417390411
 30
0.0
 11
-110.0433545943
 21
-162.0417390411
 31
0.0
  0
LINE
  5
93
330
1F
100
AcDbEntity
  8
0
  6
SLD-Сплошная
 62
     7
370
    25
100
AcDbLine
 10
-110.0433545943
 20
-162.0417390411
 30
0.0
 11
-110.0433545943
 21
-132.0417390411
 31
0.0
  0
CIRCLE
  5
94
330
1F
100
AcDbEntity
  8
0
  6
SLD-Сплошная
 62
     7
370
    25
100
AcDbCircle
 10
174.9566454057
 20
254.9582609589
 30
0.0
 40
25.00000000000006
  0
CIRCLE
  5
95
330
1F
100
AcDbEntity
  8
0
  6
SLD-Сплошная
 62
     7
370
    25
100
AcDbCircle
 10
174.9566454057
 20
-145.0417390411
 30
0.0
 40
29.99999999999986
  0
SPLINE
  5
96
330
1F
100
AcDbEntity
  8
0
  6
SLD-Сплошная
 62
     7
370
    25
100
AcDbSpline
210
0.0
220
0.0
230
1.0
 70
     8
 71
     3
 72
    20
 73
    16
 74
     0
 42
0.00000001
 43
0.00000001
 40
0.0
 40
0.0
 40
0.0
 40
0.0
 40
0.0312582147514875
 40
0.0625172037852425
 40
0.1250362711359035
 40
0.2499326300971236
 40
0.3748307064014613
 40
0.499865538285174
 40
0.6248977790439738
 40
0.7499325581755028
 40
0.8749652155159537
 40
0.9374821539381616
 40
0.9687405953390859
 40
0.9817651071529981
 40
1.0
 40
1.0
 40
1.0
 40
1.0
 10
-134.043354597312
 20
354.9582609589363
 30
0.0
 10
-134.3539182594967
 20
354.9536193726345
 30
0.0
 10
-134.9750532766895
 20
354.9443360850564
 30
0.0
 10
-136.2154968180212
 20
354.8565198652881
 30
0.0
 10
-138.3714951261371
 20
354.5539932400789
 30
0.0
 10
-141.3746892724818
 20
353.6909772545914
 30
0.0
 10
-144.7201241459399
 20
352.0073101261359
 30
0.0
 10
-147.6974657395967
 20
349.7311804936604
 30
0.0
 10
-150.2028406805422
 20
346.9395381412672
 30
0.0
 10
-152.1459728357271
 20
343.730963837288
 30
0.0
 10
-153.242732255084
 20
340.8021083923433
 30
0.0
 10
-153.7110087724107
 20
338.6756933627339
 30
0.0
 10
-153.8703436722178
 20
337.6257767723866
 30
0.0
 10
-153.9370929716976
 20
337.0079115598558
 30
0.0
 10
-153.9657290035367
 20
336.6985647789772
 30
0.0
 10
-153.9824335754188
 20
336.518110113795
 30
0.0
  0
SPLINE
  5
97
330
1F
100
AcDbEntity
  8
0
  6
SLD-Сплошная
 62
     7
370
    25
100
AcDbSpline
210
0.0
220
0.0
230
1.0
 70
     8
 71
     3
 72
    12
 73
     8
 74
     0
 42
0.00000001
 43
0.00000001
 40
0.0
 40
0.0
 40
0.0
 40
0.0
 40
0.2037382619172592
 40
0.3704047930628978
 40
0.5000005030891153
 40
0.7082800697252511
 40
1.0
 40
1.0
 40
1.0
 40
1.0
 10
-128.2860211533759
 20
354.958260958946
 30
0.0
 10
-128.6771560435436
 20
354.9589212187204
 30
0.0
 10
-129.3882558472275
 20
354.9601215989672
 30
0.0
 10
-130.3480805991836
 20
354.9590145989015
 30
0.0
 10
-131.31650776105
 20
354.9577671953014
 30
0.0
 10
-132.5247364666335
 20
354.9600045281588
 30
0.0
 10
-133.483798824141
 20
354.9589034010418
 30
0.0
 10
-134.0433545952763
 20
354.9582609589438
 30
0.0
  0
SPLINE
  5
98
330
1F
100
AcDbEntity
  8
0
  6
SLD-Сплошная
 62
     7
370
    25
100
AcDbSpline
210
0.0
220
0.0
230
1.0
 70
     8
 71
     3
 72
    20
 73
    16
 74
     0
 42
0.00000001
 43
0.00000001
 40
0.0
 40
0.0
 40
0.0
 40
0.0
 40
0.0182288018533741
 40
0.0312508057196013
 40
0.0625007846885294
 40
0.1250007470458951
 40
0.25000073690824
 40
0.3750007865469948
 40
0.5000008109880861
 40
0.6250008410781049
 40
0.7500004622606574
 40
0.875000081626877
 40
0.9375000360826523
 40
0.9687500159953327
 40
1.0
 40
1.0
 40
1.0
 40
1.0
 10
-153.9824335752317
 20
-226.6015881982941
 30
0.0
 10
-153.9657157477518
 20
-226.781980604024
 30
0.0
 10
-153.9370553024393
 20
-227.091238890449
 30
0.0
 10
-153.8702225907333
 20
-227.708922634801
 30
0.0
 10
-153.7109565185081
 20
-228.7585679968878
 30
0.0
 10
-153.2425743929177
 20
-230.8843540505873
 30
0.0
 10
-152.146923706955
 20
-233.81269508207
 30
0.0
 10
-150.2045218196206
 20
-237.0205693166086
 30
0.0
 10
-147.700367522017
 20
-239.8119385923166
 30
0.0
 10
-144.7232497163404
 20
-242.0887678899071
 30
0.0
 10
-141.3766098883067
 20
-243.7744100847611
 30
0.0
 10
-138.3714643822513
 20
-244.6360934488234
 30
0.0
 10
-136.2150395609264
 20
-244.9422276219883
 30
0.0
 10
-134.9747668567756
 20
-245.0266404328028
 30
0.0
 10
-134.353825364017
 20
-245.0367061714128
 30
0.0
 10
-134.0433545973106
 20
-245.0417390410473
 30
0.0
  0
SPLINE
  5
99
330
1F
100
AcDbEntity
  8
0
  6
SLD-Сплошная
 62
     7
370
    25
100
AcDbSpline
210
0.0
220
0.0
230
1.0
 70
     8
 71
     3
 72
    12
 73
     8
 74
     0
 42
0.00000001
 43
0.00000001
 40
0.0
 40
0.0
 40
0.0
 40
0.0
 40
0.2051317759347172
 40
0.4076941648295502
 40
0.6076905981737666
 40
0.8051246412539198
 40
1.0
 40
1.0
 40
1.0
 40
1.0
 10
-134.043354595622
 20
-245.0417390410541
 30
0.0
 10
-133.6499129216399
 20
-245.0417398419189
 30
0.0
 10
-132.8679576445876
 20
-245.0417414336169
 30
0.0
 10
-131.7018828878232
 20
-245.0417459990543
 30
0.0
 10
-130.5503181208972
 20
-245.0417459916092
 30
0.0
 10
-129.4133022654865
 20
-245.0417414301246
 30
0.0
 10
-128.6601441310563
 20
-245.0417398339409
 30
0.0
 10
-128.2860211532321
 20
-245.0417390410542
 30
0.0
  0
LINE
  5
9A
330
1F
100
AcDbEntity
  8
0
  6
SLD-Сплошная
 62
     7
370
    25
100
AcDbLine
 10
170.6903513954
 20
-142.4343005628
 30
0.0
 11
174.8316844499
 21
-150.0401772731
 31
0.0
  0
LINE
  5
9B
330
1F
100
AcDbEntity
  8
0
  6
SLD-Сплошная
 62
     7
370
    25
100
AcDbLine
 10
179.3479003718
 20
-142.6507392872
 30
0.0
 11
170.6903513954
 21
-142.4343005628
 31
0.0
  0
LINE
  5
9C
330
1F
100
AcDbEntity
  8
0
  6
SLD-Сплошная
 62
     7
370
    25
100
AcDbLine
 10
174.8316844499
 20
-150.0401772731
 30
0.0
 11
179.3479003718
 21
-142.6507392872
 31
0.0
  0
SPLINE
  5
9D
330
1F
100
AcDbEntity
  8
0
  6
SLD-Сплошная
 62
     7
370
    25
100
AcDbSpline
210
0.0
220
0.0
230
1.0
 70
     8
 71
     3
 72
    22
 73
    18
 74
     0
 42
0.00000001
 43
0.00000001
 40
0.0
 40
0.0
 40
0.0
 40
0.0
 40
0.125
 40
0.125
 40
0.25
 40
0.25
 40
0.375
 40
0.375
 40
0.5
 40
0.5
 40
0.625
 40
0.625
 40
0.75
 40
0.75
 40
0.875
 40
0.875
 40
1.0
 40
1.0
 40
1.0
 40
1.0
 10
160.9566454056702
 20
-145.0417390410539
 30
0.0
 10
160.9566454056702
 20
-143.2091433264599
 30
0.0
 10
161.3210279323138
 20
-141.377268660024
 30
0.0
 10
162.7236359687107
 20
-137.9910733158613
 30
0.0
 10
163.7613096120957
 20
-136.4380849614051
 30
0.0
 10
166.3529913260213
 20
-133.8464032474794
 30
0.0
 10
167.9059796804777
 20
-132.8087296040943
 30
0.0
 10
171.2921750246402
 20
-131.4061215676975
 30
0.0
 10
173.1240496910763
 20
-131.0417390410539
 30
0.0
 10
176.7892411202643
 20
-131.0417390410539
 30
0.0
 10
178.6211157867002
 20
-131.4061215676975
 30
0.0
 10
182.0073111308628
 20
-132.8087296040943
 30
0.0
 10
183.560299485319
 20
-133.8464032474794
 30
0.0
 10
186.1519811992448
 20
-136.4380849614051
 30
0.0
 10
187.1896548426298
 20
-137.9910733158613
 30
0.0
 10
188.5922628790266
 20
-141.377268660024
 30
0.0
 10
188.9566454056702
 20
-143.2091433264599
 30
0.0
 10
188.9566454056702
 20
-145.041739041054
 30
0.0
  0
SPLINE
  5
9E
330
1F
100
AcDbEntity
  8
0
  6
SLD-Сплошная
 62
     7
370
    25
100
AcDbSpline
210
0.0
220
0.0
230
1.0
 70
     8
 71
     3
 72
    22
 73
    18
 74
     0
 42
0.00000001
 43
0.00000001
 40
0.0
 40
0.0
 40
0.0
 40
0.0
 40
0.125
 40
0.125
 40
0.25
 40
0.25
 40
0.375
 40
0.375
 40
0.5
 40
0.5
 40
0.625
 40
0.625
 40
0.75
 40
0.75
 40
0.875
 40
0.875
 40
1.0
 40
1.0
 40
1.0
 40
1.0
 10
188.9566454056702
 20
-145.0417390410539
 30
0.0
 10
188.9566454056702
 20
-146.874334755648
 30
0.0
 10
188.5922628790266
 20
-148.7062094220838
 30
0.0
 10
187.1896548426298
 20
-152.0924047662465
 30
0.0
 10
186.1519811992446
 20
-153.6453931207027
 30
0.0
 10
183.560299485319
 20
-156.2370748346285
 30
0.0
 10
182.0073111308627
 20
-157.2747484780135
 30
0.0
 10
178.6211157867002
 20
-158.6773565144103
 30
0.0
 10
176.7892411202642
 20
-159.0417390410539
 30
0.0
 10
173.1240496910762
 20
-159.0417390410539
 30
0.0
 10
171.2921750246402
 20
-158.6773565144103
 30
0.0
 10
167.9059796804776
 20
-157.2747484780135
 30
0.0
 10
166.3529913260214
 20
-156.2370748346284
 30
0.0
 10
163.7613096120957
 20
-153.6453931207027
 30
0.0
 10
162.7236359687106
 20
-152.0924047662465
 30
0.0
 10
161.3210279323138
 20
-148.7062094220838
 30
0.0
 10
160.9566454056701
 20
-146.8743347556479
 30
0.0
 10
160.9566454056702
 20
-145.0417390410539
 30
0.0
  0
SPLINE
  5
9F
330
1F
100
AcDbEntity
  8
0
  6
SLD-Сплошная
 62
     7
370
    25
100
AcDbSpline
210
0.0
220
0.0
230
1.0
 70
     8
 71
     3
 72
    34
 73
    30
 74
     0
 42
0.00000001
 43
0.00000001
 40
0.0
 40
0.0
 40
0.0
 40
0.0
 40
0.0104434937145906
 40
0.0208658258298369
 40
0.0312781727067416
 40
0.0416917428563206
 40
0.0521177408443359
 40
0.0625673312594047
 40
0.0938288592414322
 40
0.1251123748338856
 40
0.1563739028209045
 40
0.1876574184083654
 40
0.2501267594955351
 40
0.312596100582707
 40
0.3750654416698775
 40
0.4375347827570474
 40
0.500004123844219
 40
0.5624734649313894
 40
0.6249428060185604
 40
0.6874121471057308
 40
0.749881488192902
 40
0.8123508292800726
 40
0.8436123572633039
 40
0.8748958728545262
 40
0.906157400836887
 40
0.9374409164289765
 40
0.9583040215153741
 40
0.9791271352110976
 40
1.0
 40
1.0
 40
1.0
 40
1.0
 10
166.9566454056701
 20
-145.0417390410539
 30
0.0
 10
166.9574650753343
 20
-144.9543415118121
 30
0.0
 10
166.9591027537701
 20
-144.7797235465071
 30
0.0
 10
166.9723940985653
 20
-144.5182472840489
 30
0.0
 10
166.9936250315794
 20
-144.2575810009864
 30
0.0
 10
167.0235669778581
 20
-143.9977273501416
 30
0.0
 10
167.0620188002019
 20
-143.7386804503423
 30
0.0
 10
167.1401492769238
 20
-143.3093888095049
 30
0.0
 10
167.2886220548485
 20
-142.7157282788799
 30
0.0
 10
167.5537263775443
 20
-141.9755703998243
 30
0.0
 10
167.8897750806559
 20
-141.2644699254257
 30
0.0
 10
168.4284574709451
 20
-140.3660524691515
 30
0.0
 10
169.2633862696536
 20
-139.3482297784552
 30
0.0
 10
170.4834168847209
 20
-138.3471545119698
 30
0.0
 10
171.8754474405431
 20
-137.6030450294671
 30
0.0
 10
173.3858610336035
 20
-137.1448820559434
 30
0.0
 10
174.9566454022901
 20
-136.9901675337278
 30
0.0
 10
176.5274297912574
 20
-137.1448820554691
 30
0.0
 10
178.0378433234758
 20
-137.6030450313646
 30
0.0
 10
179.4298741023849
 20
-138.3471545048545
 30
0.0
 10
180.6499038859467
 20
-139.3482298050186
 30
0.0
 10
181.4847177582315
 20
-140.3659091367675
 30
0.0
 10
182.0234252313195
 20
-141.2643071251813
 30
0.0
 10
182.3594348621477
 20
-141.9752266254263
 30
0.0
 10
182.6245730976157
 20
-142.7155655517203
 30
0.0
 10
182.7944267659901
 20
-143.393851438925
 30
0.0
 10
182.8935691174273
 20
-143.9966790325241
 30
0.0
 10
182.9468302462042
 20
-144.5180549131758
 30
0.0
 10
182.9533710843675
 20
-144.8670388640743
 30
0.0
 10
182.9566454056702
 20
-145.0417390410539
 30
0.0
  0
SPLINE
  5
A0
330
1F
100
AcDbEntity
  8
0
  6
SLD-Сплошная
 62
     7
370
    25
100
AcDbSpline
210
0.0
220
0.0
230
1.0
 70
     8
 71
     3
 72
    34
 73
    30
 74
     0
 42
0.00000001
 43
0.00000001
 40
0.0
 40
0.0
 40
0.0
 40
0.0
 40
0.0104434937156975
 40
0.0208658258316071
 40
0.0312781727087333
 40
0.0416917428580923
 40
0.0521177408454511
 40
0.0625673312594315
 40
0.0938288592434275
 40
0.1251123748338952
 40
0.1563739028175444
 40
0.1876574184083443
 40
0.250126759495517
 40
0.3125961005826901
 40
0.3750654416698625
 40
0.4375347827570355
 40
0.5000041238442079
 40
0.5624734649313814
 40
0.6249428060185533
 40
0.6874121471057257
 40
0.749881488192898
 40
0.8123508292800707
 40
0.843612357264956
 40
0.8748958728545324
 40
0.9061574008373859
 40
0.9374409164289678
 40
0.9583040215148451
 40
0.9791271352105694
 40
1.0
 40
1.0
 40
1.0
 40
1.0
 10
182.9566454056702
 20
-145.0417390410539
 30
0.0
 10
182.9558257360061
 20
-145.129136570305
 30
0.0
 10
182.9541880575703
 20
-145.3037545356248
 30
0.0
 10
182.9408967127756
 20
-145.5652307980997
 30
0.0
 10
182.9196657797615
 20
-145.8258970811678
 30
0.0
 10
182.8897238334829
 20
-146.085750732007
 30
0.0
 10
182.8512720111395
 20
-146.3447976317899
 30
0.0
 10
182.7731415344074
 20
-146.7740892726273
 30
0.0
 10
182.6246687564795
 20
-147.3677498032413
 30
0.0
 10
182.3595644338035
 20
-148.1079076822743
 30
0.0
 10
182.0235157306851
 20
-148.8190081566504
 30
0.0
 10
181.4848333404204
 20
-149.7174256129388
 30
0.0
 10
180.6499045416843
 20
-150.7352483036512
 30
0.0
 10
179.4298739266202
 20
-151.7363235701385
 30
0.0
 10
178.037843370797
 20
-152.4804330526406
 30
0.0
 10
176.527429777737
 20
-152.9385960261645
 30
0.0
 10
174.9566454090503
 20
-153.09331054838
 30
0.0
 10
173.385861020083
 20
-152.9385960266388
 30
0.0
 10
171.8754474878645
 20
-152.4804330507433
 30
0.0
 10
170.4834167089556
 20
-151.7363235772533
 30
0.0
 10
169.2633869253934
 20
-150.7352482770894
 30
0.0
 10
168.4285730531009
 20
-149.717568945329
 30
0.0
 10
167.8898655800129
 20
-148.8191709569151
 30
0.0
 10
167.553855949185
 20
-148.1082514566652
 30
0.0
 10
167.2887177137299
 20
-147.3679125303814
 30
0.0
 10
167.1188640453506
 20
-146.689626643183
 30
0.0
 10
167.0197216939119
 20
-146.0867990495927
 30
0.0
 10
166.966460565136
 20
-145.5654231689409
 30
0.0
 10
166.9599197269728
 20
-145.2164392180379
 30
0.0
 10
166.9566454056702
 20
-145.0417390410539
 30
0.0
  0
SPLINE
  5
A1
330
1F
100
AcDbEntity
  8
0
  6
SLD-Сплошная
 62
     7
370
    25
100
AcDbSpline
210
0.0
220
0.0
230
1.0
 70
     8
 71
     3
 72
    22
 73
    18
 74
     0
 42
0.00000001
 43
0.00000001
 40
0.0
 40
0.0
 40
0.0
 40
0.0
 40
0.125
 40
0.125
 40
0.25
 40
0.25
 40
0.375
 40
0.375
 40
0.5
 40
0.5
 40
0.625
 40
0.625
 40
0.75
 40
0.75
 40
0.875
 40
0.875
 40
1.0
 40
1.0
 40
1.0
 40
1.0
 10
160.9566454056702
 20
254.9582609589461
 30
0.0
 10
160.9566454056702
 20
256.7908566735401
 30
0.0
 10
161.3210279323138
 20
258.6227313399761
 30
0.0
 10
162.7236359687107
 20
262.0089266841385
 30
0.0
 10
163.7613096120957
 20
263.5619150385949
 30
0.0
 10
166.3529913260213
 20
266.1535967525206
 30
0.0
 10
167.9059796804777
 20
267.1912703959058
 30
0.0
 10
171.2921750246402
 20
268.5938784323025
 30
0.0
 10
173.1240496910763
 20
268.9582609589461
 30
0.0
 10
176.7892411202643
 20
268.9582609589461
 30
0.0
 10
178.6211157867002
 20
268.5938784323023
 30
0.0
 10
182.0073111308628
 20
267.1912703959056
 30
0.0
 10
183.560299485319
 20
266.1535967525205
 30
0.0
 10
186.1519811992448
 20
263.5619150385947
 30
0.0
 10
187.1896548426298
 20
262.0089266841387
 30
0.0
 10
188.5922628790266
 20
258.6227313399759
 30
0.0
 10
188.9566454056702
 20
256.7908566735402
 30
0.0
 10
188.9566454056702
 20
254.958260958946
 30
0.0
  0
SPLINE
  5
A2
330
1F
100
AcDbEntity
  8
0
  6
SLD-Сплошная
 62
     7
370
    25
100
AcDbSpline
210
0.0
220
0.0
230
1.0
 70
     8
 71
     3
 72
    22
 73
    18
 74
     0
 42
0.00000001
 43
0.00000001
 40
0.0
 40
0.0
 40
0.0
 40
0.0
 40
0.125
 40
0.125
 40
0.25
 40
0.25
 40
0.375
 40
0.375
 40
0.5
 40
0.5
 40
0.625
 40
0.625
 40
0.75
 40
0.75
 40
0.875
 40
0.875
 40
1.0
 40
1.0
 40
1.0
 40
1.0
 10
188.9566454056702
 20
254.9582609589461
 30
0.0
 10
188.9566454056702
 20
253.125665244352
 30
0.0
 10
188.5922628790266
 20
251.2937905779161
 30
0.0
 10
187.1896548426298
 20
247.9075952337534
 30
0.0
 10
186.1519811992446
 20
246.3546068792973
 30
0.0
 10
183.560299485319
 20
243.7629251653715
 30
0.0
 10
182.0073111308627
 20
242.7252515219865
 30
0.0
 10
178.6211157867002
 20
241.3226434855898
 30
0.0
 10
176.7892411202642
 20
240.9582609589461
 30
0.0
 10
173.1240496910762
 20
240.9582609589461
 30
0.0
 10
171.2921750246402
 20
241.3226434855897
 30
0.0
 10
167.9059796804776
 20
242.7252515219865
 30
0.0
 10
166.3529913260214
 20
243.7629251653716
 30
0.0
 10
163.7613096120957
 20
246.3546068792972
 30
0.0
 10
162.7236359687106
 20
247.9075952337535
 30
0.0
 10
161.3210279323138
 20
251.2937905779162
 30
0.0
 10
160.9566454056701
 20
253.1256652443521
 30
0.0
 10
160.9566454056702
 20
254.9582609589461
 30
0.0
  0
SPLINE
  5
A3
330
1F
100
AcDbEntity
  8
0
  6
SLD-Сплошная
 62
     7
370
    25
100
AcDbSpline
210
0.0
220
0.0
230
1.0
 70
     8
 71
     3
 72
    34
 73
    30
 74
     0
 42
0.00000001
 43
0.00000001
 40
0.0
 40
0.0
 40
0.0
 40
0.0
 40
0.0104434937149221
 40
0.0208658258303648
 40
0.0312781727073355
 40
0.0416917428568501
 40
0.0521177408446678
 40
0.0625673312594118
 40
0.0938288592412518
 40
0.1251123748338804
 40
0.1563739028201293
 40
0.1876574184083666
 40
0.2501267594955329
 40
0.3125961005827041
 40
0.3750654416698743
 40
0.4375347827570429
 40
0.5000041238442137
 40
0.5624734649313834
 40
0.6249428060185531
 40
0.6874121471057233
 40
0.7498814881928936
 40
0.8123508292800614
 40
0.843612357260625
 40
0.8748958728545098
 40
0.9061574008345417
 40
0.9374409164289678
 40
0.9583040215146695
 40
0.9791271352103945
 40
0.9999999999999999
 40
0.9999999999999999
 40
0.9999999999999999
 40
0.9999999999999999
 10
166.9566454056702
 20
254.9582609589461
 30
0.0
 10
166.9574650753343
 20
255.0456584881907
 30
0.0
 10
166.9591027537701
 20
255.2202764535002
 30
0.0
 10
166.9723940985651
 20
255.4817527159634
 30
0.0
 10
166.9936250315792
 20
255.7424189990273
 30
0.0
 10
167.023566977858
 20
256.0022726498706
 30
0.0
 10
167.0620188002016
 20
256.2613195496648
 30
0.0
 10
167.1401492769251
 20
256.6906111904963
 30
0.0
 10
167.2886220548531
 20
257.2842717211172
 30
0.0
 10
167.5537263775408
 20
258.0244296001685
 30
0.0
 10
167.8897750806504
 20
258.7355300745699
 30
0.0
 10
168.4284574709424
 20
259.6339475308428
 30
0.0
 10
169.2633862696532
 20
260.6517702215451
 30
0.0
 10
170.483416884721
 20
261.6528454880301
 30
0.0
 10
171.8754474405431
 20
262.3969549705329
 30
0.0
 10
173.3858610336034
 20
262.8551179440565
 30
0.0
 10
174.9566454022901
 20
263.0098324662721
 30
0.0
 10
176.5274297912574
 20
262.8551179445309
 30
0.0
 10
178.0378433234758
 20
262.3969549686354
 30
0.0
 10
179.4298741023849
 20
261.6528454951456
 30
0.0
 10
180.6499038859464
 20
260.6517701949814
 30
0.0
 10
181.4847177582182
 20
259.6340908632502
 30
0.0
 10
182.0234252313074
 20
258.7356928748377
 30
0.0
 10
182.3594348621314
 20
258.0247733746123
 30
0.0
 10
182.6245730976136
 20
257.2844344482995
 30
0.0
 10
182.7944267659834
 20
256.6061485610997
 30
0.0
 10
182.8935691174292
 20
256.003320967488
 30
0.0
 10
182.9468302462045
 20
255.481945086836
 30
0.0
 10
182.9533710843675
 20
255.1329611359316
 30
0.0
 10
182.9566454056702
 20
254.9582609589461
 30
0.0
  0
SPLINE
  5
A4
330
1F
100
AcDbEntity
  8
0
  6
SLD-Сплошная
 62
     7
370
    25
100
AcDbSpline
210
0.0
220
0.0
230
1.0
 70
     8
 71
     3
 72
    34
 73
    30
 74
     0
 42
0.00000001
 43
0.00000001
 40
0.0
 40
0.0
 40
0.0
 40
0.0
 40
0.010443493715588
 40
0.0208658258314309
 40
0.0312781727085367
 40
0.0416917428579177
 40
0.0521177408453399
 40
0.0625673312594296
 40
0.0938288592424528
 40
0.1251123748338872
 40
0.1563739028167665
 40
0.1876574184083433
 40
0.2501267594955157
 40
0.3125961005826888
 40
0.3750654416698618
 40
0.437534782757035
 40
0.5000041238442074
 40
0.5624734649313808
 40
0.6249428060185531
 40
0.6874121471057261
 40
0.7498814881928983
 40
0.8123508292800707
 40
0.8436123572657318
 40
0.8748958728545393
 40
0.9061574008379627
 40
0.937440916428965
 40
0.9583040215146678
 40
0.9791271352103936
 40
1.0
 40
1.0
 40
1.0
 40
1.0
 10
182.9566454056702
 20
254.9582609589462
 30
0.0
 10
182.955825736006
 20
254.870863429696
 30
0.0
 10
182.9541880575703
 20
254.6962454643777
 30
0.0
 10
182.9408967127756
 20
254.4347692019043
 30
0.0
 10
182.9196657797613
 20
254.1741029188369
 30
0.0
 10
182.8897238334828
 20
253.9142492679969
 30
0.0
 10
182.8512720111394
 20
253.6552023682126
 30
0.0
 10
182.7731415344096
 20
253.2259107273816
 30
0.0
 10
182.6246687564795
 20
252.6322501967672
 30
0.0
 10
182.3595644338091
 20
251.8920923177392
 30
0.0
 10
182.0235157306908
 20
251.1809918433539
 30
0.0
 10
181.4848333404229
 20
250.2825743870673
 30
0.0
 10
180.6499045416847
 20
249.2647516963485
 30
0.0
 10
179.42987392662
 20
248.2636764298616
 30
0.0
 10
178.0378433707971
 20
247.5195669473593
 30
0.0
 10
176.527429777737
 20
247.0614039738355
 30
0.0
 10
174.9566454090503
 20
246.90668945162
 30
0.0
 10
173.3858610200831
 20
247.0614039733611
 30
0.0
 10
171.8754474878645
 20
247.5195669492566
 30
0.0
 10
170.4834167089557
 20
248.2636764227468
 30
0.0
 10
169.263386925393
 20
249.2647517229103
 30
0.0
 10
168.4285730530981
 20
250.282431054677
 30
0.0
 10
167.8898655800073
 20
251.180829043089
 30
0.0
 10
167.5538559491805
 20
251.8917485433454
 30
0.0
 10
167.2887177137322
 20
252.6320874696243
 30
0.0
 10
167.1188640453499
 20
253.3103733568202
 30
0.0
 10
167.0197216939117
 20
253.9132009504044
 30
0.0
 10
166.9664605651357
 20
254.4345768310561
 30
0.0
 10
166.9599197269728
 20
254.7835607819607
 30
0.0
 10
166.9566454056702
 20
254.9582609589461
 30
0.0
  0
LINE
  5
A5
330
1F
100
AcDbEntity
  8
0
  6
SLD-Сплошная
 62
     7
370
    25
100
AcDbLine
 10
177.4566454057
 20
259.2883879779
 30
0.0
 11
169.9566454057
 21
254.9582609589
 31
0.0
  0
LINE
  5
A6
330
1F
100
AcDbEntity
  8
0
  6
SLD-Сплошная
 62
     7
370
    25
100
AcDbLine
 10
169.9566454057
 20
254.9582609589
 30
0.0
 11
177.4566454057
 21
250.62813394
 31
0.0
  0
LINE
  5
A7
330
1F
100
AcDbEntity
  8
0
  6
SLD-Сплошная
 62
     7
370
    25
100
AcDbLine
 10
177.4566454057
 20
250.62813394
 30
0.0
 11
177.4566454057
 21
259.2883879779
 31
0.0
  0
SPLINE
  5
A8
330
1F
100
AcDbEntity
  8
0
  6
SLD-Сплошная
 62
     7
370
    25
100
AcDbSpline
210
0.0
220
0.0
230
1.0
 70
     8
 71
     3
 72
    11
 73
     7
 74
     0
 42
0.00000001
 43
0.00000001
 40
0.0
 40
0.0
 40
0.0
 40
0.0
 40
0.291681925400369
 40
0.5000001172219259
 40
0.708310802733463
 40
1.0
 40
1.0
 40
1.0
 40
1.0
 10
245.9566454056641
 20
-225.0417390442267
 30
0.0
 10
245.9569751242779
 20
-224.7286232530994
 30
0.0
 10
245.957540326751
 20
-224.19188127962
 30
0.0
 10
245.9562568478844
 20
-223.4312221304017
 30
0.0
 10
245.9576168961727
 20
-222.6704114417972
 30
0.0
 10
245.9570033407384
 20
-222.1332928693954
 30
0.0
 10
245.9566454056703
 20
-221.8199494254923
 30
0.0
  0
SPLINE
  5
A9
330
1F
100
AcDbEntity
  8
0
  6
SLD-Сплошная
 62
     7
370
    25
100
AcDbSpline
210
0.0
220
0.0
230
1.0
 70
     8
 71
     3
 72
    24
 73
    20
 74
     0
 42
0.00000001
 43
0.00000001
 40
0.0
 40
0.0
 40
0.0
 40
0.0
 40
0.0182323171266602
 40
0.0312560934900721
 40
0.0625113355820291
 40
0.1250216580845474
 40
0.2498911159888169
 40
0.3749104804458755
 40
0.4999320085623424
 40
0.6249525702362583
 40
0.7499718323681506
 40
0.8126954341795629
 40
0.8749658136888304
 40
0.906375179209931
 40
0.9374862394087558
 40
0.9530370931374339
 40
0.9687396036614311
 40
0.9817675617084481
 40
1.0
 40
1.0
 40
1.0
 40
1.0
 10
225.9566454088373
 20
-245.0417390410536
 30
0.0
 10
226.1471844278109
 20
-245.038593019862
 30
0.0
 10
226.4738299852116
 20
-245.0331997211493
 30
0.0
 10
227.1269131381644
 20
-245.012503529912
 30
0.0
 10
228.2410855935037
 20
-244.9291656051272
 30
0.0
 10
230.506692537372
 20
-244.5945991157313
 30
0.0
 10
233.656511576434
 20
-243.6397843170505
 30
0.0
 10
237.1373886335155
 20
-241.7801379323163
 30
0.0
 10
240.1901165368162
 20
-239.2747360921886
 30
0.0
 10
242.6959466117157
 20
-236.2230621293534
 30
0.0
 10
244.2467358040598
 20
-233.3159092595915
 30
0.0
 10
245.1290642714476
 20
-230.8501242537099
 30
0.0
 10
245.5261976069576
 20
-229.2596708551966
 30
0.0
 10
245.7490284520923
 20
-227.972995149116
 30
0.0
 10
245.8500017888243
 20
-227.1622254081164
 30
0.0
 10
245.9053345015225
 20
-226.5122600269629
 30
0.0
 10
245.9313561790939
 20
-226.0498776557319
 30
0.0
 10
245.9467578953143
 20
-225.5591195222937
 30
0.0
 10
245.9530029910879
 20
-225.2323344669379
 30
0.0
 10
245.9566454056653
 20
-225.0417390473581
 30
0.0
  0
SPLINE
  5
AA
330
1F
100
AcDbEntity
  8
0
  6
SLD-Сплошная
 62
     7
370
    25
100
AcDbSpline
210
0.0
220
0.0
230
1.0
 70
     8
 71
     3
 72
    12
 73
     8
 74
     0
 42
0.00000001
 43
0.00000001
 40
0.0
 40
0.0
 40
0.0
 40
0.0
 40
0.2037249935111976
 40
0.3703915189877176
 40
0.5000006343372259
 40
0.708297042642325
 40
1.0
 40
1.0
 40
1.0
 40
1.0
 10
221.8384404054442
 20
-245.0417390410539
 30
0.0
 10
222.1182132671767
 20
-245.0422379220288
 30
0.0
 10
222.6268670825121
 20
-245.0431449353458
 30
0.0
 10
223.3134537278824
 20
-245.0423101681236
 30
0.0
 10
224.0062247835916
 20
-245.0413590206563
 30
0.0
 10
224.870482703776
 20
-245.0431106092827
 30
0.0
 10
225.5564484344442
 20
-245.0422443957758
 30
0.0
 10
225.9566454067277
 20
-245.0417390410512
 30
0.0
  0
SPLINE
  5
AB
330
1F
100
AcDbEntity
  8
0
  6
SLD-Сплошная
 62
     7
370
    25
100
AcDbSpline
210
0.0
220
0.0
230
1.0
 70
     8
 71
     3
 72
    12
 73
     8
 74
     0
 42
0.00000001
 43
0.00000001
 40
0.0
 40
0.0
 40
0.0
 40
0.0
 40
0.2037297107462895
 40
0.3703963959318143
 40
0.5000010409099481
 40
0.7083027237149728
 40
1.0
 40
1.0
 40
1.0
 40
1.0
 10
225.9566454066864
 20
354.9582609589433
 30
0.0
 10
225.6771563767857
 20
354.9587003110894
 30
0.0
 10
225.1690236699827
 20
354.9594990873253
 30
0.0
 10
224.4828000678832
 20
354.9587713890778
 30
0.0
 10
223.7901618126714
 20
354.9578852235355
 30
0.0
 10
222.925669182683
 20
354.9597919598933
 30
0.0
 10
222.239025451167
 20
354.9588250500524
 30
0.0
 10
221.8384404046982
 20
354.958260958944
 30
0.0
  0
SPLINE
  5
AC
330
1F
100
AcDbEntity
  8
0
  6
SLD-Сплошная
 62
     7
370
    25
100
AcDbSpline
210
0.0
220
0.0
230
1.0
 70
     8
 71
     3
 72
    24
 73
    20
 74
     0
 42
0.00000001
 43
0.00000001
 40
0.0
 40
0.0
 40
0.0
 40
0.0
 40
0.0182322060944876
 40
0.0312560886489991
 40
0.0625113090697705
 40
0.1250215957540114
 40
0.2498915747454553
 40
0.3749108352931079
 40
0.4999322914513537
 40
0.6249527923581377
 40
0.7499719636624325
 40
0.8127121945216541
 40
0.874965770588666
 40
0.9063796814969376
 40
0.93748627864256
 40
0.953038029500204
 40
0.9687395850605793
 40
0.9817670415848424
 40
1.0
 40
1.0
 40
1.0
 40
1.0
 10
245.9566454057143
 20
334.9582609615574
 30
0.0
 10
245.9535439298055
 20
335.1488546251682
 30
0.0
 10
245.9482269645712
 20
335.4755958003659
 30
0.0
 10
245.9275419464615
 20
336.1288524803388
 30
0.0
 10
245.8439112497786
 20
337.2431687502676
 30
0.0
 10
245.5094588038979
 20
339.5088501368853
 30
0.0
 10
244.5544871028068
 20
342.658565377411
 30
0.0
 10
242.6946567430188
 20
346.1396293181806
 30
0.0
 10
240.1889979396339
 20
349.1923823376849
 30
0.0
 10
237.1373342879089
 20
351.6979357205313
 30
0.0
 10
234.2301741576074
 20
353.2486625571074
 30
0.0
 10
231.7643682292516
 20
354.1308638622401
 30
0.0
 10
230.1738318194434
 20
354.5279180427916
 30
0.0
 10
228.8873531821414
 20
354.750681500806
 30
0.0
 10
228.0766260455972
 20
354.8516463884694
 30
0.0
 10
227.4267926974412
 20
354.9069624854077
 30
0.0
 10
226.9645051320587
 20
354.9329649824151
 30
0.0
 10
226.4738862309825
 20
354.9483355538887
 30
0.0
 10
226.1471927439964
 20
354.9546045200046
 30
0.0
 10
225.9566454088358
 20
354.9582609589459
 30
0.0
  0
SPLINE
  5
AD
330
1F
100
AcDbEntity
  8
0
  6
SLD-Сплошная
 62
     7
370
    25
100
AcDbSpline
210
0.0
220
0.0
230
1.0
 70
     8
 71
     3
 72
    11
 73
     7
 74
     0
 42
0.00000001
 43
0.00000001
 40
0.0
 40
0.0
 40
0.0
 40
0.0
 40
0.2916790447724814
 40
0.499999882766255
 40
0.7083076228010027
 40
1.0
 40
1.0
 40
1.0
 40
1.0
 10
245.9566454056685
 20
331.7364713426435
 30
0.0
 10
245.9570033817078
 20
332.0498038799761
 30
0.0
 10
245.9576170287312
 20
332.5869224517108
 30
0.0
 10
245.9562568492893
 20
333.3477219184301
 30
0.0
 10
245.9575401952614
 20
334.1083919753694
 30
0.0
 10
245.9569750832939
 20
334.6451339499557
 30
0.0
 10
245.9566454056647
 20
334.9582609615567
 30
0.0
  0
LINE
  5
AE
330
1F
100
AcDbEntity
  8
0
  6
SLD-Сплошная
 62
     7
370
    25
100
AcDbLine
 10
245.9566454057
 20
331.7364713426
 30
0.0
 11
245.9566454057
 21
-221.8199494255
 31
0.0
  0
LINE
  5
AF
330
1F
100
AcDbEntity
  8
0
  6
SLD-Сплошная
 62
     7
370
    25
100
AcDbLine
 10
221.8384404054
 20
-245.0417390411
 30
0.0
 11
-128.2860211532
 21
-245.0417390411
 31
0.0
  0
LINE
  5
B0
330
1F
100
AcDbEntity
  8
0
  6
SLD-Сплошная
 62
     7
370
    25
100
AcDbLine
 10
-154.0433545943
 20
277.9582609589
 30
0.0
 11
-154.0433545943
 21
334.958260959
 31
0.0
  0
SPLINE
  5
B1
330
1F
100
AcDbEntity
  8
0
  6
SLD-Сплошная
 62
     7
370
    25
100
AcDbSpline
210
0.0
220
0.0
230
1.0
 70
     8
 71
     3
 72
    11
 73
     7
 74
     0
 42
0.00000001
 43
0.00000001
 40
0.0
 40
0.0
 40
0.0
 40
0.0
 40
0.2916798865656614
 40
0.4999999889364647
 40
0.7082987790916389
 40
1.0
 40
1.0
 40
1.0
 40
1.0
 10
-154.0433545943299
 20
334.9582609589812
 30
0.0
 10
-154.0423895041706
 20
335.1100942665677
 30
0.0
 10
-154.0407351389192
 20
335.3703681339477
 30
0.0
 10
-154.0288532245009
 20
335.7388861133217
 30
0.0
 10
-154.0119563511348
 20
336.1071615162717
 30
0.0
 10
-153.9933112012066
 20
336.3666966727279
 30
0.0
 10
-153.9824335754509
 20
336.5181101133915
 30
0.0
  0
LINE
  5
B2
330
1F
100
AcDbEntity
  8
0
  6
SLD-Сплошная
 62
     7
370
    25
100
AcDbLine
 10
-128.2860211533
 20
354.9582609589
 30
0.0
 11
221.8384404047
 21
354.9582609589
 31
0.0
  0
SPLINE
  5
B3
330
1F
100
AcDbEntity
  8
0
  6
SLD-Сплошная
 62
     7
370
    25
100
AcDbSpline
210
0.0
220
0.0
230
1.0
 70
     8
 71
     3
 72
    11
 73
     7
 74
     0
 42
0.00000001
 43
0.00000001
 40
0.0
 40
0.0
 40
0.0
 40
0.0
 40
0.2916798654219548
 40
0.5000000113330938
 40
0.7082987838457426
 40
1.0
 40
1.0
 40
1.0
 40
1.0
 10
-153.9824335753708
 20
-226.601588196521
 30
0.0
 10
-153.9933104649584
 20
-226.4501858447962
 30
0.0
 10
-154.0119557180655
 20
-226.1906506949537
 30
0.0
 10
-154.028852357389
 20
-225.822386396811
 30
0.0
 10
-154.0407349046187
 20
-225.4538573228332
 30
0.0
 10
-154.0423893732717
 20
-225.1935834531627
 30
0.0
 10
-154.0433545943299
 20
-225.0417390410888
 30
0.0
  0
LINE
  5
B4
330
1F
100
AcDbEntity
  8
0
  6
SLD-Сплошная
 62
     7
370
    25
100
AcDbLine
 10
-154.0433545943
 20
-168.0417390411
 30
0.0
 11
-154.0433545943
 21
-225.0417390411
 31
0.0
  0
LINE
  5
B5
330
1F
100
AcDbEntity
  8
0
  6
SLD-Сплошная
 62
     7
370
    25
100
AcDbLine
 10
-154.0433545943
 20
235.9582609589
 30
0.0
 11
-154.0433545943
 21
-126.0417390411
 31
0.0
  0
CIRCLE
  5
B6
330
1F
100
AcDbEntity
  8
0
  6
SLD-Сплошная
 62
     7
370
    25
100
AcDbCircle
 10
174.9566454057
 20
-145.0417390411
 30
0.0
 40
25.95854811567247
  0
CIRCLE
  5
B7
330
1F
100
AcDbEntity
  8
0
  6
SLD-Сплошная
 62
     7
370
    25
100
AcDbCircle
 10
174.9566454057
 20
254.9582609589
 30
0.0
 40
20.9585481156727
  0
LINE
  5
B8
330
1F
100
AcDbEntity
  8
0
  6
SLD-Сплошная
 62
     7
370
    25
100
AcDbLine
 10
616.8337525447
 20
354.9252304709
 30
0.0
 11
426.8341401276
 21
347.9582609591
 31
0.0
  0
LINE
  5
B9
330
1F
100
AcDbEntity
  8
0
  6
SLD-Сплошная
 62
     7
370
    25
100
AcDbLine
 10
426.8341401276
 20
321.9582609588
 30
0.0
 11
616.8319429251
 21
314.9913578027
 31
0.0
  0
LINE
  5
BA
330
1F
100
AcDbEntity
  8
0
  6
SLD-Сплошная
 62
     7
370
    25
100
AcDbLine
 10
616.8341401244
 20
-205.0747553172
 30
0.0
 11
426.8341401244
 21
-212.0417390411
 31
0.0
  0
LINE
  5
BB
330
1F
100
AcDbEntity
  8
0
  6
SLD-Сплошная
 62
     7
370
    25
100
AcDbLine
 10
426.8341401244
 20
-238.0417390411
 30
0.0
 11
616.8341401244
 21
-245.0087227649
 31
0.0
  0
LINE
  5
BC
330
1F
100
AcDbEntity
  8
0
  6
SLD-Сплошная
 62
     7
370
    25
100
AcDbLine
 10
426.8341401244
 20
297.4582609589
 30
0.0
 11
424.8341401244
 21
297.4582609589
 31
0.0
  0
LINE
  5
BD
330
1F
100
AcDbEntity
  8
0
  6
SLD-Сплошная
 62
     7
370
    25
100
AcDbLine
 10
424.8341401244
 20
282.4582609589
 30
0.0
 11
426.8341401244
 21
282.4582609589
 31
0.0
  0
LINE
  5
BE
330
1F
100
AcDbEntity
  8
0
  6
SLD-Сплошная
 62
     7
370
    25
100
AcDbLine
 10
426.8341401244
 20
-172.5417390411
 30
0.0
 11
424.8341401244
 21
-172.5417390411
 31
0.0
  0
LINE
  5
BF
330
1F
100
AcDbEntity
  8
0
  6
SLD-Сплошная
 62
     7
370
    25
100
AcDbLine
 10
424.8341401244
 20
-187.5417390411
 30
0.0
 11
426.8341401244
 21
-187.5417390411
 31
0.0
  0
LINE
  5
C0
330
1F
100
AcDbEntity
  8
0
  6
SLD-Сплошная
 62
     7
370
    25
100
AcDbLine
 10
426.8341401244
 20
-202.5417390411
 30
0.0
 11
424.8341401244
 21
-202.5417390411
 31
0.0
  0
LINE
  5
C1
330
1F
100
AcDbEntity
  8
0
  6
SLD-Сплошная
 62
     7
370
    25
100
AcDbLine
 10
424.8341401244
 20
-217.5417390411
 30
0.0
 11
426.8341401244
 21
-217.5417390411
 31
0.0
  0
LINE
  5
C2
330
1F
100
AcDbEntity
  8
0
  6
SLD-Сплошная
 62
     7
370
    25
100
AcDbLine
 10
426.8341401244
 20
327.4582609589
 30
0.0
 11
424.8341401244
 21
327.4582609589
 31
0.0
  0
LINE
  5
C3
330
1F
100
AcDbEntity
  8
0
  6
SLD-Сплошная
 62
     7
370
    25
100
AcDbLine
 10
424.8341401244
 20
312.4582609589
 30
0.0
 11
426.8341401244
 21
312.4582609589
 31
0.0
  0
LINE
  5
C4
330
1F
100
AcDbEntity
  8
0
  6
SLD-Сплошная
 62
     7
370
    25
100
AcDbLine
 10
616.8341401244
 20
354.9252446828
 30
0.0
 11
616.8337525447
 21
354.9252304709
 31
0.0
  0
LINE
  5
C5
330
1F
100
AcDbEntity
  8
0
  6
SLD-Сплошная
 62
     7
370
    25
100
AcDbLine
 10
650.8341401244
 20
-159.0417390411
 30
0.0
 11
653.8341401244
 21
-159.0417390411
 31
0.0
  0
LINE
  5
C6
330
1F
100
AcDbEntity
  8
0
  6
SLD-Сплошная
 62
     7
370
    25
100
AcDbLine
 10
653.8341401244
 20
-131.0417390411
 30
0.0
 11
650.8341401244
 21
-131.0417390411
 31
0.0
  0
LINE
  5
C7
330
1F
100
AcDbEntity
  8
0
  6
SLD-Сплошная
 62
     7
370
    25
100
AcDbLine
 10
650.8341401244
 20
240.9582609589
 30
0.0
 11
653.8341401244
 21
240.9582609589
 31
0.0
  0
LINE
  5
C8
330
1F
100
AcDbEntity
  8
0
  6
SLD-Сплошная
 62
     7
370
    25
100
AcDbLine
 10
653.8341401244
 20
268.9582609589
 30
0.0
 11
650.8341401244
 21
268.9582609589
 31
0.0
  0
LINE
  5
C9
330
1F
100
AcDbEntity
  8
0
  6
SLD-Сплошная
 62
     7
370
    25
100
AcDbLine
 10
650.8341401244
 20
-153.0417390411
 30
0.0
 11
641.8341401244
 21
-153.0417390411
 31
0.0
  0
LINE
  5
CA
330
1F
100
AcDbEntity
  8
0
  6
SLD-Сплошная
 62
     7
370
    25
100
AcDbLine
 10
641.8341401244
 20
-162.0417390411
 30
0.0
 11
650.8341401244
 21
-162.0417390411
 31
0.0
  0
LINE
  5
CB
330
1F
100
AcDbEntity
  8
0
  6
SLD-Сплошная
 62
     7
370
    25
100
AcDbLine
 10
650.8341401244
 20
-153.0417390411
 30
0.0
 11
650.8341401244
 21
-162.0417390411
 31
0.0
  0
LINE
  5
CC
330
1F
100
AcDbEntity
  8
0
  6
SLD-Сплошная
 62
     7
370
    25
100
AcDbLine
 10
641.8341401244
 20
-153.0417390411
 30
0.0
 11
641.8341401244
 21
-162.0417390411
 31
0.0
  0
LINE
  5
CD
330
1F
100
AcDbEntity
  8
0
  6
SLD-Сплошная
 62
     7
370
    25
100
AcDbLine
 10
641.8341401244
 20
-141.0417390411
 30
0.0
 11
650.8341401244
 21
-141.0417390411
 31
0.0
  0
LINE
  5
CE
330
1F
100
AcDbEntity
  8
0
  6
SLD-Сплошная
 62
     7
370
    25
100
AcDbLine
 10
641.8341401244
 20
-132.0417390411
 30
0.0
 11
650.8341401244
 21
-132.0417390411
 31
0.0
  0
LINE
  5
CF
330
1F
100
AcDbEntity
  8
0
  6
SLD-Сплошная
 62
     7
370
    25
100
AcDbLine
 10
650.8341401244
 20
-132.0417390411
 30
0.0
 11
650.8341401244
 21
-141.0417390411
 31
0.0
  0
LINE
  5
D0
330
1F
100
AcDbEntity
  8
0
  6
SLD-Сплошная
 62
     7
370
    25
100
AcDbLine
 10
641.8341401244
 20
-141.0417390411
 30
0.0
 11
641.8341401244
 21
-132.0417390411
 31
0.0
  0
LINE
  5
D1
330
1F
100
AcDbEntity
  8
0
  6
SLD-Сплошная
 62
     7
370
    25
100
AcDbLine
 10
641.7341401244
 20
250.9582609589
 30
0.0
 11
641.7341401244
 21
241.9582609589
 31
0.0
  0
LINE
  5
D2
330
1F
100
AcDbEntity
  8
0
  6
SLD-Сплошная
 62
     7
370
    25
100
AcDbLine
 10
650.7341401244
 20
250.9582609589
 30
0.0
 11
641.7341401244
 21
250.9582609589
 31
0.0
  0
LINE
  5
D3
330
1F
100
AcDbEntity
  8
0
  6
SLD-Сплошная
 62
     7
370
    25
100
AcDbLine
 10
650.7341401244
 20
250.9582609589
 30
0.0
 11
650.7341401244
 21
241.9582609589
 31
0.0
  0
LINE
  5
D4
330
1F
100
AcDbEntity
  8
0
  6
SLD-Сплошная
 62
     7
370
    25
100
AcDbLine
 10
641.7341401244
 20
241.9582609589
 30
0.0
 11
650.7341401244
 21
241.9582609589
 31
0.0
  0
LINE
  5
D5
330
1F
100
AcDbEntity
  8
0
  6
SLD-Сплошная
 62
     7
370
    25
100
AcDbLine
 10
650.7341401244
 20
271.9582609589
 30
0.0
 11
650.7341401244
 21
262.9582609589
 31
0.0
  0
LINE
  5
D6
330
1F
100
AcDbEntity
  8
0
  6
SLD-Сплошная
 62
     7
370
    25
100
AcDbLine
 10
641.7341401244
 20
262.9582609589
 30
0.0
 11
650.7341401244
 21
262.9582609589
 31
0.0
  0
LINE
  5
D7
330
1F
100
AcDbEntity
  8
0
  6
SLD-Сплошная
 62
     7
370
    25
100
AcDbLine
 10
641.7341401244
 20
262.9582609589
 30
0.0
 11
641.7341401244
 21
271.9582609589
 31
0.0
  0
LINE
  5
D8
330
1F
100
AcDbEntity
  8
0
  6
SLD-Сплошная
 62
     7
370
    25
100
AcDbLine
 10
641.7341401244
 20
271.9582609589
 30
0.0
 11
650.7341401244
 21
271.9582609589
 31
0.0
  0
SPLINE
  5
D9
330
1F
100
AcDbEntity
  8
0
  6
SLD-Сплошная
 62
     7
370
    25
100
AcDbSpline
210
0.0
220
0.0
230
1.0
 70
    24
 71
     3
 72
    33
 73
    29
 74
     0
 42
0.00000001
 43
0.00000001
 40
0.0
 40
0.0
 40
0.0
 40
0.0
 40
0.0292520466002139
 40
0.0691855063455501
 40
0.1091189660908851
 40
0.1490524258362181
 40
0.188985885581554
 40
0.2289193453268897
 40
0.268852805072223
 40
0.3087862648175573
 40
0.3487197245628922
 40
0.3886531843082249
 40
0.4285866440535611
 40
0.4685201037988968
 40
0.5084535635442303
 40
0.5483870232895648
 40
0.5883204830349006
 40
0.6282539427802337
 40
0.6681874025255686
 40
0.7081208622709039
 40
0.7480543220162397
 40
0.7879877817615728
 40
0.8279212415069083
 40
0.8678547012522438
 40
0.9077881609975788
 40
0.9477216207429111
 40
0.987655080488247
 40
1.0
 40
1.0
 40
1.0
 40
1.0
 10
426.834140127622
 20
347.9382271340393
 30
0.0
 10
426.834140127622
 20
347.9356342792828
 30
0.0
 10
426.834140127622
 20
347.9295017863445
 30
0.0
 10
426.8341401276221
 20
347.6813932550397
 30
0.0
 10
426.834140127622
 20
347.2352512667128
 30
0.0
 10
426.834140127622
 20
346.5891057307242
 30
0.0
 10
426.834140127622
 20
345.7620274527532
 30
0.0
 10
426.834140127622
 20
344.7646280218061
 30
0.0
 10
426.834140127622
 20
343.6132248521229
 30
0.0
 10
426.834140127622
 20
342.3257444975856
 30
0.0
 10
426.834140127622
 20
340.9224698571059
 30
0.0
 10
426.834140127622
 20
339.4254456488513
 30
0.0
 10
426.834140127622
 20
337.85820578201
 30
0.0
 10
426.834140127622
 20
336.2453836535194
 30
0.0
 10
426.834140127622
 20
334.6123302427081
 30
0.0
 10
426.834140127622
 20
332.9847142745539
 30
0.0
 10
426.834140127622
 20
331.388118917562
 30
0.0
 10
426.834140127622
 20
329.8476403625648
 30
0.0
 10
426.834140127622
 20
328.387490382438
 30
0.0
 10
426.834140127622
 20
327.0306269513086
 30
0.0
 10
426.834140127622
 20
325.7983516128663
 30
0.0
 10
426.8341401276221
 20
324.7101305606167
 30
0.0
 10
426.834140127622
 20
323.7827068220753
 30
0.0
 10
426.834140127622
 20
323.0320085489185
 30
0.0
 10
426.834140127622
 20
322.4647946499658
 30
0.0
 10
426.834140127622
 20
322.1087931085339
 30
0.0
 10
426.834140127622
 20
321.9476136513354
 30
0.0
 10
426.834140127622
 20
321.973893859257
 30
0.0
 10
426.834140127622
 20
321.9800996188111
 30
0.0
  0
LINE
  5
DA
330
1F
100
AcDbEntity
  8
0
  6
SLD-Сплошная
 62
     7
370
    25
100
AcDbLine
 10
595.8341401244
 20
82.4582609589
 30
0.0
 11
595.8341401244
 21
27.4582609589
 31
0.0
  0
LINE
  5
DB
330
1F
100
AcDbEntity
  8
0
  6
SLD-Сплошная
 62
     7
370
    25
100
AcDbLine
 10
616.8341401244
 20
84.9582609589
 30
0.0
 11
595.8341401244
 21
82.4582609589
 31
0.0
  0
LINE
  5
DC
330
1F
100
AcDbEntity
  8
0
  6
SLD-Сплошная
 62
     7
370
    25
100
AcDbLine
 10
616.8341401244
 20
224.9582609589
 30
0.0
 11
616.8341401244
 21
84.9582609589
 31
0.0
  0
LINE
  5
DD
330
1F
100
AcDbEntity
  8
0
  6
SLD-Сплошная
 62
     7
370
    25
100
AcDbLine
 10
595.8341401244
 20
282.4582609589
 30
0.0
 11
595.8341401244
 21
227.4582609589
 31
0.0
  0
LINE
  5
DE
330
1F
100
AcDbEntity
  8
0
  6
SLD-Сплошная
 62
     7
370
    25
100
AcDbLine
 10
626.8341401244
 20
334.9582609589
 30
0.0
 11
626.8341401244
 21
-225.0417390411
 31
0.0
  0
LINE
  5
DF
330
1F
100
AcDbEntity
  8
0
  6
SLD-Сплошная
 62
     7
370
    25
100
AcDbLine
 10
616.8341401244
 20
-175.0417390411
 30
0.0
 11
616.8341401244
 21
-225.0417390411
 31
0.0
  0
LINE
  5
E0
330
1F
100
AcDbEntity
  8
0
  6
SLD-Сплошная
 62
     7
370
    25
100
AcDbLine
 10
595.8341401244
 20
-172.5417390411
 30
0.0
 11
616.8341401244
 21
-175.0417390411
 31
0.0
  0
LINE
  5
E1
330
1F
100
AcDbEntity
  8
0
  6
SLD-Сплошная
 62
     7
370
    25
100
AcDbLine
 10
595.8341401244
 20
-117.5417390411
 30
0.0
 11
595.8341401244
 21
-172.5417390411
 31
0.0
  0
LINE
  5
E2
330
1F
100
AcDbEntity
  8
0
  6
SLD-Сплошная
 62
     7
370
    25
100
AcDbLine
 10
616.8341401244
 20
24.9582609589
 30
0.0
 11
616.8341401244
 21
-115.0417390411
 31
0.0
  0
LINE
  5
E3
330
1F
100
AcDbEntity
  8
0
  6
SLD-Сплошная
 62
     7
370
    25
100
AcDbLine
 10
616.8341401244
 20
284.9582609589
 30
0.0
 11
595.8341401244
 21
282.4582609589
 31
0.0
  0
LINE
  5
E4
330
1F
100
AcDbEntity
  8
0
  6
SLD-Сплошная
 62
     7
370
    25
100
AcDbLine
 10
595.8341401244
 20
27.4582609589
 30
0.0
 11
616.8341401244
 21
24.9582609589
 31
0.0
  0
LINE
  5
E5
330
1F
100
AcDbEntity
  8
0
  6
SLD-Сплошная
 62
     7
370
    25
100
AcDbLine
 10
595.8341401244
 20
227.4582609589
 30
0.0
 11
616.8341401244
 21
224.9582609589
 31
0.0
  0
LINE
  5
E6
330
1F
100
AcDbEntity
  8
0
  6
SLD-Сплошная
 62
     7
370
    25
100
AcDbLine
 10
616.8341401244
 20
-115.0417390411
 30
0.0
 11
595.8341401244
 21
-117.5417390411
 31
0.0
  0
LINE
  5
E7
330
1F
100
AcDbEntity
  8
0
  6
SLD-Сплошная
 62
     7
370
    25
100
AcDbLine
 10
616.8341401244
 20
334.9582609589
 30
0.0
 11
616.8341401244
 21
284.9582609589
 31
0.0
  0
LINE
  5
E8
330
1F
100
AcDbEntity
  8
0
  6
SLD-Сплошная
 62
     7
370
    25
100
AcDbLine
 10
626.8341401244
 20
354.9582609589
 30
0.0
 11
616.8341401244
 21
354.9582609589
 31
0.0
  0
LINE
  5
E9
330
1F
100
AcDbEntity
  8
0
  6
SLD-Сплошная
 62
     7
370
    25
100
AcDbLine
 10
626.8341401244
 20
354.9582609589
 30
0.0
 11
626.8341401244
 21
334.9582609589
 31
0.0
  0
LINE
  5
EA
330
1F
100
AcDbEntity
  8
0
  6
SLD-Сплошная
 62
     7
370
    25
100
AcDbLine
 10
616.8341401244
 20
354.9582609589
 30
0.0
 11
616.8341401244
 21
334.9582609589
 31
0.0
  0
LINE
  5
EB
330
1F
100
AcDbEntity
  8
0
  6
SLD-Сплошная
 62
     7
370
    25
100
AcDbLine
 10
626.8341401244
 20
-225.0417390411
 30
0.0
 11
626.8341401244
 21
-245.0417390411
 31
0.0
  0
LINE
  5
EC
330
1F
100
AcDbEntity
  8
0
  6
SLD-Сплошная
 62
     7
370
    25
100
AcDbLine
 10
626.8341401244
 20
-245.0417390411
 30
0.0
 11
616.8341401244
 21
-245.0417390411
 31
0.0
  0
LINE
  5
ED
330
1F
100
AcDbEntity
  8
0
  6
SLD-Сплошная
 62
     7
370
    25
100
AcDbLine
 10
616.8341401244
 20
-225.0417390411
 30
0.0
 11
616.8341401244
 21
-245.0417390411
 31
0.0
  0
LINE
  5
EE
330
1F
100
AcDbEntity
  8
0
  6
SLD-Сплошная
 62
     7
370
    25
100
AcDbLine
 10
426.8341401244
 20
-212.0417390411
 30
0.0
 11
426.8341401244
 21
-238.0417390411
 31
0.0
  0
LINE
  5
EF
330
1F
100
AcDbEntity
  8
0
  6
SLD-Сплошная
 62
     7
370
    25
100
AcDbLine
 10
426.8341401244
 20
321.9144103904
 30
0.0
 11
426.8341401244
 21
-212.0417390411
 31
0.0
  0
LINE
  5
F0
330
1F
100
AcDbEntity
  8
0
  6
SLD-Сплошная
 62
     7
370
    25
100
AcDbLine
 10
424.8341401244
 20
297.4582609589
 30
0.0
 11
424.8341401244
 21
282.4582609589
 31
0.0
  0
LINE
  5
F1
330
1F
100
AcDbEntity
  8
0
  6
SLD-Сплошная
 62
     7
370
    25
100
AcDbLine
 10
424.8341401244
 20
-172.5417390411
 30
0.0
 11
424.8341401244
 21
-180.0417390411
 31
0.0
  0
LINE
  5
F2
330
1F
100
AcDbEntity
  8
0
  6
SLD-Сплошная
 62
     7
370
    25
100
AcDbLine
 10
424.8341401244
 20
-180.0417390411
 30
0.0
 11
424.8341401244
 21
-187.5417390411
 31
0.0
  0
LINE
  5
F3
330
1F
100
AcDbEntity
  8
0
  6
SLD-Сплошная
 62
     7
370
    25
100
AcDbLine
 10
424.8341401244
 20
-165.0417390411
 30
0.0
 11
424.8341401244
 21
-160.0417390411
 31
0.0
  0
LINE
  5
F4
330
1F
100
AcDbEntity
  8
0
  6
SLD-Сплошная
 62
     7
370
    25
100
AcDbLine
 10
426.8341401244
 20
-160.0417390411
 30
0.0
 11
424.8341401244
 21
-160.0417390411
 31
0.0
  0
LINE
  5
F5
330
1F
100
AcDbEntity
  8
0
  6
SLD-Сплошная
 62
     7
370
    25
100
AcDbLine
 10
426.8341401244
 20
-165.0417390411
 30
0.0
 11
424.8341401244
 21
-165.0417390411
 31
0.0
  0
LINE
  5
F6
330
1F
100
AcDbEntity
  8
0
  6
SLD-Сплошная
 62
     7
370
    25
100
AcDbLine
 10
426.8341401244
 20
274.9582609589
 30
0.0
 11
424.8341401244
 21
274.9582609589
 31
0.0
  0
LINE
  5
F7
330
1F
100
AcDbEntity
  8
0
  6
SLD-Сплошная
 62
     7
370
    25
100
AcDbLine
 10
426.8341401244
 20
269.9582609589
 30
0.0
 11
424.8341401244
 21
269.9582609589
 31
0.0
  0
LINE
  5
F8
330
1F
100
AcDbEntity
  8
0
  6
SLD-Сплошная
 62
     7
370
    25
100
AcDbLine
 10
424.8341401244
 20
269.9582609589
 30
0.0
 11
424.8341401244
 21
274.9582609589
 31
0.0
  0
LINE
  5
F9
330
1F
100
AcDbEntity
  8
0
  6
SLD-Сплошная
 62
     7
370
    25
100
AcDbLine
 10
426.8341401244
 20
304.9582609589
 30
0.0
 11
424.8341401244
 21
304.9582609589
 31
0.0
  0
LINE
  5
FA
330
1F
100
AcDbEntity
  8
0
  6
SLD-Сплошная
 62
     7
370
    25
100
AcDbLine
 10
424.8341401244
 20
274.9582609589
 30
0.0
 11
424.8341401244
 21
282.4582609589
 31
0.0
  0
LINE
  5
FB
330
1F
100
AcDbEntity
  8
0
  6
SLD-Сплошная
 62
     7
370
    25
100
AcDbLine
 10
424.8341401244
 20
297.4582609589
 30
0.0
 11
424.8341401244
 21
304.9582609589
 31
0.0
  0
LINE
  5
FC
330
1F
100
AcDbEntity
  8
0
  6
SLD-Сплошная
 62
     7
370
    25
100
AcDbLine
 10
426.8341401244
 20
-195.0417390411
 30
0.0
 11
424.8341401244
 21
-195.0417390411
 31
0.0
  0
LINE
  5
FD
330
1F
100
AcDbEntity
  8
0
  6
SLD-Сплошная
 62
     7
370
    25
100
AcDbLine
 10
424.8341401244
 20
-195.0417390411
 30
0.0
 11
424.8341401244
 21
-187.5417390411
 31
0.0
  0
LINE
  5
FE
330
1F
100
AcDbEntity
  8
0
  6
SLD-Сплошная
 62
     7
370
    25
100
AcDbLine
 10
424.8341401244
 20
-172.5417390411
 30
0.0
 11
424.8341401244
 21
-165.0417390411
 31
0.0
  0
LINE
  5
FF
330
1F
100
AcDbEntity
  8
0
  6
SLD-Сплошная
 62
     7
370
    25
100
AcDbLine
 10
424.8341401244
 20
-202.5417390411
 30
0.0
 11
424.8341401244
 21
-210.0417390411
 31
0.0
  0
LINE
  5
100
330
1F
100
AcDbEntity
  8
0
  6
SLD-Сплошная
 62
     7
370
    25
100
AcDbLine
 10
424.8341401244
 20
-210.0417390411
 30
0.0
 11
424.8341401244
 21
-217.5417390411
 31
0.0
  0
LINE
  5
101
330
1F
100
AcDbEntity
  8
0
  6
SLD-Сплошная
 62
     7
370
    25
100
AcDbLine
 10
424.8341401244
 20
327.4582609589
 30
0.0
 11
424.8341401244
 21
312.4582609589
 31
0.0
  0
LINE
  5
102
330
1F
100
AcDbEntity
  8
0
  6
SLD-Сплошная
 62
     7
370
    25
100
AcDbLine
 10
424.8341401244
 20
304.9582609589
 30
0.0
 11
424.8341401244
 21
312.4582609589
 31
0.0
  0
LINE
  5
103
330
1F
100
AcDbEntity
  8
0
  6
SLD-Сплошная
 62
     7
370
    25
100
AcDbLine
 10
424.8341401244
 20
-202.5417390411
 30
0.0
 11
424.8341401244
 21
-195.0417390411
 31
0.0
  0
LINE
  5
104
330
1F
100
AcDbEntity
  8
0
  6
SLD-Сплошная
 62
     7
370
    25
100
AcDbLine
 10
626.8341401244
 20
271.9582609589
 30
0.0
 11
626.8341401244
 21
241.9582609589
 31
0.0
  0
LINE
  5
105
330
1F
100
AcDbEntity
  8
0
  6
SLD-Сплошная
 62
     7
370
    25
100
AcDbLine
 10
639.8341401244
 20
271.9582609589
 30
0.0
 11
626.8341401244
 21
271.9582609589
 31
0.0
  0
LINE
  5
106
330
1F
100
AcDbEntity
  8
0
  6
SLD-Сплошная
 62
     7
370
    25
100
AcDbLine
 10
639.8341401244
 20
262.9582609589
 30
0.0
 11
639.8341401244
 21
271.9582609589
 31
0.0
  0
LINE
  5
107
330
1F
100
AcDbEntity
  8
0
  6
SLD-Сплошная
 62
     7
370
    25
100
AcDbLine
 10
650.8341401244
 20
262.9582609589
 30
0.0
 11
639.8341401244
 21
262.9582609589
 31
0.0
  0
LINE
  5
108
330
1F
100
AcDbEntity
  8
0
  6
SLD-Сплошная
 62
     7
370
    25
100
AcDbLine
 10
650.8341401244
 20
250.9582609589
 30
0.0
 11
650.8341401244
 21
262.9582609589
 31
0.0
  0
LINE
  5
109
330
1F
100
AcDbEntity
  8
0
  6
SLD-Сплошная
 62
     7
370
    25
100
AcDbLine
 10
639.8341401244
 20
250.9582609589
 30
0.0
 11
650.8341401244
 21
250.9582609589
 31
0.0
  0
LINE
  5
10A
330
1F
100
AcDbEntity
  8
0
  6
SLD-Сплошная
 62
     7
370
    25
100
AcDbLine
 10
639.8341401244
 20
241.9582609589
 30
0.0
 11
639.8341401244
 21
250.9582609589
 31
0.0
  0
LINE
  5
10B
330
1F
100
AcDbEntity
  8
0
  6
SLD-Сплошная
 62
     7
370
    25
100
AcDbLine
 10
626.8341401244
 20
241.9582609589
 30
0.0
 11
639.8341401244
 21
241.9582609589
 31
0.0
  0
LINE
  5
10C
330
1F
100
AcDbEntity
  8
0
  6
SLD-Сплошная
 62
     7
370
    25
100
AcDbLine
 10
639.8341401244
 20
-141.0417390411
 30
0.0
 11
639.8341401244
 21
-132.0417390411
 31
0.0
  0
LINE
  5
10D
330
1F
100
AcDbEntity
  8
0
  6
SLD-Сплошная
 62
     7
370
    25
100
AcDbLine
 10
650.8341401244
 20
-141.0417390411
 30
0.0
 11
639.8341401244
 21
-141.0417390411
 31
0.0
  0
LINE
  5
10E
330
1F
100
AcDbEntity
  8
0
  6
SLD-Сплошная
 62
     7
370
    25
100
AcDbLine
 10
650.8341401244
 20
-153.0417390411
 30
0.0
 11
650.8341401244
 21
-141.0417390411
 31
0.0
  0
LINE
  5
10F
330
1F
100
AcDbEntity
  8
0
  6
SLD-Сплошная
 62
     7
370
    25
100
AcDbLine
 10
639.8341401244
 20
-153.0417390411
 30
0.0
 11
650.8341401244
 21
-153.0417390411
 31
0.0
  0
LINE
  5
110
330
1F
100
AcDbEntity
  8
0
  6
SLD-Сплошная
 62
     7
370
    25
100
AcDbLine
 10
639.8341401244
 20
-162.0417390411
 30
0.0
 11
639.8341401244
 21
-153.0417390411
 31
0.0
  0
LINE
  5
111
330
1F
100
AcDbEntity
  8
0
  6
SLD-Сплошная
 62
     7
370
    25
100
AcDbLine
 10
626.8341401244
 20
-132.0417390411
 30
0.0
 11
626.8341401244
 21
-162.0417390411
 31
0.0
  0
LINE
  5
112
330
1F
100
AcDbEntity
  8
0
  6
SLD-Сплошная
 62
     7
370
    25
100
AcDbLine
 10
626.8341401244
 20
-162.0417390411
 30
0.0
 11
639.8341401244
 21
-162.0417390411
 31
0.0
  0
LINE
  5
113
330
1F
100
AcDbEntity
  8
0
  6
SLD-Сплошная
 62
     7
370
    25
100
AcDbLine
 10
639.8341401244
 20
-132.0417390411
 30
0.0
 11
626.8341401244
 21
-132.0417390411
 31
0.0
  0
SPLINE
  5
114
330
1F
100
AcDbEntity
  8
0
  6
SLD-Сплошная
 62
     7
370
    25
100
AcDbSpline
210
0.0
220
0.0
230
1.0
 70
     8
 71
     3
 72
    11
 73
     7
 74
     0
 42
0.00000001
 43
0.00000001
 40
0.0
 40
0.0
 40
0.0
 40
0.0
 40
0.2916798654219548
 40
0.5000000113330938
 40
0.7082987838457426
 40
1.0
 40
1.0
 40
1.0
 40
1.0
 10
639.8564778313
 20
-226.601588196521
 30
0.0
 10
639.8527751330056
 20
-226.4501858447962
 30
0.0
 10
639.8464279373003
 20
-226.1906506949537
 30
0.0
 10
639.8391353373971
 20
-225.822386396811
 30
0.0
 10
639.8358776972548
 20
-225.4538573228332
 30
0.0
 10
639.8347803306903
 20
-225.1935834531627
 30
0.0
 10
639.834140124353
 20
-225.0417390410888
 30
0.0
  0
SPLINE
  5
115
330
1F
100
AcDbEntity
  8
0
  6
SLD-Сплошная
 62
     7
370
    25
100
AcDbSpline
210
0.0
220
0.0
230
1.0
 70
     8
 71
     3
 72
    20
 73
    16
 74
     0
 42
0.00000001
 43
0.00000001
 40
0.0
 40
0.0
 40
0.0
 40
0.0
 40
0.0182288018533741
 40
0.0312508057196013
 40
0.0625007846885294
 40
0.1250007470458951
 40
0.25000073690824
 40
0.3750007865469948
 40
0.5000008109880861
 40
0.6250008410781049
 40
0.7500004622606574
 40
0.875000081626877
 40
0.9375000360826523
 40
0.9687500159953327
 40
1.0
 40
1.0
 40
1.0
 40
1.0
 10
639.8564778313556
 20
-226.6015881982941
 30
0.0
 10
639.8621322310554
 20
-226.781980604024
 30
0.0
 10
639.8718259316013
 20
-227.091238890449
 30
0.0
 10
639.8882121207056
 20
-227.708922634801
 30
0.0
 10
639.9206668824675
 20
-228.7585679968878
 30
0.0
 10
639.9814719435607
 20
-230.8843540505873
 30
0.0
 10
640.045537955931
 20
-233.81269508207
 30
0.0
 10
640.0477327703068
 20
-237.0205693166086
 30
0.0
 10
639.9699985339171
 20
-239.8119385923166
 30
0.0
 10
639.8342236998832
 20
-242.0887678899071
 30
0.0
 10
639.6883223314193
 20
-243.7744100847611
 30
0.0
 10
639.6179424698722
 20
-244.6360934488234
 30
0.0
 10
639.6293841052167
 20
-244.9422276219883
 30
0.0
 10
639.661635156417
 20
-245.0266404328028
 30
0.0
 10
639.6867877075713
 20
-245.0367061714128
 30
0.0
 10
639.6993639839718
 20
-245.0417390410473
 30
0.0
  0
LINE
  5
116
330
1F
100
AcDbEntity
  8
0
  6
SLD-Сплошная
 62
     7
370
    25
100
AcDbLine
 10
626.8341401245
 20
-245.0417390411
 30
0.0
 11
639.699363984
 21
-245.0417390411
 31
0.0
  0
SPLINE
  5
117
330
1F
100
AcDbEntity
  8
0
  6
SLD-Сплошная
 62
     7
370
    25
100
AcDbSpline
210
0.0
220
0.0
230
1.0
 70
    24
 71
     3
 72
    25
 73
    21
 74
     0
 42
0.00000001
 43
0.00000001
 40
0.0
 40
0.0
 40
0.0
 40
0.0
 40
0.0208276392725989
 40
0.0357081375133146
 40
0.0713780957391478
 40
0.1061834470550632
 40
0.1428036096640917
 40
0.2146160902623942
 40
0.2857076601124941
 40
0.3928150003924951
 40
0.4999278318631261
 40
0.6248956600592668
 40
0.6873940027524077
 40
0.7500271466061583
 40
0.8125336907780795
 40
0.8750624125073306
 40
0.9067203835929226
 40
0.9375447238116742
 40
0.9687631695544989
 40
1.0
 40
1.0
 40
1.0
 40
1.0
 10
626.834140124353
 20
-245.0417390410539
 30
0.0
 10
626.834140124353
 20
-245.0355022806103
 30
0.0
 10
626.834140124353
 20
-245.0248096093648
 30
0.0
 10
626.8341401243531
 20
-244.9966072518572
 30
0.0
 10
626.8341401243531
 20
-244.9331446736195
 30
0.0
 10
626.834140124353
 20
-244.7742439365471
 30
0.0
 10
626.834140124353
 20
-244.4765804923181
 30
0.0
 10
626.8341401243531
 20
-243.9572913779093
 30
0.0
 10
626.834140124353
 20
-242.9577968825099
 30
0.0
 10
626.8341401243531
 20
-241.4351749652074
 30
0.0
 10
626.834140124353
 20
-239.1308587867241
 30
0.0
 10
626.834140124353
 20
-236.7313173323237
 30
0.0
 10
626.8341401243531
 20
-234.4837124647935
 30
0.0
 10
626.834140124353
 20
-232.7052288750079
 30
0.0
 10
626.834140124353
 20
-230.8535199906416
 30
0.0
 10
626.834140124353
 20
-229.2599090805135
 30
0.0
 10
626.8341401243531
 20
-227.9705708996148
 30
0.0
 10
626.834140124353
 20
-226.9966488741499
 30
0.0
 10
626.834140124353
 20
-226.0219168499097
 30
0.0
 10
626.8341401243531
 20
-225.3685290890281
 30
0.0
 10
626.8341401243531
 20
-225.0417390410539
 30
0.0
  0
SPLINE
  5
118
330
1F
100
AcDbEntity
  8
0
  6
SLD-Сплошная
 62
     7
370
    25
100
AcDbSpline
210
0.0
220
0.0
230
1.0
 70
     8
 71
     3
 72
    35
 73
    31
 74
     0
 42
0.00000001
 43
0.00000001
 40
0.0
 40
0.0
 40
0.0
 40
0.0
 40
0.0232382198501626
 40
0.0461066970846732
 40
0.0686086016749732
 40
0.0907472610585399
 40
0.1125261691660941
 40
0.1339489959487124
 40
0.1550195974186285
 40
0.1757420262143827
 40
0.1961205426969885
 40
0.2161596265785778
 40
0.2358639890788195
 40
0.2552385855962527
 40
0.2742886288726328
 40
0.2930196026165662
 40
0.3114372755397546
 40
0.4420510405364791
 40
0.5588565878147531
 40
0.667247237360509
 40
0.772628702004574
 40
0.7963029286963401
 40
0.820231185589801
 40
0.8444791212635324
 40
0.8691098282953469
 40
0.8941835099418142
 40
0.919757241224154
 40
0.9458848203325508
 40
0.9726167017927333
 40
1.0
 40
1.0
 40
1.0
 40
1.0
 10
650.834140124353
 20
-225.0417390410541
 30
0.0
 10
650.8341411314437
 20
-225.0407229071621
 30
0.0
 10
650.8341431296014
 20
-225.0387068070538
 30
0.0
 10
650.8341555859097
 20
-225.0221353157087
 30
0.0
 10
650.8341705195941
 20
-224.9956484212776
 30
0.0
 10
650.8341860105088
 20
-224.9583595994369
 30
0.0
 10
650.8341995525858
 20
-224.9105576772445
 30
0.0
 10
650.8342095195343
 20
-224.8522240609207
 30
0.0
 10
650.834214776544
 20
-224.7834204565468
 30
0.0
 10
650.8342147766098
 20
-224.7041874909392
 30
0.0
 10
650.8342095304987
 20
-224.6145712027061
 30
0.0
 10
650.8341996082502
 20
-224.5146161057957
 30
0.0
 10
650.8341861376449
 20
-224.4043669978983
 30
0.0
 10
650.8341707842754
 20
-224.28386845353
 30
0.0
 10
650.8341558060448
 20
-224.1531650313168
 30
0.0
 10
650.8341438346833
 20
-224.0123008975394
 30
0.0
 10
650.8341280973707
 20
-223.55393748435
 30
0.0
 10
650.8342786077485
 20
-222.5762788462907
 30
0.0
 10
650.8340743718849
 20
-220.5226431137615
 30
0.0
 10
650.834269747813
 20
-217.8563259546278
 30
0.0
 10
650.8341237387729
 20
-215.4473226423195
 30
0.0
 10
650.8341481221397
 20
-213.7779838230551
 30
0.0
 10
650.8341714812658
 20
-212.9754946699748
 30
0.0
 10
650.8341932390067
 20
-212.1467716986039
 30
0.0
 10
650.8342061651949
 20
-211.2919447649371
 30
0.0
 10
650.8342062411008
 20
-210.4112493652867
 30
0.0
 10
650.8341933301127
 20
-209.5048887264332
 30
0.0
 10
650.8341718508497
 20
-208.5730727586012
 30
0.0
 10
650.8341473673166
 20
-207.6160028899997
 30
0.0
 10
650.8341425579719
 20
-206.9693969625459
 30
0.0
 10
650.834140124353
 20
-206.6422022078972
 30
0.0
  0
LINE
  5
119
330
1F
100
AcDbEntity
  8
0
  6
SLD-Сплошная
 62
     7
370
    25
100
AcDbLine
 10
639.8341401244
 20
-245.0417390411
 30
0.0
 11
650.8341401244
 21
-225.0417390411
 31
0.0
  0
SPLINE
  5
11A
330
1F
100
AcDbEntity
  8
0
  6
SLD-Сплошная
 62
     7
370
    25
100
AcDbSpline
210
0.0
220
0.0
230
1.0
 70
     8
 71
     3
 72
    12
 73
     8
 74
     0
 42
0.00000001
 43
0.00000001
 40
0.0
 40
0.0
 40
0.0
 40
0.0
 40
0.2051317759347172
 40
0.4076941648295502
 40
0.6076905981737666
 40
0.8051246412539198
 40
1.0
 40
1.0
 40
1.0
 40
1.0
 10
639.6993639840465
 20
-245.0417390410541
 30
0.0
 10
639.7165005318606
 20
-245.0417398419189
 30
0.0
 10
639.7505589829088
 20
-245.0417414336169
 30
0.0
 10
639.787848678262
 20
-245.0417459990543
 30
0.0
 10
639.8145993065064
 20
-245.0417459916092
 30
0.0
 10
639.8310713557828
 20
-245.0417414301246
 30
0.0
 10
639.8331216589293
 20
-245.0417398339409
 30
0.0
 10
639.834140124353
 20
-245.0417390410542
 30
0.0
  0
LINE
  5
11B
330
1F
100
AcDbEntity
  8
0
  6
SLD-Сплошная
 62
     7
370
    25
100
AcDbLine
 10
639.699363984
 20
354.9582609589
 30
0.0
 11
626.8341401245
 21
354.9582609589
 31
0.0
  0
SPLINE
  5
11C
330
1F
100
AcDbEntity
  8
0
  6
SLD-Сплошная
 62
     7
370
    25
100
AcDbSpline
210
0.0
220
0.0
230
1.0
 70
     8
 71
     3
 72
    20
 73
    16
 74
     0
 42
0.00000001
 43
0.00000001
 40
0.0
 40
0.0
 40
0.0
 40
0.0
 40
0.0312582147514875
 40
0.0625172037852425
 40
0.1250362711359035
 40
0.2499326300971236
 40
0.3748307064014613
 40
0.499865538285174
 40
0.6248977790439738
 40
0.7499325581755028
 40
0.8749652155159537
 40
0.9374821539381616
 40
0.9687405953390859
 40
0.9817651071529981
 40
1.0
 40
1.0
 40
1.0
 40
1.0
 10
639.6993639839731
 20
354.9582609589363
 30
0.0
 10
639.6866003122358
 20
354.9536193726345
 30
0.0
 10
639.6610726525984
 20
354.9443360850564
 30
0.0
 10
639.630383718502
 20
354.8565198652881
 30
0.0
 10
639.6172891478351
 20
354.5539932400789
 30
0.0
 10
639.6884987525028
 20
353.6909772545914
 30
0.0
 10
639.8340113407706
 20
352.0073101261359
 30
0.0
 10
639.969903490744
 20
349.7311804936604
 30
0.0
 10
640.0476917618652
 20
346.9395381412672
 30
0.0
 10
640.045619945206
 20
343.730963837288
 30
0.0
 10
639.9813466343029
 20
340.8021083923433
 30
0.0
 10
639.9206308364692
 20
338.6756933627339
 30
0.0
 10
639.8881636899973
 20
337.6257767723866
 30
0.0
 10
639.8718114188088
 20
337.0079115598558
 30
0.0
 10
639.8621270947275
 20
336.6985647789772
 30
0.0
 10
639.8564778312871
 20
336.518110113795
 30
0.0
  0
SPLINE
  5
11D
330
1F
100
AcDbEntity
  8
0
  6
SLD-Сплошная
 62
     7
370
    25
100
AcDbSpline
210
0.0
220
0.0
230
1.0
 70
     8
 71
     3
 72
    11
 73
     7
 74
     0
 42
0.00000001
 43
0.00000001
 40
0.0
 40
0.0
 40
0.0
 40
0.0
 40
0.2916798865656614
 40
0.4999999889364647
 40
0.7082987790916389
 40
1.0
 40
1.0
 40
1.0
 40
1.0
 10
639.834140124353
 20
334.9582609589812
 30
0.0
 10
639.8347803532685
 20
335.1100942665677
 30
0.0
 10
639.8358778387839
 20
335.3703681339477
 30
0.0
 10
639.8391350195421
 20
335.7388861133217
 30
0.0
 10
639.846427477833
 20
336.1071615162717
 30
0.0
 10
639.8527747924878
 20
336.3666966727279
 30
0.0
 10
639.8564778312746
 20
336.5181101133915
 30
0.0
  0
SPLINE
  5
11E
330
1F
100
AcDbEntity
  8
0
  6
SLD-Сплошная
 62
     7
370
    25
100
AcDbSpline
210
0.0
220
0.0
230
1.0
 70
    24
 71
     3
 72
    25
 73
    21
 74
     0
 42
0.00000001
 43
0.00000001
 40
0.0
 40
0.0
 40
0.0
 40
0.0
 40
0.0208276393006329
 40
0.035708137513334
 40
0.0713780957391509
 40
0.1061834470539029
 40
0.1428036096641183
 40
0.2146160903045433
 40
0.2857076601128736
 40
0.3928150003929687
 40
0.4999278318636127
 40
0.624895660059718
 40
0.6873940027656504
 40
0.750027146606235
 40
0.8125336907381561
 40
0.8750624125073325
 40
0.9067203835615361
 40
0.9375447238116733
 40
0.9687631695544787
 40
1.0
 40
1.0
 40
1.0
 40
1.0
 10
626.834140124353
 20
334.958260958946
 30
0.0
 10
626.8341401243531
 20
335.1761394276092
 30
0.0
 10
626.834140124353
 20
335.5496831695531
 30
0.0
 10
626.834140124353
 20
336.2961220161416
 30
0.0
 10
626.8341401243531
 20
337.1877677528932
 30
0.0
 10
626.834140124353
 20
338.2980719607231
 30
0.0
 10
626.8341401243531
 20
339.7677938419252
 30
0.0
 10
626.834140124353
 20
341.5776856894284
 30
0.0
 10
626.834140124353
 20
344.0009013369059
 30
0.0
 10
626.8341401243531
 20
346.5875123764855
 30
0.0
 10
626.8341401243531
 20
349.30803425943
 30
0.0
 10
626.8341401243531
 20
351.2782471472269
 30
0.0
 10
626.834140124353
 20
352.6261307040613
 30
0.0
 10
626.834140124353
 20
353.4663933847838
 30
0.0
 10
626.8341401243531
 20
354.1299605655479
 30
0.0
 10
626.8341401243529
 20
354.528622694766
 30
0.0
 10
626.8341401243531
 20
354.7527279331263
 30
0.0
 10
626.8341401243531
 20
354.8715652114278
 30
0.0
 10
626.834140124353
 20
354.9322813080182
 30
0.0
 10
626.834140124353
 20
354.9495993760204
 30
0.0
 10
626.834140124353
 20
354.9582609589461
 30
0.0
  0
SPLINE
  5
11F
330
1F
100
AcDbEntity
  8
0
  6
SLD-Сплошная
 62
     7
370
    25
100
AcDbSpline
210
0.0
220
0.0
230
1.0
 70
     8
 71
     3
 72
    12
 73
     8
 74
     0
 42
0.00000001
 43
0.00000001
 40
0.0
 40
0.0
 40
0.0
 40
0.0
 40
0.2037382619172592
 40
0.3704047930628978
 40
0.5000005030891153
 40
0.7082800697252511
 40
1.0
 40
1.0
 40
1.0
 40
1.0
 10
639.8341401243531
 20
354.958260958946
 30
0.0
 10
639.8326899509182
 20
354.9589212187204
 30
0.0
 10
639.8300534741659
 20
354.9601215989672
 30
0.0
 10
639.8170861217981
 20
354.9590145989015
 30
0.0
 10
639.7977825064954
 20
354.9577671953014
 30
0.0
 10
639.7630933909618
 20
354.9600045281588
 30
0.0
 10
639.7228459620198
 20
354.9589034010418
 30
0.0
 10
639.6993639840636
 20
354.9582609589438
 30
0.0
  0
LINE
  5
120
330
1F
100
AcDbEntity
  8
0
  6
SLD-Сплошная
 62
     7
370
    25
100
AcDbLine
 10
650.8341401233
 20
334.9582609609
 30
0.0
 11
639.8341401244
 21
354.9582609589
 31
0.0
  0
SPLINE
  5
121
330
1F
100
AcDbEntity
  8
0
  6
SLD-Сплошная
 62
     7
370
    25
100
AcDbSpline
210
0.0
220
0.0
230
1.0
 70
     8
 71
     3
 72
    28
 73
    24
 74
     0
 42
0.00000001
 43
0.00000001
 40
0.0
 40
0.0
 40
0.0
 40
0.0
 40
0.0182250338538497
 40
0.0312564258353941
 40
0.047157328111509
 40
0.0625040641828129
 40
0.093983760307393
 40
0.1250162769777969
 40
0.1883992331169769
 40
0.2499531661496629
 40
0.3104848459131562
 40
0.3715398317883115
 40
0.434302989111092
 40
0.4998666383819834
 40
0.5606636279759672
 40
0.624953926997588
 40
0.6854337315881073
 40
0.7500040369406585
 40
0.8749967527423017
 40
0.9044968858347755
 40
0.9374993823473935
 40
0.9635774328074127
 40
1.0
 40
1.0
 40
1.0
 40
1.0
 10
650.8341401243528
 20
316.5587241258921
 30
0.0
 10
650.8350351687969
 20
316.776524467942
 30
0.0
 10
650.8365701942191
 20
317.1500579435336
 30
0.0
 10
650.8349843842063
 20
317.713458427256
 30
0.0
 10
650.8341122021652
 20
318.2419541236368
 30
0.0
 10
650.8337973898324
 20
318.9889719944604
 30
0.0
 10
650.8345337064179
 20
319.9121790498722
 30
0.0
 10
650.8348990551672
 20
321.3906647647415
 30
0.0
 10
650.835034301015
 20
323.1857822208433
 30
0.0
 10
650.835229523657
 20
325.2093412709307
 30
0.0
 10
650.834978614196
 20
327.0505214634161
 30
0.0
 10
650.8346540374187
 20
328.7034097448334
 30
0.0
 10
650.8342730232251
 20
330.1670554460909
 30
0.0
 10
650.8343433068054
 20
331.3831254929623
 30
0.0
 10
650.8346927143699
 20
332.38215590017
 30
0.0
 10
650.8349018307307
 20
333.1599275357418
 30
0.0
 10
650.8356396827019
 20
333.7791971433235
 30
0.0
 10
650.835256138542
 20
334.4009305806176
 30
0.0
 10
650.8311127882688
 20
334.7251826602252
 30
0.0
 10
650.8384532791722
 20
334.8610170329055
 30
0.0
 10
650.8408626970354
 20
334.9054545510885
 30
0.0
 10
650.8419705180959
 20
334.9370767889077
 30
0.0
 10
650.8370232001926
 20
334.9504611508282
 30
0.0
 10
650.8341401243842
 20
334.9582609588892
 30
0.0
  0
LINE
  5
122
330
1F
100
AcDbEntity
  8
0
  6
SLD-Сплошная
 62
     7
370
    25
100
AcDbLine
 10
639.8341401244
 20
277.9582609589
 30
0.0
 11
650.8341401244
 21
277.9582609589
 31
0.0
  0
LINE
  5
123
330
1F
100
AcDbEntity
  8
0
  6
SLD-Сплошная
 62
     7
370
    25
100
AcDbLine
 10
650.8341401244
 20
271.9582609589
 30
0.0
 11
650.8341401244
 21
277.9582609589
 31
0.0
  0
LINE
  5
124
330
1F
100
AcDbEntity
  8
0
  6
SLD-Сплошная
 62
     7
370
    25
100
AcDbLine
 10
650.8341401244
 20
271.9582609589
 30
0.0
 11
626.8341401244
 21
271.9582609589
 31
0.0
  0
LINE
  5
125
330
1F
100
AcDbEntity
  8
0
  6
SLD-Сплошная
 62
     7
370
    25
100
AcDbLine
 10
639.8341401244
 20
277.9582609589
 30
0.0
 11
639.8341401244
 21
334.958260959
 31
0.0
  0
LINE
  5
126
330
1F
100
AcDbEntity
  8
0
  6
SLD-Сплошная
 62
     7
370
    25
100
AcDbLine
 10
626.8341401244
 20
271.9582609589
 30
0.0
 11
626.8341401244
 21
334.9582609589
 31
0.0
  0
LINE
  5
127
330
1F
100
AcDbEntity
  8
0
  6
SLD-Сплошная
 62
     7
370
    25
100
AcDbLine
 10
639.8341401244
 20
-168.0417390411
 30
0.0
 11
639.8341401244
 21
-225.0417390411
 31
0.0
  0
LINE
  5
128
330
1F
100
AcDbEntity
  8
0
  6
SLD-Сплошная
 62
     7
370
    25
100
AcDbLine
 10
650.8341401244
 20
-162.0417390411
 30
0.0
 11
626.8341401244
 21
-162.0417390411
 31
0.0
  0
LINE
  5
129
330
1F
100
AcDbEntity
  8
0
  6
SLD-Сплошная
 62
     7
370
    25
100
AcDbLine
 10
650.8341401244
 20
-168.0417390411
 30
0.0
 11
650.8341401244
 21
-162.0417390411
 31
0.0
  0
LINE
  5
12A
330
1F
100
AcDbEntity
  8
0
  6
SLD-Сплошная
 62
     7
370
    25
100
AcDbLine
 10
650.8341401244
 20
-168.0417390411
 30
0.0
 11
639.8341401244
 21
-168.0417390411
 31
0.0
  0
LINE
  5
12B
330
1F
100
AcDbEntity
  8
0
  6
SLD-Сплошная
 62
     7
370
    25
100
AcDbLine
 10
626.8341401244
 20
-225.0417390411
 30
0.0
 11
626.8341401244
 21
-162.0417390411
 31
0.0
  0
LINE
  5
12C
330
1F
100
AcDbEntity
  8
0
  6
SLD-Сплошная
 62
     7
370
    25
100
AcDbLine
 10
650.8341401244
 20
-206.6422022079
 30
0.0
 11
650.8341401244
 21
-168.0417390411
 31
0.0
  0
LINE
  5
12D
330
1F
100
AcDbEntity
  8
0
  6
SLD-Сплошная
 62
     7
370
    25
100
AcDbLine
 10
650.8341401244
 20
277.9582609589
 30
0.0
 11
650.8341401244
 21
316.5587241259
 31
0.0
  0
LINE
  5
12E
330
1F
100
AcDbEntity
  8
0
  6
SLD-Сплошная
 62
     7
370
    25
100
AcDbLine
 10
650.8341401244
 20
-132.0417390411
 30
0.0
 11
650.8341401244
 21
-126.0417390411
 31
0.0
  0
LINE
  5
12F
330
1F
100
AcDbEntity
  8
0
  6
SLD-Сплошная
 62
     7
370
    25
100
AcDbLine
 10
650.8341401244
 20
-132.0417390411
 30
0.0
 11
626.8341401244
 21
-132.0417390411
 31
0.0
  0
LINE
  5
130
330
1F
100
AcDbEntity
  8
0
  6
SLD-Сплошная
 62
     7
370
    25
100
AcDbLine
 10
626.8341401244
 20
-132.0417390411
 30
0.0
 11
626.8341401244
 21
241.9582609589
 31
0.0
  0
LINE
  5
131
330
1F
100
AcDbEntity
  8
0
  6
SLD-Сплошная
 62
     7
370
    25
100
AcDbLine
 10
650.8341401244
 20
241.9582609589
 30
0.0
 11
626.8341401244
 21
241.9582609589
 31
0.0
  0
LINE
  5
132
330
1F
100
AcDbEntity
  8
0
  6
SLD-Сплошная
 62
     7
370
    25
100
AcDbLine
 10
650.8341401244
 20
235.9582609589
 30
0.0
 11
650.8341401244
 21
241.9582609589
 31
0.0
  0
LINE
  5
133
330
1F
100
AcDbEntity
  8
0
  6
SLD-Сплошная
 62
     7
370
    25
100
AcDbLine
 10
650.8341401244
 20
235.9582609589
 30
0.0
 11
639.8341401244
 21
235.9582609589
 31
0.0
  0
LINE
  5
134
330
1F
100
AcDbEntity
  8
0
  6
SLD-Сплошная
 62
     7
370
    25
100
AcDbLine
 10
639.8341401244
 20
235.9582609589
 30
0.0
 11
639.8341401244
 21
-126.0417390411
 31
0.0
  0
LINE
  5
135
330
1F
100
AcDbEntity
  8
0
  6
SLD-Сплошная
 62
     7
370
    25
100
AcDbLine
 10
639.8341401244
 20
-126.0417390411
 30
0.0
 11
650.8341401244
 21
-126.0417390411
 31
0.0
  0
LINE
  5
136
330
1F
100
AcDbEntity
  8
0
  6
SLD-Сплошная
 62
     7
370
    25
100
AcDbLine
 10
650.8341401244
 20
-126.0417390411
 30
0.0
 11
650.8341401244
 21
235.9582609589
 31
0.0
  0
LINE
  5
137
330
1F
100
AcDbEntity
  8
0
  6
SLD-Сплошная
 62
     7
370
    25
100
AcDbLine
 10
650.8341401244
 20
241.9582609589
 30
0.0
 11
650.8341401244
 21
250.9400107657
 31
0.0
  0
LINE
  5
138
330
1F
100
AcDbEntity
  8
0
  6
SLD-Сплошная
 62
     7
370
    25
100
AcDbLine
 10
650.8341401244
 20
262.9765111522
 30
0.0
 11
650.8341401244
 21
271.9582609589
 31
0.0
  0
SPLINE
  5
139
330
1F
100
AcDbEntity
  8
0
  6
SLD-Сплошная
 62
     7
370
    25
100
AcDbSpline
210
0.0
220
0.0
230
1.0
 70
    24
 71
     3
 72
    14
 73
    10
 74
     0
 42
0.00000001
 43
0.00000001
 40
0.0
 40
0.0
 40
0.0
 40
0.0
 40
0.25
 40
0.25
 40
0.5
 40
0.5
 40
0.75
 40
0.75
 40
1.0
 40
1.0
 40
1.0
 40
1.0
 10
653.834140124353
 20
-159.0417390410539
 30
0.0
 10
653.834140124353
 20
-159.0417390410539
 30
0.0
 10
653.834140124353
 20
-158.6773565144103
 30
0.0
 10
653.834140124353
 20
-157.2747484780134
 30
0.0
 10
653.834140124353
 20
-156.2370748346283
 30
0.0
 10
653.834140124353
 20
-153.6453931207026
 30
0.0
 10
653.834140124353
 20
-152.0924047662463
 30
0.0
 10
653.834140124353
 20
-148.7062094220837
 30
0.0
 10
653.834140124353
 20
-146.8743347556479
 30
0.0
 10
653.834140124353
 20
-145.0417390410539
 30
0.0
  0
SPLINE
  5
13A
330
1F
100
AcDbEntity
  8
0
  6
SLD-Сплошная
 62
     7
370
    25
100
AcDbSpline
210
0.0
220
0.0
230
1.0
 70
    24
 71
     3
 72
    14
 73
    10
 74
     0
 42
0.00000001
 43
0.00000001
 40
0.0
 40
0.0
 40
0.0
 40
0.0
 40
0.25
 40
0.25
 40
0.5
 40
0.5
 40
0.75
 40
0.75
 40
1.0
 40
1.0
 40
1.0
 40
1.0
 10
653.834140124353
 20
-145.0417390410539
 30
0.0
 10
653.834140124353
 20
-143.2091433264598
 30
0.0
 10
653.834140124353
 20
-141.3772686600239
 30
0.0
 10
653.834140124353
 20
-137.9910733158612
 30
0.0
 10
653.834140124353
 20
-136.438084961405
 30
0.0
 10
653.834140124353
 20
-133.8464032474792
 30
0.0
 10
653.834140124353
 20
-132.8087296040941
 30
0.0
 10
653.834140124353
 20
-131.4061215676974
 30
0.0
 10
653.834140124353
 20
-131.0417390410539
 30
0.0
 10
653.834140124353
 20
-131.0417390410539
 30
0.0
  0
SPLINE
  5
13B
330
1F
100
AcDbEntity
  8
0
  6
SLD-Сплошная
 62
     7
370
    25
100
AcDbSpline
210
0.0
220
0.0
230
1.0
 70
    24
 71
     3
 72
    14
 73
    10
 74
     0
 42
0.00000001
 43
0.00000001
 40
0.0
 40
0.0
 40
0.0
 40
0.0
 40
0.25
 40
0.25
 40
0.5
 40
0.5
 40
0.75
 40
0.75
 40
1.0
 40
1.0
 40
1.0
 40
1.0
 10
653.834140124353
 20
254.9582609589461
 30
0.0
 10
653.834140124353
 20
256.7908566735402
 30
0.0
 10
653.834140124353
 20
258.622731339976
 30
0.0
 10
653.834140124353
 20
262.0089266841388
 30
0.0
 10
653.834140124353
 20
263.5619150385949
 30
0.0
 10
653.834140124353
 20
266.1535967525207
 30
0.0
 10
653.834140124353
 20
267.191270395906
 30
0.0
 10
653.834140124353
 20
268.5938784323026
 30
0.0
 10
653.834140124353
 20
268.9582609589462
 30
0.0
 10
653.834140124353
 20
268.9582609589461
 30
0.0
  0
SPLINE
  5
13C
330
1F
100
AcDbEntity
  8
0
  6
SLD-Сплошная
 62
     7
370
    25
100
AcDbSpline
210
0.0
220
0.0
230
1.0
 70
    24
 71
     3
 72
    14
 73
    10
 74
     0
 42
0.00000001
 43
0.00000001
 40
0.0
 40
0.0
 40
0.0
 40
0.0
 40
0.25
 40
0.25
 40
0.5
 40
0.5
 40
0.75
 40
0.75
 40
1.0
 40
1.0
 40
1.0
 40
1.0
 10
653.834140124353
 20
240.9582609589461
 30
0.0
 10
653.834140124353
 20
240.9582609589461
 30
0.0
 10
653.834140124353
 20
241.3226434855897
 30
0.0
 10
653.834140124353
 20
242.7252515219865
 30
0.0
 10
653.834140124353
 20
243.7629251653717
 30
0.0
 10
653.834140124353
 20
246.3546068792973
 30
0.0
 10
653.834140124353
 20
247.9075952337537
 30
0.0
 10
653.834140124353
 20
251.2937905779165
 30
0.0
 10
653.834140124353
 20
253.1256652443521
 30
0.0
 10
653.834140124353
 20
254.9582609589461
 30
0.0
  0
CIRCLE
  5
13D
330
1F
100
AcDbEntity
  8
0
  6
SLD-Сплошная
 62
     7
370
    25
100
AcDbCircle
 10
841.7123612307
 20
-180.0417390411
 30
0.0
 40
7.5
  0
ARC
  5
13E
330
1F
100
AcDbEntity
  8
0
  6
SLD-Сплошная
 62
     7
370
    25
100
AcDbCircle
 10
841.7123612307
 20
289.9582609589
 30
0.0
 40
7.5
100
AcDbArc
 50
180.0
 51
0.0
  0
ARC
  5
13F
330
1F
100
AcDbEntity
  8
0
  6
SLD-Сплошная
 62
     7
370
    25
100
AcDbCircle
 10
841.7123612307
 20
289.9582609589
 30
0.0
 40
7.5
100
AcDbArc
 50
0.0
 51
180.0
  0
LINE
  5
140
330
1F
100
AcDbEntity
  8
0
  6
SLD-Сплошная
 62
     7
370
    25
100
AcDbLine
 10
1161.7123612307
 20
274.9582609589
 30
0.0
 11
1146.7123612307
 21
274.9582609589
 31
0.0
  0
LINE
  5
141
330
1F
100
AcDbEntity
  8
0
  6
SLD-Сплошная
 62
     7
370
    25
100
AcDbLine
 10
1161.7123612307
 20
269.9582609589
 30
0.0
 11
1161.7123612307
 21
274.9582609589
 31
0.0
  0
LINE
  5
142
330
1F
100
AcDbEntity
  8
0
  6
SLD-Сплошная
 62
     7
370
    25
100
AcDbLine
 10
841.7123612307
 20
269.9582609589
 30
0.0
 11
1161.7123612307
 21
269.9582609589
 31
0.0
  0
LINE
  5
143
330
1F
100
AcDbEntity
  8
0
  6
SLD-Сплошная
 62
     7
370
    25
100
AcDbLine
 10
841.7123612307
 20
274.9582609589
 30
0.0
 11
841.7123612307
 21
269.9582609589
 31
0.0
  0
LINE
  5
144
330
1F
100
AcDbEntity
  8
0
  6
SLD-Сплошная
 62
     7
370
    25
100
AcDbLine
 10
856.7123612307
 20
274.9582609589
 30
0.0
 11
841.7123612307
 21
274.9582609589
 31
0.0
  0
LINE
  5
145
330
1F
100
AcDbEntity
  8
0
  6
SLD-Сплошная
 62
     7
370
    25
100
AcDbLine
 10
856.7123612307
 20
304.9582609589
 30
0.0
 11
856.7123612307
 21
274.9582609589
 31
0.0
  0
LINE
  5
146
330
1F
100
AcDbEntity
  8
0
  6
SLD-Сплошная
 62
     7
370
    25
100
AcDbLine
 10
886.7123612307
 20
304.9582609589
 30
0.0
 11
856.7123612307
 21
304.9582609589
 31
0.0
  0
LINE
  5
147
330
1F
100
AcDbEntity
  8
0
  6
SLD-Сплошная
 62
     7
370
    25
100
AcDbLine
 10
886.7123612307
 20
319.9582609589
 30
0.0
 11
886.7123612307
 21
304.9582609589
 31
0.0
  0
LINE
  5
148
330
1F
100
AcDbEntity
  8
0
  6
SLD-Сплошная
 62
     7
370
    25
100
AcDbLine
 10
891.7123612307
 20
319.9582609589
 30
0.0
 11
886.7123612307
 21
319.9582609589
 31
0.0
  0
LINE
  5
149
330
1F
100
AcDbEntity
  8
0
  6
SLD-Сплошная
 62
     7
370
    25
100
AcDbLine
 10
891.7123612307
 20
299.9582609589
 30
0.0
 11
891.7123612307
 21
319.9582609589
 31
0.0
  0
LINE
  5
14A
330
1F
100
AcDbEntity
  8
0
  6
SLD-Сплошная
 62
     7
370
    25
100
AcDbLine
 10
861.7123612307
 20
299.9582609589
 30
0.0
 11
891.7123612307
 21
299.9582609589
 31
0.0
  0
LINE
  5
14B
330
1F
100
AcDbEntity
  8
0
  6
SLD-Сплошная
 62
     7
370
    25
100
AcDbLine
 10
861.7123612307
 20
274.9582609589
 30
0.0
 11
861.7123612307
 21
299.9582609589
 31
0.0
  0
LINE
  5
14C
330
1F
100
AcDbEntity
  8
0
  6
SLD-Сплошная
 62
     7
370
    25
100
AcDbLine
 10
861.7123612307
 20
274.9582609589
 30
0.0
 11
1141.7123612307
 21
274.9582609589
 31
0.0
  0
LINE
  5
14D
330
1F
100
AcDbEntity
  8
0
  6
SLD-Сплошная
 62
     7
370
    25
100
AcDbLine
 10
1141.7123612307
 20
299.9582609589
 30
0.0
 11
1141.7123612307
 21
274.9582609589
 31
0.0
  0
LINE
  5
14E
330
1F
100
AcDbEntity
  8
0
  6
SLD-Сплошная
 62
     7
370
    25
100
AcDbLine
 10
1111.7123612307
 20
299.9582609589
 30
0.0
 11
1141.7123612307
 21
299.9582609589
 31
0.0
  0
LINE
  5
14F
330
1F
100
AcDbEntity
  8
0
  6
SLD-Сплошная
 62
     7
370
    25
100
AcDbLine
 10
1111.7123612307
 20
319.9582609589
 30
0.0
 11
1111.7123612307
 21
299.9582609589
 31
0.0
  0
LINE
  5
150
330
1F
100
AcDbEntity
  8
0
  6
SLD-Сплошная
 62
     7
370
    25
100
AcDbLine
 10
1116.7123612307
 20
319.9582609589
 30
0.0
 11
1111.7123612307
 21
319.9582609589
 31
0.0
  0
LINE
  5
151
330
1F
100
AcDbEntity
  8
0
  6
SLD-Сплошная
 62
     7
370
    25
100
AcDbLine
 10
1116.7123612307
 20
304.9582609589
 30
0.0
 11
1116.7123612307
 21
319.9582609589
 31
0.0
  0
LINE
  5
152
330
1F
100
AcDbEntity
  8
0
  6
SLD-Сплошная
 62
     7
370
    25
100
AcDbLine
 10
1146.7123612307
 20
304.9582609589
 30
0.0
 11
1116.7123612307
 21
304.9582609589
 31
0.0
  0
LINE
  5
153
330
1F
100
AcDbEntity
  8
0
  6
SLD-Сплошная
 62
     7
370
    25
100
AcDbLine
 10
1146.7123612307
 20
274.9582609589
 30
0.0
 11
1146.7123612307
 21
304.9582609589
 31
0.0
  0
LINE
  5
154
330
1F
100
AcDbEntity
  8
0
  6
SLD-Сплошная
 62
     7
370
    25
100
AcDbLine
 10
1116.7123612307
 20
-210.0417390411
 30
0.0
 11
1116.7123612307
 21
-195.0417390411
 31
0.0
  0
LINE
  5
155
330
1F
100
AcDbEntity
  8
0
  6
SLD-Сплошная
 62
     7
370
    25
100
AcDbLine
 10
1111.7123612307
 20
-210.0417390411
 30
0.0
 11
1116.7123612307
 21
-210.0417390411
 31
0.0
  0
LINE
  5
156
330
1F
100
AcDbEntity
  8
0
  6
SLD-Сплошная
 62
     7
370
    25
100
AcDbLine
 10
1111.7123612307
 20
-190.0417390411
 30
0.0
 11
1111.7123612307
 21
-210.0417390411
 31
0.0
  0
LINE
  5
157
330
1F
100
AcDbEntity
  8
0
  6
SLD-Сплошная
 62
     7
370
    25
100
AcDbLine
 10
1141.7123612307
 20
-190.0417390411
 30
0.0
 11
1111.7123612307
 21
-190.0417390411
 31
0.0
  0
LINE
  5
158
330
1F
100
AcDbEntity
  8
0
  6
SLD-Сплошная
 62
     7
370
    25
100
AcDbLine
 10
1141.7123612307
 20
-165.0417390411
 30
0.0
 11
1141.7123612307
 21
-190.0417390411
 31
0.0
  0
LINE
  5
159
330
1F
100
AcDbEntity
  8
0
  6
SLD-Сплошная
 62
     7
370
    25
100
AcDbLine
 10
1141.7123612307
 20
-165.0417390411
 30
0.0
 11
861.7123612307
 21
-165.0417390411
 31
0.0
  0
LINE
  5
15A
330
1F
100
AcDbEntity
  8
0
  6
SLD-Сплошная
 62
     7
370
    25
100
AcDbLine
 10
861.7123612307
 20
-190.0417390411
 30
0.0
 11
861.7123612307
 21
-165.0417390411
 31
0.0
  0
LINE
  5
15B
330
1F
100
AcDbEntity
  8
0
  6
SLD-Сплошная
 62
     7
370
    25
100
AcDbLine
 10
891.7123612307
 20
-190.0417390411
 30
0.0
 11
861.7123612307
 21
-190.0417390411
 31
0.0
  0
LINE
  5
15C
330
1F
100
AcDbEntity
  8
0
  6
SLD-Сплошная
 62
     7
370
    25
100
AcDbLine
 10
891.7123612307
 20
-210.0417390411
 30
0.0
 11
891.7123612307
 21
-190.0417390411
 31
0.0
  0
LINE
  5
15D
330
1F
100
AcDbEntity
  8
0
  6
SLD-Сплошная
 62
     7
370
    25
100
AcDbLine
 10
886.7123612307
 20
-210.0417390411
 30
0.0
 11
891.7123612307
 21
-210.0417390411
 31
0.0
  0
LINE
  5
15E
330
1F
100
AcDbEntity
  8
0
  6
SLD-Сплошная
 62
     7
370
    25
100
AcDbLine
 10
886.7123612307
 20
-195.0417390411
 30
0.0
 11
886.7123612307
 21
-210.0417390411
 31
0.0
  0
LINE
  5
15F
330
1F
100
AcDbEntity
  8
0
  6
SLD-Сплошная
 62
     7
370
    25
100
AcDbLine
 10
856.7123612307
 20
-195.0417390411
 30
0.0
 11
886.7123612307
 21
-195.0417390411
 31
0.0
  0
LINE
  5
160
330
1F
100
AcDbEntity
  8
0
  6
SLD-Сплошная
 62
     7
370
    25
100
AcDbLine
 10
856.7123612307
 20
-165.0417390411
 30
0.0
 11
856.7123612307
 21
-195.0417390411
 31
0.0
  0
LINE
  5
161
330
1F
100
AcDbEntity
  8
0
  6
SLD-Сплошная
 62
     7
370
    25
100
AcDbLine
 10
841.7123612307
 20
-165.0417390411
 30
0.0
 11
856.7123612307
 21
-165.0417390411
 31
0.0
  0
LINE
  5
162
330
1F
100
AcDbEntity
  8
0
  6
SLD-Сплошная
 62
     7
370
    25
100
AcDbLine
 10
841.7123612307
 20
-160.0417390411
 30
0.0
 11
841.7123612307
 21
-165.0417390411
 31
0.0
  0
LINE
  5
163
330
1F
100
AcDbEntity
  8
0
  6
SLD-Сплошная
 62
     7
370
    25
100
AcDbLine
 10
1161.7123612307
 20
-165.0417390411
 30
0.0
 11
1161.7123612307
 21
-160.0417390411
 31
0.0
  0
LINE
  5
164
330
1F
100
AcDbEntity
  8
0
  6
SLD-Сплошная
 62
     7
370
    25
100
AcDbLine
 10
1146.7123612307
 20
-165.0417390411
 30
0.0
 11
1161.7123612307
 21
-165.0417390411
 31
0.0
  0
LINE
  5
165
330
1F
100
AcDbEntity
  8
0
  6
SLD-Сплошная
 62
     7
370
    25
100
AcDbLine
 10
1146.7123612307
 20
-195.0417390411
 30
0.0
 11
1146.7123612307
 21
-165.0417390411
 31
0.0
  0
LINE
  5
166
330
1F
100
AcDbEntity
  8
0
  6
SLD-Сплошная
 62
     7
370
    25
100
AcDbLine
 10
1116.7123612307
 20
-195.0417390411
 30
0.0
 11
1146.7123612307
 21
-195.0417390411
 31
0.0
  0
LINE
  5
167
330
1F
100
AcDbEntity
  8
0
  6
SLD-Сплошная
 62
     7
370
    25
100
AcDbLine
 10
1161.7123612307
 20
-160.0417390411
 30
0.0
 11
841.7123612307
 21
-160.0417390411
 31
0.0
  0
CIRCLE
  5
168
330
1F
100
AcDbEntity
  8
0
  6
SLD-Сплошная
 62
     7
370
    25
100
AcDbCircle
 10
871.7123612307
 20
-210.0417390411
 30
0.0
 40
7.5
  0
ARC
  5
169
330
1F
100
AcDbEntity
  8
0
  6
SLD-Сплошная
 62
     7
370
    25
100
AcDbCircle
 10
871.7123612307
 20
319.9582609589
 30
0.0
 40
7.5
100
AcDbArc
 50
180.0
 51
0.0
  0
ARC
  5
16A
330
1F
100
AcDbEntity
  8
0
  6
SLD-Сплошная
 62
     7
370
    25
100
AcDbCircle
 10
871.7123612307
 20
319.9582609589
 30
0.0
 40
7.5
100
AcDbArc
 50
0.0
 51
180.0
  0
CIRCLE
  5
16B
330
1F
100
AcDbEntity
  8
0
  6
SLD-Сплошная
 62
     7
370
    25
100
AcDbCircle
 10
1131.7123612307
 20
319.9582609589
 30
0.0
 40
7.499999999999773
  0
ARC
  5
16C
330
1F
100
AcDbEntity
  8
0
  6
SLD-Сплошная
 62
     7
370
    25
100
AcDbCircle
 10
1131.7123612307
 20
-210.0417390411
 30
0.0
 40
7.500000000000227
100
AcDbArc
 50
0.0
 51
180.0
  0
ARC
  5
16D
330
1F
100
AcDbEntity
  8
0
  6
SLD-Сплошная
 62
     7
370
    25
100
AcDbCircle
 10
1131.7123612307
 20
-210.0417390411
 30
0.0
 40
7.500000000000227
100
AcDbArc
 50
180.0
 51
0.0
  0
ARC
  5
16E
330
1F
100
AcDbEntity
  8
0
  6
SLD-Сплошная
 62
     7
370
    25
100
AcDbCircle
 10
1161.7123612307
 20
-180.0417390411
 30
0.0
 40
7.500000000000227
100
AcDbArc
 50
180.0
 51
0.0
  0
ARC
  5
16F
330
1F
100
AcDbEntity
  8
0
  6
SLD-Сплошная
 62
     7
370
    25
100
AcDbCircle
 10
1161.7123612307
 20
-180.0417390411
 30
0.0
 40
7.500000000000227
100
AcDbArc
 50
0.0
 51
180.0
  0
CIRCLE
  5
170
330
1F
100
AcDbEntity
  8
0
  6
SLD-Сплошная
 62
     7
370
    25
100
AcDbCircle
 10
1161.7123612307
 20
289.9582609589
 30
0.0
 40
7.500000000000227
  0
ARC
  5
171
330
1F
100
AcDbEntity
  8
0
  6
SLD-Сплошная
 62
     7
370
    25
100
AcDbCircle
 10
821.7123612307
 20
334.9582609589
 30
0.0
 40
13.00000000000011
100
AcDbArc
 50
43.8130614604
 51
320.2848627682
  0
LINE
  5
172
330
1F
100
AcDbEntity
  8
0
  6
SLD-Сплошная
 62
     7
370
    25
100
AcDbLine
 10
831.0931927503
 20
343.9582609589
 30
0.0
 11
1172.331529711
 21
343.9582609589
 31
0.0
  0
ARC
  5
173
330
1F
100
AcDbEntity
  8
0
  6
SLD-Сплошная
 62
     7
370
    25
100
AcDbCircle
 10
1181.7123612307
 20
334.9582609589
 30
0.0
 40
13.00000000000019
100
AcDbArc
 50
127.8636463617
 51
136.1869385396
  0
SPLINE
  5
174
330
1F
100
AcDbEntity
  8
0
  6
SLD-Сплошная
 62
     7
370
    25
100
AcDbSpline
210
0.0
220
0.0
230
1.0
 70
     8
 71
     3
 72
    38
 73
    34
 74
     0
 42
0.00000001
 43
0.00000001
 40
0.0
 40
0.0
 40
0.0
 40
0.0
 40
0.0625
 40
0.0625
 40
0.125
 40
0.125
 40
0.1875
 40
0.1875
 40
0.25
 40
0.25
 40
0.3125
 40
0.3125
 40
0.375
 40
0.375
 40
0.4375
 40
0.4375
 40
0.5
 40
0.5
 40
0.5625
 40
0.5625
 40
0.625
 40
0.625
 40
0.6875
 40
0.6875
 40
0.75
 40
0.75
 40
0.8125
 40
0.8125
 40
0.875
 40
0.875
 40
0.9375
 40
0.9375
 40
1.0
 40
1.0
 40
1.0
 40
1.0
 10
1173.733163900799
 20
345.2214188537807
 30
0.0
 10
1174.591538347823
 20
345.8887708682286
 30
0.0
 10
1175.534015200735
 20
346.4478303912691
 30
0.0
 10
1177.528394608905
 20
347.3144977935846
 30
0.0
 10
1178.580165816478
 20
347.6220485950764
 30
0.0
 10
1180.727275808096
 20
347.9664034902943
 30
0.0
 10
1181.822473185785
 20
348.003184905177
 30
0.0
 10
1183.987848930339
 20
347.8036617364308
 30
0.0
 10
1185.057884687884
 20
347.5673702931834
 30
0.0
 10
1187.105917444496
 20
346.8364643910213
 30
0.0
 10
1188.083779562325
 20
346.3418980687843
 30
0.0
 10
1189.886209307717
 20
345.1253831190632
 30
0.0
 10
1190.710658229193
 20
344.4035146099466
 30
0.0
 10
1192.154606065139
 20
342.7775760326816
 30
0.0
 10
1192.774009882755
 20
341.873613047101
 30
0.0
 10
1193.76904718576
 20
339.9400768111859
 30
0.0
 10
1194.144615139061
 20
338.9106309014703
 30
0.0
 10
1194.62842673998
 20
336.7905865753335
 30
0.0
 10
1194.736638524286
 20
335.7001277827537
 30
0.0
 10
1194.678925255786
 20
333.5263451835481
 30
0.0
 10
1194.513004003914
 20
332.4431645399091
 30
0.0
 10
1193.917380215003
 20
330.3517788958796
 30
0.0
 10
1193.487716905106
 20
329.3437116319012
 30
0.0
 10
1192.391484109045
 20
327.4656979826407
 30
0.0
 10
1191.724986819594
 20
326.5958752813201
 30
0.0
 10
1190.196797650715
 20
325.0488460398097
 30
0.0
 10
1189.335206416183
 20
324.3717413853033
 30
0.0
 10
1187.470765192563
 20
323.252580747309
 30
0.0
 10
1186.468037993571
 20
322.8105984705378
 30
0.0
 10
1184.384107141969
 20
322.1893949485675
 30
0.0
 10
1183.303040734804
 20
322.0102146151652
 30
0.0
 10
1181.130128431259
 20
321.9258716778927
 30
0.0
 10
1180.038425640546
 20
322.0207146287576
 30
0.0
 10
1178.975519125372
 20
322.2496144812969
 30
0.0
  0
ARC
  5
175
330
1F
100
AcDbEntity
  8
0
  6
SLD-Сплошная
 62
     7
370
    25
100
AcDbCircle
 10
1181.7123612307
 20
334.9582609589
 30
0.0
 40
13.00000000000027
100
AcDbArc
 50
219.7151372318
 51
257.846802531
  0
LINE
  5
176
330
1F
100
AcDbEntity
  8
0
  6
SLD-Сплошная
 62
     7
370
    25
100
AcDbLine
 10
1171.7123612307
 20
326.651637096
 30
0.0
 11
1171.7123612307
 21
-216.7351151781
 31
0.0
  0
ARC
  5
177
330
1F
100
AcDbEntity
  8
0
  6
SLD-Сплошная
 62
     7
370
    25
100
AcDbCircle
 10
1181.7123612307
 20
-225.0417390411
 30
0.0
 40
13.00000000000016
100
AcDbArc
 50
223.8130614604
 51
140.2848627682
  0
LINE
  5
178
330
1F
100
AcDbEntity
  8
0
  6
SLD-Сплошная
 62
     7
370
    25
100
AcDbLine
 10
1172.331529711
 20
-234.0417390411
 30
0.0
 11
831.0931927503
 21
-234.0417390411
 31
0.0
  0
ARC
  5
179
330
1F
100
AcDbEntity
  8
0
  6
SLD-Сплошная
 62
     7
370
    25
100
AcDbCircle
 10
821.7123612307
 20
-225.0417390411
 30
0.0
 40
13.00000000000005
100
AcDbArc
 50
39.7151372318
 51
316.1869385396
  0
LINE
  5
17A
330
1F
100
AcDbEntity
  8
0
  6
SLD-Сплошная
 62
     7
370
    25
100
AcDbLine
 10
831.7123612307
 20
-216.7351151781
 30
0.0
 11
831.7123612307
 21
326.651637096
 31
0.0
  0
LINE
  5
17B
330
1F
100
AcDbEntity
  8
0
  6
SLD-Сплошная
 62
     7
370
    25
100
AcDbLine
 10
1170.050457441
 20
349.9582609589
 30
0.0
 11
1169.7230484543
 21
350.9252445276
 31
0.0
  0
SPLINE
  5
17C
330
1F
100
AcDbEntity
  8
0
  6
SLD-Сплошная
 62
     7
370
    25
100
AcDbSpline
210
0.0
220
0.0
230
1.0
 70
     8
 71
     3
 72
    72
 73
    68
 74
     0
 42
0.00000001
 43
0.00000001
 40
0.0
 40
0.0
 40
0.0
 40
0.0
 40
0.0054391233587948
 40
0.010878243557857
 40
0.0163173607408097
 40
0.0217564750512775
 40
0.0271955866328855
 40
0.0326346956292585
 40
0.0380738021840194
 40
0.0435129064407925
 40
0.0489520085432057
 40
0.0543911086348792
 40
0.0598302068594417
 40
0.0652693033605154
 40
0.070708398281726
 40
0.0761474917666964
 40
0.0815865839590529
 40
0.0870256750024207
 40
0.0924647650404226
 40
0.0979038542166841
 40
0.1033429426748302
 40
0.1087820305584857
 40
0.1142211180112736
 40
0.119660205176821
 40
0.1250992921987507
 40
0.1305383792206889
 40
0.135977466386259
 40
0.1414165538390852
 40
0.1468556417227946
 40
0.1522947301810105
 40
0.1577338193573558
 40
0.1631729093954584
 40
0.1686120004389413
 40
0.1740510926314292
 40
0.1794901861165458
 40
0.1849292810379169
 40
0.1903683775391677
 40
0.1958074757639224
 40
0.2012465758558053
 40
0.2066856779584406
 40
0.2121247822154535
 40
0.2175638887704679
 40
0.2230029977671087
 40
0.2284421093490018
 40
0.2338812236597696
 40
0.2393203408430386
 40
0.2447594610424309
 40
0.2501985844015729
 40
0.2571729511152178
 40
0.2780515083324522
 40
0.3128186417041953
 40
0.3614483500577285
 40
0.4239042648421712
 40
0.5001396773274283
 40
0.5739623204442938
 40
0.6419161536004511
 40
0.7039919502721357
 40
0.7601812820314149
 40
0.8104765196905522
 40
0.8548708343378646
 40
0.8933581982649127
 40
0.9259333857849238
 40
0.952591973942299
 40
0.9733303431131561
 40
0.9881456774967741
 40
0.9970359654979221
 40
1.0
 40
1.0
 40
1.0
 40
1.0
 10
1178.679641572002
 20
315.2229360186055
 30
0.0
 10
1178.820475402104
 20
315.2021872716914
 30
0.0
 10
1179.102142980495
 20
315.1606897899167
 30
0.0
 10
1179.526209557611
 20
315.1099178997887
 30
0.0
 10
1179.951176060187
 20
315.0675766667642
 30
0.0
 10
1180.37697438697
 20
315.0345072202938
 30
0.0
 10
1180.803375965653
 20
315.0105044823111
 30
0.0
 10
1181.230194844429
 20
314.9956384226236
 30
0.0
 10
1181.65723338685
 20
314.9899000230195
 30
0.0
 10
1182.084296935985
 20
314.9932961363814
 30
0.0
 10
1182.511189998394
 20
315.0058240672587
 30
0.0
 10
1182.937717379873
 20
315.0274783833755
 30
0.0
 10
1183.363683994333
 20
315.0582490933106
 30
0.0
 10
1183.788895028128
 20
315.0981221400258
 30
0.0
 10
1184.213156009009
 20
315.1470792762789
 30
0.0
 10
1184.636272900437
 20
315.2050981080779
 30
0.0
 10
1185.058052188857
 20
315.2721520955121
 30
0.0
 10
1185.47830097258
 20
315.3482105674162
 30
0.0
 10
1185.896827049875
 20
315.4332387347143
 30
0.0
 10
1186.313439006883
 20
315.5271977065159
 30
0.0
 10
1186.727946305134
 20
315.630044507847
 30
0.0
 10
1187.140159368677
 20
315.7417320993179
 30
0.0
 10
1187.549889670756
 20
315.8622093986279
 30
0.0
 10
1187.95694982002
 20
315.9914213039245
 30
0.0
 10
1188.361153646205
 20
316.1293087189998
 30
0.0
 10
1188.762316285261
 20
316.2758085803119
 30
0.0
 10
1189.160254263883
 20
316.4308538858218
 30
0.0
 10
1189.554785583404
 20
316.5943737256299
 30
0.0
 10
1189.945729803012
 20
316.7662933143981
 30
0.0
 10
1190.332908122261
 20
316.9465340255478
 30
0.0
 10
1190.716143462827
 20
317.1350134272088
 30
0.0
 10
1191.095260549475
 20
317.3316453199113
 30
0.0
 10
1191.470085990209
 20
317.5363397760011
 30
0.0
 10
1191.840448355553
 20
317.7490031807565
 30
0.0
 10
1192.206178256939
 20
317.9695382751922
 30
0.0
 10
1192.567108424165
 20
318.1978442005315
 30
0.0
 10
1192.923073781872
 20
318.4338165443218
 30
0.0
 10
1193.273911525046
 20
318.6773473881693
 30
0.0
 10
1193.619461193396
 20
318.9283253571086
 30
0.0
 10
1193.959564744971
 20
319.1866356704397
 30
0.0
 10
1194.29406662752
 20
319.4521601945201
 30
0.0
 10
1194.622813852998
 20
319.7247774956326
 30
0.0
 10
1194.945656054922
 20
320.0043628997816
 30
0.0
 10
1195.262445604141
 20
320.2907885337513
 30
0.0
 10
1195.573037500914
 20
320.5839234430894
 30
0.0
 10
1195.877290095892
 20
320.8836334298623
 30
0.0
 10
1196.17506271162
 20
321.1897819429839
 30
0.0
 10
1196.493619174488
 20
321.5316238326987
 30
0.0
 10
1197.071921699014
 20
322.183443632684
 30
0.0
 10
1198.092022214521
 20
323.4684792211344
 30
0.0
 10
1199.549736458898
 20
325.7856134380125
 30
0.0
 10
1201.03621846428
 20
329.3269002900488
 30
0.0
 10
1201.916623037055
 20
334.1997592008961
 30
0.0
 10
1201.380974393915
 20
339.8230539853885
 30
0.0
 10
1199.173378181868
 20
345.172290084644
 30
0.0
 10
1195.816295428435
 20
349.401070096149
 30
0.0
 10
1191.878192731682
 20
352.3543782257511
 30
0.0
 10
1187.799945912204
 20
354.1289836943727
 30
0.0
 10
1183.905126062175
 20
354.9213258396284
 30
0.0
 10
1180.402282863974
 20
354.9713141764487
 30
0.0
 10
1177.402601604751
 20
354.5214621411845
 30
0.0
 10
1174.944205058823
 20
353.7914114402357
 30
0.0
 10
1173.017220325413
 20
352.9648026705502
 30
0.0
 10
1171.585436475691
 20
352.1857584424308
 30
0.0
 10
1170.604794697538
 20
351.5590727574901
 30
0.0
 10
1170.034162292051
 20
351.156853891016
 30
0.0
 10
1169.785397799023
 20
350.9714674168943
 30
0.0
 10
1169.723197151113
 20
350.9251137003184
 30
0.0
  0
SPLINE
  5
17D
330
1F
100
AcDbEntity
  8
0
  6
SLD-Сплошная
 62
     7
370
    25
100
AcDbSpline
210
0.0
220
0.0
230
1.0
 70
     8
 71
     3
 72
     9
 73
     5
 74
     0
 42
0.00000001
 43
0.00000001
 40
0.0
 40
0.0
 40
0.0
 40
0.0
 40
0.4999999999905618
 40
1.0
 40
1.0
 40
1.0
 40
1.0
 10
1178.679340977543
 20
315.220459294025
 30
0.0
 10
1178.518172664704
 20
315.4112891516629
 30
0.0
 10
1178.19583603902
 20
315.792948866946
 30
0.0
 10
1177.873519500113
 20
316.1870398476056
 30
0.0
 10
1177.712361230656
 20
316.384085337939
 30
0.0
  0
SPLINE
  5
17E
330
1F
100
AcDbEntity
  8
0
  6
SLD-Сплошная
 62
     7
370
    25
100
AcDbSpline
210
0.0
220
0.0
230
1.0
 70
     8
 71
     3
 72
    16
 73
    12
 74
     0
 42
0.00000001
 43
0.00000001
 40
0.0
 40
0.0
 40
0.0
 40
0.0
 40
0.2500000000000001
 40
0.2500000000000001
 40
0.5000000000000001
 40
0.5000000000000001
 40
0.75
 40
0.75
 40
0.8750000000000001
 40
0.8750000000000001
 40
1.0
 40
1.0
 40
1.0
 40
1.0
 10
1177.712361230656
 20
316.3840853379392
 30
0.0
 10
1177.21177897885
 20
317.0039455151269
 30
0.0
 10
1176.711242608122
 20
317.6542530182106
 30
0.0
 10
1175.710350247743
 20
319.0401064730897
 30
0.0
 10
1175.210017270422
 20
319.7749864171363
 30
0.0
 10
1174.209701556761
 20
321.3745463350464
 30
0.0
 10
1173.709712230276
 20
322.2367839876803
 30
0.0
 10
1172.96019956991
 20
323.7048161000313
 30
0.0
 10
1172.71044176981
 20
324.2237168957672
 30
0.0
 10
1172.211172591659
 20
325.3528430060741
 30
0.0
 10
1171.961656629371
 20
325.9613693934023
 30
0.0
 10
1171.712361230656
 20
326.6516370960278
 30
0.0
  0
SPLINE
  5
17F
330
1F
100
AcDbEntity
  8
0
  6
SLD-Сплошная
 62
     7
370
    25
100
AcDbSpline
210
0.0
220
0.0
230
1.0
 70
     8
 71
     3
 72
     8
 73
     4
 74
     0
 42
0.00000001
 43
0.00000001
 40
0.0
 40
0.0
 40
0.0
 40
0.0
 40
1.0
 40
1.0
 40
1.0
 40
1.0
 10
1170.05267893754
 20
349.9517848559965
 30
0.0
 10
1170.73807638522
 20
347.953905734883
 30
0.0
 10
1171.479668091078
 20
345.9560535426038
 30
0.0
 10
1172.33152971101
 20
343.958260958946
 30
0.0
  0
LINE
  5
180
330
1F
100
AcDbEntity
  8
0
  6
SLD-Сплошная
 62
     7
370
    25
100
AcDbLine
 10
1170.050457441
 20
349.9517843213
 30
0.0
 11
1170.050457441
 21
349.9582609589
 31
0.0
  0
SPLINE
  5
181
330
1F
100
AcDbEntity
  8
0
  6
SLD-Сплошная
 62
     7
370
    25
100
AcDbSpline
210
0.0
220
0.0
230
1.0
 70
     8
 71
     3
 72
    10
 73
     6
 74
     0
 42
0.00000001
 43
0.00000001
 40
0.0
 40
0.0
 40
0.0
 40
0.0
 40
0.3297213656074886
 40
0.6630546210064364
 40
1.0
 40
1.0
 40
1.0
 40
1.0
 10
825.7123612279881
 20
316.384085334635
 30
0.0
 10
825.606088055265
 20
316.2532463273753
 30
0.0
 10
825.392377554178
 20
315.9901350539777
 30
0.0
 10
825.0700506963595
 20
315.6023340318252
 30
0.0
 10
824.8539926555094
 20
315.3482073561041
 30
0.0
 10
824.7453814679773
 20
315.2204592754259
 30
0.0
  0
ARC
  5
182
330
1F
100
AcDbEntity
  8
0
  6
SLD-Сплошная
 62
     7
370
    25
100
AcDbCircle
 10
821.7123612307
 20
334.9582609589
 30
0.0
 40
19.96698372385899
100
AcDbArc
 50
53.0979893181
 51
278.7361646502
  0
LINE
  5
183
330
1F
100
AcDbEntity
  8
0
  6
SLD-Сплошная
 62
     7
370
    25
100
AcDbLine
 10
833.3742650203
 20
349.9582609589
 30
0.0
 11
833.701557603
 21
350.9252445894
 31
0.0
  0
SPLINE
  5
184
330
1F
100
AcDbEntity
  8
0
  6
SLD-Сплошная
 62
     7
370
    25
100
AcDbSpline
210
0.0
220
0.0
230
1.0
 70
     8
 71
     3
 72
     8
 73
     4
 74
     0
 42
0.00000001
 43
0.00000001
 40
0.0
 40
0.0
 40
0.0
 40
0.0
 40
1.0
 40
1.0
 40
1.0
 40
1.0
 10
833.374265020347
 20
349.9582609589452
 30
0.0
 10
832.6882576861849
 20
347.9582230764403
 30
0.0
 10
831.9459748068541
 20
345.9582121578159
 30
0.0
 10
831.0931927503035
 20
343.958260958946
 30
0.0
  0
SPLINE
  5
185
330
1F
100
AcDbEntity
  8
0
  6
SLD-Сплошная
 62
     7
370
    25
100
AcDbSpline
210
0.0
220
0.0
230
1.0
 70
     8
 71
     3
 72
    16
 73
    12
 74
     0
 42
0.00000001
 43
0.00000001
 40
0.0
 40
0.0
 40
0.0
 40
0.0
 40
0.2500000000000001
 40
0.2500000000000001
 40
0.5000000000000002
 40
0.5000000000000002
 40
0.7500000000000002
 40
0.7500000000000002
 40
0.8750000000000001
 40
0.8750000000000001
 40
1.0
 40
1.0
 40
1.0
 40
1.0
 10
825.7150137862455
 20
316.387370230634
 30
0.0
 10
826.215374925972
 20
317.0070662044067
 30
0.0
 10
826.7156901822235
 20
317.6571988324511
 30
0.0
 10
827.716140399197
 20
319.0426698381597
 30
0.0
 10
828.2162522991422
 20
319.7773426081317
 30
0.0
 10
829.2161258609545
 20
321.3764312541263
 30
0.0
 10
829.7158941096318
 20
322.2384070951532
 30
0.0
 10
830.4650752053493
 20
323.705952046931
 30
0.0
 10
830.714722492639
 20
324.224674500858
 30
0.0
 10
831.2137707007712
 20
325.3533840373419
 30
0.0
 10
831.4631762002728
 20
325.9616749894721
 30
0.0
 10
831.7123612306565
 20
326.6516370960278
 30
0.0
  0
LINE
  5
186
330
1F
100
AcDbEntity
  8
0
  6
SLD-Сплошная
 62
     7
370
    25
100
AcDbLine
 10
825.7150167582
 20
316.3840853379
 30
0.0
 11
825.7123612307
 21
316.3840853379
 31
0.0
  0
SPLINE
  5
187
330
1F
100
AcDbEntity
  8
0
  6
SLD-Сплошная
 62
     7
370
    25
100
AcDbSpline
210
0.0
220
0.0
230
1.0
 70
     8
 71
     3
 72
     9
 73
     5
 74
     0
 42
0.00000001
 43
0.00000001
 40
0.0
 40
0.0
 40
0.0
 40
0.0
 40
0.4999999999999863
 40
1.0
 40
1.0
 40
1.0
 40
1.0
 10
824.7453776100815
 20
-205.3064026896015
 30
0.0
 10
824.9065486206563
 20
-205.4955423383047
 30
0.0
 10
825.2288906418057
 20
-205.8738216357111
 30
0.0
 10
825.5512043677062
 20
-206.2696494919353
 30
0.0
 10
825.7123612306565
 20
-206.4675634200475
 30
0.0
  0
SPLINE
  5
188
330
1F
100
AcDbEntity
  8
0
  6
SLD-Сплошная
 62
     7
370
    25
100
AcDbSpline
210
0.0
220
0.0
230
1.0
 70
     8
 71
     3
 72
    16
 73
    12
 74
     0
 42
0.00000001
 43
0.00000001
 40
0.0
 40
0.0
 40
0.0
 40
0.0
 40
0.2499999999999999
 40
0.2499999999999999
 40
0.4999999999999999
 40
0.4999999999999999
 40
0.7499999999999999
 40
0.7499999999999999
 40
0.875
 40
0.875
 40
1.0
 40
1.0
 40
1.0
 40
1.0
 10
825.7123612306565
 20
-206.4675634200471
 30
0.0
 10
826.2129434824631
 20
-207.0874235972349
 30
0.0
 10
826.7134798531905
 20
-207.7377311003186
 30
0.0
 10
827.71437221357
 20
-209.1235845551977
 30
0.0
 10
828.2147051908909
 20
-209.8584644992443
 30
0.0
 10
829.2150209045521
 20
-211.4580244171542
 30
0.0
 10
829.7150102310371
 20
-212.3202620697883
 30
0.0
 10
830.4645228914032
 20
-213.7882941821391
 30
0.0
 10
830.7142806915024
 20
-214.3071949778751
 30
0.0
 10
831.2135498696539
 20
-215.4363210881817
 30
0.0
 10
831.463065831942
 20
-216.0448474755101
 30
0.0
 10
831.7123612306564
 20
-216.7351151781357
 30
0.0
  0
SPLINE
  5
189
330
1F
100
AcDbEntity
  8
0
  6
SLD-Сплошная
 62
     7
370
    25
100
AcDbSpline
210
0.0
220
0.0
230
1.0
 70
     8
 71
     3
 72
     8
 73
     4
 74
     0
 42
0.00000001
 43
0.00000001
 40
0.0
 40
0.0
 40
0.0
 40
0.0
 40
1.0
 40
1.0
 40
1.0
 40
1.0
 10
833.3742650203473
 20
-240.0417390410539
 30
0.0
 10
832.6882576861851
 20
-238.0417011585487
 30
0.0
 10
831.9459748068542
 20
-236.041690239924
 30
0.0
 10
831.0931927503034
 20
-234.0417390410539
 30
0.0
  0
LINE
  5
18A
330
1F
100
AcDbEntity
  8
0
  6
SLD-Сплошная
 62
     7
370
    25
100
AcDbLine
 10
833.3742650203
 20
-240.0417390411
 30
0.0
 11
833.7016740091
 21
-241.0087226158
 31
0.0
  0
ARC
  5
18B
330
1F
100
AcDbEntity
  8
0
  6
SLD-Сплошная
 62
     7
370
    25
100
AcDbCircle
 10
821.7123612307
 20
-225.0417390411
 30
0.0
 40
19.96698372385878
100
AcDbArc
 50
81.2631077066
 51
306.9021249351
  0
LINE
  5
18C
330
1F
100
AcDbEntity
  8
0
  6
SLD-Сплошная
 62
     7
370
    25
100
AcDbLine
 10
824.7453775068
 20
-177.0417390412
 30
0.0
 11
824.7453775068
 21
-205.3064278353
 31
0.0
  0
LINE
  5
18D
330
1F
100
AcDbEntity
  8
0
  6
SLD-Сплошная
 62
     7
370
    25
100
AcDbLine
 10
825.4787442146
 20
-174.5417390411
 30
0.0
 11
824.7453775068
 21
-177.0417390411
 31
0.0
  0
LINE
  5
18E
330
1F
100
AcDbEntity
  8
0
  6
SLD-Сплошная
 62
     7
370
    25
100
AcDbLine
 10
825.4787442146
 20
-174.5417390411
 30
0.0
 11
825.4787442146
 21
-119.5417390411
 31
0.0
  0
LINE
  5
18F
330
1F
100
AcDbEntity
  8
0
  6
SLD-Сплошная
 62
     7
370
    25
100
AcDbLine
 10
824.7453775068
 20
-117.0417390411
 30
0.0
 11
825.4787442146
 21
-119.5417390411
 31
0.0
  0
LINE
  5
190
330
1F
100
AcDbEntity
  8
0
  6
SLD-Сплошная
 62
     7
370
    25
100
AcDbLine
 10
824.7453775068
 20
226.9582609589
 30
0.0
 11
824.7453775068
 21
-117.0417390411
 31
0.0
  0
LINE
  5
191
330
1F
100
AcDbEntity
  8
0
  6
SLD-Сплошная
 62
     7
370
    25
100
AcDbLine
 10
825.4787442146
 20
229.4582609589
 30
0.0
 11
824.7453775068
 21
226.9582609589
 31
0.0
  0
LINE
  5
192
330
1F
100
AcDbEntity
  8
0
  6
SLD-Сплошная
 62
     7
370
    25
100
AcDbLine
 10
825.4787442146
 20
229.4582609589
 30
0.0
 11
825.4787442146
 21
284.4582609589
 31
0.0
  0
LINE
  5
193
330
1F
100
AcDbEntity
  8
0
  6
SLD-Сплошная
 62
     7
370
    25
100
AcDbLine
 10
825.4787442146
 20
284.4582609589
 30
0.0
 11
824.7453775068
 21
286.9582609597
 31
0.0
  0
LINE
  5
194
330
1F
100
AcDbEntity
  8
0
  6
SLD-Сплошная
 62
     7
370
    25
100
AcDbLine
 10
824.7453775068
 20
315.2217354187
 30
0.0
 11
824.7453775068
 21
286.9582609589
 31
0.0
  0
LINE
  5
195
330
1F
100
AcDbEntity
  8
0
  6
SLD-Сплошная
 62
     7
370
    25
100
AcDbLine
 10
1169.7231503809
 20
350.9252446828
 30
0.0
 11
833.7015343308
 21
350.9252446828
 31
0.0
  0
LINE
  5
196
330
1F
100
AcDbEntity
  8
0
  6
SLD-Сплошная
 62
     7
370
    25
100
AcDbLine
 10
833.701587867
 20
-241.0087227649
 30
0.0
 11
1169.7231881305
 21
-241.0087227649
 31
0.0
  0
SPLINE
  5
197
330
1F
100
AcDbEntity
  8
0
  6
SLD-Сплошная
 62
     7
370
    25
100
AcDbSpline
210
0.0
220
0.0
230
1.0
 70
     8
 71
     3
 72
     8
 73
     4
 74
     0
 42
0.00000001
 43
0.00000001
 40
0.0
 40
0.0
 40
0.0
 40
0.0
 40
1.0
 40
1.0
 40
1.0
 40
1.0
 10
1172.33152971101
 20
-234.0417390410539
 30
0.0
 10
1171.479013652835
 20
-236.0410664184364
 30
0.0
 10
1170.736929830588
 20
-238.0404554709235
 30
0.0
 10
1170.051099692251
 20
-240.0398666244391
 30
0.0
  0
LINE
  5
198
330
1F
100
AcDbEntity
  8
0
  6
SLD-Сплошная
 62
     7
370
    25
100
AcDbLine
 10
1170.0516068093
 20
-240.0402606782
 30
0.0
 11
1170.0504574409
 21
-240.0417390411
 31
0.0
  0
LINE
  5
199
330
1F
100
AcDbEntity
  8
0
  6
SLD-Сплошная
 62
     7
370
    25
100
AcDbLine
 10
1170.050457441
 20
-240.0417390411
 30
0.0
 11
1169.7231648583
 21
-241.0087226715
 31
0.0
  0
SPLINE
  5
19A
330
1F
100
AcDbEntity
  8
0
  6
SLD-Сплошная
 62
     7
370
    25
100
AcDbSpline
210
0.0
220
0.0
230
1.0
 70
     8
 71
     3
 72
    10
 73
     6
 74
     0
 42
0.00000001
 43
0.00000001
 40
0.0
 40
0.0
 40
0.0
 40
0.0
 40
0.3297213656137701
 40
0.6630546210127193
 40
0.9999999999999999
 40
0.9999999999999999
 40
0.9999999999999999
 40
0.9999999999999999
 10
1177.712361233325
 20
-206.4675634167427
 30
0.0
 10
1177.81863440605
 20
-206.3367244094808
 30
0.0
 10
1178.032344907139
 20
-206.0736131360811
 30
0.0
 10
1178.354671764957
 20
-205.6858121139288
 30
0.0
 10
1178.570729805806
 20
-205.4316854382104
 30
0.0
 10
1178.679340993336
 20
-205.3039373575348
 30
0.0
  0
LINE
  5
19B
330
1F
100
AcDbEntity
  8
0
  6
SLD-Сплошная
 62
     7
370
    25
100
AcDbLine
 10
1177.7097057031
 20
-206.46756342
 30
0.0
 11
1177.7123612307
 21
-206.46756342
 31
0.0
  0
SPLINE
  5
19C
330
1F
100
AcDbEntity
  8
0
  6
SLD-Сплошная
 62
     7
370
    25
100
AcDbSpline
210
0.0
220
0.0
230
1.0
 70
     8
 71
     3
 72
    16
 73
    12
 74
     0
 42
0.00000001
 43
0.00000001
 40
0.0
 40
0.0
 40
0.0
 40
0.0
 40
0.25
 40
0.25
 40
0.5
 40
0.5
 40
0.75
 40
0.75
 40
0.875
 40
0.875
 40
1.0
 40
1.0
 40
1.0
 40
1.0
 10
1177.709708675067
 20
-206.4708483127419
 30
0.0
 10
1177.209347535341
 20
-207.0905442865145
 30
0.0
 10
1176.709032279089
 20
-207.7406769145591
 30
0.0
 10
1175.708582062116
 20
-209.1261479202677
 30
0.0
 10
1175.208470162171
 20
-209.8608206902394
 30
0.0
 10
1174.208596600358
 20
-211.4599093362341
 30
0.0
 10
1173.708828351681
 20
-212.3218851772612
 30
0.0
 10
1172.959647255964
 20
-213.7894301290389
 30
0.0
 10
1172.709999968674
 20
-214.3081525829662
 30
0.0
 10
1172.210951760542
 20
-215.4368621194498
 30
0.0
 10
1171.96154626104
 20
-216.04515307158
 30
0.0
 10
1171.712361230656
 20
-216.7351151781358
 30
0.0
  0
LINE
  5
19D
330
1F
100
AcDbEntity
  8
0
  6
SLD-Сплошная
 62
     7
370
    25
100
AcDbLine
 10
1178.6793449545
 20
284.9582609589
 30
0.0
 11
1178.6793449545
 21
315.2217447457
 31
0.0
  0
LINE
  5
19E
330
1F
100
AcDbEntity
  8
0
  6
SLD-Сплошная
 62
     7
370
    25
100
AcDbLine
 10
1178.6793449545
 20
284.9582609589
 30
0.0
 11
1177.9093099114
 21
282.4582609589
 31
0.0
  0
LINE
  5
19F
330
1F
100
AcDbEntity
  8
0
  6
SLD-Сплошная
 62
     7
370
    25
100
AcDbLine
 10
1177.9093099114
 20
282.4582609589
 30
0.0
 11
1177.9093099114
 21
227.4582609589
 31
0.0
  0
LINE
  5
1A0
330
1F
100
AcDbEntity
  8
0
  6
SLD-Сплошная
 62
     7
370
    25
100
AcDbLine
 10
1177.9093099114
 20
227.4582609589
 30
0.0
 11
1178.6793449545
 21
224.9582609589
 31
0.0
  0
LINE
  5
1A1
330
1F
100
AcDbEntity
  8
0
  6
SLD-Сплошная
 62
     7
370
    25
100
AcDbLine
 10
1178.6793449545
 20
84.9582609589
 30
0.0
 11
1178.6793449545
 21
224.9582609589
 31
0.0
  0
LINE
  5
1A2
330
1F
100
AcDbEntity
  8
0
  6
SLD-Сплошная
 62
     7
370
    25
100
AcDbLine
 10
1178.6793449545
 20
84.9582609589
 30
0.0
 11
1177.9093099114
 21
82.4582609589
 31
0.0
  0
LINE
  5
1A3
330
1F
100
AcDbEntity
  8
0
  6
SLD-Сплошная
 62
     7
370
    25
100
AcDbLine
 10
1177.9093099114
 20
82.4582609589
 30
0.0
 11
1177.9093099114
 21
27.4582609589
 31
0.0
  0
LINE
  5
1A4
330
1F
100
AcDbEntity
  8
0
  6
SLD-Сплошная
 62
     7
370
    25
100
AcDbLine
 10
1177.9093099114
 20
27.4582609589
 30
0.0
 11
1178.6793449545
 21
24.9582609589
 31
0.0
  0
LINE
  5
1A5
330
1F
100
AcDbEntity
  8
0
  6
SLD-Сплошная
 62
     7
370
    25
100
AcDbLine
 10
1178.6793449545
 20
-115.0417390411
 30
0.0
 11
1178.6793449545
 21
24.9582609589
 31
0.0
  0
LINE
  5
1A6
330
1F
100
AcDbEntity
  8
0
  6
SLD-Сплошная
 62
     7
370
    25
100
AcDbLine
 10
1178.6793449545
 20
-115.0417390411
 30
0.0
 11
1177.9093099114
 21
-117.5417390411
 31
0.0
  0
LINE
  5
1A7
330
1F
100
AcDbEntity
  8
0
  6
SLD-Сплошная
 62
     7
370
    25
100
AcDbLine
 10
1177.9093099114
 20
-117.5417390411
 30
0.0
 11
1177.9093099114
 21
-172.5417390411
 31
0.0
  0
LINE
  5
1A8
330
1F
100
AcDbEntity
  8
0
  6
SLD-Сплошная
 62
     7
370
    25
100
AcDbLine
 10
1177.9093099114
 20
-172.5417390411
 30
0.0
 11
1178.6793449545
 21
-175.0417390411
 31
0.0
  0
LINE
  5
1A9
330
1F
100
AcDbEntity
  8
0
  6
SLD-Сплошная
 62
     7
370
    25
100
AcDbLine
 10
1178.6793449545
 20
-205.3052135008
 30
0.0
 11
1178.6793449545
 21
-175.0417390411
 31
0.0
  0
ARC
  5
1AA
330
1F
100
AcDbEntity
  8
0
  6
SLD-Сплошная
 62
     7
370
    25
100
AcDbCircle
 10
1181.7123612307
 20
-225.0417390411
 30
0.0
 40
19.96698372385865
100
AcDbArc
 50
233.0979893181
 51
98.7361646501
  0
LINE
  5
1AB
330
1F
100
AcDbEntity
  8
0
  6
SLD-Сплошная
 62
     7
370
    25
100
AcDbLine
 10
1201.7123612307
 20
282.4582609589
 30
0.0
 11
1177.9093099114
 21
282.4582609589
 31
0.0
  0
LINE
  5
1AC
330
1F
100
AcDbEntity
  8
0
  6
SLD-Сплошная
 62
     7
370
    25
100
AcDbLine
 10
1201.7123612307
 20
282.4582609589
 30
0.0
 11
1201.7123612307
 21
227.4582609589
 31
0.0
  0
LINE
  5
1AD
330
1F
100
AcDbEntity
  8
0
  6
SLD-Сплошная
 62
     7
370
    25
100
AcDbLine
 10
1201.7123612307
 20
227.4582609589
 30
0.0
 11
1177.9093099114
 21
227.4582609589
 31
0.0
  0
LINE
  5
1AE
330
1F
100
AcDbEntity
  8
0
  6
SLD-Сплошная
 62
     7
370
    25
100
AcDbLine
 10
1201.7123612307
 20
82.4582609589
 30
0.0
 11
1177.9093099114
 21
82.4582609589
 31
0.0
  0
LINE
  5
1AF
330
1F
100
AcDbEntity
  8
0
  6
SLD-Сплошная
 62
     7
370
    25
100
AcDbLine
 10
1201.7123612307
 20
82.4582609589
 30
0.0
 11
1201.7123612307
 21
27.4582609589
 31
0.0
  0
LINE
  5
1B0
330
1F
100
AcDbEntity
  8
0
  6
SLD-Сплошная
 62
     7
370
    25
100
AcDbLine
 10
1201.7123612307
 20
27.4582609589
 30
0.0
 11
1177.9093099114
 21
27.4582609589
 31
0.0
  0
LINE
  5
1B1
330
1F
100
AcDbEntity
  8
0
  6
SLD-Сплошная
 62
     7
370
    25
100
AcDbLine
 10
1201.7123612307
 20
-115.0417390411
 30
0.0
 11
1178.6793449545
 21
-115.0417390411
 31
0.0
  0
LINE
  5
1B2
330
1F
100
AcDbEntity
  8
0
  6
SLD-Сплошная
 62
     7
370
    25
100
AcDbLine
 10
1201.7123612307
 20
-115.0417390411
 30
0.0
 11
1201.7123612307
 21
-117.5417390411
 31
0.0
  0
LINE
  5
1B3
330
1F
100
AcDbEntity
  8
0
  6
SLD-Сплошная
 62
     7
370
    25
100
AcDbLine
 10
1177.9093099114
 20
-117.5417390411
 30
0.0
 11
1201.7123612307
 21
-117.5417390411
 31
0.0
  0
LINE
  5
1B4
330
1F
100
AcDbEntity
  8
0
  6
SLD-Сплошная
 62
     7
370
    25
100
AcDbLine
 10
1201.7123612307
 20
-117.5417390411
 30
0.0
 11
1201.7123612307
 21
-172.5417390411
 31
0.0
  0
LINE
  5
1B5
330
1F
100
AcDbEntity
  8
0
  6
SLD-Сплошная
 62
     7
370
    25
100
AcDbLine
 10
1201.7123612307
 20
-172.5417390411
 30
0.0
 11
1177.9093099114
 21
-172.5417390411
 31
0.0
  0
LINE
  5
1B6
330
1F
100
AcDbEntity
  8
0
  6
SLD-Сплошная
 62
     7
370
    25
100
AcDbLine
 10
1201.7123612307
 20
-172.5417390411
 30
0.0
 11
1201.7123612307
 21
-175.0417390411
 31
0.0
  0
LINE
  5
1B7
330
1F
100
AcDbEntity
  8
0
  6
SLD-Сплошная
 62
     7
370
    25
100
AcDbLine
 10
1178.6793449545
 20
-175.0417390411
 30
0.0
 11
1201.7123612307
 21
-175.0417390411
 31
0.0
  0
LINE
  5
1B8
330
1F
100
AcDbEntity
  8
0
  6
SLD-Сплошная
 62
     7
370
    25
100
AcDbLine
 10
1201.7123612307
 20
27.4582609589
 30
0.0
 11
1201.7123612307
 21
24.9582609589
 31
0.0
  0
LINE
  5
1B9
330
1F
100
AcDbEntity
  8
0
  6
SLD-Сплошная
 62
     7
370
    25
100
AcDbLine
 10
1178.6793449545
 20
24.9582609589
 30
0.0
 11
1201.7123612307
 21
24.9582609589
 31
0.0
  0
LINE
  5
1BA
330
1F
100
AcDbEntity
  8
0
  6
SLD-Сплошная
 62
     7
370
    25
100
AcDbLine
 10
1201.7123612307
 20
284.9582609589
 30
0.0
 11
1178.6793449545
 21
284.9582609589
 31
0.0
  0
LINE
  5
1BB
330
1F
100
AcDbEntity
  8
0
  6
SLD-Сплошная
 62
     7
370
    25
100
AcDbLine
 10
1201.7123612307
 20
284.9582609589
 30
0.0
 11
1201.7123612307
 21
282.4582609589
 31
0.0
  0
LINE
  5
1BC
330
1F
100
AcDbEntity
  8
0
  6
SLD-Сплошная
 62
     7
370
    25
100
AcDbLine
 10
1201.7123612307
 20
227.4582609589
 30
0.0
 11
1201.7123612307
 21
224.9582609589
 31
0.0
  0
LINE
  5
1BD
330
1F
100
AcDbEntity
  8
0
  6
SLD-Сплошная
 62
     7
370
    25
100
AcDbLine
 10
1178.6793449545
 20
224.9582609589
 30
0.0
 11
1201.7123612307
 21
224.9582609589
 31
0.0
  0
LINE
  5
1BE
330
1F
100
AcDbEntity
  8
0
  6
SLD-Сплошная
 62
     7
370
    25
100
AcDbLine
 10
1201.7123612307
 20
84.9582609589
 30
0.0
 11
1178.6793449545
 21
84.9582609589
 31
0.0
  0
LINE
  5
1BF
330
1F
100
AcDbEntity
  8
0
  6
SLD-Сплошная
 62
     7
370
    25
100
AcDbLine
 10
1201.7123612307
 20
84.9582609589
 30
0.0
 11
1201.7123612307
 21
82.4582609589
 31
0.0
  0
LINE
  5
1C0
330
1F
100
AcDbEntity
  8
0
  6
SLD-Сплошная
 62
     7
370
    25
100
AcDbLine
 10
801.7123612307
 20
284.4582609589
 30
0.0
 11
801.7123612307
 21
286.9582609589
 31
0.0
  0
LINE
  5
1C1
330
1F
100
AcDbEntity
  8
0
  6
SLD-Сплошная
 62
     7
370
    25
100
AcDbLine
 10
824.7453775068
 20
286.9582609597
 30
0.0
 11
801.7123612307
 21
286.9582609589
 31
0.0
  0
LINE
  5
1C2
330
1F
100
AcDbEntity
  8
0
  6
SLD-Сплошная
 62
     7
370
    25
100
AcDbLine
 10
825.4787442146
 20
284.4582609589
 30
0.0
 11
801.7123612307
 21
284.4582609589
 31
0.0
  0
LINE
  5
1C3
330
1F
100
AcDbEntity
  8
0
  6
SLD-Сплошная
 62
     7
370
    25
100
AcDbLine
 10
824.7453775068
 20
-117.0417390411
 30
0.0
 11
801.7123612307
 21
-117.0417390411
 31
0.0
  0
LINE
  5
1C4
330
1F
100
AcDbEntity
  8
0
  6
SLD-Сплошная
 62
     7
370
    25
100
AcDbLine
 10
825.4787442146
 20
-119.5417390411
 30
0.0
 11
801.7123612307
 21
-119.5417390411
 31
0.0
  0
LINE
  5
1C5
330
1F
100
AcDbEntity
  8
0
  6
SLD-Сплошная
 62
     7
370
    25
100
AcDbLine
 10
801.7123612307
 20
-119.5417390411
 30
0.0
 11
801.7123612307
 21
-117.0417390411
 31
0.0
  0
LINE
  5
1C6
330
1F
100
AcDbEntity
  8
0
  6
SLD-Сплошная
 62
     7
370
    25
100
AcDbLine
 10
801.7123612307
 20
-174.5417390411
 30
0.0
 11
825.4787442146
 21
-174.5417390411
 31
0.0
  0
LINE
  5
1C7
330
1F
100
AcDbEntity
  8
0
  6
SLD-Сплошная
 62
     7
370
    25
100
AcDbLine
 10
801.7123612307
 20
-177.0417390411
 30
0.0
 11
824.7453775068
 21
-177.0417390411
 31
0.0
  0
LINE
  5
1C8
330
1F
100
AcDbEntity
  8
0
  6
SLD-Сплошная
 62
     7
370
    25
100
AcDbLine
 10
801.7123612307
 20
-177.0417390411
 30
0.0
 11
801.7123612307
 21
-174.5417390411
 31
0.0
  0
LINE
  5
1C9
330
1F
100
AcDbEntity
  8
0
  6
SLD-Сплошная
 62
     7
370
    25
100
AcDbLine
 10
801.7123612307
 20
-174.5417390411
 30
0.0
 11
801.7123612307
 21
-119.5417390411
 31
0.0
  0
LINE
  5
1CA
330
1F
100
AcDbEntity
  8
0
  6
SLD-Сплошная
 62
     7
370
    25
100
AcDbLine
 10
801.7123612307
 20
229.4582609589
 30
0.0
 11
825.4787442146
 21
229.4582609589
 31
0.0
  0
LINE
  5
1CB
330
1F
100
AcDbEntity
  8
0
  6
SLD-Сплошная
 62
     7
370
    25
100
AcDbLine
 10
801.7123612307
 20
226.9582609589
 30
0.0
 11
824.7453775068
 21
226.9582609589
 31
0.0
  0
LINE
  5
1CC
330
1F
100
AcDbEntity
  8
0
  6
SLD-Сплошная
 62
     7
370
    25
100
AcDbLine
 10
801.7123612307
 20
226.9582609589
 30
0.0
 11
801.7123612307
 21
229.4582609589
 31
0.0
  0
LINE
  5
1CD
330
1F
100
AcDbEntity
  8
0
  6
SLD-Сплошная
 62
     7
370
    25
100
AcDbLine
 10
801.7123612307
 20
229.4582609589
 30
0.0
 11
801.7123612307
 21
284.4582609589
 31
0.0
  0
ARC
  5
1CE
330
1F
100
AcDbEntity
  8
0
  6
SLD-Сплошная
 62
     7
370
    25
100
AcDbCircle
 10
821.7123612307
 20
334.9582609589
 30
0.0
 40
20.00000000000006
100
AcDbArc
 50
90.0
 51
180.0
  0
LINE
  5
1CF
330
1F
100
AcDbEntity
  8
0
  6
SLD-Сплошная
 62
     7
370
    25
100
AcDbLine
 10
821.7123612307
 20
354.9582609589
 30
0.0
 11
1181.7123612307
 21
354.9582609589
 31
0.0
  0
ARC
  5
1D0
330
1F
100
AcDbEntity
  8
0
  6
SLD-Сплошная
 62
     7
370
    25
100
AcDbCircle
 10
1181.7123612307
 20
334.9582609589
 30
0.0
 40
20.00000000000006
100
AcDbArc
 50
0.0
 51
90.0
  0
LINE
  5
1D1
330
1F
100
AcDbEntity
  8
0
  6
SLD-Сплошная
 62
     7
370
    25
100
AcDbLine
 10
801.7123612307
 20
286.9582609589
 30
0.0
 11
801.7123612307
 21
334.9582609589
 31
0.0
  0
LINE
  5
1D2
330
1F
100
AcDbEntity
  8
0
  6
SLD-Сплошная
 62
     7
370
    25
100
AcDbLine
 10
1201.7123612307
 20
334.9582609589
 30
0.0
 11
1201.7123612307
 21
284.9582609589
 31
0.0
  0
ARC
  5
1D3
330
1F
100
AcDbEntity
  8
0
  6
SLD-Сплошная
 62
     7
370
    25
100
AcDbCircle
 10
1181.7123612307
 20
-225.0417390411
 30
0.0
 40
20.00000000000003
100
AcDbArc
 50
270.0
 51
0.0
  0
LINE
  5
1D4
330
1F
100
AcDbEntity
  8
0
  6
SLD-Сплошная
 62
     7
370
    25
100
AcDbLine
 10
1181.7123612307
 20
-245.0417390411
 30
0.0
 11
821.7123612307
 21
-245.0417390411
 31
0.0
  0
ARC
  5
1D5
330
1F
100
AcDbEntity
  8
0
  6
SLD-Сплошная
 62
     7
370
    25
100
AcDbCircle
 10
821.7123612307
 20
-225.0417390411
 30
0.0
 40
20.00000000000003
100
AcDbArc
 50
180.0
 51
270.0
  0
LINE
  5
1D6
330
1F
100
AcDbEntity
  8
0
  6
SLD-Сплошная
 62
     7
370
    25
100
AcDbLine
 10
801.7123612307
 20
-225.0417390411
 30
0.0
 11
801.7123612307
 21
-177.0417390411
 31
0.0
  0
LINE
  5
1D7
330
1F
100
AcDbEntity
  8
0
  6
SLD-Сплошная
 62
     7
370
    25
100
AcDbLine
 10
1201.7123612307
 20
-175.0417390411
 30
0.0
 11
1201.7123612307
 21
-225.0417390411
 31
0.0
  0
LINE
  5
1D8
330
1F
100
AcDbEntity
  8
0
  6
SLD-Сплошная
 62
     7
370
    25
100
AcDbLine
 10
801.7123612307
 20
-117.0417390411
 30
0.0
 11
801.7123612307
 21
226.9582609589
 31
0.0
  0
LINE
  5
1D9
330
1F
100
AcDbEntity
  8
0
  6
SLD-Сплошная
 62
     7
370
    25
100
AcDbLine
 10
1201.7123612307
 20
224.9582609589
 30
0.0
 11
1201.7123612307
 21
84.9582609589
 31
0.0
  0
LINE
  5
1DA
330
1F
100
AcDbEntity
  8
0
  6
SLD-Сплошная
 62
     7
370
    25
100
AcDbLine
 10
1201.7123612307
 20
24.9582609589
 30
0.0
 11
1201.7123612307
 21
-115.0417390411
 31
0.0
  0
LINE
  5
1DB
330
1F
100
AcDbEntity
  8
0
  6
SLD-Сплошная
 62
     7
370
    25
100
AcDbLine
 10
-154.0103383182
 20
690.4749783805
 30
0.0
 11
-147.0433545943
 21
500.4749783805
 31
0.0
  0
LINE
  5
1DC
330
1F
100
AcDbEntity
  8
0
  6
SLD-Сплошная
 62
     7
370
    25
100
AcDbLine
 10
238.9566454057
 20
500.4749783805
 30
0.0
 11
245.9236291295
 21
690.4749783805
 31
0.0
  0
LINE
  5
1DD
330
1F
100
AcDbEntity
  8
0
  6
SLD-Сплошная
 62
     7
370
    25
100
AcDbLine
 10
-91.5433545943
 20
500.4749783805
 30
0.0
 11
-91.5433545943
 21
498.4749783805
 31
0.0
  0
LINE
  5
1DE
330
1F
100
AcDbEntity
  8
0
  6
SLD-Сплошная
 62
     7
370
    25
100
AcDbLine
 10
-76.5433545943
 20
498.4749783805
 30
0.0
 11
-76.5433545943
 21
500.4749783805
 31
0.0
  0
LINE
  5
1DF
330
1F
100
AcDbEntity
  8
0
  6
SLD-Сплошная
 62
     7
370
    25
100
AcDbLine
 10
168.4566454057
 20
500.4749783805
 30
0.0
 11
168.4566454057
 21
498.4749783805
 31
0.0
  0
LINE
  5
1E0
330
1F
100
AcDbEntity
  8
0
  6
SLD-Сплошная
 62
     7
370
    25
100
AcDbLine
 10
183.4566454057
 20
498.4749783805
 30
0.0
 11
183.4566454057
 21
500.4749783805
 31
0.0
  0
LINE
  5
1E1
330
1F
100
AcDbEntity
  8
0
  6
SLD-Сплошная
 62
     7
370
    25
100
AcDbLine
 10
198.4566454057
 20
500.4749783805
 30
0.0
 11
198.4566454057
 21
498.4749783805
 31
0.0
  0
LINE
  5
1E2
330
1F
100
AcDbEntity
  8
0
  6
SLD-Сплошная
 62
     7
370
    25
100
AcDbLine
 10
213.4566454057
 20
498.4749783805
 30
0.0
 11
213.4566454057
 21
500.4749783805
 31
0.0
  0
LINE
  5
1E3
330
1F
100
AcDbEntity
  8
0
  6
SLD-Сплошная
 62
     7
370
    25
100
AcDbLine
 10
-121.5433545943
 20
500.4749783805
 30
0.0
 11
-121.5433545943
 21
498.4749783805
 31
0.0
  0
LINE
  5
1E4
330
1F
100
AcDbEntity
  8
0
  6
SLD-Сплошная
 62
     7
370
    25
100
AcDbLine
 10
-106.5433545943
 20
498.4749783805
 30
0.0
 11
-106.5433545943
 21
500.4749783805
 31
0.0
  0
LINE
  5
1E5
330
1F
100
AcDbEntity
  8
0
  6
SLD-Сплошная
 62
     7
370
    25
100
AcDbLine
 10
188.9566454057
 20
724.4749783805
 30
0.0
 11
188.9566454057
 21
727.4749783805
 31
0.0
  0
LINE
  5
1E6
330
1F
100
AcDbEntity
  8
0
  6
SLD-Сплошная
 62
     7
370
    25
100
AcDbLine
 10
160.9566454057
 20
727.4749783805
 30
0.0
 11
160.9566454057
 21
724.4749783805
 31
0.0
  0
LINE
  5
1E7
330
1F
100
AcDbEntity
  8
0
  6
SLD-Сплошная
 62
     7
370
    25
100
AcDbLine
 10
225.9566454057
 20
700.4749783805
 30
0.0
 11
245.9566454057
 21
700.4749783805
 31
0.0
  0
LINE
  5
1E8
330
1F
100
AcDbEntity
  8
0
  6
SLD-Сплошная
 62
     7
370
    25
100
AcDbLine
 10
245.9566454057
 20
700.4749783805
 30
0.0
 11
245.9566454057
 21
690.4749783805
 31
0.0
  0
LINE
  5
1E9
330
1F
100
AcDbEntity
  8
0
  6
SLD-Сплошная
 62
     7
370
    25
100
AcDbLine
 10
225.9566454057
 20
690.4749783805
 30
0.0
 11
245.9566454057
 21
690.4749783805
 31
0.0
  0
LINE
  5
1EA
330
1F
100
AcDbEntity
  8
0
  6
SLD-Сплошная
 62
     7
370
    25
100
AcDbLine
 10
-134.0433545943
 20
700.4749783805
 30
0.0
 11
225.9566454057
 21
700.4749783805
 31
0.0
  0
LINE
  5
1EB
330
1F
100
AcDbEntity
  8
0
  6
SLD-Сплошная
 62
     7
370
    25
100
AcDbLine
 10
-134.0433545943
 20
690.4749783805
 30
0.0
 11
225.9566454057
 21
690.4749783805
 31
0.0
  0
LINE
  5
1EC
330
1F
100
AcDbEntity
  8
0
  6
SLD-Сплошная
 62
     7
370
    25
100
AcDbLine
 10
-154.0433545943
 20
700.4749783805
 30
0.0
 11
-154.0433545943
 21
690.4749783805
 31
0.0
  0
LINE
  5
1ED
330
1F
100
AcDbEntity
  8
0
  6
SLD-Сплошная
 62
     7
370
    25
100
AcDbLine
 10
-154.0433545943
 20
700.4749783805
 30
0.0
 11
-134.0433545943
 21
700.4749783805
 31
0.0
  0
LINE
  5
1EE
330
1F
100
AcDbEntity
  8
0
  6
SLD-Сплошная
 62
     7
370
    25
100
AcDbLine
 10
-154.0433545943
 20
690.4749783805
 30
0.0
 11
-134.0433545943
 21
690.4749783805
 31
0.0
  0
LINE
  5
1EF
330
1F
100
AcDbEntity
  8
0
  6
SLD-Сплошная
 62
     7
370
    25
100
AcDbLine
 10
-122.3814508046
 20
664.1038951664
 30
0.0
 11
-122.054158222
 21
690.4749758322
 31
0.0
  0
LINE
  5
1F0
330
1F
100
AcDbEntity
  8
0
  6
SLD-Сплошная
 62
     7
370
    25
100
AcDbLine
 10
-122.382600173
 20
664.0528267734
 30
0.0
 11
-122.3814508046
 21
664.103895169
 31
0.0
  0
SPLINE
  5
1F1
330
1F
100
AcDbEntity
  8
0
  6
SLD-Сплошная
 62
     7
370
    25
100
AcDbSpline
210
0.0
220
0.0
230
1.0
 70
     8
 71
     3
 72
     8
 73
     4
 74
     0
 42
0.00000001
 43
0.00000001
 40
0.0
 40
0.0
 40
0.0
 40
0.0
 40
1.0
 40
1.0
 40
1.0
 40
1.0
 10
-124.6625230746829
 20
500.4749783805178
 30
0.0
 10
-123.8100070165082
 20
554.9996072240992
 30
0.0
 10
-123.067923194261
 20
609.5259180394431
 30
0.0
 10
-122.3820930559245
 20
664.0528315826765
 30
0.0
  0
LINE
  5
1F2
330
1F
100
AcDbEntity
  8
0
  6
SLD-Сплошная
 62
     7
370
    25
100
AcDbLine
 10
-147.0433545943
 20
500.4749783805
 30
0.0
 11
-124.6625230747
 21
500.4749783805
 31
0.0
  0
LINE
  5
1F3
330
1F
100
AcDbEntity
  8
0
  6
SLD-Сплошная
 62
     7
370
    25
100
AcDbLine
 10
216.575813886
 20
500.4749783805
 30
0.0
 11
238.9566454057
 21
500.4749783805
 31
0.0
  0
SPLINE
  5
1F4
330
1F
100
AcDbEntity
  8
0
  6
SLD-Сплошная
 62
     7
370
    25
100
AcDbSpline
210
0.0
220
0.0
230
1.0
 70
     8
 71
     3
 72
     8
 73
     4
 74
     0
 42
0.00000001
 43
0.00000001
 40
0.0
 40
0.0
 40
0.0
 40
0.0
 40
1.0
 40
1.0
 40
1.0
 40
1.0
 10
214.2947416159793
 20
664.1038951664198
 30
0.0
 10
214.9807489501415
 20
609.5598897922373
 30
0.0
 10
215.7230318294725
 20
555.0166197631476
 30
0.0
 10
216.5758138860232
 20
500.4749783805178
 30
0.0
  0
LINE
  5
1F5
330
1F
100
AcDbEntity
  8
0
  6
SLD-Сплошная
 62
     7
370
    25
100
AcDbLine
 10
214.294741616
 20
664.1038951664
 30
0.0
 11
213.9673326272
 21
690.4749743137
 31
0.0
  0
LINE
  5
1F6
330
1F
100
AcDbEntity
  8
0
  6
SLD-Сплошная
 62
     7
370
    25
100
AcDbLine
 10
-124.6625230747
 20
500.4749783805
 30
0.0
 11
216.575813886
 21
500.4749783805
 31
0.0
  0
LINE
  5
1F7
330
1F
100
AcDbEntity
  8
0
  6
SLD-Сплошная
 62
     7
370
    25
100
AcDbLine
 10
-91.5433545943
 20
498.4749783805
 30
0.0
 11
-76.5433545943
 21
498.4749783805
 31
0.0
  0
LINE
  5
1F8
330
1F
100
AcDbEntity
  8
0
  6
SLD-Сплошная
 62
     7
370
    25
100
AcDbLine
 10
168.4566454057
 20
498.4749783805
 30
0.0
 11
183.4566454057
 21
498.4749783805
 31
0.0
  0
LINE
  5
1F9
330
1F
100
AcDbEntity
  8
0
  6
SLD-Сплошная
 62
     7
370
    25
100
AcDbLine
 10
160.9566454057
 20
498.4749783805
 30
0.0
 11
155.9566454057
 21
498.4749783805
 31
0.0
  0
LINE
  5
1FA
330
1F
100
AcDbEntity
  8
0
  6
SLD-Сплошная
 62
     7
370
    25
100
AcDbLine
 10
155.9566454057
 20
500.4749783805
 30
0.0
 11
155.9566454057
 21
498.4749783805
 31
0.0
  0
LINE
  5
1FB
330
1F
100
AcDbEntity
  8
0
  6
SLD-Сплошная
 62
     7
370
    25
100
AcDbLine
 10
160.9566454057
 20
500.4749783805
 30
0.0
 11
160.9566454057
 21
498.4749783805
 31
0.0
  0
LINE
  5
1FC
330
1F
100
AcDbEntity
  8
0
  6
SLD-Сплошная
 62
     7
370
    25
100
AcDbLine
 10
-64.0433545943
 20
498.4749783805
 30
0.0
 11
-69.0433545943
 21
498.4749783805
 31
0.0
  0
LINE
  5
1FD
330
1F
100
AcDbEntity
  8
0
  6
SLD-Сплошная
 62
     7
370
    25
100
AcDbLine
 10
-69.0433545943
 20
500.4749783805
 30
0.0
 11
-69.0433545943
 21
498.4749783805
 31
0.0
  0
LINE
  5
1FE
330
1F
100
AcDbEntity
  8
0
  6
SLD-Сплошная
 62
     7
370
    25
100
AcDbLine
 10
-64.0433545943
 20
500.4749783805
 30
0.0
 11
-64.0433545943
 21
498.4749783805
 31
0.0
  0
LINE
  5
1FF
330
1F
100
AcDbEntity
  8
0
  6
SLD-Сплошная
 62
     7
370
    25
100
AcDbLine
 10
190.9566454057
 20
500.4749783805
 30
0.0
 11
190.9566454057
 21
498.4749783805
 31
0.0
  0
LINE
  5
200
330
1F
100
AcDbEntity
  8
0
  6
SLD-Сплошная
 62
     7
370
    25
100
AcDbLine
 10
190.9566454057
 20
498.4749783805
 30
0.0
 11
183.4566454057
 21
498.4749783805
 31
0.0
  0
LINE
  5
201
330
1F
100
AcDbEntity
  8
0
  6
SLD-Сплошная
 62
     7
370
    25
100
AcDbLine
 10
168.4566454057
 20
498.4749783805
 30
0.0
 11
160.9566454057
 21
498.4749783805
 31
0.0
  0
LINE
  5
202
330
1F
100
AcDbEntity
  8
0
  6
SLD-Сплошная
 62
     7
370
    25
100
AcDbLine
 10
-99.0433545943
 20
500.4749783805
 30
0.0
 11
-99.0433545943
 21
498.4749783805
 31
0.0
  0
LINE
  5
203
330
1F
100
AcDbEntity
  8
0
  6
SLD-Сплошная
 62
     7
370
    25
100
AcDbLine
 10
-69.0433545943
 20
498.4749783805
 30
0.0
 11
-76.5433545943
 21
498.4749783805
 31
0.0
  0
LINE
  5
204
330
1F
100
AcDbEntity
  8
0
  6
SLD-Сплошная
 62
     7
370
    25
100
AcDbLine
 10
-91.5433545943
 20
498.4749783805
 30
0.0
 11
-99.0433545943
 21
498.4749783805
 31
0.0
  0
LINE
  5
205
330
1F
100
AcDbEntity
  8
0
  6
SLD-Сплошная
 62
     7
370
    25
100
AcDbLine
 10
198.4566454057
 20
498.4749783805
 30
0.0
 11
213.4566454057
 21
498.4749783805
 31
0.0
  0
LINE
  5
206
330
1F
100
AcDbEntity
  8
0
  6
SLD-Сплошная
 62
     7
370
    25
100
AcDbLine
 10
-121.5433545943
 20
498.4749783805
 30
0.0
 11
-106.5433545943
 21
498.4749783805
 31
0.0
  0
LINE
  5
207
330
1F
100
AcDbEntity
  8
0
  6
SLD-Сплошная
 62
     7
370
    25
100
AcDbLine
 10
245.9566454057
 20
670.4749783805
 30
0.0
 11
245.1902624218
 21
670.4749783805
 31
0.0
  0
LINE
  5
208
330
1F
100
AcDbEntity
  8
0
  6
SLD-Сплошная
 62
     7
370
    25
100
AcDbLine
 10
245.9566454057
 20
690.4749783805
 30
0.0
 11
245.9566454057
 21
670.4749783805
 31
0.0
  0
LINE
  5
209
330
1F
100
AcDbEntity
  8
0
  6
SLD-Сплошная
 62
     7
370
    25
100
AcDbLine
 10
-154.0433545943
 20
669.4749783805
 30
0.0
 11
-153.240303275
 21
669.4749783805
 31
0.0
  0
LINE
  5
20A
330
1F
100
AcDbEntity
  8
0
  6
SLD-Сплошная
 62
     7
370
    25
100
AcDbLine
 10
-154.0433545943
 20
669.4749783805
 30
0.0
 11
-154.0433545943
 21
690.4749783805
 31
0.0
  0
LINE
  5
20B
330
1F
100
AcDbEntity
  8
0
  6
SLD-Сплошная
 62
     7
370
    25
100
AcDbLine
 10
198.4566454057
 20
498.4749783805
 30
0.0
 11
190.9566454057
 21
498.4749783805
 31
0.0
  0
LINE
  5
20C
330
1F
100
AcDbEntity
  8
0
  6
SLD-Сплошная
 62
     7
370
    25
100
AcDbLine
 10
-99.0433545943
 20
498.4749783805
 30
0.0
 11
-106.5433545943
 21
498.4749783805
 31
0.0
  0
LINE
  5
20D
330
1F
100
AcDbEntity
  8
0
  6
SLD-Сплошная
 62
     7
370
    25
100
AcDbLine
 10
-64.0433545943
 20
498.4749783805
 30
0.0
 11
155.9566454057
 21
498.4749783805
 31
0.0
  0
LINE
  5
20E
330
1F
100
AcDbEntity
  8
0
  6
SLD-Сплошная
 62
     7
370
    25
100
AcDbLine
 10
-154.0433545943
 20
713.4749783804
 30
0.0
 11
-154.0433545943
 21
700.4749783806
 31
0.0
  0
SPLINE
  5
20F
330
1F
100
AcDbEntity
  8
0
  6
SLD-Сплошная
 62
     7
370
    25
100
AcDbSpline
210
0.0
220
0.0
230
1.0
 70
     8
 71
     3
 72
    11
 73
     7
 74
     0
 42
0.00000001
 43
0.00000001
 40
0.0
 40
0.0
 40
0.0
 40
0.0
 40
0.2916798654219548
 40
0.5000000113330938
 40
0.7082987838457426
 40
1.0
 40
1.0
 40
1.0
 40
1.0
 10
-153.9824335753708
 20
713.4973160874648
 30
0.0
 10
-153.9933104649584
 20
713.4936133891704
 30
0.0
 10
-154.0119557180655
 20
713.4872661934651
 30
0.0
 10
-154.028852357389
 20
713.4799735935619
 30
0.0
 10
-154.0407349046187
 20
713.4767159534197
 30
0.0
 10
-154.0423893732717
 20
713.4756185868551
 30
0.0
 10
-154.0433545943299
 20
713.4749783805178
 30
0.0
  0
SPLINE
  5
210
330
1F
100
AcDbEntity
  8
0
  6
SLD-Сплошная
 62
     7
370
    25
100
AcDbSpline
210
0.0
220
0.0
230
1.0
 70
     8
 71
     3
 72
    20
 73
    16
 74
     0
 42
0.00000001
 43
0.00000001
 40
0.0
 40
0.0
 40
0.0
 40
0.0
 40
0.0182288018533741
 40
0.0312508057196013
 40
0.0625007846885294
 40
0.1250007470458951
 40
0.25000073690824
 40
0.3750007865469948
 40
0.5000008109880861
 40
0.6250008410781049
 40
0.7500004622606574
 40
0.875000081626877
 40
0.9375000360826523
 40
0.9687500159953327
 40
1.0
 40
1.0
 40
1.0
 40
1.0
 10
-153.9824335752317
 20
713.4973160875203
 30
0.0
 10
-153.9657157477518
 20
713.5029704872201
 30
0.0
 10
-153.9370553024393
 20
713.5126641877662
 30
0.0
 10
-153.8702225907333
 20
713.5290503768703
 30
0.0
 10
-153.7109565185081
 20
713.5615051386322
 30
0.0
 10
-153.2425743929177
 20
713.6223101997255
 30
0.0
 10
-152.146923706955
 20
713.6863762120958
 30
0.0
 10
-150.2045218196206
 20
713.6885710264717
 30
0.0
 10
-147.700367522017
 20
713.6108367900819
 30
0.0
 10
-144.7232497163404
 20
713.475061956048
 30
0.0
 10
-141.3766098883067
 20
713.329160587584
 30
0.0
 10
-138.3714643822513
 20
713.258780726037
 30
0.0
 10
-136.2150395609264
 20
713.2702223613813
 30
0.0
 10
-134.9747668567756
 20
713.3024734125817
 30
0.0
 10
-134.353825364017
 20
713.327625963736
 30
0.0
 10
-134.0433545973106
 20
713.3402022401366
 30
0.0
  0
SPLINE
  5
211
330
1F
100
AcDbEntity
  8
0
  6
SLD-Сплошная
 62
     7
370
    25
100
AcDbSpline
210
0.0
220
0.0
230
1.0
 70
    24
 71
     3
 72
    25
 73
    21
 74
     0
 42
0.00000001
 43
0.00000001
 40
0.0
 40
0.0
 40
0.0
 40
0.0
 40
0.0208276392725989
 40
0.0357081375133146
 40
0.0713780957391478
 40
0.1061834470550632
 40
0.1428036096640917
 40
0.2146160902623942
 40
0.2857076601124941
 40
0.3928150003924951
 40
0.4999278318631261
 40
0.6248956600592668
 40
0.6873940027524077
 40
0.7500271466061583
 40
0.8125336907780795
 40
0.8750624125073306
 40
0.9067203835929226
 40
0.9375447238116742
 40
0.9687631695544989
 40
1.0
 40
1.0
 40
1.0
 40
1.0
 10
-134.0433545943299
 20
700.4749783805179
 30
0.0
 10
-134.2612330626997
 20
700.4749783805179
 30
0.0
 10
-134.6347768046431
 20
700.4749783805178
 30
0.0
 10
-135.3812156512333
 20
700.4749783805179
 30
0.0
 10
-136.2728613882902
 20
700.4749783805179
 30
0.0
 10
-137.3831655961168
 20
700.4749783805179
 30
0.0
 10
-138.8528874768988
 20
700.4749783805178
 30
0.0
 10
-140.662779324314
 20
700.4749783805179
 30
0.0
 10
-143.0859949719603
 20
700.4749783805178
 30
0.0
 10
-145.6726060119087
 20
700.4749783805179
 30
0.0
 10
-148.3931278948241
 20
700.4749783805178
 30
0.0
 10
-150.3633407823984
 20
700.4749783805179
 30
0.0
 10
-151.7112243396076
 20
700.4749783805179
 30
0.0
 10
-152.5514870202016
 20
700.4749783805179
 30
0.0
 10
-153.2150542010301
 20
700.4749783805179
 30
0.0
 10
-153.6137163303077
 20
700.4749783805179
 30
0.0
 10
-153.837821568559
 20
700.4749783805179
 30
0.0
 10
-153.9566588468323
 20
700.4749783805179
 30
0.0
 10
-154.0173749433984
 20
700.4749783805179
 30
0.0
 10
-154.0346930114032
 20
700.4749783805179
 30
0.0
 10
-154.04335459433
 20
700.4749783805179
 30
0.0
  0
LINE
  5
212
330
1F
100
AcDbEntity
  8
0
  6
SLD-Сплошная
 62
     7
370
    25
100
AcDbLine
 10
-124.0433545943
 20
724.4749783805
 30
0.0
 11
-153.9824335759
 21
713.4973160873
 31
0.0
  0
SPLINE
  5
213
330
1F
100
AcDbEntity
  8
0
  6
SLD-Сплошная
 62
     7
370
    25
100
AcDbSpline
210
0.0
220
0.0
230
1.0
 70
     8
 71
     3
 72
    35
 73
    31
 74
     0
 42
0.00000001
 43
0.00000001
 40
0.0
 40
0.0
 40
0.0
 40
0.0
 40
0.0232382198501626
 40
0.0461066970846732
 40
0.0686086016749732
 40
0.0907472610585399
 40
0.1125261691660941
 40
0.1339489959487124
 40
0.1550195974186285
 40
0.1757420262143827
 40
0.1961205426969885
 40
0.2161596265785778
 40
0.2358639890788195
 40
0.2552385855962527
 40
0.2742886288726328
 40
0.2930196026165662
 40
0.3114372755397546
 40
0.4420510405364791
 40
0.5588565878147531
 40
0.667247237360509
 40
0.772628702004574
 40
0.7963029286963401
 40
0.820231185589801
 40
0.8444791212635324
 40
0.8691098282953469
 40
0.8941835099418142
 40
0.919757241224154
 40
0.9458848203325508
 40
0.9726167017927333
 40
1.0
 40
1.0
 40
1.0
 40
1.0
 10
-98.28602115323164
 20
724.4749783805178
 30
0.0
 10
-98.56366666580979
 20
724.4749793876085
 30
0.0
 10
-99.11454008158344
 20
724.4749813857661
 30
0.0
 10
-99.93412407775153
 20
724.4749938420745
 30
0.0
 10
-100.7402875691018
 20
724.4750087757587
 30
0.0
 10
-101.532999682775
 20
724.4750242666736
 30
0.0
 10
-102.3122295868472
 20
724.4750378087507
 30
0.0
 10
-103.0779467446695
 20
724.4750477756991
 30
0.0
 10
-103.8301208422739
 20
724.4750530327086
 30
0.0
 10
-104.5687218387014
 20
724.4750530327746
 30
0.0
 10
-105.2937198458654
 20
724.4750477866634
 30
0.0
 10
-106.0050855541029
 20
724.475037864415
 30
0.0
 10
-106.7027886886047
 20
724.4750243938096
 30
0.0
 10
-107.3868036242522
 20
724.4750090404401
 30
0.0
 10
-108.0570889498092
 20
724.4749940622095
 30
0.0
 10
-108.7136618237088
 20
724.4749820908481
 30
0.0
 10
-110.6647459135337
 20
724.4749663535355
 30
0.0
 10
-113.704269925426
 20
724.4751168639132
 30
0.0
 10
-117.4615679349125
 20
724.4749126280497
 30
0.0
 10
-120.42939358638
 20
724.4751080039779
 30
0.0
 10
-121.9962453377764
 20
724.4749619949375
 30
0.0
 10
-122.7413828877978
 20
724.4749863783044
 30
0.0
 10
-123.0476929716859
 20
724.4750097374306
 30
0.0
 10
-123.3133754209461
 20
724.4750314951715
 30
0.0
 10
-123.5384714016702
 20
724.4750444213598
 30
0.0
 10
-123.7227585306152
 20
724.4750444972656
 30
0.0
 10
-123.8663650946017
 20
724.4750315862776
 30
0.0
 10
-123.9682653703528
 20
724.4750101070144
 30
0.0
 10
-124.0318404743647
 20
724.4749856234813
 30
0.0
 10
-124.0394858769152
 20
724.4749808141366
 30
0.0
 10
-124.0433545943294
 20
724.4749783805178
 30
0.0
  0
SPLINE
  5
214
330
1F
100
AcDbEntity
  8
0
  6
SLD-Сплошная
 62
     7
370
    25
100
AcDbSpline
210
0.0
220
0.0
230
1.0
 70
     8
 71
     3
 72
    12
 73
     8
 74
     0
 42
0.00000001
 43
0.00000001
 40
0.0
 40
0.0
 40
0.0
 40
0.0
 40
0.2051317759347172
 40
0.4076941648295502
 40
0.6076905981737666
 40
0.8051246412539198
 40
1.0
 40
1.0
 40
1.0
 40
1.0
 10
-134.043354595622
 20
713.3402022402112
 30
0.0
 10
-133.6499129216399
 20
713.3573387880253
 30
0.0
 10
-132.8679576445876
 20
713.3913972390736
 30
0.0
 10
-131.7018828878232
 20
713.4286869344268
 30
0.0
 10
-130.5503181208972
 20
713.455437562671
 30
0.0
 10
-129.4133022654865
 20
713.4719096119476
 30
0.0
 10
-128.6601441310563
 20
713.473959915094
 30
0.0
 10
-128.2860211532321
 20
713.4749783805178
 30
0.0
  0
LINE
  5
215
330
1F
100
AcDbEntity
  8
0
  6
SLD-Сплошная
 62
     7
370
    25
100
AcDbLine
 10
245.9566454057
 20
700.4749783806
 30
0.0
 11
245.9566454057
 21
713.4075995368
 31
0.0
  0
SPLINE
  5
216
330
1F
100
AcDbEntity
  8
0
  6
SLD-Сплошная
 62
     7
370
    25
100
AcDbSpline
210
0.0
220
0.0
230
1.0
 70
    24
 71
     3
 72
    22
 73
    18
 74
     0
 42
0.00000001
 43
0.00000001
 40
0.0
 40
0.0
 40
0.0
 40
0.0
 40
0.0356632332765135
 40
0.0713264811262546
 40
0.1426528763765079
 40
0.2147480360770294
 40
0.2855214120726808
 40
0.3928706443878564
 40
0.5002584518072573
 40
0.5716928146834179
 40
0.6431378685060574
 40
0.7145694887275208
 40
0.7860163984504016
 40
0.8930061678933836
 40
0.9465009835837662
 40
0.9732428540363857
 40
1.0
 40
1.0
 40
1.0
 40
1.0
 10
245.9566454056702
 20
700.4749783805178
 30
0.0
 10
245.9465708560625
 20
700.4749783805178
 30
0.0
 10
245.9264217527303
 20
700.4749783805178
 30
0.0
 10
245.8209240188864
 20
700.4749783805178
 30
0.0
 10
245.4914952463291
 20
700.4749783805178
 30
0.0
 10
244.8711461814668
 20
700.4749783805179
 30
0.0
 10
243.8734449681917
 20
700.4749783805178
 30
0.0
 10
242.3452428764796
 20
700.4749783805179
 30
0.0
 10
240.4026223268866
 20
700.4749783805178
 30
0.0
 10
238.445896356776
 20
700.4749783805178
 30
0.0
 10
236.6115557831018
 20
700.4749783805178
 30
0.0
 10
234.6442667301824
 20
700.4749783805179
 30
0.0
 10
232.2235043742543
 20
700.4749783805178
 30
0.0
 10
229.8608937083281
 20
700.4749783805179
 30
0.0
 10
227.9147117948607
 20
700.4749783805178
 30
0.0
 10
226.7962056252964
 20
700.4749783805179
 30
0.0
 10
226.2365520779511
 20
700.4749783805178
 30
0.0
 10
225.9566454056702
 20
700.4749783805178
 30
0.0
  0
SPLINE
  5
217
330
1F
100
AcDbEntity
  8
0
  6
SLD-Сплошная
 62
     7
370
    25
100
AcDbSpline
210
0.0
220
0.0
230
1.0
 70
     8
 71
     3
 72
    24
 73
    20
 74
     0
 42
0.00000001
 43
0.00000001
 40
0.0
 40
0.0
 40
0.0
 40
0.0
 40
0.0182323171266602
 40
0.0312560934900721
 40
0.0625113355820291
 40
0.1250216580845474
 40
0.2498911159888169
 40
0.3749104804458755
 40
0.4999320085623424
 40
0.6249525702362583
 40
0.7499718323681506
 40
0.8126954341795629
 40
0.8749658136888304
 40
0.906375179209931
 40
0.9374862394087558
 40
0.9530370931374339
 40
0.9687396036614311
 40
0.9817675617084481
 40
1.0
 40
1.0
 40
1.0
 40
1.0
 10
225.9566454088373
 20
713.3723638834344
 30
0.0
 10
226.1471844278109
 20
713.3641621063568
 30
0.0
 10
226.4738299852116
 20
713.3501016054704
 30
0.0
 10
227.1269131381644
 20
713.3218387499298
 30
0.0
 10
228.2410855935037
 20
713.2876333943302
 30
0.0
 10
230.506692537372
 20
713.2500014150452
 30
0.0
 10
233.656511576434
 20
713.2671727977438
 30
0.0
 10
237.1373886335155
 20
713.3210690075385
 30
0.0
 10
240.1901165368162
 20
713.3564171134524
 30
0.0
 10
242.6959466117157
 20
713.3511843288463
 30
0.0
 10
244.2467358040598
 20
713.3247671303928
 30
0.0
 10
245.1290642714476
 20
713.3114103990856
 30
0.0
 10
245.5261976069576
 20
713.3145166711786
 30
0.0
 10
245.7490284520923
 20
713.3280373470824
 30
0.0
 10
245.8500017888243
 20
713.3417286143089
 30
0.0
 10
245.9053345015225
 20
713.3575219514108
 30
0.0
 10
245.9313561790939
 20
713.3717306636821
 30
0.0
 10
245.9467578953143
 20
713.3898246513164
 30
0.0
 10
245.9530029910879
 20
713.4010515289897
 30
0.0
 10
245.9566454056653
 20
713.4075995379199
 30
0.0
  0
LINE
  5
218
330
1F
100
AcDbEntity
  8
0
  6
SLD-Сплошная
 62
     7
370
    25
100
AcDbLine
 10
245.9566454057
 20
713.4749783805
 30
0.0
 11
224.9566454057
 21
724.4749783805
 31
0.0
  0
SPLINE
  5
219
330
1F
100
AcDbEntity
  8
0
  6
SLD-Сплошная
 62
     7
370
    25
100
AcDbSpline
210
0.0
220
0.0
230
1.0
 70
     8
 71
     3
 72
    11
 73
     7
 74
     0
 42
0.00000001
 43
0.00000001
 40
0.0
 40
0.0
 40
0.0
 40
0.0
 40
0.291681925400369
 40
0.5000001172219259
 40
0.708310802733463
 40
1.0
 40
1.0
 40
1.0
 40
1.0
 10
245.9566454056641
 20
713.4075995380505
 30
0.0
 10
245.9569751242779
 20
713.4194000283159
 30
0.0
 10
245.957540326751
 20
713.4396283866823
 30
0.0
 10
245.9562568478844
 20
713.4590004627415
 30
0.0
 10
245.9576168961727
 20
713.4715380516318
 30
0.0
 10
245.9570033407384
 20
713.473710828904
 30
0.0
 10
245.9566454056703
 20
713.474978380518
 30
0.0
  0
SPLINE
  5
21A
330
1F
100
AcDbEntity
  8
0
  6
SLD-Сплошная
 62
     7
370
    25
100
AcDbSpline
210
0.0
220
0.0
230
1.0
 70
     8
 71
     3
 72
    12
 73
     8
 74
     0
 42
0.00000001
 43
0.00000001
 40
0.0
 40
0.0
 40
0.0
 40
0.0
 40
0.2037249935111976
 40
0.3703915189877176
 40
0.5000006343372259
 40
0.708297042642325
 40
1.0
 40
1.0
 40
1.0
 40
1.0
 10
221.8384404054442
 20
713.4749783805177
 30
0.0
 10
222.1182132671767
 20
713.4738808598108
 30
0.0
 10
222.6268670825121
 20
713.4718854622175
 30
0.0
 10
223.3134537278824
 20
713.4620529886112
 30
0.0
 10
224.0062247835916
 20
713.4473999044098
 30
0.0
 10
224.870482703776
 20
713.4209699099648
 30
0.0
 10
225.5564484344442
 20
713.3902727884922
 30
0.0
 10
225.9566454067277
 20
713.3723638835397
 30
0.0
  0
SPLINE
  5
21B
330
1F
100
AcDbEntity
  8
0
  6
SLD-Сплошная
 62
     7
370
    25
100
AcDbSpline
210
0.0
220
0.0
230
1.0
 70
     8
 71
     3
 72
    26
 73
    22
 74
     0
 42
0.00000001
 43
0.00000001
 40
0.0
 40
0.0
 40
0.0
 40
0.0
 40
0.0182123523082933
 40
0.0312648971224225
 40
0.0625213839116063
 40
0.093605307404564
 40
0.1250505315691925
 40
0.1890318229856092
 40
0.2500691597850984
 40
0.3779239114922587
 40
0.4995777484433376
 40
0.5614383218678063
 40
0.624719351604696
 40
0.6857773907294437
 40
0.749828191796274
 40
0.8120568211864851
 40
0.8749504573222882
 40
0.904547368283832
 40
0.9374785071636802
 40
0.9635424903564669
 40
1.0
 40
1.0
 40
1.0
 40
1.0
 10
224.9566454056703
 20
724.4749783805179
 30
0.0
 10
224.9536147622723
 20
724.4759519027231
 30
0.0
 10
224.9484120980339
 20
724.4776231350315
 30
0.0
 10
224.9310754011522
 20
724.4762159983205
 30
0.0
 10
224.8900772912774
 20
724.4742565114286
 30
0.0
 10
224.7909058152706
 20
724.4752164326502
 30
0.0
 10
224.5986343085916
 20
724.476208020863
 30
0.0
 10
224.2435995705709
 20
724.4762704932411
 30
0.0
 10
223.38330473445
 20
724.4768457563446
 30
0.0
 10
221.7319879078079
 20
724.4759245637865
 30
0.0
 10
219.1939557339098
 20
724.4746410245422
 30
0.0
 10
216.7560427902565
 20
724.4754930203889
 30
0.0
 10
214.7391355654098
 20
724.4759414446166
 30
0.0
 10
212.5646360664675
 20
724.4767557413184
 30
0.0
 10
210.307849667724
 20
724.4776518661479
 30
0.0
 10
207.9689175444988
 20
724.4744910997806
 30
0.0
 10
206.0232687703529
 20
724.4728053471151
 30
0.0
 10
204.4352865636179
 20
724.4786602791718
 30
0.0
 10
203.3105230132538
 20
724.482821967679
 30
0.0
 10
202.0971939666555
 20
724.4860545564961
 30
0.0
 10
201.302084400174
 20
724.4790581326109
 30
0.0
 10
200.8384404055632
 20
724.4749783805177
 30
0.0
  0
LINE
  5
21C
330
1F
100
AcDbEntity
  8
0
  6
SLD-Сплошная
 62
     7
370
    25
100
AcDbLine
 10
225.9566454057
 20
700.4749783805
 30
0.0
 11
-134.0433545943
 21
700.4749783805
 31
0.0
  0
LINE
  5
21D
330
1F
100
AcDbEntity
  8
0
  6
SLD-Сплошная
 62
     7
370
    25
100
AcDbLine
 10
221.8384404054
 20
713.4749783805
 30
0.0
 11
-128.2860211532
 21
713.4749783805
 31
0.0
  0
LINE
  5
21E
330
1F
100
AcDbEntity
  8
0
  6
SLD-Сплошная
 62
     7
370
    25
100
AcDbLine
 10
200.8384404055
 20
724.4749783805
 30
0.0
 11
-98.2860211532
 21
724.4749783805
 31
0.0
  0
LINE
  5
21F
330
1F
100
AcDbEntity
  8
0
  6
SLD-Сплошная
 62
     7
370
    25
100
AcDbLine
 10
-154.0433545943
 20
724.4749783805
 30
0.0
 11
-154.0433545943
 21
713.4749783805
 31
0.0
  0
LINE
  5
220
330
1F
100
AcDbEntity
  8
0
  6
SLD-Сплошная
 62
     7
370
    25
100
AcDbLine
 10
-124.0433545943
 20
724.4749783805
 30
0.0
 11
-154.0433545943
 21
724.4749783805
 31
0.0
  0
SPLINE
  5
221
330
1F
100
AcDbEntity
  8
0
  6
SLD-Сплошная
 62
     7
370
    25
100
AcDbSpline
210
0.0
220
0.0
230
1.0
 70
    24
 71
     3
 72
    22
 73
    18
 74
     0
 42
0.00000001
 43
0.00000001
 40
0.0
 40
0.0
 40
0.0
 40
0.0
 40
0.125
 40
0.125
 40
0.25
 40
0.25
 40
0.375
 40
0.375
 40
0.5
 40
0.5
 40
0.625
 40
0.625
 40
0.75
 40
0.75
 40
0.875
 40
0.875
 40
1.0
 40
1.0
 40
1.0
 40
1.0
 10
188.9566454056702
 20
727.4749783805178
 30
0.0
 10
188.9566454056702
 20
727.4749783805178
 30
0.0
 10
188.5922628790266
 20
727.4749783805178
 30
0.0
 10
187.1896548426298
 20
727.4749783805178
 30
0.0
 10
186.1519811992446
 20
727.4749783805178
 30
0.0
 10
183.560299485319
 20
727.4749783805178
 30
0.0
 10
182.0073111308627
 20
727.4749783805178
 30
0.0
 10
178.6211157867002
 20
727.4749783805178
 30
0.0
 10
176.7892411202642
 20
727.4749783805178
 30
0.0
 10
173.1240496910762
 20
727.4749783805178
 30
0.0
 10
171.2921750246402
 20
727.4749783805178
 30
0.0
 10
167.9059796804776
 20
727.4749783805178
 30
0.0
 10
166.3529913260214
 20
727.4749783805178
 30
0.0
 10
163.7613096120957
 20
727.4749783805178
 30
0.0
 10
162.7236359687106
 20
727.4749783805178
 30
0.0
 10
161.3210279323138
 20
727.4749783805178
 30
0.0
 10
160.9566454056701
 20
727.4749783805178
 30
0.0
 10
160.9566454056702
 20
727.4749783805178
 30
0.0
  0
ENDSEC
  0
SECTION
  2
OBJECTS
  0
DICTIONARY
  5
C
330
0
100
AcDbDictionary
281
     1
  3
ACAD_DETAILVIEWSTYLE
350
229
  3
ACAD_GROUP
350
D
  3
ACAD_LAYOUT
350
1A
  3
ACAD_MATERIAL
350
43
  3
ACAD_MLEADERSTYLE
350
5B
  3
ACAD_MLINESTYLE
350
17
  3
ACAD_PLOTSETTINGS
350
19
  3
ACAD_PLOTSTYLENAME
350
E
  3
ACAD_SCALELIST
350
47
  3
ACAD_SECTIONVIEWSTYLE
350
22A
  3
ACAD_TABLESTYLE
350
59
  3
ACAD_VISUALSTYLE
350
2A
  3
ACDB_RECOMPOSE_DATA
350
226
  3
AcDbVariableDictionary
350
222
  0
SUN
  5
5D
330
29
100
AcDbSun
 90
        1
290
     0
 63
     7
421
 16777215
 40
1.0
291
     1
 91
  2455826
 92
 54000000
292
     0
 70
     2
 71
   256
280
     1
  0
DICTIONARY
  5
229
102
{ACAD_REACTORS
330
C
102
}
330
C
100
AcDbDictionary
281
     1
  0
DICTIONARY
  5
D
102
{ACAD_REACTORS
330
C
102
}
330
C
100
AcDbDictionary
281
     1
  0
DICTIONARY
  5
1A
102
{ACAD_REACTORS
330
C
102
}
330
C
100
AcDbDictionary
281
     1
  3
Layout1
350
1E
  3
Layout2
350
26
  3
Model
350
22
  0
DICTIONARY
  5
43
102
{ACAD_REACTORS
330
C
102
}
330
C
100
AcDbDictionary
281
     1
  3
ByBlock
350
45
  3
ByLayer
350
44
  3
Global
350
46
  0
DICTIONARY
  5
5B
102
{ACAD_REACTORS
330
C
102
}
330
C
100
AcDbDictionary
281
     1
  3
Standard
350
5C
  0
DICTIONARY
  5
17
102
{ACAD_REACTORS
330
C
102
}
330
C
100
AcDbDictionary
281
     1
  3
Standard
350
18
  0
DICTIONARY
  5
19
102
{ACAD_REACTORS
330
C
102
}
330
C
100
AcDbDictionary
281
     1
  0
ACDBDICTIONARYWDFLT
  5
E
102
{ACAD_REACTORS
330
C
102
}
330
C
100
AcDbDictionary
281
     1
  3
Normal
350
F
100
AcDbDictionaryWithDefault
340
F
  0
DICTIONARY
  5
47
102
{ACAD_REACTORS
330
C
102
}
330
C
100
AcDbDictionary
281
     1
  3
A0
350
48
  3
A1
350
49
  3
A2
350
4A
  3
A3
350
4B
  3
A4
350
4C
  3
A5
350
4D
  3
A6
350
4E
  3
A7
350
4F
  3
A8
350
50
  3
A9
350
51
  3
B0
350
52
  3
B1
350
53
  3
B2
350
54
  3
B3
350
55
  3
B4
350
56
  3
B5
350
57
  3
B6
350
58
  0
DICTIONARY
  5
22A
102
{ACAD_REACTORS
330
C
102
}
330
C
100
AcDbDictionary
281
     1
  0
DICTIONARY
  5
59
102
{ACAD_REACTORS
330
C
102
}
330
C
100
AcDbDictionary
281
     1
  3
Standard
350
5A
  0
DICTIONARY
  5
2A
102
{ACAD_REACTORS
330
C
102
}
330
C
100
AcDbDictionary
281
     1
  3
2dWireframe
350
2F
  3
Basic
350
32
  3
Brighten
350
36
  3
ColorChange
350
3A
  3
Conceptual
350
34
  3
Dim
350
35
  3
EdgeColorOff
350
3D
  3
Facepattern
350
39
  3
Flat
350
2B
  3
FlatWithEdges
350
2C
  3
Gouraud
350
2D
  3
GouraudWithEdges
350
2E
  3
Hidden
350
31
  3
JitterOff
350
3B
  3
Linepattern
350
38
  3
OverhangOff
350
3C
  3
Realistic
350
33
  3
Shaded
350
42
  3
Shaded with edges
350
41
  3
Shades of Gray
350
3E
  3
Sketchy
350
3F
  3
Thicken
350
37
  3
Wireframe
350
30
  3
X-Ray
350
40
  0
XRECORD
  5
226
102
{ACAD_REACTORS
330
C
102
}
330
C
100
AcDbXrecord
280
     1
 90
        1
330
5A
  0
DICTIONARY
  5
222
102
{ACAD_REACTORS
330
C
102
}
330
C
100
AcDbDictionary
281
     1
  3
CANNOSCALE
350
223
  3
CENTEREXE
350
22B
  3
CENTERLTYPEFILE
350
22C
  3
CMLEADERSTYLE
350
228
  3
CTABLESTYLE
350
227
  0
LAYOUT
  5
1E
102
{ACAD_REACTORS
330
1A
102
}
330
1A
100
AcDbPlotSettings
  1

  2
none_device
  4

  6

 40
0.0
 41
0.0
 42
0.0
 43
0.0
 44
0.0
 45
0.0
 46
0.0
 47
0.0
 48
0.0
 49
0.0
140
0.0
141
0.0
142
1.0
143
1.0
 70
   688
 72
     1
 73
     0
 74
     5
  7

 75
    16
 76
     0
 77
     2
 78
   300
147
1.0
148
0.0
149
0.0
100
AcDbLayout
  1
Layout1
 70
     1
 71
     1
 10
0.0
 20
0.0
 11
420.0
 21
297.0
 12
0.0
 22
0.0
 32
0.0
 14
1.0000000000E+20
 24
1.0000000000E+20
 34
1.0000000000E+20
 15
-1.0000000000E+20
 25
-1.0000000000E+20
 35
-1.0000000000E+20
146
0.0
 13
0.0
 23
0.0
 33
0.0
 16
1.0
 26
0.0
 36
0.0
 17
0.0
 27
1.0
 37
0.0
 76
     0
330
1B
  0
LAYOUT
  5
26
102
{ACAD_REACTORS
330
1A
102
}
330
1A
100
AcDbPlotSettings
  1

  2
none_device
  4

  6

 40
0.0
 41
0.0
 42
0.0
 43
0.0
 44
0.0
 45
0.0
 46
0.0
 47
0.0
 48
0.0
 49
0.0
140
0.0
141
0.0
142
1.0
143
1.0
 70
   688
 72
     1
 73
     0
 74
     5
  7

 75
    16
 76
     0
 77
     2
 78
   300
147
1.0
148
0.0
149
0.0
100
AcDbLayout
  1
Layout2
 70
     1
 71
     2
 10
0.0
 20
0.0
 11
0.0
 21
0.0
 12
0.0
 22
0.0
 32
0.0
 14
0.0
 24
0.0
 34
0.0
 15
0.0
 25
0.0
 35
0.0
146
0.0
 13
0.0
 23
0.0
 33
0.0
 16
1.0
 26
0.0
 36
0.0
 17
0.0
 27
1.0
 37
0.0
 76
     0
330
23
  0
LAYOUT
  5
22
102
{ACAD_REACTORS
330
1A
102
}
330
1A
100
AcDbPlotSettings
  1

  2
none_device
  4
Letter_(8.50_x_11.00_Inches)
  6

 40
6.35
 41
6.35
 42
6.35000508
 43
6.35000508
 44
215.9
 45
279.4
 46
0.0
 47
0.0
 48
0.0
 49
0.0
140
0.0
141
0.0
142
1.0
143
1.0
 70
  1712
 72
     1
 73
     0
 74
     0
  7

 75
     0
 76
     0
 77
     2
 78
   300
147
1.0
148
0.0
149
0.0
100
AcDbLayout
  1
Model
 70
     1
 71
     0
 10
0.0
 20
0.0
 11
90.0
 21
110.0
 12
0.0
 22
0.0
 32
0.0
 14
0.0
 24
0.0
 34
0.0
 15
90.0
 25
110.0
 35
0.0
146
0.0
 13
0.0
 23
0.0
 33
0.0
 16
1.0
 26
0.0
 36
0.0
 17
0.0
 27
1.0
 37
0.0
 76
     0
330
1F
331
29
  0
MATERIAL
  5
45
102
{ACAD_REACTORS
330
43
102
}
330
43
100
AcDbMaterial
  1
ByBlock
 72
     1
 94
      127
  0
MATERIAL
  5
44
102
{ACAD_REACTORS
330
43
102
}
330
43
100
AcDbMaterial
  1
ByLayer
 72
     1
 94
      127
  0
MATERIAL
  5
46
102
{ACAD_REACTORS
330
43
102
}
330
43
100
AcDbMaterial
  1
Global
 72
     1
 94
      127
  0
MLEADERSTYLE
  5
5C
102
{ACAD_REACTORS
330
5B
102
}
330
5B
100
AcDbMLeaderStyle
179
     2
170
     2
171
     1
172
     0
 90
        2
 40
0.0
 41
0.0
173
     1
 91
-1056964608
340
14
 92
       -2
290
     1
 42
2.0
291
     1
 43
8.0
  3
Standard
341
0
 44
4.0
300

342
11
174
     1
178
     6
175
     1
176
     0
 93
-1056964608
 45
4.0
292
     0
297
     0
 46
4.0
343
0
 94
-1056964608
 47
1.0
 49
1.0
140
1.0
293
     1
141
0.0
294
     1
177
     0
142
1.0
295
     0
296
     0
143
3.75
271
     0
272
     9
273
     9
298
     0
  0
MLINESTYLE
  5
18
102
{ACAD_REACTORS
330
17
102
}
330
17
100
AcDbMlineStyle
  2
Standard
 70
     0
  3

 62
   256
 51
90.0
 52
90.0
 71
     2
 49
0.5
 62
   256
  6
BYLAYER
 49
-0.5
 62
   256
  6
BYLAYER
  0
ACDBPLACEHOLDER
  5
F
102
{ACAD_REACTORS
330
E
102
}
330
E
  0
SCALE
  5
48
102
{ACAD_REACTORS
330
47
102
}
330
47
100
AcDbScale
 70
     0
300
1:1
140
1.0
141
1.0
290
     1
  0
SCALE
  5
49
102
{ACAD_REACTORS
330
47
102
}
330
47
100
AcDbScale
 70
     0
300
1:2
140
1.0
141
2.0
290
     0
  0
SCALE
  5
4A
102
{ACAD_REACTORS
330
47
102
}
330
47
100
AcDbScale
 70
     0
300
1:4
140
1.0
141
4.0
290
     0
  0
SCALE
  5
4B
102
{ACAD_REACTORS
330
47
102
}
330
47
100
AcDbScale
 70
     0
300
1:5
140
1.0
141
5.0
290
     0
  0
SCALE
  5
4C
102
{ACAD_REACTORS
330
47
102
}
330
47
100
AcDbScale
 70
     0
300
1:8
140
1.0
141
8.0
290
     0
  0
SCALE
  5
4D
102
{ACAD_REACTORS
330
47
102
}
330
47
100
AcDbScale
 70
     0
300
1:10
140
1.0
141
10.0
290
     0
  0
SCALE
  5
4E
102
{ACAD_REACTORS
330
47
102
}
330
47
100
AcDbScale
 70
     0
300
1:16
140
1.0
141
16.0
290
     0
  0
SCALE
  5
4F
102
{ACAD_REACTORS
330
47
102
}
330
47
100
AcDbScale
 70
     0
300
1:20
140
1.0
141
20.0
290
     0
  0
SCALE
  5
50
102
{ACAD_REACTORS
330
47
102
}
330
47
100
AcDbScale
 70
     0
300
1:30
140
1.0
141
30.0
290
     0
  0
SCALE
  5
51
102
{ACAD_REACTORS
330
47
102
}
330
47
100
AcDbScale
 70
     0
300
1:40
140
1.0
141
40.0
290
     0
  0
SCALE
  5
52
102
{ACAD_REACTORS
330
47
102
}
330
47
100
AcDbScale
 70
     0
300
1:50
140
1.0
141
50.0
290
     0
  0
SCALE
  5
53
102
{ACAD_REACTORS
330
47
102
}
330
47
100
AcDbScale
 70
     0
300
1:100
140
1.0
141
100.0
290
     0
  0
SCALE
  5
54
102
{ACAD_REACTORS
330
47
102
}
330
47
100
AcDbScale
 70
     0
300
2:1
140
2.0
141
1.0
290
     0
  0
SCALE
  5
55
102
{ACAD_REACTORS
330
47
102
}
330
47
100
AcDbScale
 70
     0
300
4:1
140
4.0
141
1.0
290
     0
  0
SCALE
  5
56
102
{ACAD_REACTORS
330
47
102
}
330
47
100
AcDbScale
 70
     0
300
8:1
140
8.0
141
1.0
290
     0
  0
SCALE
  5
57
102
{ACAD_REACTORS
330
47
102
}
330
47
100
AcDbScale
 70
     0
300
10:1
140
10.0
141
1.0
290
     0
  0
SCALE
  5
58
102
{ACAD_REACTORS
330
47
102
}
330
47
100
AcDbScale
 70
     0
300
100:1
140
100.0
141
1.0
290
     0
  0
TABLESTYLE
  5
5A
102
{ACAD_REACTORS
330
59
102
}
102
{ACAD_XDICTIONARY
360
224
102
}
330
59
100
AcDbTableStyle
  3
Standard
 70
     0
 71
     0
 40
0.06
 41
0.06
280
     0
281
     0
  7
STANDARD
140
4.5
170
     2
 62
     0
 63
   257
283
     0
 90
        4
 91
        0
  1

274
    -2
284
     1
 64
     0
275
    -2
285
     1
 65
     0
276
    -2
286
     1
 66
     0
277
    -2
287
     1
 67
     0
278
    -2
288
     1
 68
     0
279
    -2
289
     1
 69
     0
  7
STANDARD
140
6.0
170
     5
 62
     0
 63
   257
283
     0
 90
        4
 91
        0
  1

274
    -2
284
     1
 64
     0
275
    -2
285
     1
 65
     0
276
    -2
286
     1
 66
     0
277
    -2
287
     1
 67
     0
278
    -2
288
     1
 68
     0
279
    -2
289
     1
 69
     0
  7
STANDARD
140
4.5
170
     5
 62
     0
 63
   257
283
     0
 90
        4
 91
        0
  1

274
    -2
284
     1
 64
     0
275
    -2
285
     1
 65
     0
276
    -2
286
     1
 66
     0
277
    -2
287
     1
 67
     0
278
    -2
288
     1
 68
     0
279
    -2
289
     1
 69
     0
  0
VISUALSTYLE
  5
2F
102
{ACAD_REACTORS
330
2A
102
}
330
2A
100
AcDbVisualStyle
  2
2dWireframe
 70
     4
177
     3
291
     0
 70
    58
 90
        0
176
     1
 90
        2
176
     1
 90
        0
176
     1
 90
        0
176
     1
 40
0.6
176
     1
 40
30.0
176
     1
 62
     7
420
 16777215
176
     1
 90
        1
176
     1
 90
        4
176
     1
 62
     7
176
     1
 62
   257
176
     1
 90
        1
176
     1
 90
        1
176
     1
 40
1.0
176
     1
 90
        0
176
     1
 62
   257
176
     1
 40
1.0
176
     1
 90
        1
176
     1
 90
        6
176
     1
 90
        2
176
     1
 62
     7
176
     1
 90
        5
176
     1
 90
        0
176
     1
 90
        0
176
     1
290
     0
176
     1
 90
        1
176
     1
 40
0.0
176
     1
 90
        0
176
     1
290
     1
176
     1
290
     1
176
     1
290
     0
176
     1
290
     0
176
     1
290
     0
176
     1
290
     0
176
     1
290
     0
176
     1
290
     0
176
     1
290
     0
176
     1
 90
       50
176
     1
 40
0.0
176
     1
 40
1.0
176
     1
 90
        0
176
     1
 62
    18
420
        0
176
     1
 90
       50
176
     1
 90
        3
176
     1
 62
     5
420
      255
176
     1
290
     0
176
     1
 90
       50
176
     1
 90
       50
176
     1
 90
       50
176
     1
290
     0
176
     1
 90
       50
176
     1
 62
   256
176
     0
 40
1.0
176
     0
 90
        2
176
     1
  1
strokes_ogs.tif
176
     1
290
     0
176
     1
 40
1.0
176
     1
 40
1.0
176
     1
  0
VISUALSTYLE
  5
32
102
{ACAD_REACTORS
330
2A
102
}
330
2A
100
AcDbVisualStyle
  2
Basic
 70
     7
177
     3
291
     1
 70
    58
 90
        1
176
     1
 90
        0
176
     1
 90
        1
176
     1
 90
        0
176
     1
 40
0.6
176
     1
 40
30.0
176
     1
 62
     7
420
 16777215
176
     1
 90
        0
176
     1
 90
        4
176
     1
 62
     7
176
     1
 62
   257
176
     1
 90
        1
176
     1
 90
        1
176
     1
 40
1.0
176
     1
 90
        8
176
     1
 62
     7
176
     1
 40
1.0
176
     1
 90
        1
176
     1
 90
        6
176
     1
 90
        2
176
     1
 62
     7
176
     1
 90
        5
176
     1
 90
        0
176
     1
 90
        0
176
     1
290
     0
176
     1
 90
        1
176
     1
 40
0.0
176
     1
 90
        0
176
     1
290
     0
176
     1
290
     1
176
     1
290
     1
176
     1
290
     0
176
     1
290
     0
176
     1
290
     0
176
     1
290
     0
176
     1
290
     0
176
     1
290
     0
176
     1
 90
       50
176
     1
 40
0.0
176
     1
 40
1.0
176
     1
 90
        0
176
     1
 62
    18
420
        0
176
     1
 90
       50
176
     1
 90
        3
176
     1
 62
     5
420
      255
176
     1
290
     0
176
     1
 90
       50
176
     1
 90
       50
176
     1
 90
       50
176
     1
290
     0
176
     1
 90
       50
176
     1
 62
   256
176
     0
 40
1.0
176
     0
 90
        2
176
     1
  1
strokes_ogs.tif
176
     1
290
     0
176
     1
 40
1.0
176
     1
 40
1.0
176
     1
  0
VISUALSTYLE
  5
36
102
{ACAD_REACTORS
330
2A
102
}
330
2A
100
AcDbVisualStyle
  2
Brighten
 70
    12
177
     3
291
     1
 70
    58
 90
        2
176
     1
 90
        2
176
     1
 90
        0
176
     1
 90
        0
176
     1
 40
0.6
176
     1
 40
30.0
176
     1
 62
     7
420
 16777215
176
     1
 90
        1
176
     1
 90
        4
176
     1
 62
     7
176
     1
 62
   257
176
     1
 90
        1
176
     1
 90
        1
176
     1
 40
1.0
176
     1
 90
        8
176
     1
 62
     7
176
     1
 40
1.0
176
     1
 90
        1
176
     1
 90
        6
176
     1
 90
        2
176
     1
 62
     7
176
     1
 90
        5
176
     1
 90
        0
176
     1
 90
        0
176
     1
290
     0
176
     1
 90
        1
176
     1
 40
50.0
176
     1
 90
        0
176
     1
290
     0
176
     1
290
     1
176
     1
290
     1
176
     1
290
     0
176
     1
290
     0
176
     1
290
     0
176
     1
290
     0
176
     1
290
     0
176
     1
290
     0
176
     1
 90
       50
176
     1
 40
0.0
176
     1
 40
1.0
176
     1
 90
        0
176
     1
 62
    18
420
        0
176
     1
 90
       50
176
     1
 90
        3
176
     1
 62
     5
420
      255
176
     1
290
     0
176
     1
 90
       50
176
     1
 90
       50
176
     1
 90
       50
176
     1
290
     0
176
     1
 90
       50
176
     1
 62
   256
176
     0
 40
1.0
176
     0
 90
        2
176
     1
  1
strokes_ogs.tif
176
     1
290
     0
176
     1
 40
1.0
176
     1
 40
1.0
176
     1
  0
VISUALSTYLE
  5
3A
102
{ACAD_REACTORS
330
2A
102
}
330
2A
100
AcDbVisualStyle
  2
ColorChange
 70
    16
177
     3
291
     1
 70
    58
 90
        2
176
     1
 90
        2
176
     1
 90
        3
176
     1
 90
        0
176
     1
 40
0.6
176
     1
 40
30.0
176
     1
 62
     8
420
  8421504
176
     1
 90
        1
176
     1
 90
        4
176
     1
 62
     7
176
     1
 62
   257
176
     1
 90
        1
176
     1
 90
        1
176
     1
 40
1.0
176
     1
 90
        8
176
     1
 62
     8
420
  8421504
176
     1
 40
1.0
176
     1
 90
        1
176
     1
 90
        6
176
     1
 90
        2
176
     1
 62
     7
176
     1
 90
        5
176
     1
 90
        0
176
     1
 90
        0
176
     1
290
     0
176
     1
 90
        1
176
     1
 40
0.0
176
     1
 90
        0
176
     1
290
     0
176
     1
290
     1
176
     1
290
     1
176
     1
290
     0
176
     1
290
     0
176
     1
290
     0
176
     1
290
     0
176
     1
290
     0
176
     1
290
     0
176
     1
 90
       50
176
     1
 40
0.0
176
     1
 40
1.0
176
     1
 90
        0
176
     1
 62
    18
420
        0
176
     1
 90
       50
176
     1
 90
        3
176
     1
 62
     5
420
      255
176
     1
290
     0
176
     1
 90
       50
176
     1
 90
       50
176
     1
 90
       50
176
     1
290
     0
176
     1
 90
       50
176
     1
 62
   256
176
     0
 40
1.0
176
     0
 90
        2
176
     1
  1
strokes_ogs.tif
176
     1
290
     0
176
     1
 40
1.0
176
     1
 40
1.0
176
     1
  0
VISUALSTYLE
  5
34
102
{ACAD_REACTORS
330
2A
102
}
330
2A
100
AcDbVisualStyle
  2
Conceptual
 70
     9
177
     3
291
     0
 70
    58
 90
        3
176
     1
 90
        2
176
     1
 90
        0
176
     1
 90
        0
176
     1
 40
0.6
176
     1
 40
30.0
176
     1
 62
     7
420
 16777215
176
     1
 90
        2
176
     1
 90
        2
176
     1
 62
     7
176
     1
 62
   257
176
     1
 90
        1
176
     1
 90
        1
176
     1
 40
179.0
176
     1
 90
        8
176
     1
 62
     7
176
     1
 40
1.0
176
     1
 90
        1
176
     1
 90
        6
176
     1
 90
        2
176
     1
 62
     7
176
     1
 90
        3
176
     1
 90
        0
176
     1
 90
        0
176
     1
290
     0
176
     1
 90
        1
176
     1
 40
0.0
176
     1
 90
        0
176
     1
290
     0
176
     1
290
     1
176
     1
290
     1
176
     1
290
     0
176
     1
290
     0
176
     1
290
     0
176
     1
290
     0
176
     1
290
     0
176
     1
290
     0
176
     1
 90
       50
176
     1
 40
0.0
176
     1
 40
1.0
176
     1
 90
        0
176
     1
 62
    18
420
        0
176
     1
 90
       50
176
     1
 90
        3
176
     1
 62
     5
420
      255
176
     1
290
     0
176
     1
 90
       50
176
     1
 90
       50
176
     1
 90
       50
176
     1
290
     0
176
     1
 90
       50
176
     1
 62
   256
176
     0
 40
1.0
176
     0
 90
        2
176
     1
  1
strokes_ogs.tif
176
     1
290
     0
176
     1
 40
1.0
176
     1
 40
1.0
176
     1
  0
VISUALSTYLE
  5
35
102
{ACAD_REACTORS
330
2A
102
}
330
2A
100
AcDbVisualStyle
  2
Dim
 70
    11
177
     3
291
     1
 70
    58
 90
        2
176
     1
 90
        2
176
     1
 90
        0
176
     1
 90
        0
176
     1
 40
0.6
176
     1
 40
30.0
176
     1
 62
     7
420
 16777215
176
     1
 90
        1
176
     1
 90
        4
176
     1
 62
     7
176
     1
 62
   257
176
     1
 90
        1
176
     1
 90
        1
176
     1
 40
1.0
176
     1
 90
        8
176
     1
 62
     7
176
     1
 40
1.0
176
     1
 90
        1
176
     1
 90
        6
176
     1
 90
        2
176
     1
 62
     7
176
     1
 90
        5
176
     1
 90
        0
176
     1
 90
        0
176
     1
290
     0
176
     1
 90
        1
176
     1
 40
-50.0
176
     1
 90
        0
176
     1
290
     0
176
     1
290
     1
176
     1
290
     1
176
     1
290
     0
176
     1
290
     0
176
     1
290
     0
176
     1
290
     0
176
     1
290
     0
176
     1
290
     0
176
     1
 90
       50
176
     1
 40
0.0
176
     1
 40
1.0
176
     1
 90
        0
176
     1
 62
    18
420
        0
176
     1
 90
       50
176
     1
 90
        3
176
     1
 62
     5
420
      255
176
     1
290
     0
176
     1
 90
       50
176
     1
 90
       50
176
     1
 90
       50
176
     1
290
     0
176
     1
 90
       50
176
     1
 62
   256
176
     0
 40
1.0
176
     0
 90
        2
176
     1
  1
strokes_ogs.tif
176
     1
290
     0
176
     1
 40
1.0
176
     1
 40
1.0
176
     1
  0
VISUALSTYLE
  5
3D
102
{ACAD_REACTORS
330
2A
102
}
330
2A
100
AcDbVisualStyle
  2
EdgeColorOff
 70
    22
177
     3
291
     1
 70
    58
 90
        2
176
     0
 90
        2
176
     0
 90
        0
176
     0
 90
        0
176
     0
 40
0.6
176
     0
 40
30.0
176
     0
 62
     7
420
 16777215
176
     0
 90
        1
176
     0
 90
        4
176
     0
 62
     7
176
     0
 62
   257
176
     0
 90
        1
176
     0
 90
        1
176
     0
 40
1.0
176
     0
 90
        8
176
     2
 62
     7
176
     0
 40
1.0
176
     0
 90
        1
176
     0
 90
        6
176
     0
 90
        2
176
     0
 62
     7
176
     0
 90
        5
176
     0
 90
        0
176
     0
 90
        0
176
     0
290
     0
176
     0
 90
        1
176
     0
 40
0.0
176
     0
 90
        0
176
     0
290
     0
176
     0
290
     1
176
     0
290
     1
176
     0
290
     0
176
     0
290
     0
176
     0
290
     0
176
     0
290
     0
176
     0
290
     0
176
     0
290
     0
176
     0
 90
       50
176
     0
 40
0.0
176
     0
 40
1.0
176
     0
 90
        0
176
     0
 62
    18
420
        0
176
     0
 90
       50
176
     0
 90
        3
176
     0
 62
     5
420
      255
176
     0
290
     0
176
     0
 90
       50
176
     0
 90
       50
176
     0
 90
       50
176
     0
290
     0
176
     0
 90
       50
176
     0
 62
   256
176
     0
 40
1.0
176
     0
 90
        2
176
     0
  1
strokes_ogs.tif
176
     0
290
     0
176
     0
 40
1.0
176
     0
 40
1.0
176
     0
  0
VISUALSTYLE
  5
39
102
{ACAD_REACTORS
330
2A
102
}
330
2A
100
AcDbVisualStyle
  2
Facepattern
 70
    15
177
     3
291
     1
 70
    58
 90
        2
176
     1
 90
        2
176
     1
 90
        0
176
     1
 90
        0
176
     1
 40
0.6
176
     1
 40
30.0
176
     1
 62
     7
420
 16777215
176
     1
 90
        1
176
     1
 90
        4
176
     1
 62
     7
176
     1
 62
   257
176
     1
 90
        1
176
     1
 90
        1
176
     1
 40
1.0
176
     1
 90
        8
176
     1
 62
     7
176
     1
 40
1.0
176
     1
 90
        1
176
     1
 90
        6
176
     1
 90
        2
176
     1
 62
     7
176
     1
 90
        5
176
     1
 90
        0
176
     1
 90
        0
176
     1
290
     0
176
     1
 90
        1
176
     1
 40
0.0
176
     1
 90
        0
176
     1
290
     0
176
     1
290
     1
176
     1
290
     1
176
     1
290
     0
176
     1
290
     0
176
     1
290
     0
176
     1
290
     0
176
     1
290
     0
176
     1
290
     0
176
     1
 90
       50
176
     1
 40
0.0
176
     1
 40
1.0
176
     1
 90
        0
176
     1
 62
    18
420
        0
176
     1
 90
       50
176
     1
 90
        3
176
     1
 62
     5
420
      255
176
     1
290
     0
176
     1
 90
       50
176
     1
 90
       50
176
     1
 90
       50
176
     1
290
     0
176
     1
 90
       50
176
     1
 62
   256
176
     0
 40
1.0
176
     0
 90
        2
176
     1
  1
strokes_ogs.tif
176
     1
290
     0
176
     1
 40
1.0
176
     1
 40
1.0
176
     1
  0
VISUALSTYLE
  5
2B
102
{ACAD_REACTORS
330
2A
102
}
330
2A
100
AcDbVisualStyle
  2
Flat
 70
     0
177
     3
291
     1
 70
    58
 90
        2
176
     1
 90
        1
176
     1
 90
        1
176
     1
 90
        2
176
     1
 40
0.6
176
     1
 40
30.0
176
     1
 62
     7
420
 16777215
176
     1
 90
        0
176
     1
 90
        0
176
     1
 62
     7
176
     1
 62
   257
176
     1
 90
        1
176
     1
 90
        1
176
     1
 40
1.0
176
     1
 90
        8
176
     1
 62
     7
176
     1
 40
1.0
176
     1
 90
        1
176
     1
 90
        6
176
     1
 90
        2
176
     1
 62
     7
176
     1
 90
        5
176
     1
 90
        0
176
     1
 90
        0
176
     1
290
     0
176
     1
 90
       13
176
     1
 40
0.0
176
     1
 90
        0
176
     1
290
     0
176
     1
290
     1
176
     1
290
     1
176
     1
290
     0
176
     1
290
     0
176
     1
290
     0
176
     1
290
     0
176
     1
290
     0
176
     1
290
     0
176
     1
 90
       50
176
     1
 40
0.0
176
     1
 40
1.0
176
     1
 90
        0
176
     1
 62
    18
420
        0
176
     1
 90
       50
176
     1
 90
        3
176
     1
 62
     5
420
      255
176
     1
290
     0
176
     1
 90
       50
176
     1
 90
       50
176
     1
 90
       50
176
     1
290
     0
176
     1
 90
       50
176
     1
 62
   256
176
     0
 40
1.0
176
     0
 90
        2
176
     1
  1
strokes_ogs.tif
176
     1
290
     0
176
     1
 40
1.0
176
     1
 40
1.0
176
     1
  0
VISUALSTYLE
  5
2C
102
{ACAD_REACTORS
330
2A
102
}
330
2A
100
AcDbVisualStyle
  2
FlatWithEdges
 70
     1
177
     3
291
     1
 70
    58
 90
        2
176
     1
 90
        1
176
     1
 90
        1
176
     1
 90
        2
176
     1
 40
0.6
176
     1
 40
30.0
176
     1
 62
     7
420
 16777215
176
     1
 90
        1
176
     1
 90
        0
176
     1
 62
     7
176
     1
 62
   257
176
     1
 90
        1
176
     1
 90
        1
176
     1
 40
1.0
176
     1
 90
        0
176
     1
 62
   257
176
     1
 40
1.0
176
     1
 90
        1
176
     1
 90
        6
176
     1
 90
        2
176
     1
 62
     7
176
     1
 90
        5
176
     1
 90
        0
176
     1
 90
        0
176
     1
290
     0
176
     1
 90
       13
176
     1
 40
0.0
176
     1
 90
        0
176
     1
290
     0
176
     1
290
     1
176
     1
290
     1
176
     1
290
     0
176
     1
290
     0
176
     1
290
     0
176
     1
290
     0
176
     1
290
     0
176
     1
290
     0
176
     1
 90
       50
176
     1
 40
0.0
176
     1
 40
1.0
176
     1
 90
        0
176
     1
 62
    18
420
        0
176
     1
 90
       50
176
     1
 90
        3
176
     1
 62
     5
420
      255
176
     1
290
     0
176
     1
 90
       50
176
     1
 90
       50
176
     1
 90
       50
176
     1
290
     0
176
     1
 90
       50
176
     1
 62
   256
176
     0
 40
1.0
176
     0
 90
        2
176
     1
  1
strokes_ogs.tif
176
     1
290
     0
176
     1
 40
1.0
176
     1
 40
1.0
176
     1
  0
VISUALSTYLE
  5
2D
102
{ACAD_REACTORS
330
2A
102
}
330
2A
100
AcDbVisualStyle
  2
Gouraud
 70
     2
177
     3
291
     1
 70
    58
 90
        2
176
     1
 90
        2
176
     1
 90
        1
176
     1
 90
        2
176
     1
 40
0.6
176
     1
 40
30.0
176
     1
 62
     7
420
 16777215
176
     1
 90
        0
176
     1
 90
        0
176
     1
 62
     7
176
     1
 62
   257
176
     1
 90
        1
176
     1
 90
        1
176
     1
 40
1.0
176
     1
 90
        0
176
     1
 62
     7
176
     1
 40
1.0
176
     1
 90
        1
176
     1
 90
        6
176
     1
 90
        2
176
     1
 62
     7
176
     1
 90
        5
176
     1
 90
        0
176
     1
 90
        0
176
     1
290
     0
176
     1
 90
       13
176
     1
 40
0.0
176
     1
 90
        0
176
     1
290
     0
176
     1
290
     1
176
     1
290
     1
176
     1
290
     0
176
     1
290
     0
176
     1
290
     0
176
     1
290
     0
176
     1
290
     0
176
     1
290
     0
176
     1
 90
       50
176
     1
 40
0.0
176
     1
 40
1.0
176
     1
 90
        0
176
     1
 62
    18
420
        0
176
     1
 90
       50
176
     1
 90
        3
176
     1
 62
     5
420
      255
176
     1
290
     0
176
     1
 90
       50
176
     1
 90
       50
176
     1
 90
       50
176
     1
290
     0
176
     1
 90
       50
176
     1
 62
   256
176
     0
 40
1.0
176
     0
 90
        2
176
     1
  1
strokes_ogs.tif
176
     1
290
     0
176
     1
 40
1.0
176
     1
 40
1.0
176
     1
  0
VISUALSTYLE
  5
2E
102
{ACAD_REACTORS
330
2A
102
}
330
2A
100
AcDbVisualStyle
  2
GouraudWithEdges
 70
     3
177
     3
291
     1
 70
    58
 90
        2
176
     1
 90
        2
176
     1
 90
        1
176
     1
 90
        2
176
     1
 40
0.6
176
     1
 40
30.0
176
     1
 62
     7
420
 16777215
176
     1
 90
        1
176
     1
 90
        0
176
     1
 62
     7
176
     1
 62
   257
176
     1
 90
        1
176
     1
 90
        1
176
     1
 40
1.0
176
     1
 90
        0
176
     1
 62
   257
176
     1
 40
1.0
176
     1
 90
        1
176
     1
 90
        6
176
     1
 90
        2
176
     1
 62
     7
176
     1
 90
        5
176
     1
 90
        0
176
     1
 90
        0
176
     1
290
     0
176
     1
 90
       13
176
     1
 40
0.0
176
     1
 90
        0
176
     1
290
     0
176
     1
290
     1
176
     1
290
     1
176
     1
290
     0
176
     1
290
     0
176
     1
290
     0
176
     1
290
     0
176
     1
290
     0
176
     1
290
     0
176
     1
 90
       50
176
     1
 40
0.0
176
     1
 40
1.0
176
     1
 90
        0
176
     1
 62
    18
420
        0
176
     1
 90
       50
176
     1
 90
        3
176
     1
 62
     5
420
      255
176
     1
290
     0
176
     1
 90
       50
176
     1
 90
       50
176
     1
 90
       50
176
     1
290
     0
176
     1
 90
       50
176
     1
 62
   256
176
     0
 40
1.0
176
     0
 90
        2
176
     1
  1
strokes_ogs.tif
176
     1
290
     0
176
     1
 40
1.0
176
     1
 40
1.0
176
     1
  0
VISUALSTYLE
  5
31
102
{ACAD_REACTORS
330
2A
102
}
330
2A
100
AcDbVisualStyle
  2
Hidden
 70
     6
177
     3
291
     0
 70
    58
 90
        1
176
     1
 90
        2
176
     1
 90
        2
176
     1
 90
        0
176
     1
 40
0.6
176
     1
 40
30.0
176
     1
 62
     7
420
 16777215
176
     1
 90
        2
176
     1
 90
        2
176
     1
 62
     7
176
     1
 62
   257
176
     1
 90
        2
176
     1
 90
        1
176
     1
 40
40.0
176
     1
 90
        0
176
     1
 62
   257
176
     1
 40
1.0
176
     1
 90
        1
176
     1
 90
        6
176
     1
 90
        2
176
     1
 62
     7
176
     1
 90
        3
176
     1
 90
        0
176
     1
 90
        0
176
     1
290
     0
176
     1
 90
        1
176
     1
 40
0.0
176
     1
 90
        0
176
     1
290
     0
176
     1
290
     1
176
     1
290
     1
176
     1
290
     0
176
     1
290
     0
176
     1
290
     0
176
     1
290
     0
176
     1
290
     0
176
     1
290
     0
176
     1
 90
       50
176
     1
 40
0.0
176
     1
 40
1.0
176
     1
 90
        0
176
     1
 62
    18
420
        0
176
     1
 90
       50
176
     1
 90
        3
176
     1
 62
     5
420
      255
176
     1
290
     0
176
     1
 90
       50
176
     1
 90
       50
176
     1
 90
       50
176
     1
290
     0
176
     1
 90
       50
176
     1
 62
   256
176
     0
 40
1.0
176
     0
 90
        2
176
     1
  1
strokes_ogs.tif
176
     1
290
     0
176
     1
 40
1.0
176
     1
 40
1.0
176
     1
  0
VISUALSTYLE
  5
3B
102
{ACAD_REACTORS
330
2A
102
}
330
2A
100
AcDbVisualStyle
  2
JitterOff
 70
    20
177
     3
291
     1
 70
    58
 90
        2
176
     0
 90
        2
176
     0
 90
        0
176
     0
 90
        0
176
     0
 40
0.6
176
     0
 40
30.0
176
     0
 62
     7
420
 16777215
176
     0
 90
        1
176
     0
 90
        4
176
     0
 62
     7
176
     0
 62
   257
176
     0
 90
        1
176
     0
 90
        1
176
     0
 40
1.0
176
     0
 90
       10
176
     2
 62
     7
176
     0
 40
1.0
176
     0
 90
        1
176
     0
 90
        6
176
     0
 90
        2
176
     0
 62
     7
176
     0
 90
        5
176
     0
 90
        0
176
     0
 90
        0
176
     0
290
     0
176
     0
 90
        1
176
     0
 40
0.0
176
     0
 90
        0
176
     0
290
     0
176
     0
290
     1
176
     0
290
     1
176
     0
290
     0
176
     0
290
     0
176
     0
290
     0
176
     0
290
     0
176
     0
290
     0
176
     0
290
     0
176
     0
 90
       50
176
     0
 40
0.0
176
     0
 40
1.0
176
     0
 90
        0
176
     0
 62
    18
420
        0
176
     0
 90
       50
176
     0
 90
        3
176
     0
 62
     5
420
      255
176
     0
290
     0
176
     0
 90
       50
176
     0
 90
       50
176
     0
 90
       50
176
     0
290
     0
176
     0
 90
       50
176
     0
 62
   256
176
     0
 40
1.0
176
     0
 90
        2
176
     0
  1
strokes_ogs.tif
176
     0
290
     0
176
     0
 40
1.0
176
     0
 40
1.0
176
     0
  0
VISUALSTYLE
  5
38
102
{ACAD_REACTORS
330
2A
102
}
330
2A
100
AcDbVisualStyle
  2
Linepattern
 70
    14
177
     3
291
     1
 70
    58
 90
        2
176
     1
 90
        2
176
     1
 90
        0
176
     1
 90
        0
176
     1
 40
0.6
176
     1
 40
30.0
176
     1
 62
     7
420
 16777215
176
     1
 90
        1
176
     1
 90
        4
176
     1
 62
     7
176
     1
 62
   257
176
     1
 90
        7
176
     1
 90
        7
176
     1
 40
1.0
176
     1
 90
        8
176
     1
 62
     7
176
     1
 40
1.0
176
     1
 90
        1
176
     1
 90
        6
176
     1
 90
        2
176
     1
 62
     7
176
     1
 90
        5
176
     1
 90
        0
176
     1
 90
        0
176
     1
290
     0
176
     1
 90
        1
176
     1
 40
0.0
176
     1
 90
        0
176
     1
290
     0
176
     1
290
     1
176
     1
290
     1
176
     1
290
     0
176
     1
290
     0
176
     1
290
     0
176
     1
290
     0
176
     1
290
     0
176
     1
290
     0
176
     1
 90
       50
176
     1
 40
0.0
176
     1
 40
1.0
176
     1
 90
        0
176
     1
 62
    18
420
        0
176
     1
 90
       50
176
     1
 90
        3
176
     1
 62
     5
420
      255
176
     1
290
     0
176
     1
 90
       50
176
     1
 90
       50
176
     1
 90
       50
176
     1
290
     0
176
     1
 90
       50
176
     1
 62
   256
176
     0
 40
1.0
176
     0
 90
        2
176
     1
  1
strokes_ogs.tif
176
     1
290
     0
176
     1
 40
1.0
176
     1
 40
1.0
176
     1
  0
VISUALSTYLE
  5
3C
102
{ACAD_REACTORS
330
2A
102
}
330
2A
100
AcDbVisualStyle
  2
OverhangOff
 70
    21
177
     3
291
     1
 70
    58
 90
        2
176
     0
 90
        2
176
     0
 90
        0
176
     0
 90
        0
176
     0
 40
0.6
176
     0
 40
30.0
176
     0
 62
     7
420
 16777215
176
     0
 90
        1
176
     0
 90
        4
176
     0
 62
     7
176
     0
 62
   257
176
     0
 90
        1
176
     0
 90
        1
176
     0
 40
1.0
176
     0
 90
        9
176
     2
 62
     7
176
     0
 40
1.0
176
     0
 90
        1
176
     0
 90
        6
176
     0
 90
        2
176
     0
 62
     7
176
     0
 90
        5
176
     0
 90
        0
176
     0
 90
        0
176
     0
290
     0
176
     0
 90
        1
176
     0
 40
0.0
176
     0
 90
        0
176
     0
290
     0
176
     0
290
     1
176
     0
290
     1
176
     0
290
     0
176
     0
290
     0
176
     0
290
     0
176
     0
290
     0
176
     0
290
     0
176
     0
290
     0
176
     0
 90
       50
176
     0
 40
0.0
176
     0
 40
1.0
176
     0
 90
        0
176
     0
 62
    18
420
        0
176
     0
 90
       50
176
     0
 90
        3
176
     0
 62
     5
420
      255
176
     0
290
     0
176
     0
 90
       50
176
     0
 90
       50
176
     0
 90
       50
176
     0
290
     0
176
     0
 90
       50
176
     0
 62
   256
176
     0
 40
1.0
176
     0
 90
        2
176
     0
  1
strokes_ogs.tif
176
     0
290
     0
176
     0
 40
1.0
176
     0
 40
1.0
176
     0
  0
VISUALSTYLE
  5
33
102
{ACAD_REACTORS
330
2A
102
}
330
2A
100
AcDbVisualStyle
  2
Realistic
 70
     8
177
     3
291
     0
 70
    58
 90
        2
176
     1
 90
        3
176
     1
 90
        0
176
     1
 90
        2
176
     1
 40
0.6
176
     1
 40
30.0
176
     1
 62
     7
420
 16777215
176
     1
 90
        0
176
     1
 90
        0
176
     1
 62
     7
176
     1
 62
   257
176
     1
 90
        1
176
     1
 90
        1
176
     1
 40
1.0
176
     1
 90
        8
176
     1
 62
   257
176
     1
 40
1.0
176
     1
 90
        1
176
     1
 90
        6
176
     1
 90
        2
176
     1
 62
     7
176
     1
 90
        3
176
     1
 90
        0
176
     1
 90
        0
176
     1
290
     0
176
     1
 90
       13
176
     1
 40
0.0
176
     1
 90
        0
176
     1
290
     0
176
     1
290
     1
176
     1
290
     1
176
     1
290
     0
176
     1
290
     0
176
     1
290
     0
176
     1
290
     0
176
     1
290
     0
176
     1
290
     0
176
     1
 90
       50
176
     1
 40
0.0
176
     1
 40
1.0
176
     1
 90
        0
176
     1
 62
    18
420
        0
176
     1
 90
       50
176
     1
 90
        3
176
     1
 62
     5
420
      255
176
     1
290
     0
176
     1
 90
       50
176
     1
 90
       50
176
     1
 90
       50
176
     1
290
     0
176
     1
 90
       50
176
     1
 62
   256
176
     0
 40
1.0
176
     0
 90
        2
176
     1
  1
strokes_ogs.tif
176
     1
290
     0
176
     1
 40
1.0
176
     1
 40
1.0
176
     1
  0
VISUALSTYLE
  5
42
102
{ACAD_REACTORS
330
2A
102
}
330
2A
100
AcDbVisualStyle
  2
Shaded
 70
    27
177
     3
291
     0
 70
    58
 90
        2
176
     1
 90
        2
176
     1
 90
        1
176
     1
 90
        2
176
     1
 40
0.6
176
     1
 40
30.0
176
     1
 62
     7
420
 16777215
176
     1
 90
        0
176
     1
 90
        4
176
     1
 62
     7
176
     1
 62
   257
176
     1
 90
        1
176
     1
 90
        1
176
     1
 40
1.0
176
     1
 90
        8
176
     1
 62
   257
176
     1
 40
1.0
176
     1
 90
        1
176
     1
 90
        6
176
     1
 90
        2
176
     1
 62
     8
420
  7895160
176
     1
 90
        3
176
     1
 90
        0
176
     1
 90
        0
176
     1
290
     0
176
     1
 90
        5
176
     1
 40
0.0
176
     1
 90
        0
176
     1
290
     0
176
     1
290
     1
176
     1
290
     1
176
     1
290
     0
176
     1
290
     0
176
     1
290
     0
176
     1
290
     0
176
     1
290
     0
176
     1
290
     0
176
     1
 90
       50
176
     1
 40
0.0
176
     1
 40
1.0
176
     1
 90
        0
176
     1
 62
    18
420
        0
176
     1
 90
       50
176
     1
 90
        3
176
     1
 62
     5
420
      255
176
     1
290
     0
176
     1
 90
       50
176
     1
 90
       50
176
     1
 90
       50
176
     1
290
     0
176
     1
 90
       50
176
     1
 62
   256
176
     0
 40
1.0
176
     0
 90
        2
176
     1
  1
strokes_ogs.tif
176
     1
290
     0
176
     1
 40
1.0
176
     1
 40
1.0
176
     1
  0
VISUALSTYLE
  5
41
102
{ACAD_REACTORS
330
2A
102
}
330
2A
100
AcDbVisualStyle
  2
Shaded with edges
 70
    26
177
     3
291
     0
 70
    58
 90
        2
176
     1
 90
        2
176
     1
 90
        1
176
     1
 90
        2
176
     1
 40
0.6
176
     1
 40
30.0
176
     1
 62
     7
420
 16777215
176
     1
 90
        1
176
     1
 90
       10
176
     1
 62
     7
176
     1
 62
   257
176
     1
 90
        2
176
     1
 90
        1
176
     1
 40
1.0
176
     1
 90
        8
176
     1
 62
   257
176
     1
 40
1.0
176
     1
 90
        1
176
     1
 90
        6
176
     1
 90
        2
176
     1
 62
     7
176
     1
 90
        3
176
     1
 90
        0
176
     1
 90
        0
176
     1
290
     0
176
     1
 90
        5
176
     1
 40
0.0
176
     1
 90
        0
176
     1
290
     0
176
     1
290
     1
176
     1
290
     1
176
     1
290
     0
176
     1
290
     0
176
     1
290
     0
176
     1
290
     0
176
     1
290
     0
176
     1
290
     0
176
     1
 90
       50
176
     1
 40
0.0
176
     1
 40
1.0
176
     1
 90
        0
176
     1
 62
    18
420
        0
176
     1
 90
       50
176
     1
 90
        3
176
     1
 62
     5
420
      255
176
     1
290
     0
176
     1
 90
       50
176
     1
 90
       50
176
     1
 90
       50
176
     1
290
     0
176
     1
 90
       50
176
     1
 62
   256
176
     0
 40
1.0
176
     0
 90
        2
176
     1
  1
strokes_ogs.tif
176
     1
290
     0
176
     1
 40
1.0
176
     1
 40
1.0
176
     1
  0
VISUALSTYLE
  5
3E
102
{ACAD_REACTORS
330
2A
102
}
330
2A
100
AcDbVisualStyle
  2
Shades of Gray
 70
    23
177
     3
291
     0
 70
    58
 90
        2
176
     1
 90
        2
176
     1
 90
        3
176
     1
 90
        0
176
     1
 40
0.6
176
     1
 40
30.0
176
     1
 62
     7
420
 16777215
176
     1
 90
        2
176
     1
 90
        2
176
     1
 62
     7
176
     1
 62
     7
176
     1
 90
        1
176
     1
 90
        1
176
     1
 40
40.0
176
     1
 90
        8
176
     1
 62
     7
176
     1
 40
1.0
176
     1
 90
        1
176
     1
 90
        6
176
     1
 90
        2
176
     1
 62
     7
176
     1
 90
        3
176
     1
 90
        0
176
     1
 90
        0
176
     1
290
     0
176
     1
 90
        1
176
     1
 40
0.0
176
     1
 90
        0
176
     1
290
     0
176
     1
290
     1
176
     1
290
     1
176
     1
290
     0
176
     1
290
     0
176
     1
290
     0
176
     1
290
     0
176
     1
290
     0
176
     1
290
     0
176
     1
 90
       50
176
     1
 40
0.0
176
     1
 40
1.0
176
     1
 90
        0
176
     1
 62
    18
420
        0
176
     1
 90
       50
176
     1
 90
        3
176
     1
 62
     5
420
      255
176
     1
290
     0
176
     1
 90
       50
176
     1
 90
       50
176
     1
 90
       50
176
     1
290
     0
176
     1
 90
       50
176
     1
 62
   256
176
     0
 40
1.0
176
     0
 90
        2
176
     1
  1
strokes_ogs.tif
176
     1
290
     0
176
     1
 40
1.0
176
     1
 40
1.0
176
     1
  0
VISUALSTYLE
  5
3F
102
{ACAD_REACTORS
330
2A
102
}
330
2A
100
AcDbVisualStyle
  2
Sketchy
 70
    24
177
     3
291
     0
 70
    58
 90
        1
176
     1
 90
        2
176
     1
 90
        2
176
     1
 90
        0
176
     1
 40
0.6
176
     1
 40
30.0
176
     1
 62
     7
420
 16777215
176
     1
 90
        2
176
     1
 90
        2
176
     1
 62
     7
176
     1
 62
     7
176
     1
 90
        1
176
     1
 90
        1
176
     1
 40
40.0
176
     1
 90
       11
176
     1
 62
     7
176
     1
 40
1.0
176
     1
 90
        1
176
     1
 90
        6
176
     1
 90
        2
176
     1
 62
     7
176
     1
 90
        6
176
     1
 90
        0
176
     1
 90
        0
176
     1
290
     0
176
     1
 90
        1
176
     1
 40
0.0
176
     1
 90
        0
176
     1
290
     0
176
     1
290
     1
176
     1
290
     1
176
     1
290
     0
176
     1
290
     0
176
     1
290
     0
176
     1
290
     0
176
     1
290
     0
176
     1
290
     0
176
     1
 90
       50
176
     1
 40
0.0
176
     1
 40
1.0
176
     1
 90
        0
176
     1
 62
    18
420
        0
176
     1
 90
       50
176
     1
 90
        3
176
     1
 62
     5
420
      255
176
     1
290
     0
176
     1
 90
       50
176
     1
 90
       50
176
     1
 90
       50
176
     1
290
     0
176
     1
 90
       50
176
     1
 62
   256
176
     0
 40
1.0
176
     0
 90
        2
176
     1
  1
strokes_ogs.tif
176
     1
290
     0
176
     1
 40
1.0
176
     1
 40
1.0
176
     1
  0
VISUALSTYLE
  5
37
102
{ACAD_REACTORS
330
2A
102
}
330
2A
100
AcDbVisualStyle
  2
Thicken
 70
    13
177
     3
291
     1
 70
    58
 90
        2
176
     1
 90
        2
176
     1
 90
        0
176
     1
 90
        0
176
     1
 40
0.6
176
     1
 40
30.0
176
     1
 62
     7
420
 16777215
176
     1
 90
        1
176
     1
 90
        4
176
     1
 62
     7
176
     1
 62
   257
176
     1
 90
        1
176
     1
 90
        1
176
     1
 40
1.0
176
     1
 90
       12
176
     1
 62
     7
176
     1
 40
1.0
176
     1
 90
        1
176
     1
 90
        6
176
     1
 90
        2
176
     1
 62
     7
176
     1
 90
        5
176
     1
 90
        0
176
     1
 90
        0
176
     1
290
     0
176
     1
 90
        1
176
     1
 40
0.0
176
     1
 90
        0
176
     1
290
     0
176
     1
290
     1
176
     1
290
     1
176
     1
290
     0
176
     1
290
     0
176
     1
290
     0
176
     1
290
     0
176
     1
290
     0
176
     1
290
     0
176
     1
 90
       50
176
     1
 40
0.0
176
     1
 40
1.0
176
     1
 90
        0
176
     1
 62
    18
420
        0
176
     1
 90
       50
176
     1
 90
        3
176
     1
 62
     5
420
      255
176
     1
290
     0
176
     1
 90
       50
176
     1
 90
       50
176
     1
 90
       50
176
     1
290
     0
176
     1
 90
       50
176
     1
 62
   256
176
     0
 40
1.0
176
     0
 90
        2
176
     1
  1
strokes_ogs.tif
176
     1
290
     0
176
     1
 40
1.0
176
     1
 40
1.0
176
     1
  0
VISUALSTYLE
  5
30
102
{ACAD_REACTORS
330
2A
102
}
330
2A
100
AcDbVisualStyle
  2
Wireframe
 70
     5
177
     3
291
     0
 70
    58
 90
        0
176
     1
 90
        2
176
     1
 90
        0
176
     1
 90
        0
176
     1
 40
0.6
176
     1
 40
30.0
176
     1
 62
     7
420
 16777215
176
     1
 90
        1
176
     1
 90
        4
176
     1
 62
     7
176
     1
 62
   257
176
     1
 90
        1
176
     1
 90
        1
176
     1
 40
1.0
176
     1
 90
        0
176
     1
 62
   257
176
     1
 40
1.0
176
     1
 90
        1
176
     1
 90
        6
176
     1
 90
        2
176
     1
 62
     7
176
     1
 90
        3
176
     1
 90
        0
176
     1
 90
        0
176
     1
290
     0
176
     1
 90
        1
176
     1
 40
0.0
176
     1
 90
        0
176
     1
290
     0
176
     1
290
     1
176
     1
290
     1
176
     1
290
     0
176
     1
290
     0
176
     1
290
     0
176
     1
290
     0
176
     1
290
     0
176
     1
290
     0
176
     1
 90
       50
176
     1
 40
0.0
176
     1
 40
1.0
176
     1
 90
        0
176
     1
 62
    18
420
        0
176
     1
 90
       50
176
     1
 90
        3
176
     1
 62
     5
420
      255
176
     1
290
     0
176
     1
 90
       50
176
     1
 90
       50
176
     1
 90
       50
176
     1
290
     0
176
     1
 90
       50
176
     1
 62
   256
176
     0
 40
1.0
176
     0
 90
        2
176
     1
  1
strokes_ogs.tif
176
     1
290
     0
176
     1
 40
1.0
176
     1
 40
1.0
176
     1
  0
VISUALSTYLE
  5
40
102
{ACAD_REACTORS
330
2A
102
}
330
2A
100
AcDbVisualStyle
  2
X-Ray
 70
    25
177
     3
291
     0
 70
    58
 90
        2
176
     1
 90
        2
176
     1
 90
        1
176
     1
 90
        1
176
     1
 40
0.5
176
     1
 40
30.0
176
     1
 62
     7
420
 16777215
176
     1
 90
        1
176
     1
 90
        0
176
     1
 62
     7
176
     1
 62
   257
176
     1
 90
        1
176
     1
 90
        1
176
     1
 40
1.0
176
     1
 90
        8
176
     1
 62
     7
176
     1
 40
1.0
176
     1
 90
        1
176
     1
 90
        6
176
     1
 90
        2
176
     1
 62
     7
176
     1
 90
        3
176
     1
 90
        0
176
     1
 90
        0
176
     1
290
     0
176
     1
 90
       13
176
     1
 40
0.0
176
     1
 90
        0
176
     1
290
     0
176
     1
290
     1
176
     1
290
     1
176
     1
290
     0
176
     1
290
     0
176
     1
290
     0
176
     1
290
     0
176
     1
290
     0
176
     1
290
     0
176
     1
 90
       50
176
     1
 40
0.0
176
     1
 40
1.0
176
     1
 90
        0
176
     1
 62
    18
420
        0
176
     1
 90
       50
176
     1
 90
        3
176
     1
 62
     5
420
      255
176
     1
290
     0
176
     1
 90
       50
176
     1
 90
       50
176
     1
 90
       50
176
     1
290
     0
176
     1
 90
       50
176
     1
 62
   256
176
     0
 40
1.0
176
     0
 90
        2
176
     1
  1
strokes_ogs.tif
176
     1
290
     0
176
     1
 40
1.0
176
     1
 40
1.0
176
     1
  0
DICTIONARYVAR
  5
223
102
{ACAD_REACTORS
330
222
102
}
330
222
100
DictionaryVariables
280
     0
  1
1:1
  0
DICTIONARYVAR
  5
22B
102
{ACAD_REACTORS
330
222
102
}
330
222
100
DictionaryVariables
280
     0
  1
3.500000
  0
DICTIONARYVAR
  5
22C
102
{ACAD_REACTORS
330
222
102
}
330
222
100
DictionaryVariables
280
     0
  1
acadiso.lin
  0
DICTIONARYVAR
  5
228
102
{ACAD_REACTORS
330
222
102
}
330
222
100
DictionaryVariables
280
     0
  1
Standard
  0
DICTIONARYVAR
  5
227
102
{ACAD_REACTORS
330
222
102
}
330
222
100
DictionaryVariables
280
     0
  1
Standard
  0
DICTIONARY
  5
224
330
5A
100
AcDbDictionary
280
     1
281
     1
  3
ACAD_ROUNDTRIP_2008_TABLESTYLE_CELLSTYLEMAP
360
225
  0
CELLSTYLEMAP
  5
225
102
{ACAD_REACTORS
330
224
102
}
330
224
100
AcDbCellStyleMap
 90
        3
300
CELLSTYLE
  1
TABLEFORMAT_BEGIN
 90
        5
170
     1
 91
        0
 92
    32768
 62
   257
 93
        1
300
CONTENTFORMAT
  1
CONTENTFORMAT_BEGIN
 90
        0
 91
        0
 92
        4
 93
        0
300

 40
0.0
140
1.0
 94
        5
 62
     0
340
11
144
6.0
309
CONTENTFORMAT_END
171
     1
301
MARGIN
  1
CELLMARGIN_BEGIN
 40
1.5
 40
1.5
 40
1.5
 40
1.5
 40
1.5
 40
1.5
309
CELLMARGIN_END
 94
        6
 95
        1
302
GRIDFORMAT
  1
GRIDFORMAT_BEGIN
 90
        0
 91
        1
 62
     0
 92
       -2
340
14
 93
        0
 40
0.045
309
GRIDFORMAT_END
 95
        2
302
GRIDFORMAT
  1
GRIDFORMAT_BEGIN
 90
        0
 91
        1
 62
     0
 92
       -2
340
14
 93
        0
 40
0.045
309
GRIDFORMAT_END
 95
        4
302
GRIDFORMAT
  1
GRIDFORMAT_BEGIN
 90
        0
 91
        1
 62
     0
 92
       -2
340
14
 93
        0
 40
0.045
309
GRIDFORMAT_END
 95
        8
302
GRIDFORMAT
  1
GRIDFORMAT_BEGIN
 90
        0
 91
        1
 62
     0
 92
       -2
340
14
 93
        0
 40
0.045
309
GRIDFORMAT_END
 95
       16
302
GRIDFORMAT
  1
GRIDFORMAT_BEGIN
 90
        0
 91
        1
 62
     0
 92
       -2
340
14
 93
        0
 40
0.045
309
GRIDFORMAT_END
 95
       32
302
GRIDFORMAT
  1
GRIDFORMAT_BEGIN
 90
        0
 91
        1
 62
     0
 92
       -2
340
14
 93
        0
 40
0.045
309
GRIDFORMAT_END
309
TABLEFORMAT_END
  1
CELLSTYLE_BEGIN
 90
        1
 91
        1
300
_TITLE
309
CELLSTYLE_END
300
CELLSTYLE
  1
TABLEFORMAT_BEGIN
 90
        5
170
     1
 91
        0
 92
        0
 62
   257
 93
        1
300
CONTENTFORMAT
  1
CONTENTFORMAT_BEGIN
 90
        0
 91
        0
 92
        4
 93
        0
300

 40
0.0
140
1.0
 94
        5
 62
     0
340
11
144
4.5
309
CONTENTFORMAT_END
171
     1
301
MARGIN
  1
CELLMARGIN_BEGIN
 40
1.5
 40
1.5
 40
1.5
 40
1.5
 40
1.5
 40
1.5
309
CELLMARGIN_END
 94
        6
 95
        1
302
GRIDFORMAT
  1
GRIDFORMAT_BEGIN
 90
        0
 91
        1
 62
     0
 92
       -2
340
14
 93
        0
 40
0.045
309
GRIDFORMAT_END
 95
        2
302
GRIDFORMAT
  1
GRIDFORMAT_BEGIN
 90
        0
 91
        1
 62
     0
 92
       -2
340
14
 93
        0
 40
0.045
309
GRIDFORMAT_END
 95
        4
302
GRIDFORMAT
  1
GRIDFORMAT_BEGIN
 90
        0
 91
        1
 62
     0
 92
       -2
340
14
 93
        0
 40
0.045
309
GRIDFORMAT_END
 95
        8
302
GRIDFORMAT
  1
GRIDFORMAT_BEGIN
 90
        0
 91
        1
 62
     0
 92
       -2
340
14
 93
        0
 40
0.045
309
GRIDFORMAT_END
 95
       16
302
GRIDFORMAT
  1
GRIDFORMAT_BEGIN
 90
        0
 91
        1
 62
     0
 92
       -2
340
14
 93
        0
 40
0.045
309
GRIDFORMAT_END
 95
       32
302
GRIDFORMAT
  1
GRIDFORMAT_BEGIN
 90
        0
 91
        1
 62
     0
 92
       -2
340
14
 93
        0
 40
0.045
309
GRIDFORMAT_END
309
TABLEFORMAT_END
  1
CELLSTYLE_BEGIN
 90
        2
 91
        1
300
_HEADER
309
CELLSTYLE_END
300
CELLSTYLE
  1
TABLEFORMAT_BEGIN
 90
        5
170
     1
 91
        0
 92
        0
 62
   257
 93
        1
300
CONTENTFORMAT
  1
CONTENTFORMAT_BEGIN
 90
        0
 91
        0
 92
        4
 93
        0
300

 40
0.0
140
1.0
 94
        2
 62
     0
340
11
144
4.5
309
CONTENTFORMAT_END
171
     1
301
MARGIN
  1
CELLMARGIN_BEGIN
 40
1.5
 40
1.5
 40
1.5
 40
1.5
 40
1.5
 40
1.5
309
CELLMARGIN_END
 94
        6
 95
        1
302
GRIDFORMAT
  1
GRIDFORMAT_BEGIN
 90
        0
 91
        1
 62
     0
 92
       -2
340
14
 93
        0
 40
0.045
309
GRIDFORMAT_END
 95
        2
302
GRIDFORMAT
  1
GRIDFORMAT_BEGIN
 90
        0
 91
        1
 62
     0
 92
       -2
340
14
 93
        0
 40
0.045
309
GRIDFORMAT_END
 95
        4
302
GRIDFORMAT
  1
GRIDFORMAT_BEGIN
 90
        0
 91
        1
 62
     0
 92
       -2
340
14
 93
        0
 40
0.045
309
GRIDFORMAT_END
 95
        8
302
GRIDFORMAT
  1
GRIDFORMAT_BEGIN
 90
        0
 91
        1
 62
     0
 92
       -2
340
14
 93
        0
 40
0.045
309
GRIDFORMAT_END
 95
       16
302
GRIDFORMAT
  1
GRIDFORMAT_BEGIN
 90
        0
 91
        1
 62
     0
 92
       -2
340
14
 93
        0
 40
0.045
309
GRIDFORMAT_END
 95
       32
302
GRIDFORMAT
  1
GRIDFORMAT_BEGIN
 90
        0
 91
        1
 62
     0
 92
       -2
340
14
 93
        0
 40
0.045
309
GRIDFORMAT_END
309
TABLEFORMAT_END
  1
CELLSTYLE_BEGIN
 90
        3
 91
        2
300
_DATA
309
CELLSTYLE_END
  0
ENDSEC
  0
EOF
