  0
SECTION
  2
HEADER
  9
$ACADVER
  1
AC1015
  9
$ACADMAINTVER
 70
     6
  9
$DWGCODEPAGE
  3
ANSI_1251
  9
$INSBASE
 10
0.0
 20
0.0
 30
0.0
  9
$EXTMIN
 10
0.0
 20
0.0
 30
0.0
  9
$EXTMAX
 10
420.0
 20
297.0
 30
0.0
  9
$LIMMIN
 10
0.0
 20
0.0
  9
$LIMMAX
 10
420.0
 20
297.0
  9
$ORTHOMODE
 70
     0
  9
$REGENMODE
 70
     1
  9
$FILLMODE
 70
     1
  9
$QTEXTMODE
 70
     0
  9
$MIRRTEXT
 70
     1
  9
$LTSCALE
 40
1.0
  9
$ATTMODE
 70
     1
  9
$TEXTSIZE
 40
5.0
  9
$TRACEWID
 40
1.0
  9
$TEXTSTYLE
  7
Standard
  9
$CLAYER
  8
0
  9
$CELTYPE
  6
ByLayer
  9
$CECOLOR
 62
   256
  9
$CELTSCALE
 40
1.0
  9
$DISPSILH
 70
     0
  9
$DIMSCALE
 40
1.0
  9
$DIMASZ
 40
5.0
  9
$DIMEXO
 40
0.0
  9
$DIMDLI
 40
3.75
  9
$DIMRND
 40
0.0
  9
$DIMDLE
 40
0.0
  9
$DIMEXE
 40
1.0
  9
$DIMTP
 40
0.0
  9
$DIMTM
 40
0.0
  9
$DIMTXT
 40
3.5
  9
$DIMCEN
 40
2.5
  9
$DIMTSZ
 40
0.0
  9
$DIMTOL
 70
     0
  9
$DIMLIM
 70
     0
  9
$DIMTIH
 70
     1
  9
$DIMTOH
 70
     1
  9
$DIMSE1
 70
     0
  9
$DIMSE2
 70
     0
  9
$DIMTAD
 70
     1
  9
$DIMZIN
 70
     0
  9
$DIMBLK
  1

  9
$DIMASO
 70
     1
  9
$DIMSHO
 70
     1
  9
$DIMPOST
  1

  9
$DIMAPOST
  1

  9
$DIMALT
 70
     0
  9
$DIMALTD
 70
     3
  9
$DIMALTF
 40
0.0393700787
  9
$DIMLFAC
 40
1.0
  9
$DIMTOFL
 70
     1
  9
$DIMTVP
 40
0.0
  9
$DIMTIX
 70
     0
  9
$DIMSOXD
 70
     0
  9
$DIMSAH
 70
     0
  9
$DIMBLK1
  1

  9
$DIMBLK2
  1

  9
$DIMSTYLE
  2
ISO-25
  9
$DIMCLRD
 70
     0
  9
$DIMCLRE
 70
     0
  9
$DIMCLRT
 70
     0
  9
$DIMTFAC
 40
1.0
  9
$DIMGAP
 40
1.5
  9
$DIMJUST
 70
     0
  9
$DIMSD1
 70
     0
  9
$DIMSD2
 70
     0
  9
$DIMTOLJ
 70
     0
  9
$DIMTZIN
 70
     0
  9
$DIMALTZ
 70
     0
  9
$DIMALTTZ
 70
     0
  9
$DIMUPT
 70
     0
  9
$DIMDEC
 70
     1
  9
$DIMTDEC
 70
     1
  9
$DIMALTU
 70
     2
  9
$DIMALTTD
 70
     3
  9
$DIMTXSTY
  7
Standard
  9
$DIMAUNIT
 70
     0
  9
$DIMADEC
 70
     2
  9
$DIMALTRND
 40
0.0
  9
$DIMAZIN
 70
     0
  9
$DIMDSEP
 70
    44
  9
$DIMATFIT
 70
     3
  9
$DIMFRAC
 70
     0
  9
$DIMLDRBLK
  1

  9
$DIMLUNIT
 70
     2
  9
$DIMLWD
 70
    -2
  9
$DIMLWE
 70
    -2
  9
$DIMTMOVE
 70
     0
  9
$LUNITS
 70
     2
  9
$LUPREC
 70
     1
  9
$SKETCHINC
 40
1.0
  9
$FILLETRAD
 40
0.0
  9
$AUNITS
 70
     0
  9
$AUPREC
 70
     2
  9
$MENU
  1
.
  9
$ELEVATION
 40
0.0
  9
$PELEVATION
 40
0.0
  9
$THICKNESS
 40
0.0
  9
$LIMCHECK
 70
     0
  9
$CHAMFERA
 40
0.0
  9
$CHAMFERB
 40
0.0
  9
$CHAMFERC
 40
0.0
  9
$CHAMFERD
 40
0.0
  9
$SKPOLY
 70
     0
  9
$TDCREATE
 40
2460697.703197639
  9
$TDUCREATE
 40
2460697.578197639
  9
$TDUPDATE
 40
2460697.703198021
  9
$TDUUPDATE
 40
2460697.578198021
  9
$TDINDWG
 40
0.0000000116
  9
$TDUSRTIMER
 40
0.0000000116
  9
$USRTIMER
 70
     1
  9
$ANGBASE
 50
0.0
  9
$ANGDIR
 70
     0
  9
$PDMODE
 70
     0
  9
$PDSIZE
 40
-1.0
  9
$PLINEWID
 40
0.0
  9
$SPLFRAME
 70
     0
  9
$SPLINETYPE
 70
     6
  9
$SPLINESEGS
 70
     8
  9
$HANDSEED
  5
216
  9
$SURFTAB1
 70
     6
  9
$SURFTAB2
 70
     6
  9
$SURFTYPE
 70
     6
  9
$SURFU
 70
     6
  9
$SURFV
 70
     6
  9
$UCSBASE
  2

  9
$UCSNAME
  2

  9
$UCSORG
 10
0.0
 20
0.0
 30
0.0
  9
$UCSXDIR
 10
1.0
 20
0.0
 30
0.0
  9
$UCSYDIR
 10
0.0
 20
1.0
 30
0.0
  9
$UCSORTHOREF
  2

  9
$UCSORTHOVIEW
 70
     0
  9
$UCSORGTOP
 10
0.0
 20
0.0
 30
0.0
  9
$UCSORGBOTTOM
 10
0.0
 20
0.0
 30
0.0
  9
$UCSORGLEFT
 10
0.0
 20
0.0
 30
0.0
  9
$UCSORGRIGHT
 10
0.0
 20
0.0
 30
0.0
  9
$UCSORGFRONT
 10
0.0
 20
0.0
 30
0.0
  9
$UCSORGBACK
 10
0.0
 20
0.0
 30
0.0
  9
$PUCSBASE
  2

  9
$PUCSNAME
  2

  9
$PUCSORG
 10
0.0
 20
0.0
 30
0.0
  9
$PUCSXDIR
 10
1.0
 20
0.0
 30
0.0
  9
$PUCSYDIR
 10
0.0
 20
1.0
 30
0.0
  9
$PUCSORTHOREF
  2

  9
$PUCSORTHOVIEW
 70
     0
  9
$PUCSORGTOP
 10
0.0
 20
0.0
 30
0.0
  9
$PUCSORGBOTTOM
 10
0.0
 20
0.0
 30
0.0
  9
$PUCSORGLEFT
 10
0.0
 20
0.0
 30
0.0
  9
$PUCSORGRIGHT
 10
0.0
 20
0.0
 30
0.0
  9
$PUCSORGFRONT
 10
0.0
 20
0.0
 30
0.0
  9
$PUCSORGBACK
 10
0.0
 20
0.0
 30
0.0
  9
$USERI1
 70
     0
  9
$USERI2
 70
     0
  9
$USERI3
 70
     0
  9
$USERI4
 70
     0
  9
$USERI5
 70
     0
  9
$USERR1
 40
0.0
  9
$USERR2
 40
0.0
  9
$USERR3
 40
0.0
  9
$USERR4
 40
0.0
  9
$USERR5
 40
0.0
  9
$WORLDVIEW
 70
     1
  9
$SHADEDGE
 70
     3
  9
$SHADEDIF
 70
    70
  9
$TILEMODE
 70
     1
  9
$MAXACTVP
 70
    64
  9
$PINSBASE
 10
0.0
 20
0.0
 30
0.0
  9
$PLIMCHECK
 70
     0
  9
$PEXTMIN
 10
1.0000000000E+20
 20
1.0000000000E+20
 30
1.0000000000E+20
  9
$PEXTMAX
 10
-1.0000000000E+20
 20
-1.0000000000E+20
 30
-1.0000000000E+20
  9
$PLIMMIN
 10
0.0
 20
0.0
  9
$PLIMMAX
 10
420.0
 20
297.0
  9
$UNITMODE
 70
     0
  9
$VISRETAIN
 70
     1
  9
$PLINEGEN
 70
     0
  9
$PSLTSCALE
 70
     1
  9
$TREEDEPTH
 70
  3020
  9
$CMLSTYLE
  2
Standard
  9
$CMLJUST
 70
     0
  9
$CMLSCALE
 40
20.0
  9
$PROXYGRAPHICS
 70
     1
  9
$MEASUREMENT
 70
     1
  9
$CELWEIGHT
370
    -1
  9
$ENDCAPS
280
     0
  9
$JOINSTYLE
280
     0
  9
$LWDISPLAY
290
     1
  9
$INSUNITS
 70
     4
  9
$HYPERLINKBASE
  1

  9
$STYLESHEET
  1

  9
$XEDIT
290
     1
  9
$CEPSNTYPE
380
     0
  9
$PSTYLEMODE
290
     1
  9
$FINGERPRINTGUID
  2
{bdddb291-707d-41f5-9b83-0cf1f2b8475b}
  9
$VERSIONGUID
  2
{FAEB1C32-E019-11D5-929B-00C0DF256EC4}
  9
$EXTNAMES
290
     1
  9
$PSVPSCALE
 40
0.0
  9
$OLESTARTUP
290
     0
  0
ENDSEC
  0
SECTION
  2
CLASSES
  0
CLASS
  1
ACDBDICTIONARYWDFLT
  2
AcDbDictionaryWithDefault
  3
ObjectDBX Classes
 90
        0
280
     0
281
     0
  0
CLASS
  1
VISUALSTYLE
  2
AcDbVisualStyle
  3
ObjectDBX Classes
 90
     4095
280
     0
281
     0
  0
CLASS
  1
MATERIAL
  2
AcDbMaterial
  3
ObjectDBX Classes
 90
     1153
280
     0
281
     0
  0
CLASS
  1
SCALE
  2
AcDbScale
  3
ObjectDBX Classes
 90
     1153
280
     0
281
     0
  0
CLASS
  1
TABLESTYLE
  2
AcDbTableStyle
  3
ObjectDBX Classes
 90
     4095
280
     0
281
     0
  0
CLASS
  1
MLEADERSTYLE
  2
AcDbMLeaderStyle
  3
ACDB_MLEADERSTYLE_CLASS
 90
     4095
280
     0
281
     0
  0
CLASS
  1
SUN
  2
AcDbSun
  3
SCENEOE
 90
     1153
280
     0
281
     0
  0
CLASS
  1
ACDBPLACEHOLDER
  2
AcDbPlaceHolder
  3
ObjectDBX Classes
 90
        0
280
     0
281
     0
  0
CLASS
  1
LAYOUT
  2
AcDbLayout
  3
ObjectDBX Classes
 90
        0
280
     0
281
     0
  0
ENDSEC
  0
SECTION
  2
TABLES
  0
TABLE
  2
VPORT
  5
8
330
0
100
AcDbSymbolTable
 70
     1
  0
VPORT
  5
29
330
8
100
AcDbSymbolTableRecord
100
AcDbViewportTableRecord
  2
*Active
 70
     0
 10
0.0
 20
0.0
 11
1.0
 21
1.0
 12
210.0
 22
148.5
 13
0.0
 23
0.0
 14
10.0
 24
10.0
 15
10.0
 25
10.0
 16
0.0
 26
0.0
 36
1.0
 17
0.0
 27
0.0
 37
0.0
 40
297.0
 41
1.4141414141
 42
50.0
 43
0.0
 44
0.0
 50
0.0
 51
0.0
 71
     0
 72
  2000
 73
     1
 74
     3
 75
     0
 76
     0
 77
     0
 78
     0
281
     0
 65
     1
110
0.0
120
0.0
130
0.0
111
1.0
121
0.0
131
0.0
112
0.0
122
1.0
132
0.0
 79
     0
146
0.0
  0
ENDTAB
  0
TABLE
  2
LTYPE
  5
5
330
0
100
AcDbSymbolTable
 70
     6
  0
LTYPE
  5
14
330
5
100
AcDbSymbolTableRecord
100
AcDbLinetypeTableRecord
  2
ByBlock
 70
     0
  3

 72
    65
 73
     0
 40
0.0
  0
LTYPE
  5
15
330
5
100
AcDbSymbolTableRecord
100
AcDbLinetypeTableRecord
  2
ByLayer
 70
     0
  3

 72
    65
 73
     0
 40
0.0
  0
LTYPE
  5
16
330
5
100
AcDbSymbolTableRecord
100
AcDbLinetypeTableRecord
  2
Continuous
 70
     0
  3
Solid line
 72
    65
 73
     0
 40
0.0
  0
LTYPE
  5
5E
330
5
100
AcDbSymbolTableRecord
100
AcDbLinetypeTableRecord
  2
HIDDEN
 70
     0
  3
Hidden __ __ __ __ __ __ __ __ __ __ __ __ __ __
 72
    65
 73
     2
 40
1.905
 49
1.27
 74
     0
 49
-0.635
 74
     0
  0
LTYPE
  5
5F
330
5
100
AcDbSymbolTableRecord
100
AcDbLinetypeTableRecord
  2
PHANTOM
 70
     0
  3
Phantom ______  __  __  ______  __  __  ______
 72
    65
 73
     6
 40
12.7
 49
6.35
 74
     0
 49
-1.27
 74
     0
 49
1.27
 74
     0
 49
-1.27
 74
     0
 49
1.27
 74
     0
 49
-1.27
 74
     0
  0
LTYPE
  5
60
330
5
100
AcDbSymbolTableRecord
100
AcDbLinetypeTableRecord
  2
CENTER
 70
     0
  3
Center ____ _ ____ _ ____ _ ____ _ ____ _ ____
 72
    65
 73
     4
 40
10.16
 49
6.35
 74
     0
 49
-1.27
 74
     0
 49
1.27
 74
     0
 49
-1.27
 74
     0
  0
LTYPE
  5
61
330
5
100
AcDbSymbolTableRecord
100
AcDbLinetypeTableRecord
  2
CENTERX2
 70
     0
  3
Center (2x) ________  __  ________  __  _____
 72
    65
 73
     4
 40
20.32
 49
12.7
 74
     0
 49
-2.54
 74
     0
 49
2.54
 74
     0
 49
-2.54
 74
     0
  0
LTYPE
  5
62
330
5
100
AcDbSymbolTableRecord
100
AcDbLinetypeTableRecord
  2
DOT2
 70
     0
  3
Dot (.5x) ........................................
 72
    65
 73
     2
 40
0.635
 49
0.0
 74
     0
 49
-0.635
 74
     0
  0
ENDTAB
  0
TABLE
  2
LAYER
  5
2
330
0
100
AcDbSymbolTable
 70
     3
  0
LAYER
  5
10
330
2
100
AcDbSymbolTableRecord
100
AcDbLayerTableRecord
  2
0
 70
     0
 62
     7
  6
Continuous
370
    -3
390
F
  0
LAYER
  5
63
330
2
100
AcDbSymbolTableRecord
100
AcDbLayerTableRecord
  2
ВОДЯНОЙ_ЗНАК
 70
     0
 62
    11
  6
Continuous
370
    -3
390
F
  0
LAYER
  5
64
330
2
100
AcDbSymbolTableRecord
100
AcDbLayerTableRecord
  2
ОСНОВНОЙ
 70
     0
 62
     7
  6
Continuous
370
    -3
390
F
  0
ENDTAB
  0
TABLE
  2
STYLE
  5
3
330
0
100
AcDbSymbolTable
 70
     1
  0
STYLE
  5
11
330
3
100
AcDbSymbolTableRecord
100
AcDbTextStyleTableRecord
  2
Standard
 70
     0
 40
0.0
 41
1.0
 50
0.0
 71
     0
 42
5.0
  3
txt
  4

  0
ENDTAB
  0
TABLE
  2
VIEW
  5
6
330
0
100
AcDbSymbolTable
 70
     0
  0
ENDTAB
  0
TABLE
  2
UCS
  5
7
330
0
100
AcDbSymbolTable
 70
     0
  0
ENDTAB
  0
TABLE
  2
APPID
  5
9
330
0
100
AcDbSymbolTable
 70
     1
  0
APPID
  5
12
330
9
100
AcDbSymbolTableRecord
100
AcDbRegAppTableRecord
  2
ACAD
 70
     0
  0
ENDTAB
  0
TABLE
  2
DIMSTYLE
  5
A
330
0
100
AcDbSymbolTable
 70
     1
100
AcDbDimStyleTable
  0
DIMSTYLE
105
27
330
A
100
AcDbSymbolTableRecord
100
AcDbDimStyleTableRecord
  2
ISO-25
 70
     0
 41
2.5
 42
0.625
 43
3.75
 44
1.25
 73
     0
 74
     0
 77
     1
 78
     8
140
2.5
141
2.5
143
0.0393700787
147
0.625
171
     3
172
     1
178
     0
271
     2
272
     2
274
     3
278
    44
283
     0
284
     8
340
11
  0
ENDTAB
  0
TABLE
  2
BLOCK_RECORD
  5
1
330
0
100
AcDbSymbolTable
 70
     1
  0
BLOCK_RECORD
  5
1F
330
1
100
AcDbSymbolTableRecord
100
AcDbBlockTableRecord
  2
*Model_Space
340
22
  0
BLOCK_RECORD
  5
1B
330
1
100
AcDbSymbolTableRecord
100
AcDbBlockTableRecord
  2
*Paper_Space
340
1E
  0
BLOCK_RECORD
  5
23
330
1
100
AcDbSymbolTableRecord
100
AcDbBlockTableRecord
  2
*Paper_Space0
340
26
  0
ENDTAB
  0
ENDSEC
  0
SECTION
  2
BLOCKS
  0
BLOCK
  5
20
330
1F
100
AcDbEntity
  8
0
100
AcDbBlockBegin
  2
*Model_Space
 70
     0
 10
0.0
 20
0.0
 30
0.0
  3
*Model_Space
  1

  0
ENDBLK
  5
21
330
1F
100
AcDbEntity
  8
0
100
AcDbBlockEnd
  0
BLOCK
  5
1C
330
1B
100
AcDbEntity
 67
     1
  8
0
100
AcDbBlockBegin
  2
*Paper_Space
 70
     0
 10
0.0
 20
0.0
 30
0.0
  3
*Paper_Space
  1

  0
ENDBLK
  5
1D
330
1B
100
AcDbEntity
 67
     1
  8
0
100
AcDbBlockEnd
  0
BLOCK
  5
24
330
23
100
AcDbEntity
  8
0
100
AcDbBlockBegin
  2
*Paper_Space0
 70
     0
 10
0.0
 20
0.0
 30
0.0
  3
*Paper_Space0
  1

  0
ENDBLK
  5
25
330
23
100
AcDbEntity
  8
0
100
AcDbBlockEnd
  0
ENDSEC
  0
SECTION
  2
ENTITIES
  0
ARC
  5
65
330
1F
100
AcDbEntity
  8
0
  6
Continuous
 62
     7
100
AcDbCircle
 10
1035.6411886517
 20
46.637096365
 30
0.0
 40
3.825687437599349
100
AcDbArc
 50
0.0914128928
 51
180.0914128928
  0
LINE
  5
66
330
1F
100
AcDbEntity
  8
0
  6
Continuous
 62
     7
100
AcDbLine
 10
1038.7739704738
 20
46.6420945846
 30
0.0
 11
1039.4668712201
 21
46.6432000782
 31
0.0
  0
ARC
  5
67
330
1F
100
AcDbEntity
  8
0
  6
Continuous
 62
     7
100
AcDbCircle
 10
1035.6411886517
 20
46.637096365
 30
0.0
 40
3.132785809343955
100
AcDbArc
 50
0.0914128928
 51
180.0914128928
  0
LINE
  5
68
330
1F
100
AcDbEntity
  8
0
  6
Continuous
 62
     7
100
AcDbLine
 10
1032.5084068295
 20
46.6320981453
 30
0.0
 11
1031.8155060832
 21
46.6309926517
 31
0.0
  0
LINE
  5
69
330
1F
100
AcDbEntity
  8
0
  6
Continuous
 62
     7
100
AcDbLine
 10
816.7660339322
 20
45.3929772925
 30
0.0
 11
816.1301144957
 21
45.117806188
 31
0.0
  0
ARC
  5
6A
330
1F
100
AcDbEntity
  8
0
  6
Continuous
 62
     7
100
AcDbCircle
 10
819.6411886517
 20
46.637096365
 30
0.0
 40
3.825687437599099
100
AcDbArc
 50
23.398800266
 51
203.398800266
  0
LINE
  5
6B
330
1F
100
AcDbEntity
  8
0
  6
Continuous
 62
     7
100
AcDbLine
 10
822.5163433711
 20
47.8812154375
 30
0.0
 11
823.1522628076
 21
48.1563865419
 31
0.0
  0
ARC
  5
6C
330
1F
100
AcDbEntity
  8
0
  6
Continuous
 62
     7
100
AcDbCircle
 10
819.6411886517
 20
46.637096365
 30
0.0
 40
3.132785809343722
100
AcDbArc
 50
23.398800266
 51
203.398800266
  0
ARC
  5
6D
330
1F
100
AcDbEntity
  8
0
  6
Continuous
 62
     7
100
AcDbCircle
 10
1035.6411886517
 20
46.637096365
 30
0.0
 40
3.132785809343955
100
AcDbArc
 50
180.0914128928
 51
0.0914128928
  0
ARC
  5
6E
330
1F
100
AcDbEntity
  8
0
  6
Continuous
 62
     7
100
AcDbCircle
 10
1042.0453820567
 20
46.6473139822
 30
0.0
 40
4.154201555956135
100
AcDbArc
 50
180.0914128928
 51
196.0546923546
  0
ARC
  5
6F
330
1F
100
AcDbEntity
  8
0
  6
Continuous
 62
     7
100
AcDbCircle
 10
1042.0453820567
 20
46.6473139822
 30
0.0
 40
4.154201555956139
100
AcDbArc
 50
164.1281334311
 51
180.0914128928
  0
ARC
  5
70
330
1F
100
AcDbEntity
  8
0
  6
Continuous
 62
     7
100
AcDbCircle
 10
1037.7609937578
 20
47.8654799826
 30
0.0
 40
0.3000000000004887
100
AcDbArc
 50
344.1281334311
 51
76.0546923546
  0
ARC
  5
71
330
1F
100
AcDbEntity
  8
0
  6
Continuous
 62
     7
100
AcDbCircle
 10
1038.8344366381
 20
52.1883993531
 30
0.0
 40
4.154201555956496
100
AcDbArc
 50
224.1281334311
 51
256.0546923546
  0
ARC
  5
72
330
1F
100
AcDbEntity
  8
0
  6
Continuous
 62
     7
100
AcDbCircle
 10
1035.6372797862
 20
49.0870932468
 30
0.0
 40
0.3000000000005015
100
AcDbArc
 50
44.1281334311
 51
136.0546923546
  0
ARC
  5
73
330
1F
100
AcDbEntity
  8
0
  6
Continuous
 62
     7
100
AcDbCircle
 10
1032.4302432331
 20
52.1781817359
 30
0.0
 40
4.154201555956345
100
AcDbArc
 50
284.1281334311
 51
316.0546923546
  0
ARC
  5
74
330
1F
100
AcDbEntity
  8
0
  6
Continuous
 62
     7
100
AcDbCircle
 10
1033.5174746801
 20
47.8587096291
 30
0.0
 40
0.3000000000007211
100
AcDbArc
 50
104.1281334311
 51
180.0914128928
  0
ARC
  5
75
330
1F
100
AcDbEntity
  8
0
  6
Continuous
 62
     7
100
AcDbCircle
 10
1033.5174746801
 20
47.8587096291
 30
0.0
 40
0.3000000000007211
100
AcDbArc
 50
180.0914128928
 51
196.0546923546
  0
ARC
  5
76
330
1F
100
AcDbEntity
  8
0
  6
Continuous
 62
     7
100
AcDbCircle
 10
1029.2369952466
 20
46.6268787478
 30
0.0
 40
4.154201555956296
100
AcDbArc
 50
344.1281334311
 51
16.0546923546
  0
ARC
  5
77
330
1F
100
AcDbEntity
  8
0
  6
Continuous
 62
     7
100
AcDbCircle
 10
1033.5213835456
 20
45.4087127473
 30
0.0
 40
0.3000000000006425
100
AcDbArc
 50
164.1281334311
 51
180.0914128928
  0
ARC
  5
78
330
1F
100
AcDbEntity
  8
0
  6
Continuous
 62
     7
100
AcDbCircle
 10
1033.5213835456
 20
45.4087127473
 30
0.0
 40
0.3000000000005443
100
AcDbArc
 50
180.0914128928
 51
256.0546923546
  0
ARC
  5
79
330
1F
100
AcDbEntity
  8
0
  6
Continuous
 62
     7
100
AcDbCircle
 10
1032.4479406652
 20
41.0857933768
 30
0.0
 40
4.154201555956162
100
AcDbArc
 50
44.1281334311
 51
76.0546923546
  0
ARC
  5
7A
330
1F
100
AcDbEntity
  8
0
  6
Continuous
 62
     7
100
AcDbCircle
 10
1035.6450975171
 20
44.1870994832
 30
0.0
 40
0.3000000000000464
100
AcDbArc
 50
224.1281334311
 51
316.0546923545
  0
ARC
  5
7B
330
1F
100
AcDbEntity
  8
0
  6
Continuous
 62
     7
100
AcDbCircle
 10
1038.8521340703
 20
41.096010994
 30
0.0
 40
4.154201555956424
100
AcDbArc
 50
104.1281334311
 51
136.0546923546
  0
ARC
  5
7C
330
1F
100
AcDbEntity
  8
0
  6
Continuous
 62
     7
100
AcDbCircle
 10
1037.7649026232
 20
45.4154831008
 30
0.0
 40
0.300000000000436
100
AcDbArc
 50
284.128133431
 51
16.0546923546
  0
ARC
  5
7D
330
1F
100
AcDbEntity
  8
0
  6
Continuous
 62
     7
100
AcDbCircle
 10
819.6411886517
 20
46.637096365
 30
0.0
 40
3.132785809343722
100
AcDbArc
 50
203.398800266
 51
23.398800266
  0
ARC
  5
7E
330
1F
100
AcDbEntity
  8
0
  6
Continuous
 62
     7
100
AcDbCircle
 10
813.7636497938
 20
44.0938042969
 30
0.0
 40
4.154201555956177
100
AcDbArc
 50
23.398800266
 51
39.3620797277
  0
ARC
  5
7F
330
1F
100
AcDbEntity
  8
0
  6
Continuous
 62
     7
100
AcDbCircle
 10
813.7636497938
 20
44.0938042969
 30
0.0
 40
4.154201555956177
100
AcDbArc
 50
7.4355208042
 51
23.398800266
  0
ARC
  5
80
330
1F
100
AcDbEntity
  8
0
  6
Continuous
 62
     7
100
AcDbCircle
 10
818.1803965227
 20
44.6702241383
 30
0.0
 40
0.3000000000005854
100
AcDbArc
 50
187.4355208042
 51
279.3620797277
  0
ARC
  5
81
330
1F
100
AcDbEntity
  8
0
  6
Continuous
 62
     7
100
AcDbCircle
 10
818.9049747629
 20
40.2753523683
 30
0.0
 40
4.154201555956283
100
AcDbArc
 50
67.4355208042
 51
99.3620797277
  0
ARC
  5
82
330
1F
100
AcDbEntity
  8
0
  6
Continuous
 62
     7
100
AcDbCircle
 10
820.6141539015
 20
44.3885771583
 30
0.0
 40
0.3000000000005881
100
AcDbArc
 50
247.4355208042
 51
339.3620797277
  0
ARC
  5
83
330
1F
100
AcDbEntity
  8
0
  6
Continuous
 62
     7
100
AcDbCircle
 10
824.7825136208
 20
42.8186444364
 30
0.0
 40
4.154201555956286
100
AcDbArc
 50
127.4355208042
 51
159.3620797277
  0
ARC
  5
84
330
1F
100
AcDbEntity
  8
0
  6
Continuous
 62
     7
100
AcDbCircle
 10
822.0749460304
 20
46.355449385
 30
0.0
 40
0.3000000000006323
100
AcDbArc
 50
307.4355208042
 51
23.398800266
  0
ARC
  5
85
330
1F
100
AcDbEntity
  8
0
  6
Continuous
 62
     7
100
AcDbCircle
 10
822.0749460304
 20
46.355449385
 30
0.0
 40
0.3000000000006323
100
AcDbArc
 50
23.398800266
 51
39.3620797277
  0
ARC
  5
86
330
1F
100
AcDbEntity
  8
0
  6
Continuous
 62
     7
100
AcDbCircle
 10
825.5187275095
 20
49.1803884331
 30
0.0
 40
4.154201555956328
100
AcDbArc
 50
187.4355208042
 51
219.3620797277
  0
ARC
  5
87
330
1F
100
AcDbEntity
  8
0
  6
Continuous
 62
     7
100
AcDbCircle
 10
821.1019807806
 20
48.6039685916
 30
0.0
 40
0.3000000000006323
100
AcDbArc
 50
7.4355208043
 51
23.398800266
  0
ARC
  5
88
330
1F
100
AcDbEntity
  8
0
  6
Continuous
 62
     7
100
AcDbCircle
 10
821.1019807806
 20
48.6039685916
 30
0.0
 40
0.3000000000006323
100
AcDbArc
 50
23.398800266
 51
99.3620797277
  0
ARC
  5
89
330
1F
100
AcDbEntity
  8
0
  6
Continuous
 62
     7
100
AcDbCircle
 10
820.3774025404
 20
52.9988403617
 30
0.0
 40
4.154201555956205
100
AcDbArc
 50
247.4355208042
 51
279.3620797277
  0
ARC
  5
8A
330
1F
100
AcDbEntity
  8
0
  6
Continuous
 62
     7
100
AcDbCircle
 10
818.6682234018
 20
48.8856155716
 30
0.0
 40
0.2999999999998196
100
AcDbArc
 50
67.4355208042
 51
159.3620797277
  0
ARC
  5
8B
330
1F
100
AcDbEntity
  8
0
  6
Continuous
 62
     7
100
AcDbCircle
 10
814.4998636825
 20
50.4555482936
 30
0.0
 40
4.154201555956597
100
AcDbArc
 50
307.4355208042
 51
339.3620797277
  0
ARC
  5
8C
330
1F
100
AcDbEntity
  8
0
  6
Continuous
 62
     7
100
AcDbCircle
 10
817.2074312729
 20
46.9187433449
 30
0.0
 40
0.3000000000005269
100
AcDbArc
 50
127.4355208042
 51
219.3620797277
  0
ARC
  5
8D
330
1F
100
AcDbEntity
  8
0
  6
Continuous
 62
     7
100
AcDbCircle
 10
819.6411886517
 20
46.637096365
 30
0.0
 40
3.825687437599099
100
AcDbArc
 50
203.398800266
 51
23.398800266
  0
ARC
  5
8E
330
1F
100
AcDbEntity
  8
0
  6
Continuous
 62
     7
100
AcDbCircle
 10
1035.6411886517
 20
46.637096365
 30
0.0
 40
3.825687437599349
100
AcDbArc
 50
180.0914128928
 51
0.0914128928
  0
ARC
  5
8F
330
1F
100
AcDbEntity
  8
0
  6
Continuous
 62
     7
100
AcDbCircle
 10
1035.6411886517
 20
46.637096365
 30
0.0
 40
5.092901628255664
100
AcDbArc
 50
0.0914128928
 51
180.0914128928
  0
LINE
  5
90
330
1F
100
AcDbEntity
  8
0
  6
Continuous
 62
     7
100
AcDbLine
 10
1039.4668712201
 20
46.6432000782
 30
0.0
 11
1040.734083798
 21
46.6452218618
 31
0.0
  0
LINE
  5
91
330
1F
100
AcDbEntity
  8
0
  6
Continuous
 62
     7
100
AcDbLine
 10
1031.8155060832
 20
46.6309926517
 30
0.0
 11
1030.5482935053
 21
46.6289708682
 31
0.0
  0
ARC
  5
92
330
1F
100
AcDbEntity
  8
0
  6
Continuous
 62
     7
100
AcDbCircle
 10
1035.6411886517
 20
46.637096365
 30
0.0
 40
5.092901628255664
100
AcDbArc
 50
180.0914128928
 51
0.0914128928
  0
LINE
  5
93
330
1F
100
AcDbEntity
  8
0
  6
Continuous
 62
     7
100
AcDbLine
 10
816.1301144957
 20
45.117806188
 30
0.0
 11
814.9671122726
 21
44.6145590976
 31
0.0
  0
ARC
  5
94
330
1F
100
AcDbEntity
  8
0
  6
Continuous
 62
     7
100
AcDbCircle
 10
819.6411886517
 20
46.637096365
 30
0.0
 40
5.092901628255661
100
AcDbArc
 50
23.398800266
 51
203.398800266
  0
LINE
  5
95
330
1F
100
AcDbEntity
  8
0
  6
Continuous
 62
     7
100
AcDbLine
 10
823.1522628076
 20
48.1563865419
 30
0.0
 11
824.3152650307
 21
48.6596336324
 31
0.0
  0
ARC
  5
96
330
1F
100
AcDbEntity
  8
0
  6
Continuous
 62
     7
100
AcDbCircle
 10
819.6411886517
 20
46.637096365
 30
0.0
 40
5.092901628255661
100
AcDbArc
 50
203.398800266
 51
23.398800266
  0
ARC
  5
97
330
1F
100
AcDbEntity
  8
0
  6
Continuous
 62
     7
100
AcDbCircle
 10
1035.6411886517
 20
46.637096365
 30
0.0
 40
5.900000000000238
100
AcDbArc
 50
0.0914128928
 51
180.0914128928
  0
LINE
  5
98
330
1F
100
AcDbEntity
  8
0
  6
Continuous
 62
     7
100
AcDbLine
 10
1040.734083798
 20
46.6452218618
 30
0.0
 11
1041.5411811425
 21
46.6465095511
 31
0.0
  0
LINE
  5
99
330
1F
100
AcDbEntity
  8
0
  6
Continuous
 62
     7
100
AcDbLine
 10
1030.5482935053
 20
46.6289708682
 30
0.0
 11
1029.7411961608
 21
46.6276831788
 31
0.0
  0
LINE
  5
9A
330
1F
100
AcDbEntity
  8
0
  6
Continuous
 62
     7
100
AcDbLine
 10
814.9671122726
 20
44.6145590976
 30
0.0
 11
814.2263872969
 21
44.2940371919
 31
0.0
  0
ARC
  5
9B
330
1F
100
AcDbEntity
  8
0
  6
Continuous
 62
     7
100
AcDbCircle
 10
819.6411886517
 20
46.637096365
 30
0.0
 40
5.899999999999982
100
AcDbArc
 50
23.398800266
 51
203.398800266
  0
LINE
  5
9C
330
1F
100
AcDbEntity
  8
0
  6
Continuous
 62
     7
100
AcDbLine
 10
824.3152650307
 20
48.6596336324
 30
0.0
 11
825.0559900064
 21
48.980155538
 31
0.0
  0
ARC
  5
9D
330
1F
100
AcDbEntity
  8
0
  6
Continuous
 62
     7
100
AcDbCircle
 10
819.6411886517
 20
46.637096365
 30
0.0
 40
5.899999999999982
100
AcDbArc
 50
203.398800266
 51
23.398800266
  0
ARC
  5
9E
330
1F
100
AcDbEntity
  8
0
  6
Continuous
 62
     7
100
AcDbCircle
 10
1035.6411886517
 20
46.637096365
 30
0.0
 40
5.900000000000238
100
AcDbArc
 50
180.0914128928
 51
0.0914128928
  0
LINE
  5
9F
330
1F
100
AcDbEntity
  8
0
  6
Continuous
 62
     7
100
AcDbLine
 10
1267.1411886517
 20
239.637096365
 30
0.0
 11
1267.1411886517
 21
141.5513099273
 31
0.0
  0
LINE
  5
A0
330
1F
100
AcDbEntity
  8
0
  6
Continuous
 62
     7
100
AcDbLine
 10
1267.1411886517
 20
141.5513099273
 30
0.0
 11
1249.1411886517
 21
123.5513099273
 31
0.0
  0
LINE
  5
A1
330
1F
100
AcDbEntity
  8
0
  6
Continuous
 62
     7
100
AcDbLine
 10
1249.1411886517
 20
123.5513099273
 30
0.0
 11
1232.3911886517
 21
123.5513099273
 31
0.0
  0
LINE
  5
A2
330
1F
100
AcDbEntity
  8
0
  6
Continuous
 62
     7
100
AcDbLine
 10
1232.3911886517
 20
123.5513099273
 30
0.0
 11
1232.3911886517
 21
122.5157760214
 31
0.0
  0
LINE
  5
A3
330
1F
100
AcDbEntity
  8
0
  6
Continuous
 62
     7
100
AcDbLine
 10
1232.3911886517
 20
122.5157760214
 30
0.0
 11
622.8911886517
 21
122.5157760214
 31
0.0
  0
LINE
  5
A4
330
1F
100
AcDbEntity
  8
0
  6
Continuous
 62
     7
100
AcDbLine
 10
622.8911886517
 20
123.5513099273
 30
0.0
 11
622.8911886517
 21
122.5157760214
 31
0.0
  0
LINE
  5
A5
330
1F
100
AcDbEntity
  8
0
  6
Continuous
 62
     7
100
AcDbLine
 10
622.8911886517
 20
123.5513099273
 30
0.0
 11
606.1411886517
 21
123.5513099273
 31
0.0
  0
LINE
  5
A6
330
1F
100
AcDbEntity
  8
0
  6
Continuous
 62
     7
100
AcDbLine
 10
606.1411886517
 20
123.5513099273
 30
0.0
 11
588.1411886517
 21
141.5513099273
 31
0.0
  0
LINE
  5
A7
330
1F
100
AcDbEntity
  8
0
  6
Continuous
 62
     7
100
AcDbLine
 10
588.1411886517
 20
141.5513099273
 30
0.0
 11
588.1411886517
 21
239.637096365
 31
0.0
  0
LINE
  5
A8
330
1F
100
AcDbEntity
  8
0
  6
Continuous
 62
     7
100
AcDbLine
 10
588.1411886517
 20
239.637096365
 30
0.0
 11
606.1411886517
 21
257.637096365
 31
0.0
  0
ARC
  5
A9
330
1F
100
AcDbEntity
  8
0
  6
Continuous
 62
     7
100
AcDbCircle
 10
602.6411886517
 20
231.637096365
 30
0.0
 40
3.500000000000114
100
AcDbArc
 50
180.0
 51
0.0
  0
ARC
  5
AA
330
1F
100
AcDbEntity
  8
0
  6
Continuous
 62
     7
100
AcDbCircle
 10
602.6411886517
 20
231.637096365
 30
0.0
 40
3.500000000000114
100
AcDbArc
 50
0.0
 51
180.0
  0
ARC
  5
AB
330
1F
100
AcDbEntity
  8
0
  6
Continuous
 62
     7
100
AcDbCircle
 10
819.6411886517
 20
246.637096365
 30
0.0
 40
3.5
100
AcDbArc
 50
180.0
 51
0.0
  0
ARC
  5
AC
330
1F
100
AcDbEntity
  8
0
  6
Continuous
 62
     7
100
AcDbCircle
 10
819.6411886517
 20
246.637096365
 30
0.0
 40
3.5
100
AcDbArc
 50
0.0
 51
180.0
  0
ARC
  5
AD
330
1F
100
AcDbEntity
  8
0
  6
Continuous
 62
     7
100
AcDbCircle
 10
1035.6411886517
 20
246.637096365
 30
0.0
 40
3.5
100
AcDbArc
 50
180.0
 51
0.0
  0
ARC
  5
AE
330
1F
100
AcDbEntity
  8
0
  6
Continuous
 62
     7
100
AcDbCircle
 10
1035.6411886517
 20
246.637096365
 30
0.0
 40
3.5
100
AcDbArc
 50
0.0
 51
180.0
  0
ARC
  5
AF
330
1F
100
AcDbEntity
  8
0
  6
Continuous
 62
     7
100
AcDbCircle
 10
1252.6411886517
 20
231.637096365
 30
0.0
 40
3.500000000000227
100
AcDbArc
 50
180.0
 51
0.0
  0
ARC
  5
B0
330
1F
100
AcDbEntity
  8
0
  6
Continuous
 62
     7
100
AcDbCircle
 10
1252.6411886517
 20
231.637096365
 30
0.0
 40
3.500000000000227
100
AcDbArc
 50
0.0
 51
180.0
  0
LINE
  5
B1
330
1F
100
AcDbEntity
  8
0
  6
Continuous
 62
     7
100
AcDbLine
 10
606.1411886517
 20
257.637096365
 30
0.0
 11
1249.1411886517
 21
257.637096365
 31
0.0
  0
LINE
  5
B2
330
1F
100
AcDbEntity
  8
0
  6
Continuous
 62
     7
100
AcDbLine
 10
1249.1411886517
 20
257.637096365
 30
0.0
 11
1267.1411886517
 21
239.637096365
 31
0.0
  0
LINE
  5
B3
330
1F
100
AcDbEntity
  8
0
  6
Continuous
 62
     7
100
AcDbLine
 10
1232.3911886517
 20
121.3086692402
 30
0.0
 11
1232.3911886517
 21
121.0157760214
 31
0.0
  0
LINE
  5
B4
330
1F
100
AcDbEntity
  8
0
  6
Continuous
 62
     7
100
AcDbLine
 10
622.8911886517
 20
121.0157760214
 30
0.0
 11
1232.3911886517
 21
121.0157760214
 31
0.0
  0
LINE
  5
B5
330
1F
100
AcDbEntity
  8
0
  6
Continuous
 62
     7
100
AcDbLine
 10
622.8911886517
 20
121.3086692402
 30
0.0
 11
622.8911886517
 21
121.0157760214
 31
0.0
  0
LINE
  5
B6
330
1F
100
AcDbEntity
  8
0
  6
Continuous
 62
     7
100
AcDbLine
 10
622.8911886517
 20
121.7835429744
 30
0.0
 11
622.8911886517
 21
121.3086692402
 31
0.0
  0
LINE
  5
B7
330
1F
100
AcDbEntity
  8
0
  6
Continuous
 62
     7
100
AcDbLine
 10
1232.3911886517
 20
121.3086692402
 30
0.0
 11
1232.3911886517
 21
121.7835429744
 31
0.0
  0
LINE
  5
B8
330
1F
100
AcDbEntity
  8
0
  6
Continuous
 62
     7
100
AcDbLine
 10
622.8911886517
 20
121.7835429744
 30
0.0
 11
622.8911886517
 21
122.5157760214
 31
0.0
  0
LINE
  5
B9
330
1F
100
AcDbEntity
  8
0
  6
Continuous
 62
     7
100
AcDbLine
 10
1232.3911886517
 20
121.7835429744
 30
0.0
 11
1232.3911886517
 21
122.5157760214
 31
0.0
  0
LINE
  5
BA
330
1F
100
AcDbEntity
  8
0
  6
Continuous
 62
     7
100
AcDbLine
 10
1232.3911886517
 20
37.637096365
 30
0.0
 11
1232.3911886517
 21
35.137096365
 31
0.0
  0
LINE
  5
BB
330
1F
100
AcDbEntity
  8
0
  6
Continuous
 62
     7
100
AcDbLine
 10
1232.3911886517
 20
35.137096365
 30
0.0
 11
622.8911886517
 21
35.137096365
 31
0.0
  0
LINE
  5
BC
330
1F
100
AcDbEntity
  8
0
  6
Continuous
 62
     7
100
AcDbLine
 10
622.8911886517
 20
37.637096365
 30
0.0
 11
622.8911886517
 21
35.137096365
 31
0.0
  0
LINE
  5
BD
330
1F
100
AcDbEntity
  8
0
  6
Continuous
 62
     7
100
AcDbLine
 10
622.8911886517
 20
37.637096365
 30
0.0
 11
622.8911886517
 21
120.601562459
 31
0.0
  0
LINE
  5
BE
330
1F
100
AcDbEntity
  8
0
  6
Continuous
 62
     7
100
AcDbLine
 10
1232.3911886517
 20
120.601562459
 30
0.0
 11
1232.3911886517
 21
37.637096365
 31
0.0
  0
LINE
  5
BF
330
1F
100
AcDbEntity
  8
0
  6
Continuous
 62
     7
100
AcDbLine
 10
1232.3911886517
 20
120.601562459
 30
0.0
 11
1232.3911886517
 21
121.0157760214
 31
0.0
  0
LINE
  5
C0
330
1F
100
AcDbEntity
  8
0
  6
Continuous
 62
     7
100
AcDbLine
 10
622.8911886517
 20
120.601562459
 30
0.0
 11
622.8911886517
 21
121.0157760214
 31
0.0
  0
LINE
  5
C1
330
1F
100
AcDbEntity
  8
0
  6
Continuous
 62
     7
100
AcDbLine
 10
543.3195717305
 20
40.737096365
 30
0.0
 11
546.1595643395
 21
40.737096365
 31
0.0
  0
ARC
  5
C2
330
1F
100
AcDbEntity
  8
0
  6
Continuous
 62
     7
100
AcDbCircle
 10
543.3195717305
 20
42.237096365
 30
0.0
 40
1.500000000000023
100
AcDbArc
 50
207.5120026239
 51
270.0
  0
LINE
  5
C3
330
1F
100
AcDbEntity
  8
0
  6
Continuous
 62
     7
100
AcDbLine
 10
546.1595643395
 20
52.537096365
 30
0.0
 11
543.3195717305
 21
52.537096365
 31
0.0
  0
ARC
  5
C4
330
1F
100
AcDbEntity
  8
0
  6
Continuous
 62
     7
100
AcDbCircle
 10
543.3195717305
 20
51.037096365
 30
0.0
 40
1.500000000000023
100
AcDbArc
 50
90.0
 51
152.4879973761
  0
LINE
  5
C5
330
1F
100
AcDbEntity
  8
0
  6
Continuous
 62
     7
100
AcDbLine
 10
541.3291932133
 20
42.8114089274
 30
0.0
 11
541.9892006042
 21
41.5441947367
 31
0.0
  0
LINE
  5
C6
330
1F
100
AcDbEntity
  8
0
  6
Continuous
 62
     7
100
AcDbLine
 10
541.9892006042
 20
51.7299979932
 30
0.0
 11
541.3291932133
 21
50.4627838026
 31
0.0
  0
ARC
  5
C7
330
1F
100
AcDbEntity
  8
0
  6
Continuous
 62
     7
100
AcDbCircle
 10
542.6595643395
 20
43.5043105556
 30
0.0
 40
1.499999999999922
100
AcDbArc
 50
180.0
 51
207.5120026239
  0
ARC
  5
C8
330
1F
100
AcDbEntity
  8
0
  6
Continuous
 62
     7
100
AcDbCircle
 10
542.6595643395
 20
49.7698821743
 30
0.0
 40
1.499999999999922
100
AcDbArc
 50
152.4879973761
 51
180.0
  0
LINE
  5
C9
330
1F
100
AcDbEntity
  8
0
  6
Continuous
 62
     7
100
AcDbLine
 10
549.1595643395
 20
43.637096365
 30
0.0
 11
554.8595643395
 21
43.637096365
 31
0.0
  0
LINE
  5
CA
330
1F
100
AcDbEntity
  8
0
  6
Continuous
 62
     7
100
AcDbLine
 10
554.8595643395
 20
43.637096365
 30
0.0
 11
555.3595643395
 21
44.137096365
 31
0.0
  0
LINE
  5
CB
330
1F
100
AcDbEntity
  8
0
  6
Continuous
 62
     7
100
AcDbLine
 10
546.1595643395
 20
43.637096365
 30
0.0
 11
547.6595643395
 21
43.637096365
 31
0.0
  0
LINE
  5
CC
330
1F
100
AcDbEntity
  8
0
  6
Continuous
 62
     7
100
AcDbLine
 10
555.3595643395
 20
49.137096365
 30
0.0
 11
554.8595643395
 21
49.637096365
 31
0.0
  0
LINE
  5
CD
330
1F
100
AcDbEntity
  8
0
  6
Continuous
 62
     7
100
AcDbLine
 10
554.8595643395
 20
49.637096365
 30
0.0
 11
549.1595643395
 21
49.637096365
 31
0.0
  0
LINE
  5
CE
330
1F
100
AcDbEntity
  8
0
  6
Continuous
 62
     7
100
AcDbLine
 10
547.6595643395
 20
49.637096365
 30
0.0
 11
546.1595643395
 21
49.637096365
 31
0.0
  0
LINE
  5
CF
330
1F
100
AcDbEntity
  8
0
  6
Continuous
 62
     7
100
AcDbLine
 10
546.1595643395
 20
239.637096365
 30
0.0
 11
547.6595643395
 21
239.637096365
 31
0.0
  0
LINE
  5
D0
330
1F
100
AcDbEntity
  8
0
  6
Continuous
 62
     7
100
AcDbLine
 10
546.1595643395
 20
257.637096365
 30
0.0
 11
547.6595643395
 21
257.637096365
 31
0.0
  0
LINE
  5
D1
330
1F
100
AcDbEntity
  8
0
  6
Continuous
 62
     7
100
AcDbLine
 10
547.6595643395
 20
257.637096365
 30
0.0
 11
547.6595643395
 21
239.637096365
 31
0.0
  0
LINE
  5
D2
330
1F
100
AcDbEntity
  8
0
  6
Continuous
 62
     7
100
AcDbLine
 10
546.1595643395
 20
257.637096365
 30
0.0
 11
546.1595643395
 21
239.637096365
 31
0.0
  0
LINE
  5
D3
330
1F
100
AcDbEntity
  8
0
  6
Continuous
 62
     7
100
AcDbLine
 10
546.1595643395
 20
123.5513099273
 30
0.0
 11
547.6595643395
 21
123.5513099273
 31
0.0
  0
LINE
  5
D4
330
1F
100
AcDbEntity
  8
0
  6
Continuous
 62
     7
100
AcDbLine
 10
546.1595643395
 20
141.5513099273
 30
0.0
 11
547.6595643395
 21
141.5513099273
 31
0.0
  0
LINE
  5
D5
330
1F
100
AcDbEntity
  8
0
  6
Continuous
 62
     7
100
AcDbLine
 10
547.6595643395
 20
141.5513099273
 30
0.0
 11
547.6595643395
 21
123.5513099273
 31
0.0
  0
LINE
  5
D6
330
1F
100
AcDbEntity
  8
0
  6
Continuous
 62
     7
100
AcDbLine
 10
546.1595643395
 20
141.5513099273
 30
0.0
 11
546.1595643395
 21
123.5513099273
 31
0.0
  0
LINE
  5
D7
330
1F
100
AcDbEntity
  8
0
  6
Continuous
 62
     7
100
AcDbLine
 10
547.6595643395
 20
239.637096365
 30
0.0
 11
547.6595643395
 21
141.5513099273
 31
0.0
  0
LINE
  5
D8
330
1F
100
AcDbEntity
  8
0
  6
Continuous
 62
     7
100
AcDbLine
 10
546.1595643395
 20
239.637096365
 30
0.0
 11
546.1595643395
 21
141.5513099273
 31
0.0
  0
LINE
  5
D9
330
1F
100
AcDbEntity
  8
0
  6
Continuous
 62
     7
100
AcDbLine
 10
557.1595643395
 20
35.137096365
 30
0.0
 11
557.1595643395
 21
36.637096365
 31
0.0
  0
LINE
  5
DA
330
1F
100
AcDbEntity
  8
0
  6
Continuous
 62
     7
100
AcDbLine
 10
557.1595643395
 20
35.137096365
 30
0.0
 11
554.1595643395
 21
35.137096365
 31
0.0
  0
LINE
  5
DB
330
1F
100
AcDbEntity
  8
0
  6
Continuous
 62
     7
100
AcDbLine
 10
554.1595643395
 20
35.137096365
 30
0.0
 11
554.1595643395
 21
36.637096365
 31
0.0
  0
LINE
  5
DC
330
1F
100
AcDbEntity
  8
0
  6
Continuous
 62
     7
100
AcDbLine
 10
557.1595643395
 20
36.637096365
 30
0.0
 11
554.1595643395
 21
36.637096365
 31
0.0
  0
LINE
  5
DD
330
1F
100
AcDbEntity
  8
0
  6
Continuous
 62
     7
100
AcDbLine
 10
550.1595643395
 20
36.637096365
 30
0.0
 11
550.1595643395
 21
35.137096365
 31
0.0
  0
LINE
  5
DE
330
1F
100
AcDbEntity
  8
0
  6
Continuous
 62
     7
100
AcDbLine
 10
554.1595643395
 20
35.137096365
 30
0.0
 11
550.1595643395
 21
35.137096365
 31
0.0
  0
LINE
  5
DF
330
1F
100
AcDbEntity
  8
0
  6
Continuous
 62
     7
100
AcDbLine
 10
554.1595643395
 20
36.637096365
 30
0.0
 11
550.1595643395
 21
36.637096365
 31
0.0
  0
LINE
  5
E0
330
1F
100
AcDbEntity
  8
0
  6
Continuous
 62
     7
100
AcDbLine
 10
546.8917973866
 20
121.7835429744
 30
0.0
 11
546.1595643395
 21
122.5157760214
 31
0.0
  0
LINE
  5
E1
330
1F
100
AcDbEntity
  8
0
  6
Continuous
 62
     7
100
AcDbLine
 10
547.9524575583
 20
122.8442031462
 30
0.0
 11
547.6595643395
 21
123.137096365
 31
0.0
  0
LINE
  5
E2
330
1F
100
AcDbEntity
  8
0
  6
Continuous
 62
     7
100
AcDbLine
 10
547.9524575583
 20
122.8442031462
 30
0.0
 11
546.8917973866
 21
121.7835429744
 31
0.0
  0
LINE
  5
E3
330
1F
100
AcDbEntity
  8
0
  6
Continuous
 62
     7
100
AcDbLine
 10
547.6595643395
 20
123.5513099273
 30
0.0
 11
547.6595643395
 21
123.137096365
 31
0.0
  0
LINE
  5
E4
330
1F
100
AcDbEntity
  8
0
  6
Continuous
 62
     7
100
AcDbLine
 10
546.1595643395
 20
123.5513099273
 30
0.0
 11
546.1595643395
 21
122.5157760214
 31
0.0
  0
LINE
  5
E5
330
1F
100
AcDbEntity
  8
0
  6
Continuous
 62
     7
100
AcDbLine
 10
547.3666711207
 20
121.3086692402
 30
0.0
 11
548.4273312925
 21
122.369329412
 31
0.0
  0
LINE
  5
E6
330
1F
100
AcDbEntity
  8
0
  6
Continuous
 62
     7
100
AcDbLine
 10
547.3666711207
 20
121.3086692402
 30
0.0
 11
546.8917973866
 21
121.7835429744
 31
0.0
  0
LINE
  5
E7
330
1F
100
AcDbEntity
  8
0
  6
Continuous
 62
     7
100
AcDbLine
 10
548.4273312925
 20
122.369329412
 30
0.0
 11
547.9524575583
 21
122.8442031462
 31
0.0
  0
LINE
  5
E8
330
1F
100
AcDbEntity
  8
0
  6
Continuous
 62
     7
100
AcDbLine
 10
549.1595643395
 20
37.637096365
 30
0.0
 11
547.6595643395
 21
37.637096365
 31
0.0
  0
LINE
  5
E9
330
1F
100
AcDbEntity
  8
0
  6
Continuous
 62
     7
100
AcDbLine
 10
547.6595643395
 20
120.601562459
 30
0.0
 11
549.1595643395
 21
120.601562459
 31
0.0
  0
LINE
  5
EA
330
1F
100
AcDbEntity
  8
0
  6
Continuous
 62
     7
100
AcDbLine
 10
549.1595643395
 20
120.601562459
 30
0.0
 11
549.1595643395
 21
37.637096365
 31
0.0
  0
LINE
  5
EB
330
1F
100
AcDbEntity
  8
0
  6
Continuous
 62
     7
100
AcDbLine
 10
547.6595643395
 20
120.601562459
 30
0.0
 11
547.6595643395
 21
37.637096365
 31
0.0
  0
LINE
  5
EC
330
1F
100
AcDbEntity
  8
0
  6
Continuous
 62
     7
100
AcDbLine
 10
547.3666711207
 20
121.3086692402
 30
0.0
 11
547.6595643395
 21
121.0157760214
 31
0.0
  0
LINE
  5
ED
330
1F
100
AcDbEntity
  8
0
  6
Continuous
 62
     7
100
AcDbLine
 10
549.1595643395
 20
120.601562459
 30
0.0
 11
549.1595643395
 21
121.637096365
 31
0.0
  0
LINE
  5
EE
330
1F
100
AcDbEntity
  8
0
  6
Continuous
 62
     7
100
AcDbLine
 10
548.4273312925
 20
122.369329412
 30
0.0
 11
549.1595643395
 21
121.637096365
 31
0.0
  0
LINE
  5
EF
330
1F
100
AcDbEntity
  8
0
  6
Continuous
 62
     7
100
AcDbLine
 10
547.6595643395
 20
120.601562459
 30
0.0
 11
547.6595643395
 21
121.0157760214
 31
0.0
  0
LINE
  5
F0
330
1F
100
AcDbEntity
  8
0
  6
Continuous
 62
     7
100
AcDbLine
 10
549.1595643395
 20
37.637096365
 30
0.0
 11
549.1595643395
 21
36.637096365
 31
0.0
  0
LINE
  5
F1
330
1F
100
AcDbEntity
  8
0
  6
Continuous
 62
     7
100
AcDbLine
 10
547.6595643395
 20
37.637096365
 30
0.0
 11
547.6595643395
 21
35.137096365
 31
0.0
  0
LINE
  5
F2
330
1F
100
AcDbEntity
  8
0
  6
Continuous
 62
     7
100
AcDbLine
 10
550.1595643395
 20
35.137096365
 30
0.0
 11
547.6595643395
 21
35.137096365
 31
0.0
  0
LINE
  5
F3
330
1F
100
AcDbEntity
  8
0
  6
Continuous
 62
     7
100
AcDbLine
 10
550.1595643395
 20
36.637096365
 30
0.0
 11
549.1595643395
 21
36.637096365
 31
0.0
  0
LINE
  5
F4
330
1F
100
AcDbEntity
  8
0
  6
Continuous
 62
     7
100
AcDbLine
 10
543.3195717305
 20
46.6465095511
 30
0.0
 11
546.1595643395
 21
46.6465095511
 31
0.0
  0
LINE
  5
F5
330
1F
100
AcDbEntity
  8
0
  6
Continuous
 62
     7
100
AcDbLine
 10
546.1595643395
 20
46.6465095511
 30
0.0
 11
546.1595643395
 21
40.737096365
 31
0.0
  0
LWPOLYLINE
  5
F6
330
1F
100
AcDbEntity
  8
0
  6
Continuous
 62
     7
100
AcDbPolyline
 90
        9
 70
   128
 43
0.0
 10
541.9892006042
 20
46.6452218618
 10
542.0957134291
 20
46.6455000712
 10
542.2249367378
 20
46.645752604
 10
542.3744726025
 20
46.6459747741
 10
542.5415461661
 20
46.6461624587
 10
542.7230571339
 20
46.6463121751
 10
542.915637304
 20
46.6464211451
 10
543.1157130692
 20
46.6464873466
 10
543.3195717305
 20
46.6465095511
  0
LINE
  5
F7
330
1F
100
AcDbEntity
  8
0
  6
Continuous
 62
     7
100
AcDbLine
 10
546.1595643395
 20
52.537096365
 30
0.0
 11
546.1595643395
 21
46.6465095511
 31
0.0
  0
LINE
  5
F8
330
1F
100
AcDbEntity
  8
0
  6
Continuous
 62
     7
100
AcDbLine
 10
541.3291932133
 20
46.6432000782
 30
0.0
 11
541.9892006042
 21
46.6452218618
 31
0.0
  0
ARC
  5
F9
330
1F
100
AcDbEntity
  8
0
  6
Continuous
 62
     7
100
AcDbCircle
 10
541.3089686846
 20
36.7318583825
 30
0.0
 40
9.911362330195786
100
AcDbArc
 50
89.8830856041
 51
90.8637120053
  0
LINE
  5
FA
330
1F
100
AcDbEntity
  8
0
  6
Continuous
 62
     7
100
AcDbLine
 10
541.1595643395
 20
46.6420945846
 30
0.0
 11
541.1595643395
 21
43.5043105556
 31
0.0
  0
LINE
  5
FB
330
1F
100
AcDbEntity
  8
0
  6
Continuous
 62
     7
100
AcDbLine
 10
541.1595643395
 20
49.7698821743
 30
0.0
 11
541.1595643395
 21
46.6420945846
 31
0.0
  0
LINE
  5
FC
330
1F
100
AcDbEntity
  8
0
  6
Continuous
 62
     7
100
AcDbLine
 10
554.8595643395
 20
46.6418827308
 30
0.0
 11
549.1595643395
 21
46.6418827308
 31
0.0
  0
LINE
  5
FD
330
1F
100
AcDbEntity
  8
0
  6
Continuous
 62
     7
100
AcDbLine
 10
554.8595643395
 20
46.6418827308
 30
0.0
 11
554.8595643395
 21
43.637096365
 31
0.0
  0
LINE
  5
FE
330
1F
100
AcDbEntity
  8
0
  6
Continuous
 62
     7
100
AcDbLine
 10
555.3595643395
 20
46.6410850032
 30
0.0
 11
554.8595643395
 21
46.6418827308
 31
0.0
  0
LINE
  5
FF
330
1F
100
AcDbEntity
  8
0
  6
Continuous
 62
     7
100
AcDbLine
 10
555.3595643395
 20
46.6410850032
 30
0.0
 11
555.3595643395
 21
44.137096365
 31
0.0
  0
LINE
  5
100
330
1F
100
AcDbEntity
  8
0
  6
Continuous
 62
     7
100
AcDbLine
 10
547.6595643395
 20
46.6418827308
 30
0.0
 11
546.1595643395
 21
46.6418827308
 31
0.0
  0
LINE
  5
101
330
1F
100
AcDbEntity
  8
0
  6
Continuous
 62
     7
100
AcDbLine
 10
554.8595643395
 20
49.637096365
 30
0.0
 11
554.8595643395
 21
46.6418827308
 31
0.0
  0
LINE
  5
102
330
1F
100
AcDbEntity
  8
0
  6
Continuous
 62
     7
100
AcDbLine
 10
555.3595643395
 20
49.137096365
 30
0.0
 11
555.3595643395
 21
46.6410850032
 31
0.0
  0
LINE
  5
103
330
1F
100
AcDbEntity
  8
0
  6
Continuous
 62
     7
100
AcDbLine
 10
543.3195717305
 20
46.6465095511
 30
0.0
 11
543.3195717305
 21
40.737096365
 31
0.0
  0
LINE
  5
104
330
1F
100
AcDbEntity
  8
0
  6
Continuous
 62
     7
100
AcDbLine
 10
541.9892006042
 20
46.6452218618
 30
0.0
 11
541.9892006042
 21
41.5441947367
 31
0.0
  0
LINE
  5
105
330
1F
100
AcDbEntity
  8
0
  6
Continuous
 62
     7
100
AcDbLine
 10
543.3195717305
 20
52.537096365
 30
0.0
 11
543.3195717305
 21
46.6465095511
 31
0.0
  0
LINE
  5
106
330
1F
100
AcDbEntity
  8
0
  6
Continuous
 62
     7
100
AcDbLine
 10
541.9892006042
 20
51.7299979932
 30
0.0
 11
541.9892006042
 21
46.6452218618
 31
0.0
  0
LINE
  5
107
330
1F
100
AcDbEntity
  8
0
  6
Continuous
 62
     7
100
AcDbLine
 10
541.3291932133
 20
46.6432000782
 30
0.0
 11
541.3291932133
 21
42.8114089274
 31
0.0
  0
LINE
  5
108
330
1F
100
AcDbEntity
  8
0
  6
Continuous
 62
     7
100
AcDbLine
 10
541.3291932133
 20
50.4627838026
 30
0.0
 11
541.3291932133
 21
46.6432000782
 31
0.0
  0
LINE
  5
109
330
1F
100
AcDbEntity
  8
0
  6
Continuous
 62
     7
100
AcDbLine
 10
1330.3134297819
 20
52.537096365
 30
0.0
 11
1327.4734371729
 21
52.537096365
 31
0.0
  0
ARC
  5
10A
330
1F
100
AcDbEntity
  8
0
  6
Continuous
 62
     7
100
AcDbCircle
 10
1330.3134297819
 20
51.037096365
 30
0.0
 40
1.500000000000007
100
AcDbArc
 50
27.5120026239
 51
90.0
  0
ARC
  5
10B
330
1F
100
AcDbEntity
  8
0
  6
Continuous
 62
     7
100
AcDbCircle
 10
1330.3134297819
 20
42.237096365
 30
0.0
 40
1.500000000000007
100
AcDbArc
 50
270.0
 51
332.4879973761
  0
LINE
  5
10C
330
1F
100
AcDbEntity
  8
0
  6
Continuous
 62
     7
100
AcDbLine
 10
1327.4734371729
 20
40.737096365
 30
0.0
 11
1330.3134297819
 21
40.737096365
 31
0.0
  0
LINE
  5
10D
330
1F
100
AcDbEntity
  8
0
  6
Continuous
 62
     7
100
AcDbLine
 10
1332.3038082991
 20
50.4627838026
 30
0.0
 11
1331.6438009081
 21
51.7299979932
 31
0.0
  0
LINE
  5
10E
330
1F
100
AcDbEntity
  8
0
  6
Continuous
 62
     7
100
AcDbLine
 10
1331.6438009081
 20
41.5441947367
 30
0.0
 11
1332.3038082991
 21
42.8114089274
 31
0.0
  0
ARC
  5
10F
330
1F
100
AcDbEntity
  8
0
  6
Continuous
 62
     7
100
AcDbCircle
 10
1330.9734371729
 20
49.7698821743
 30
0.0
 40
1.500000000000011
100
AcDbArc
 50
0.0
 51
27.5120026239
  0
ARC
  5
110
330
1F
100
AcDbEntity
  8
0
  6
Continuous
 62
     7
100
AcDbCircle
 10
1330.9734371729
 20
43.5043105556
 30
0.0
 40
1.500000000000011
100
AcDbArc
 50
332.4879973761
 51
0.0
  0
LINE
  5
111
330
1F
100
AcDbEntity
  8
0
  6
Continuous
 62
     7
100
AcDbLine
 10
1324.4734371729
 20
49.637096365
 30
0.0
 11
1318.7734371729
 21
49.637096365
 31
0.0
  0
LINE
  5
112
330
1F
100
AcDbEntity
  8
0
  6
Continuous
 62
     7
100
AcDbLine
 10
1318.7734371729
 20
49.637096365
 30
0.0
 11
1318.2734371729
 21
49.137096365
 31
0.0
  0
LINE
  5
113
330
1F
100
AcDbEntity
  8
0
  6
Continuous
 62
     7
100
AcDbLine
 10
1327.4734371729
 20
49.637096365
 30
0.0
 11
1325.9734371729
 21
49.637096365
 31
0.0
  0
LINE
  5
114
330
1F
100
AcDbEntity
  8
0
  6
Continuous
 62
     7
100
AcDbLine
 10
1318.2734371729
 20
44.137096365
 30
0.0
 11
1318.7734371729
 21
43.637096365
 31
0.0
  0
LINE
  5
115
330
1F
100
AcDbEntity
  8
0
  6
Continuous
 62
     7
100
AcDbLine
 10
1318.7734371729
 20
43.637096365
 30
0.0
 11
1324.4734371729
 21
43.637096365
 31
0.0
  0
LINE
  5
116
330
1F
100
AcDbEntity
  8
0
  6
Continuous
 62
     7
100
AcDbLine
 10
1325.9734371729
 20
43.637096365
 30
0.0
 11
1327.4734371729
 21
43.637096365
 31
0.0
  0
LINE
  5
117
330
1F
100
AcDbEntity
  8
0
  6
Continuous
 62
     7
100
AcDbLine
 10
1327.4734371729
 20
141.5513099273
 30
0.0
 11
1325.9734371729
 21
141.5513099273
 31
0.0
  0
LINE
  5
118
330
1F
100
AcDbEntity
  8
0
  6
Continuous
 62
     7
100
AcDbLine
 10
1327.4734371729
 20
123.5513099273
 30
0.0
 11
1325.9734371729
 21
123.5513099273
 31
0.0
  0
LINE
  5
119
330
1F
100
AcDbEntity
  8
0
  6
Continuous
 62
     7
100
AcDbLine
 10
1325.9734371729
 20
123.5513099273
 30
0.0
 11
1325.9734371729
 21
141.5513099273
 31
0.0
  0
LINE
  5
11A
330
1F
100
AcDbEntity
  8
0
  6
Continuous
 62
     7
100
AcDbLine
 10
1327.4734371729
 20
123.5513099273
 30
0.0
 11
1327.4734371729
 21
141.5513099273
 31
0.0
  0
LINE
  5
11B
330
1F
100
AcDbEntity
  8
0
  6
Continuous
 62
     7
100
AcDbLine
 10
1327.4734371729
 20
257.637096365
 30
0.0
 11
1325.9734371729
 21
257.637096365
 31
0.0
  0
LINE
  5
11C
330
1F
100
AcDbEntity
  8
0
  6
Continuous
 62
     7
100
AcDbLine
 10
1327.4734371729
 20
239.637096365
 30
0.0
 11
1325.9734371729
 21
239.637096365
 31
0.0
  0
LINE
  5
11D
330
1F
100
AcDbEntity
  8
0
  6
Continuous
 62
     7
100
AcDbLine
 10
1325.9734371729
 20
239.637096365
 30
0.0
 11
1325.9734371729
 21
257.637096365
 31
0.0
  0
LINE
  5
11E
330
1F
100
AcDbEntity
  8
0
  6
Continuous
 62
     7
100
AcDbLine
 10
1327.4734371729
 20
239.637096365
 30
0.0
 11
1327.4734371729
 21
257.637096365
 31
0.0
  0
LINE
  5
11F
330
1F
100
AcDbEntity
  8
0
  6
Continuous
 62
     7
100
AcDbLine
 10
1325.9734371729
 20
141.5513099273
 30
0.0
 11
1325.9734371729
 21
239.637096365
 31
0.0
  0
LINE
  5
120
330
1F
100
AcDbEntity
  8
0
  6
Continuous
 62
     7
100
AcDbLine
 10
1327.4734371729
 20
141.5513099273
 30
0.0
 11
1327.4734371729
 21
239.637096365
 31
0.0
  0
LINE
  5
121
330
1F
100
AcDbEntity
  8
0
  6
Continuous
 62
     7
100
AcDbLine
 10
1319.4734371729
 20
35.137096365
 30
0.0
 11
1319.4734371729
 21
36.637096365
 31
0.0
  0
LINE
  5
122
330
1F
100
AcDbEntity
  8
0
  6
Continuous
 62
     7
100
AcDbLine
 10
1319.4734371729
 20
35.137096365
 30
0.0
 11
1316.4734371729
 21
35.137096365
 31
0.0
  0
LINE
  5
123
330
1F
100
AcDbEntity
  8
0
  6
Continuous
 62
     7
100
AcDbLine
 10
1316.4734371729
 20
35.137096365
 30
0.0
 11
1316.4734371729
 21
36.637096365
 31
0.0
  0
LINE
  5
124
330
1F
100
AcDbEntity
  8
0
  6
Continuous
 62
     7
100
AcDbLine
 10
1319.4734371729
 20
36.637096365
 30
0.0
 11
1316.4734371729
 21
36.637096365
 31
0.0
  0
LINE
  5
125
330
1F
100
AcDbEntity
  8
0
  6
Continuous
 62
     7
100
AcDbLine
 10
1323.4734371729
 20
35.137096365
 30
0.0
 11
1319.4734371729
 21
35.137096365
 31
0.0
  0
LINE
  5
126
330
1F
100
AcDbEntity
  8
0
  6
Continuous
 62
     7
100
AcDbLine
 10
1323.4734371729
 20
36.637096365
 30
0.0
 11
1319.4734371729
 21
36.637096365
 31
0.0
  0
LINE
  5
127
330
1F
100
AcDbEntity
  8
0
  6
Continuous
 62
     7
100
AcDbLine
 10
1323.4734371729
 20
36.637096365
 30
0.0
 11
1323.4734371729
 21
35.137096365
 31
0.0
  0
LINE
  5
128
330
1F
100
AcDbEntity
  8
0
  6
Continuous
 62
     7
100
AcDbLine
 10
1325.9734371729
 20
37.637096365
 30
0.0
 11
1325.9734371729
 21
120.601562459
 31
0.0
  0
LINE
  5
129
330
1F
100
AcDbEntity
  8
0
  6
Continuous
 62
     7
100
AcDbLine
 10
1324.4734371729
 20
37.637096365
 30
0.0
 11
1325.9734371729
 21
37.637096365
 31
0.0
  0
LINE
  5
12A
330
1F
100
AcDbEntity
  8
0
  6
Continuous
 62
     7
100
AcDbLine
 10
1324.4734371729
 20
37.637096365
 30
0.0
 11
1324.4734371729
 21
120.601562459
 31
0.0
  0
LINE
  5
12B
330
1F
100
AcDbEntity
  8
0
  6
Continuous
 62
     7
100
AcDbLine
 10
1325.9734371729
 20
120.601562459
 30
0.0
 11
1324.4734371729
 21
120.601562459
 31
0.0
  0
LINE
  5
12C
330
1F
100
AcDbEntity
  8
0
  6
Continuous
 62
     7
100
AcDbLine
 10
1325.9734371729
 20
37.637096365
 30
0.0
 11
1325.9734371729
 21
35.137096365
 31
0.0
  0
LINE
  5
12D
330
1F
100
AcDbEntity
  8
0
  6
Continuous
 62
     7
100
AcDbLine
 10
1324.4734371729
 20
37.637096365
 30
0.0
 11
1324.4734371729
 21
36.637096365
 31
0.0
  0
LINE
  5
12E
330
1F
100
AcDbEntity
  8
0
  6
Continuous
 62
     7
100
AcDbLine
 10
1323.4734371729
 20
35.137096365
 30
0.0
 11
1325.9734371729
 21
35.137096365
 31
0.0
  0
LINE
  5
12F
330
1F
100
AcDbEntity
  8
0
  6
Continuous
 62
     7
100
AcDbLine
 10
1323.4734371729
 20
36.637096365
 30
0.0
 11
1324.4734371729
 21
36.637096365
 31
0.0
  0
LINE
  5
130
330
1F
100
AcDbEntity
  8
0
  6
Continuous
 62
     7
100
AcDbLine
 10
1326.2663303917
 20
121.3086692402
 30
0.0
 11
1325.2056702199
 21
122.369329412
 31
0.0
  0
LINE
  5
131
330
1F
100
AcDbEntity
  8
0
  6
Continuous
 62
     7
100
AcDbLine
 10
1325.9734371729
 20
120.601562459
 30
0.0
 11
1325.9734371729
 21
121.0157760214
 31
0.0
  0
LINE
  5
132
330
1F
100
AcDbEntity
  8
0
  6
Continuous
 62
     7
100
AcDbLine
 10
1326.2663303917
 20
121.3086692402
 30
0.0
 11
1325.9734371729
 21
121.0157760214
 31
0.0
  0
LINE
  5
133
330
1F
100
AcDbEntity
  8
0
  6
Continuous
 62
     7
100
AcDbLine
 10
1324.4734371729
 20
120.601562459
 30
0.0
 11
1324.4734371729
 21
121.637096365
 31
0.0
  0
LINE
  5
134
330
1F
100
AcDbEntity
  8
0
  6
Continuous
 62
     7
100
AcDbLine
 10
1325.2056702199
 20
122.369329412
 30
0.0
 11
1324.4734371729
 21
121.637096365
 31
0.0
  0
LINE
  5
135
330
1F
100
AcDbEntity
  8
0
  6
Continuous
 62
     7
100
AcDbLine
 10
1325.680543954
 20
122.8442031462
 30
0.0
 11
1326.7412041258
 21
121.7835429744
 31
0.0
  0
LINE
  5
136
330
1F
100
AcDbEntity
  8
0
  6
Continuous
 62
     7
100
AcDbLine
 10
1326.7412041258
 20
121.7835429744
 30
0.0
 11
1327.4734371729
 21
122.5157760214
 31
0.0
  0
LINE
  5
137
330
1F
100
AcDbEntity
  8
0
  6
Continuous
 62
     7
100
AcDbLine
 10
1325.680543954
 20
122.8442031462
 30
0.0
 11
1325.9734371729
 21
123.137096365
 31
0.0
  0
LINE
  5
138
330
1F
100
AcDbEntity
  8
0
  6
Continuous
 62
     7
100
AcDbLine
 10
1325.9734371729
 20
123.5513099273
 30
0.0
 11
1325.9734371729
 21
123.137096365
 31
0.0
  0
LINE
  5
139
330
1F
100
AcDbEntity
  8
0
  6
Continuous
 62
     7
100
AcDbLine
 10
1327.4734371729
 20
123.5513099273
 30
0.0
 11
1327.4734371729
 21
122.5157760214
 31
0.0
  0
LINE
  5
13A
330
1F
100
AcDbEntity
  8
0
  6
Continuous
 62
     7
100
AcDbLine
 10
1326.7412041258
 20
121.7835429744
 30
0.0
 11
1326.2663303917
 21
121.3086692402
 31
0.0
  0
LINE
  5
13B
330
1F
100
AcDbEntity
  8
0
  6
Continuous
 62
     7
100
AcDbLine
 10
1325.680543954
 20
122.8442031462
 30
0.0
 11
1325.2056702199
 21
122.369329412
 31
0.0
  0
LINE
  5
13C
330
1F
100
AcDbEntity
  8
0
  6
Continuous
 62
     7
100
AcDbLine
 10
1330.3134297819
 20
44.2940371919
 30
0.0
 11
1327.4734371729
 21
44.2940371919
 31
0.0
  0
LINE
  5
13D
330
1F
100
AcDbEntity
  8
0
  6
Continuous
 62
     7
100
AcDbLine
 10
1327.4734371729
 20
44.2940371919
 30
0.0
 11
1327.4734371729
 21
52.537096365
 31
0.0
  0
ARC
  5
13E
330
1F
100
AcDbEntity
  8
0
  6
Continuous
 62
     7
100
AcDbCircle
 10
1330.4459385334
 20
46.6652479651
 30
0.0
 40
2.37491033514286
100
AcDbArc
 50
266.8015057867
 51
300.2903465167
  0
LINE
  5
13F
330
1F
100
AcDbEntity
  8
0
  6
Continuous
 62
     7
100
AcDbLine
 10
1327.4734371729
 20
40.737096365
 30
0.0
 11
1327.4734371729
 21
44.2940371919
 31
0.0
  0
LINE
  5
140
330
1F
100
AcDbEntity
  8
0
  6
Continuous
 62
     7
100
AcDbLine
 10
1332.3038082991
 20
45.117806188
 30
0.0
 11
1331.6438009081
 21
44.6145590976
 31
0.0
  0
ARC
  5
141
330
1F
100
AcDbEntity
  8
0
  6
Continuous
 62
     7
100
AcDbCircle
 10
1332.1110316847
 20
45.4265123871
 30
0.0
 40
0.3639537613871093
100
AcDbArc
 50
301.9833882443
 51
354.713205807
  0
LINE
  5
142
330
1F
100
AcDbEntity
  8
0
  6
Continuous
 62
     7
100
AcDbLine
 10
1332.4734371729
 20
45.3929772925
 30
0.0
 11
1332.4734371729
 21
49.7698821743
 31
0.0
  0
LINE
  5
143
330
1F
100
AcDbEntity
  8
0
  6
Continuous
 62
     7
100
AcDbLine
 10
1332.4734371729
 20
43.5043105556
 30
0.0
 11
1332.4734371729
 21
45.3929772925
 31
0.0
  0
LINE
  5
144
330
1F
100
AcDbEntity
  8
0
  6
Continuous
 62
     7
100
AcDbLine
 10
1318.7734371729
 20
45.4457103448
 30
0.0
 11
1324.4734371729
 21
45.4457103448
 31
0.0
  0
LINE
  5
145
330
1F
100
AcDbEntity
  8
0
  6
Continuous
 62
     7
100
AcDbLine
 10
1318.7734371729
 20
45.4457103448
 30
0.0
 11
1318.7734371729
 21
49.637096365
 31
0.0
  0
LINE
  5
146
330
1F
100
AcDbEntity
  8
0
  6
Continuous
 62
     7
100
AcDbLine
 10
1318.2734371729
 20
45.6442746815
 30
0.0
 11
1318.7734371729
 21
45.4457103448
 31
0.0
  0
LINE
  5
147
330
1F
100
AcDbEntity
  8
0
  6
Continuous
 62
     7
100
AcDbLine
 10
1318.2734371729
 20
45.6442746815
 30
0.0
 11
1318.2734371729
 21
49.137096365
 31
0.0
  0
LINE
  5
148
330
1F
100
AcDbEntity
  8
0
  6
Continuous
 62
     7
100
AcDbLine
 10
1325.9734371729
 20
45.4457103448
 30
0.0
 11
1327.4734371729
 21
45.4457103448
 31
0.0
  0
LINE
  5
149
330
1F
100
AcDbEntity
  8
0
  6
Continuous
 62
     7
100
AcDbLine
 10
1318.7734371729
 20
43.637096365
 30
0.0
 11
1318.7734371729
 21
45.4457103448
 31
0.0
  0
LINE
  5
14A
330
1F
100
AcDbEntity
  8
0
  6
Continuous
 62
     7
100
AcDbLine
 10
1318.2734371729
 20
44.137096365
 30
0.0
 11
1318.2734371729
 21
45.6442746815
 31
0.0
  0
LINE
  5
14B
330
1F
100
AcDbEntity
  8
0
  6
Continuous
 62
     7
100
AcDbLine
 10
1330.3134297819
 20
44.2940371919
 30
0.0
 11
1330.3134297819
 21
52.537096365
 31
0.0
  0
LINE
  5
14C
330
1F
100
AcDbEntity
  8
0
  6
Continuous
 62
     7
100
AcDbLine
 10
1331.6438009081
 20
44.6145590976
 30
0.0
 11
1331.6438009081
 21
51.7299979932
 31
0.0
  0
LINE
  5
14D
330
1F
100
AcDbEntity
  8
0
  6
Continuous
 62
     7
100
AcDbLine
 10
1330.3134297819
 20
40.737096365
 30
0.0
 11
1330.3134297819
 21
44.2940371919
 31
0.0
  0
LINE
  5
14E
330
1F
100
AcDbEntity
  8
0
  6
Continuous
 62
     7
100
AcDbLine
 10
1331.6438009081
 20
41.5441947367
 30
0.0
 11
1331.6438009081
 21
44.6145590976
 31
0.0
  0
LINE
  5
14F
330
1F
100
AcDbEntity
  8
0
  6
Continuous
 62
     7
100
AcDbLine
 10
1332.3038082991
 20
45.117806188
 30
0.0
 11
1332.3038082991
 21
50.4627838026
 31
0.0
  0
LINE
  5
150
330
1F
100
AcDbEntity
  8
0
  6
Continuous
 62
     7
100
AcDbLine
 10
1332.3038082991
 20
42.8114089274
 30
0.0
 11
1332.3038082991
 21
45.117806188
 31
0.0
  0
LINE
  5
151
330
1F
100
AcDbEntity
  8
0
  6
Continuous
 62
     7
100
AcDbLine
 10
825.5411886517
 20
314.5427142466
 30
0.0
 11
825.5411886517
 21
317.3827068557
 31
0.0
  0
ARC
  5
152
330
1F
100
AcDbEntity
  8
0
  6
Continuous
 62
     7
100
AcDbCircle
 10
824.0411886517
 20
317.3827068557
 30
0.0
 40
1.5
100
AcDbArc
 50
0.0
 51
62.4879973761
  0
LINE
  5
153
330
1F
100
AcDbEntity
  8
0
  6
Continuous
 62
     7
100
AcDbLine
 10
824.7340902799
 20
318.7130779819
 30
0.0
 11
823.4668760893
 21
319.3730853729
 31
0.0
  0
ARC
  5
154
330
1F
100
AcDbEntity
  8
0
  6
Continuous
 62
     7
100
AcDbCircle
 10
822.773974461
 20
318.0427142466
 30
0.0
 40
1.500000000000061
100
AcDbArc
 50
62.4879973761
 51
90.0
  0
LINE
  5
155
330
1F
100
AcDbEntity
  8
0
  6
Continuous
 62
     7
100
AcDbLine
 10
822.6411886517
 20
313.0427142466
 30
0.0
 11
822.6411886517
 21
314.5427142466
 31
0.0
  0
ARC
  5
156
330
1F
100
AcDbEntity
  8
0
  6
Continuous
 62
     7
100
AcDbCircle
 10
815.2411886517
 20
317.3827068557
 30
0.0
 40
1.500000000000009
100
AcDbArc
 50
117.5120026239
 51
180.0
  0
LINE
  5
157
330
1F
100
AcDbEntity
  8
0
  6
Continuous
 62
     7
100
AcDbLine
 10
813.7411886517
 20
317.3827068557
 30
0.0
 11
813.7411886517
 21
314.5427142466
 31
0.0
  0
LINE
  5
158
330
1F
100
AcDbEntity
  8
0
  6
Continuous
 62
     7
100
AcDbLine
 10
815.8155012141
 20
319.3730853729
 30
0.0
 11
814.5482870234
 21
318.7130779819
 31
0.0
  0
ARC
  5
159
330
1F
100
AcDbEntity
  8
0
  6
Continuous
 62
     7
100
AcDbCircle
 10
816.5084028423
 20
318.0427142466
 30
0.0
 40
1.500000000000061
100
AcDbArc
 50
90.0
 51
117.5120026239
  0
LINE
  5
15A
330
1F
100
AcDbEntity
  8
0
  6
Continuous
 62
     7
100
AcDbLine
 10
816.6411886517
 20
314.5427142466
 30
0.0
 11
816.6411886517
 21
313.0427142466
 31
0.0
  0
LINE
  5
15B
330
1F
100
AcDbEntity
  8
0
  6
Continuous
 62
     7
100
AcDbLine
 10
625.8911886517
 20
303.5427142466
 30
0.0
 11
1229.3911886517
 21
303.5427142466
 31
0.0
  0
LINE
  5
15C
330
1F
100
AcDbEntity
  8
0
  6
Continuous
 62
     7
100
AcDbLine
 10
622.8911886517
 20
310.5427142466
 30
0.0
 11
622.8911886517
 21
306.5427142466
 31
0.0
  0
LINE
  5
15D
330
1F
100
AcDbEntity
  8
0
  6
Continuous
 62
     7
100
AcDbLine
 10
1232.3911886517
 20
306.5427142466
 30
0.0
 11
1232.3911886517
 21
310.5427142466
 31
0.0
  0
LINE
  5
15E
330
1F
100
AcDbEntity
  8
0
  6
Continuous
 62
     7
100
AcDbLine
 10
1229.3911886517
 20
303.5427142466
 30
0.0
 11
1232.3911886517
 21
306.5427142466
 31
0.0
  0
LINE
  5
15F
330
1F
100
AcDbEntity
  8
0
  6
Continuous
 62
     7
100
AcDbLine
 10
622.8911886517
 20
306.5427142466
 30
0.0
 11
625.8911886517
 21
303.5427142466
 31
0.0
  0
LINE
  5
160
330
1F
100
AcDbEntity
  8
0
  6
Continuous
 62
     7
100
AcDbLine
 10
1232.3911886517
 20
313.0427142466
 30
0.0
 11
622.8911886517
 21
313.0427142466
 31
0.0
  0
LINE
  5
161
330
1F
100
AcDbEntity
  8
0
  6
Continuous
 62
     7
100
AcDbLine
 10
1232.3911886517
 20
310.5427142466
 30
0.0
 11
1232.3911886517
 21
313.0427142466
 31
0.0
  0
LINE
  5
162
330
1F
100
AcDbEntity
  8
0
  6
Continuous
 62
     7
100
AcDbLine
 10
622.8911886517
 20
310.5427142466
 30
0.0
 11
622.8911886517
 21
313.0427142466
 31
0.0
  0
LINE
  5
163
330
1F
100
AcDbEntity
  8
0
  6
Continuous
 62
     7
100
AcDbLine
 10
825.5411886517
 20
314.5427142466
 30
0.0
 11
814.2263872969
 21
314.5427142466
 31
0.0
  0
LINE
  5
164
330
1F
100
AcDbEntity
  8
0
  6
Continuous
 62
     7
100
AcDbLine
 10
814.2263872969
 20
317.3827068557
 30
0.0
 11
814.2263872969
 21
314.5427142466
 31
0.0
  0
ARC
  5
165
330
1F
100
AcDbEntity
  8
0
  6
Continuous
 62
     7
100
AcDbCircle
 10
815.7468874523
 20
317.4075179556
 30
0.0
 40
1.520702572213679
100
AcDbArc
 50
120.8487132719
 51
180.9348536747
  0
LINE
  5
166
330
1F
100
AcDbEntity
  8
0
  6
Continuous
 62
     7
100
AcDbLine
 10
1041.5411811425
 20
317.3827068557
 30
0.0
 11
1041.5411811425
 21
314.5427142466
 31
0.0
  0
LINE
  5
167
330
1F
100
AcDbEntity
  8
0
  6
Continuous
 62
     7
100
AcDbLine
 10
1029.7411961608
 20
317.3827068557
 30
0.0
 11
1029.7411961608
 21
314.5427142466
 31
0.0
  0
LINE
  5
168
330
1F
100
AcDbEntity
  8
0
  6
Continuous
 62
     7
100
AcDbLine
 10
1041.5411811425
 20
317.3827068557
 30
0.0
 11
1029.7411961608
 21
317.3827068557
 31
0.0
  0
LINE
  5
169
330
1F
100
AcDbEntity
  8
0
  6
Continuous
 62
     7
100
AcDbLine
 10
1041.5411811425
 20
314.5427142466
 30
0.0
 11
1029.7411961608
 21
314.5427142466
 31
0.0
  0
ARC
  5
16A
330
1F
100
AcDbEntity
  8
0
  6
Continuous
 62
     7
100
AcDbCircle
 10
1040.0411809207
 20
317.3827072561
 30
0.0
 40
1.50000022179988
100
AcDbArc
 50
359.9999847038
 51
62.4879479963
  0
ARC
  5
16B
330
1F
100
AcDbEntity
  8
0
  6
Continuous
 62
     7
100
AcDbCircle
 10
1031.2411963826
 20
317.3827072561
 30
0.0
 40
1.500000221799989
100
AcDbArc
 50
117.5120520037
 51
180.0000152962
  0
LINE
  5
16C
330
1F
100
AcDbEntity
  8
0
  6
Continuous
 62
     7
100
AcDbLine
 10
1040.734083798
 20
318.7130779819
 30
0.0
 11
1030.5482935053
 21
318.7130779819
 31
0.0
  0
LINE
  5
16D
330
1F
100
AcDbEntity
  8
0
  6
Continuous
 62
     7
100
AcDbLine
 10
1039.4668712201
 20
319.3730853729
 30
0.0
 11
1040.734083798
 21
318.7130779819
 31
0.0
  0
LINE
  5
16E
330
1F
100
AcDbEntity
  8
0
  6
Continuous
 62
     7
100
AcDbLine
 10
1031.8155060832
 20
319.3730853729
 30
0.0
 11
1030.5482935053
 21
318.7130779819
 31
0.0
  0
LINE
  5
16F
330
1F
100
AcDbEntity
  8
0
  6
Continuous
 62
     7
100
AcDbLine
 10
1039.4668712201
 20
319.3730853729
 30
0.0
 11
1031.8155060832
 21
319.3730853729
 31
0.0
  0
LINE
  5
170
330
1F
100
AcDbEntity
  8
0
  6
Continuous
 62
     7
100
AcDbLine
 10
816.1301144957
 20
319.3730853729
 30
0.0
 11
814.9671122726
 21
318.7130779819
 31
0.0
  0
ARC
  5
171
330
1F
100
AcDbEntity
  8
0
  6
Continuous
 62
     7
100
AcDbCircle
 10
1038.7739704335
 20
318.0427176845
 30
0.0
 40
1.499996562081152
100
AcDbArc
 50
62.487965228
 51
89.9999984626
  0
ARC
  5
172
330
1F
100
AcDbEntity
  8
0
  6
Continuous
 62
     7
100
AcDbCircle
 10
1032.5084068698
 20
318.0427176845
 30
0.0
 40
1.499996562079844
100
AcDbArc
 50
90.0000015373
 51
117.512034772
  0
LINE
  5
173
330
1F
100
AcDbEntity
  8
0
  6
Continuous
 62
     7
100
AcDbLine
 10
1038.7739704738
 20
319.5427142466
 30
0.0
 11
1032.5084068295
 21
319.5427142466
 31
0.0
  0
ARC
  5
174
330
1F
100
AcDbEntity
  8
0
  6
Continuous
 62
     7
100
AcDbCircle
 10
816.7687510078
 20
318.2557188276
 30
0.0
 40
1.286998287094236
100
AcDbArc
 50
90.1209613725
 51
119.7503446784
  0
LINE
  5
175
330
1F
100
AcDbEntity
  8
0
  6
Continuous
 62
     7
100
AcDbLine
 10
822.773974461
 20
319.5427142466
 30
0.0
 11
816.7660339322
 21
319.5427142466
 31
0.0
  0
LINE
  5
176
330
1F
100
AcDbEntity
  8
0
  6
Continuous
 62
     7
100
AcDbLine
 10
816.8878998272
 20
313.0427142466
 30
0.0
 11
816.8878998272
 21
314.5427142466
 31
0.0
  0
LINE
  5
177
330
1F
100
AcDbEntity
  8
0
  6
Continuous
 62
     7
100
AcDbLine
 10
1032.6411924699
 20
313.0427142466
 30
0.0
 11
1032.6411924699
 21
314.5427142466
 31
0.0
  0
LINE
  5
178
330
1F
100
AcDbEntity
  8
0
  6
Continuous
 62
     7
100
AcDbLine
 10
1038.6411848334
 20
313.0427142466
 30
0.0
 11
1038.6411848334
 21
314.5427142466
 31
0.0
  0
LINE
  5
179
330
1F
100
AcDbEntity
  8
0
  6
Continuous
 62
     7
100
AcDbLine
 10
814.2263872969
 20
314.5427142466
 30
0.0
 11
813.7411886517
 21
314.5427142466
 31
0.0
  0
LINE
  5
17A
330
1F
100
AcDbEntity
  8
0
  6
Continuous
 62
     7
100
AcDbLine
 10
816.7660339322
 20
319.5427142466
 30
0.0
 11
816.5084028423
 21
319.5427142466
 31
0.0
  0
LINE
  5
17B
330
1F
100
AcDbEntity
  8
0
  6
Continuous
 62
     7
100
AcDbLine
 10
622.8911886517
 20
313.8104811996
 30
0.0
 11
622.8911886517
 21
313.3356074654
 31
0.0
  0
LINE
  5
17C
330
1F
100
AcDbEntity
  8
0
  6
Continuous
 62
     7
100
AcDbLine
 10
622.8911886517
 20
313.8104811996
 30
0.0
 11
622.8911886517
 21
314.5427142466
 31
0.0
  0
LINE
  5
17D
330
1F
100
AcDbEntity
  8
0
  6
Continuous
 62
     7
100
AcDbLine
 10
1232.3911886517
 20
314.5427142466
 30
0.0
 11
1041.5411811425
 21
314.5427142466
 31
0.0
  0
LINE
  5
17E
330
1F
100
AcDbEntity
  8
0
  6
Continuous
 62
     7
100
AcDbLine
 10
1029.7411961608
 20
314.5427142466
 30
0.0
 11
825.5411886517
 21
314.5427142466
 31
0.0
  0
LINE
  5
17F
330
1F
100
AcDbEntity
  8
0
  6
Continuous
 62
     7
100
AcDbLine
 10
813.7411886517
 20
314.5427142466
 30
0.0
 11
622.8911886517
 21
314.5427142466
 31
0.0
  0
LINE
  5
180
330
1F
100
AcDbEntity
  8
0
  6
Continuous
 62
     7
100
AcDbLine
 10
1232.3911886517
 20
313.8104811996
 30
0.0
 11
1232.3911886517
 21
314.5427142466
 31
0.0
  0
LINE
  5
181
330
1F
100
AcDbEntity
  8
0
  6
Continuous
 62
     7
100
AcDbLine
 10
1232.3911886517
 20
313.3356074654
 30
0.0
 11
1232.3911886517
 21
313.8104811996
 31
0.0
  0
LINE
  5
182
330
1F
100
AcDbEntity
  8
0
  6
Continuous
 62
     7
100
AcDbLine
 10
622.8911886517
 20
313.3356074654
 30
0.0
 11
622.8911886517
 21
313.0427142466
 31
0.0
  0
LINE
  5
183
330
1F
100
AcDbEntity
  8
0
  6
Continuous
 62
     7
100
AcDbLine
 10
1232.3911886517
 20
313.3356074654
 30
0.0
 11
1232.3911886517
 21
313.0427142466
 31
0.0
  0
LINE
  5
184
330
1F
100
AcDbEntity
  8
0
  6
Continuous
 62
     7
100
AcDbLine
 10
1249.1411886517
 20
314.5427142466
 30
0.0
 11
1249.1411886517
 21
313.0427142466
 31
0.0
  0
LINE
  5
185
330
1F
100
AcDbEntity
  8
0
  6
Continuous
 62
     7
100
AcDbLine
 10
1249.1411886517
 20
313.0427142466
 30
0.0
 11
1232.3911886517
 21
313.0427142466
 31
0.0
  0
LINE
  5
186
330
1F
100
AcDbEntity
  8
0
  6
Continuous
 62
     7
100
AcDbLine
 10
1249.1411886517
 20
314.5427142466
 30
0.0
 11
1232.3911886517
 21
314.5427142466
 31
0.0
  0
LINE
  5
187
330
1F
100
AcDbEntity
  8
0
  6
Continuous
 62
     7
100
AcDbLine
 10
606.1411886517
 20
314.5427142466
 30
0.0
 11
606.1411886517
 21
313.0427142466
 31
0.0
  0
LINE
  5
188
330
1F
100
AcDbEntity
  8
0
  6
Continuous
 62
     7
100
AcDbLine
 10
622.8911886517
 20
313.0427142466
 30
0.0
 11
606.1411886517
 21
313.0427142466
 31
0.0
  0
LINE
  5
189
330
1F
100
AcDbEntity
  8
0
  6
Continuous
 62
     7
100
AcDbLine
 10
622.8911886517
 20
314.5427142466
 30
0.0
 11
606.1411886517
 21
314.5427142466
 31
0.0
  0
LINE
  5
18A
330
1F
100
AcDbEntity
  8
0
  6
Continuous
 62
     7
100
AcDbLine
 10
1267.1411886517
 20
314.5427142466
 30
0.0
 11
1267.1411886517
 21
313.0427142466
 31
0.0
  0
LINE
  5
18B
330
1F
100
AcDbEntity
  8
0
  6
Continuous
 62
     7
100
AcDbLine
 10
1267.1411886517
 20
313.0427142466
 30
0.0
 11
1249.1411886517
 21
313.0427142466
 31
0.0
  0
LINE
  5
18C
330
1F
100
AcDbEntity
  8
0
  6
Continuous
 62
     7
100
AcDbLine
 10
1267.1411886517
 20
314.5427142466
 30
0.0
 11
1249.1411886517
 21
314.5427142466
 31
0.0
  0
LINE
  5
18D
330
1F
100
AcDbEntity
  8
0
  6
Continuous
 62
     7
100
AcDbLine
 10
588.1411886517
 20
314.5427142466
 30
0.0
 11
588.1411886517
 21
313.0427142466
 31
0.0
  0
LINE
  5
18E
330
1F
100
AcDbEntity
  8
0
  6
Continuous
 62
     7
100
AcDbLine
 10
606.1411886517
 20
313.0427142466
 30
0.0
 11
588.1411886517
 21
313.0427142466
 31
0.0
  0
LINE
  5
18F
330
1F
100
AcDbEntity
  8
0
  6
Continuous
 62
     7
100
AcDbLine
 10
606.1411886517
 20
314.5427142466
 30
0.0
 11
588.1411886517
 21
314.5427142466
 31
0.0
  0
LINE
  5
190
330
1F
100
AcDbEntity
  8
0
  6
Continuous
 62
     7
100
AcDbLine
 10
825.5411886517
 20
317.3827068557
 30
0.0
 11
814.2263872969
 21
317.3827068557
 31
0.0
  0
LINE
  5
191
330
1F
100
AcDbEntity
  8
0
  6
Continuous
 62
     7
100
AcDbLine
 10
824.7340902799
 20
318.7130779819
 30
0.0
 11
814.9671122726
 21
318.7130779819
 31
0.0
  0
LINE
  5
192
330
1F
100
AcDbEntity
  8
0
  6
Continuous
 62
     7
100
AcDbLine
 10
823.4668760893
 20
319.3730853729
 30
0.0
 11
816.1301144957
 21
319.3730853729
 31
0.0
  0
LINE
  5
193
330
1F
100
AcDbEntity
  8
0
  6
Continuous
 62
     7
100
AcDbLine
 10
814.2263872969
 20
317.3827068557
 30
0.0
 11
813.7411886517
 21
317.3827068557
 31
0.0
  0
LINE
  5
194
330
1F
100
AcDbEntity
  8
0
  6
Continuous
 62
     7
100
AcDbLine
 10
814.9671122726
 20
318.7130779819
 30
0.0
 11
814.5482870234
 21
318.7130779819
 31
0.0
  0
LINE
  5
195
330
1F
100
AcDbEntity
  8
0
  6
Continuous
 62
     7
100
AcDbLine
 10
816.1301144957
 20
319.3730853729
 30
0.0
 11
815.8155012141
 21
319.3730853729
 31
0.0
  0
LINE
  5
196
330
1F
100
AcDbEntity
  8
0
  6
Continuous
 62
     7
100
AcDbLine
 10
813.7411886517
 20
-37.8253176996
 30
0.0
 11
813.7411886517
 21
-40.6653103087
 31
0.0
  0
ARC
  5
197
330
1F
100
AcDbEntity
  8
0
  6
Continuous
 62
     7
100
AcDbCircle
 10
815.2411886517
 20
-40.6653103087
 30
0.0
 40
1.500000000000046
100
AcDbArc
 50
180.0
 51
242.4879973761
  0
LINE
  5
198
330
1F
100
AcDbEntity
  8
0
  6
Continuous
 62
     7
100
AcDbLine
 10
814.5482870234
 20
-41.9956814349
 30
0.0
 11
815.8155012141
 21
-42.6556888259
 31
0.0
  0
ARC
  5
199
330
1F
100
AcDbEntity
  8
0
  6
Continuous
 62
     7
100
AcDbCircle
 10
816.5084028423
 20
-41.3253176996
 30
0.0
 40
1.5
100
AcDbArc
 50
242.4879973761
 51
270.0
  0
LINE
  5
19A
330
1F
100
AcDbEntity
  8
0
  6
Continuous
 62
     7
100
AcDbLine
 10
817.1411886517
 20
-28.6253176996
 30
0.0
 11
816.6411886517
 21
-29.1253176996
 31
0.0
  0
LINE
  5
19B
330
1F
100
AcDbEntity
  8
0
  6
Continuous
 62
     7
100
AcDbLine
 10
816.6411886517
 20
-29.1253176996
 30
0.0
 11
816.6411886517
 21
-34.8253176996
 31
0.0
  0
LINE
  5
19C
330
1F
100
AcDbEntity
  8
0
  6
Continuous
 62
     7
100
AcDbLine
 10
825.5411886517
 20
-40.6653103087
 30
0.0
 11
825.5411886517
 21
-37.8253176996
 31
0.0
  0
ARC
  5
19D
330
1F
100
AcDbEntity
  8
0
  6
Continuous
 62
     7
100
AcDbCircle
 10
824.0411886517
 20
-40.6653103087
 30
0.0
 40
1.5
100
AcDbArc
 50
297.5120026239
 51
0.0
  0
LINE
  5
19E
330
1F
100
AcDbEntity
  8
0
  6
Continuous
 62
     7
100
AcDbLine
 10
823.4668760893
 20
-42.6556888259
 30
0.0
 11
824.7340902799
 21
-41.9956814349
 31
0.0
  0
ARC
  5
19F
330
1F
100
AcDbEntity
  8
0
  6
Continuous
 62
     7
100
AcDbCircle
 10
822.773974461
 20
-41.3253176996
 30
0.0
 40
1.5
100
AcDbArc
 50
270.0
 51
297.5120026239
  0
LINE
  5
1A0
330
1F
100
AcDbEntity
  8
0
  6
Continuous
 62
     7
100
AcDbLine
 10
822.6411886517
 20
-29.1253176996
 30
0.0
 11
822.1411886517
 21
-28.6253176996
 31
0.0
  0
LINE
  5
1A1
330
1F
100
AcDbEntity
  8
0
  6
Continuous
 62
     7
100
AcDbLine
 10
822.6411886517
 20
-34.8253176996
 30
0.0
 11
822.6411886517
 21
-29.1253176996
 31
0.0
  0
LINE
  5
1A2
330
1F
100
AcDbEntity
  8
0
  6
Continuous
 62
     7
100
AcDbLine
 10
1249.1411886517
 20
-37.8253176996
 30
0.0
 11
1249.1411886517
 21
-36.3253176996
 31
0.0
  0
LINE
  5
1A3
330
1F
100
AcDbEntity
  8
0
  6
Continuous
 62
     7
100
AcDbLine
 10
606.1411886517
 20
-37.8253176996
 30
0.0
 11
1249.1411886517
 21
-37.8253176996
 31
0.0
  0
LINE
  5
1A4
330
1F
100
AcDbEntity
  8
0
  6
Continuous
 62
     7
100
AcDbLine
 10
606.1411886517
 20
-37.8253176996
 30
0.0
 11
606.1411886517
 21
-36.3253176996
 31
0.0
  0
LINE
  5
1A5
330
1F
100
AcDbEntity
  8
0
  6
Continuous
 62
     7
100
AcDbLine
 10
606.1411886517
 20
-36.3253176996
 30
0.0
 11
1249.1411886517
 21
-36.3253176996
 31
0.0
  0
LINE
  5
1A6
330
1F
100
AcDbEntity
  8
0
  6
Continuous
 62
     7
100
AcDbLine
 10
1267.1411886517
 20
-37.8253176996
 30
0.0
 11
1267.1411886517
 21
-36.3253176996
 31
0.0
  0
LINE
  5
1A7
330
1F
100
AcDbEntity
  8
0
  6
Continuous
 62
     7
100
AcDbLine
 10
1249.1411886517
 20
-37.8253176996
 30
0.0
 11
1267.1411886517
 21
-37.8253176996
 31
0.0
  0
LINE
  5
1A8
330
1F
100
AcDbEntity
  8
0
  6
Continuous
 62
     7
100
AcDbLine
 10
1249.1411886517
 20
-36.3253176996
 30
0.0
 11
1267.1411886517
 21
-36.3253176996
 31
0.0
  0
LINE
  5
1A9
330
1F
100
AcDbEntity
  8
0
  6
Continuous
 62
     7
100
AcDbLine
 10
588.1411886517
 20
-37.8253176996
 30
0.0
 11
588.1411886517
 21
-36.3253176996
 31
0.0
  0
LINE
  5
1AA
330
1F
100
AcDbEntity
  8
0
  6
Continuous
 62
     7
100
AcDbLine
 10
588.1411886517
 20
-37.8253176996
 30
0.0
 11
606.1411886517
 21
-37.8253176996
 31
0.0
  0
LINE
  5
1AB
330
1F
100
AcDbEntity
  8
0
  6
Continuous
 62
     7
100
AcDbLine
 10
588.1411886517
 20
-36.3253176996
 30
0.0
 11
606.1411886517
 21
-36.3253176996
 31
0.0
  0
LINE
  5
1AC
330
1F
100
AcDbEntity
  8
0
  6
Continuous
 62
     7
100
AcDbLine
 10
622.8911886517
 20
-35.5575507467
 30
0.0
 11
622.8911886517
 21
-34.8253176996
 31
0.0
  0
LINE
  5
1AD
330
1F
100
AcDbEntity
  8
0
  6
Continuous
 62
     7
100
AcDbLine
 10
622.8911886517
 20
-34.8253176996
 30
0.0
 11
1232.3911886517
 21
-34.8253176996
 31
0.0
  0
LINE
  5
1AE
330
1F
100
AcDbEntity
  8
0
  6
Continuous
 62
     7
100
AcDbLine
 10
1232.3911886517
 20
-35.5575507467
 30
0.0
 11
1232.3911886517
 21
-34.8253176996
 31
0.0
  0
LINE
  5
1AF
330
1F
100
AcDbEntity
  8
0
  6
Continuous
 62
     7
100
AcDbLine
 10
1232.3911886517
 20
-35.5575507467
 30
0.0
 11
1232.3911886517
 21
-36.0324244808
 31
0.0
  0
LINE
  5
1B0
330
1F
100
AcDbEntity
  8
0
  6
Continuous
 62
     7
100
AcDbLine
 10
622.8911886517
 20
-36.0324244808
 30
0.0
 11
622.8911886517
 21
-35.5575507467
 31
0.0
  0
LINE
  5
1B1
330
1F
100
AcDbEntity
  8
0
  6
Continuous
 62
     7
100
AcDbLine
 10
622.8911886517
 20
-36.0324244808
 30
0.0
 11
622.8911886517
 21
-36.3253176996
 31
0.0
  0
LINE
  5
1B2
330
1F
100
AcDbEntity
  8
0
  6
Continuous
 62
     7
100
AcDbLine
 10
1232.3911886517
 20
-36.0324244808
 30
0.0
 11
1232.3911886517
 21
-36.3253176996
 31
0.0
  0
LINE
  5
1B3
330
1F
100
AcDbEntity
  8
0
  6
Continuous
 62
     7
100
AcDbLine
 10
825.0559900064
 20
-40.6653103087
 30
0.0
 11
825.0559900064
 21
-37.8253176996
 31
0.0
  0
LINE
  5
1B4
330
1F
100
AcDbEntity
  8
0
  6
Continuous
 62
     7
100
AcDbLine
 10
1041.5411811425
 20
-40.6653103087
 30
0.0
 11
1041.5411811425
 21
-37.8253176996
 31
0.0
  0
LINE
  5
1B5
330
1F
100
AcDbEntity
  8
0
  6
Continuous
 62
     7
100
AcDbLine
 10
1029.7411961608
 20
-40.6653103087
 30
0.0
 11
1041.5411811425
 21
-40.6653103087
 31
0.0
  0
LINE
  5
1B6
330
1F
100
AcDbEntity
  8
0
  6
Continuous
 62
     7
100
AcDbLine
 10
1029.7411961608
 20
-40.6653103087
 30
0.0
 11
1029.7411961608
 21
-37.8253176996
 31
0.0
  0
ARC
  5
1B7
330
1F
100
AcDbEntity
  8
0
  6
Continuous
 62
     7
100
AcDbCircle
 10
1040.0411809207
 20
-40.6653107091
 30
0.0
 40
1.500000221800345
100
AcDbArc
 50
297.5120520037
 51
0.0000152962
  0
LINE
  5
1B8
330
1F
100
AcDbEntity
  8
0
  6
Continuous
 62
     7
100
AcDbLine
 10
1030.5482935053
 20
-41.9956814349
 30
0.0
 11
1040.734083798
 21
-41.9956814349
 31
0.0
  0
ARC
  5
1B9
330
1F
100
AcDbEntity
  8
0
  6
Continuous
 62
     7
100
AcDbCircle
 10
1031.2411963826
 20
-40.6653107091
 30
0.0
 40
1.500000221800281
100
AcDbArc
 50
179.9999847038
 51
242.4879479963
  0
ARC
  5
1BA
330
1F
100
AcDbEntity
  8
0
  6
Continuous
 62
     7
100
AcDbCircle
 10
823.5354898511
 20
-40.6901214086
 30
0.0
 40
1.520702572214227
100
AcDbArc
 50
300.8487132719
 51
0.9348536747
  0
LINE
  5
1BB
330
1F
100
AcDbEntity
  8
0
  6
Continuous
 62
     7
100
AcDbLine
 10
823.1522628076
 20
-42.6556888259
 30
0.0
 11
824.3152650307
 21
-41.9956814349
 31
0.0
  0
LINE
  5
1BC
330
1F
100
AcDbEntity
  8
0
  6
Continuous
 62
     7
100
AcDbLine
 10
1039.4668712201
 20
-42.6556888259
 30
0.0
 11
1040.734083798
 21
-41.9956814349
 31
0.0
  0
LINE
  5
1BD
330
1F
100
AcDbEntity
  8
0
  6
Continuous
 62
     7
100
AcDbLine
 10
1031.8155060832
 20
-42.6556888259
 30
0.0
 11
1039.4668712201
 21
-42.6556888259
 31
0.0
  0
LINE
  5
1BE
330
1F
100
AcDbEntity
  8
0
  6
Continuous
 62
     7
100
AcDbLine
 10
1031.8155060832
 20
-42.6556888259
 30
0.0
 11
1030.5482935053
 21
-41.9956814349
 31
0.0
  0
ARC
  5
1BF
330
1F
100
AcDbEntity
  8
0
  6
Continuous
 62
     7
100
AcDbCircle
 10
1038.7739704335
 20
-41.3253211375
 30
0.0
 40
1.499996562081399
100
AcDbArc
 50
270.0000015374
 51
297.512034772
  0
LINE
  5
1C0
330
1F
100
AcDbEntity
  8
0
  6
Continuous
 62
     7
100
AcDbLine
 10
1032.5084068295
 20
-42.8253176996
 30
0.0
 11
1038.7739704738
 21
-42.8253176996
 31
0.0
  0
ARC
  5
1C1
330
1F
100
AcDbEntity
  8
0
  6
Continuous
 62
     7
100
AcDbCircle
 10
1032.5084068698
 20
-41.3253211375
 30
0.0
 40
1.499996562080135
100
AcDbArc
 50
242.487965228
 51
269.9999984627
  0
ARC
  5
1C2
330
1F
100
AcDbEntity
  8
0
  6
Continuous
 62
     7
100
AcDbCircle
 10
822.5136262955
 20
-41.5383222806
 30
0.0
 40
1.286998287092918
100
AcDbArc
 50
270.1209613725
 51
299.7503446784
  0
LINE
  5
1C3
330
1F
100
AcDbEntity
  8
0
  6
Continuous
 62
     7
100
AcDbLine
 10
816.5084028423
 20
-42.8253176996
 30
0.0
 11
822.5163433711
 21
-42.8253176996
 31
0.0
  0
LINE
  5
1C4
330
1F
100
AcDbEntity
  8
0
  6
Continuous
 62
     7
100
AcDbLine
 10
816.6411886517
 20
-29.1253176996
 30
0.0
 11
822.3944774761
 21
-29.1253176996
 31
0.0
  0
LINE
  5
1C5
330
1F
100
AcDbEntity
  8
0
  6
Continuous
 62
     7
100
AcDbLine
 10
817.1411886517
 20
-28.6253176996
 30
0.0
 11
821.9355960054
 21
-28.6253176996
 31
0.0
  0
LINE
  5
1C6
330
1F
100
AcDbEntity
  8
0
  6
Continuous
 62
     7
100
AcDbLine
 10
821.9355960054
 20
-28.6253176996
 30
0.0
 11
822.3944774761
 21
-29.1253176996
 31
0.0
  0
LINE
  5
1C7
330
1F
100
AcDbEntity
  8
0
  6
Continuous
 62
     7
100
AcDbLine
 10
1038.1411854698
 20
-28.6253176996
 30
0.0
 11
1038.6411848334
 21
-29.1253176996
 31
0.0
  0
LINE
  5
1C8
330
1F
100
AcDbEntity
  8
0
  6
Continuous
 62
     7
100
AcDbLine
 10
1032.6411924699
 20
-29.1253176996
 30
0.0
 11
1038.6411848334
 21
-29.1253176996
 31
0.0
  0
LINE
  5
1C9
330
1F
100
AcDbEntity
  8
0
  6
Continuous
 62
     7
100
AcDbLine
 10
1033.1411918335
 20
-28.6253176996
 30
0.0
 11
1032.6411924699
 21
-29.1253176996
 31
0.0
  0
LINE
  5
1CA
330
1F
100
AcDbEntity
  8
0
  6
Continuous
 62
     7
100
AcDbLine
 10
1033.1411918335
 20
-28.6253176996
 30
0.0
 11
1038.1411854698
 21
-28.6253176996
 31
0.0
  0
LINE
  5
1CB
330
1F
100
AcDbEntity
  8
0
  6
Continuous
 62
     7
100
AcDbLine
 10
1032.6411924699
 20
-29.1253176996
 30
0.0
 11
1032.6411924699
 21
-34.8253176996
 31
0.0
  0
LINE
  5
1CC
330
1F
100
AcDbEntity
  8
0
  6
Continuous
 62
     7
100
AcDbLine
 10
1038.6411848334
 20
-29.1253176996
 30
0.0
 11
1038.6411848334
 21
-34.8253176996
 31
0.0
  0
LINE
  5
1CD
330
1F
100
AcDbEntity
  8
0
  6
Continuous
 62
     7
100
AcDbLine
 10
822.3944774761
 20
-29.1253176996
 30
0.0
 11
822.3944774761
 21
-34.8253176996
 31
0.0
  0
LINE
  5
1CE
330
1F
100
AcDbEntity
  8
0
  6
Continuous
 62
     7
100
AcDbLine
 10
822.5163433711
 20
-42.8253176996
 30
0.0
 11
822.773974461
 21
-42.8253176996
 31
0.0
  0
LINE
  5
1CF
330
1F
100
AcDbEntity
  8
0
  6
Continuous
 62
     7
100
AcDbLine
 10
822.3944774761
 20
-29.1253176996
 30
0.0
 11
822.6411886517
 21
-29.1253176996
 31
0.0
  0
LINE
  5
1D0
330
1F
100
AcDbEntity
  8
0
  6
Continuous
 62
     7
100
AcDbLine
 10
821.9355960054
 20
-28.6253176996
 30
0.0
 11
822.1411886517
 21
-28.6253176996
 31
0.0
  0
LINE
  5
1D1
330
1F
100
AcDbEntity
  8
0
  6
Continuous
 62
     7
100
AcDbLine
 10
1232.3911886517
 20
-29.8253176996
 30
0.0
 11
1232.3911886517
 21
-33.8253176996
 31
0.0
  0
LINE
  5
1D2
330
1F
100
AcDbEntity
  8
0
  6
Continuous
 62
     7
100
AcDbLine
 10
622.8911886517
 20
-33.8253176996
 30
0.0
 11
622.8911886517
 21
-29.8253176996
 31
0.0
  0
LINE
  5
1D3
330
1F
100
AcDbEntity
  8
0
  6
Continuous
 62
     7
100
AcDbLine
 10
622.8911886517
 20
-29.8253176996
 30
0.0
 11
625.8911886517
 21
-26.8253176996
 31
0.0
  0
LINE
  5
1D4
330
1F
100
AcDbEntity
  8
0
  6
Continuous
 62
     7
100
AcDbLine
 10
625.8911886517
 20
-26.8253176996
 30
0.0
 11
1229.3911886517
 21
-26.8253176996
 31
0.0
  0
LINE
  5
1D5
330
1F
100
AcDbEntity
  8
0
  6
Continuous
 62
     7
100
AcDbLine
 10
1229.3911886517
 20
-26.8253176996
 30
0.0
 11
1232.3911886517
 21
-29.8253176996
 31
0.0
  0
LINE
  5
1D6
330
1F
100
AcDbEntity
  8
0
  6
Continuous
 62
     7
100
AcDbLine
 10
622.8911886517
 20
-33.8253176996
 30
0.0
 11
622.8911886517
 21
-34.8253176996
 31
0.0
  0
LINE
  5
1D7
330
1F
100
AcDbEntity
  8
0
  6
Continuous
 62
     7
100
AcDbLine
 10
1232.3911886517
 20
-33.8253176996
 30
0.0
 11
1232.3911886517
 21
-34.8253176996
 31
0.0
  0
LINE
  5
1D8
330
1F
100
AcDbEntity
  8
0
  6
Continuous
 62
     7
100
AcDbLine
 10
813.7411886517
 20
-40.6653103087
 30
0.0
 11
825.0559900064
 21
-40.6653103087
 31
0.0
  0
LINE
  5
1D9
330
1F
100
AcDbEntity
  8
0
  6
Continuous
 62
     7
100
AcDbLine
 10
814.5482870234
 20
-41.9956814349
 30
0.0
 11
824.3152650307
 21
-41.9956814349
 31
0.0
  0
LINE
  5
1DA
330
1F
100
AcDbEntity
  8
0
  6
Continuous
 62
     7
100
AcDbLine
 10
815.8155012141
 20
-42.6556888259
 30
0.0
 11
823.1522628076
 21
-42.6556888259
 31
0.0
  0
LINE
  5
1DB
330
1F
100
AcDbEntity
  8
0
  6
Continuous
 62
     7
100
AcDbLine
 10
825.0559900064
 20
-40.6653103087
 30
0.0
 11
825.5411886517
 21
-40.6653103087
 31
0.0
  0
LINE
  5
1DC
330
1F
100
AcDbEntity
  8
0
  6
Continuous
 62
     7
100
AcDbLine
 10
824.3152650307
 20
-41.9956814349
 30
0.0
 11
824.7340902799
 21
-41.9956814349
 31
0.0
  0
LINE
  5
1DD
330
1F
100
AcDbEntity
  8
0
  6
Continuous
 62
     7
100
AcDbLine
 10
823.1522628076
 20
-42.6556888259
 30
0.0
 11
823.4668760893
 21
-42.6556888259
 31
0.0
  0
LINE
  5
1DE
330
1F
100
AcDbEntity
  8
0
  6
Continuous
 62
     7
100
AcDbLine
 10
1414.9680296418
 20
35.137096365
 30
0.0
 11
1414.9680296418
 21
36.637096365
 31
0.0
  0
LINE
  5
1DF
330
1F
100
AcDbEntity
  8
0
  6
Continuous
 62
     7
100
AcDbLine
 10
1414.9680296418
 20
35.137096365
 30
0.0
 11
1411.9680296418
 21
35.137096365
 31
0.0
  0
LINE
  5
1E0
330
1F
100
AcDbEntity
  8
0
  6
Continuous
 62
     7
100
AcDbLine
 10
1411.9680296418
 20
35.137096365
 30
0.0
 11
1411.9680296418
 21
36.637096365
 31
0.0
  0
LINE
  5
1E1
330
1F
100
AcDbEntity
  8
0
  6
Continuous
 62
     7
100
AcDbLine
 10
1414.9680296418
 20
36.637096365
 30
0.0
 11
1411.9680296418
 21
36.637096365
 31
0.0
  0
LINE
  5
1E2
330
1F
100
AcDbEntity
  8
0
  6
Continuous
 62
     7
100
AcDbLine
 10
2018.4680296418
 20
35.137096365
 30
0.0
 11
2018.4680296418
 21
36.637096365
 31
0.0
  0
LINE
  5
1E3
330
1F
100
AcDbEntity
  8
0
  6
Continuous
 62
     7
100
AcDbLine
 10
2018.4680296418
 20
36.637096365
 30
0.0
 11
1414.9680296418
 21
36.637096365
 31
0.0
  0
LINE
  5
1E4
330
1F
100
AcDbEntity
  8
0
  6
Continuous
 62
     7
100
AcDbLine
 10
2018.4680296418
 20
35.137096365
 30
0.0
 11
1414.9680296418
 21
35.137096365
 31
0.0
  0
LINE
  5
1E5
330
1F
100
AcDbEntity
  8
0
  6
Continuous
 62
     7
100
AcDbLine
 10
2021.4680296418
 20
35.137096365
 30
0.0
 11
2021.4680296418
 21
36.637096365
 31
0.0
  0
LINE
  5
1E6
330
1F
100
AcDbEntity
  8
0
  6
Continuous
 62
     7
100
AcDbLine
 10
2021.4680296418
 20
36.637096365
 30
0.0
 11
2018.4680296418
 21
36.637096365
 31
0.0
  0
LINE
  5
1E7
330
1F
100
AcDbEntity
  8
0
  6
Continuous
 62
     7
100
AcDbLine
 10
2021.4680296418
 20
35.137096365
 30
0.0
 11
2018.4680296418
 21
35.137096365
 31
0.0
  0
ARC
  5
1E8
330
1F
100
AcDbEntity
  8
0
  6
Continuous
 62
     7
100
AcDbCircle
 10
1608.7180296418
 20
46.637096365
 30
0.0
 40
2.999999999999936
100
AcDbArc
 50
179.9085871072
 51
359.9085871072
  0
LINE
  5
1E9
330
1F
100
AcDbEntity
  8
0
  6
Continuous
 62
     7
100
AcDbLine
 10
1606.2180328236
 20
46.6410850032
 30
0.0
 11
1605.71803346
 21
46.6418827308
 31
0.0
  0
ARC
  5
1EA
330
1F
100
AcDbEntity
  8
0
  6
Continuous
 62
     7
100
AcDbCircle
 10
1608.7180296418
 20
46.637096365
 30
0.0
 40
2.499999999999947
100
AcDbArc
 50
179.9085871072
 51
359.9085871072
  0
LINE
  5
1EB
330
1F
100
AcDbEntity
  8
0
  6
Continuous
 62
     7
100
AcDbLine
 10
1611.2180264599
 20
46.6331077268
 30
0.0
 11
1611.7180258236
 21
46.6323099991
 31
0.0
  0
ARC
  5
1EC
330
1F
100
AcDbEntity
  8
0
  6
Continuous
 62
     7
100
AcDbCircle
 10
1608.7180296418
 20
46.637096365
 30
0.0
 40
2.999999999999936
100
AcDbArc
 50
359.9085871072
 51
179.9085871072
  0
ARC
  5
1ED
330
1F
100
AcDbEntity
  8
0
  6
Continuous
 62
     7
100
AcDbCircle
 10
1608.7180296418
 20
46.637096365
 30
0.0
 40
2.499999999999947
100
AcDbArc
 50
359.9085871072
 51
179.9085871072
  0
ARC
  5
1EE
330
1F
100
AcDbEntity
  8
0
  6
Continuous
 62
     7
100
AcDbCircle
 10
1824.7180296418
 20
46.637096365
 30
0.0
 40
3.000000000000243
100
AcDbArc
 50
336.6011997341
 51
156.601199734
  0
LINE
  5
1EF
330
1F
100
AcDbEntity
  8
0
  6
Continuous
 62
     7
100
AcDbLine
 10
1827.0124369955
 20
45.6442746815
 30
0.0
 11
1827.4713184662
 21
45.4457103448
 31
0.0
  0
ARC
  5
1F0
330
1F
100
AcDbEntity
  8
0
  6
Continuous
 62
     7
100
AcDbCircle
 10
1824.7180296418
 20
46.637096365
 30
0.0
 40
2.500000000000165
100
AcDbArc
 50
336.601199734
 51
156.601199734
  0
LINE
  5
1F1
330
1F
100
AcDbEntity
  8
0
  6
Continuous
 62
     7
100
AcDbLine
 10
1822.4236222881
 20
47.6299180485
 30
0.0
 11
1821.9647408173
 21
47.8284823852
 31
0.0
  0
ARC
  5
1F2
330
1F
100
AcDbEntity
  8
0
  6
Continuous
 62
     7
100
AcDbCircle
 10
1824.7180296418
 20
46.637096365
 30
0.0
 40
3.000000000000243
100
AcDbArc
 50
156.601199734
 51
336.6011997341
  0
ARC
  5
1F3
330
1F
100
AcDbEntity
  8
0
  6
Continuous
 62
     7
100
AcDbCircle
 10
1824.7180296418
 20
46.637096365
 30
0.0
 40
2.500000000000165
100
AcDbArc
 50
156.601199734
 51
336.601199734
  0
LINE
  5
1F4
330
1F
100
AcDbEntity
  8
0
  6
Continuous
 62
     7
100
AcDbLine
 10
1411.9680296418
 20
120.601562459
 30
0.0
 11
1411.9680296418
 21
37.637096365
 31
0.0
  0
LINE
  5
1F5
330
1F
100
AcDbEntity
  8
0
  6
Continuous
 62
     7
100
AcDbLine
 10
1411.9680296418
 20
120.601562459
 30
0.0
 11
1411.9680296418
 21
121.637096365
 31
0.0
  0
LINE
  5
1F6
330
1F
100
AcDbEntity
  8
0
  6
Continuous
 62
     7
100
AcDbLine
 10
2021.4680296418
 20
121.637096365
 30
0.0
 11
1411.9680296418
 21
121.637096365
 31
0.0
  0
LINE
  5
1F7
330
1F
100
AcDbEntity
  8
0
  6
Continuous
 62
     7
100
AcDbLine
 10
2021.4680296418
 20
120.601562459
 30
0.0
 11
2021.4680296418
 21
121.637096365
 31
0.0
  0
LINE
  5
1F8
330
1F
100
AcDbEntity
  8
0
  6
Continuous
 62
     7
100
AcDbLine
 10
2021.4680296418
 20
37.637096365
 30
0.0
 11
2021.4680296418
 21
120.601562459
 31
0.0
  0
LINE
  5
1F9
330
1F
100
AcDbEntity
  8
0
  6
Continuous
 62
     7
100
AcDbLine
 10
2021.4680296418
 20
37.637096365
 30
0.0
 11
2021.4680296418
 21
36.637096365
 31
0.0
  0
LINE
  5
1FA
330
1F
100
AcDbEntity
  8
0
  6
Continuous
 62
     7
100
AcDbLine
 10
1411.9680296418
 20
37.637096365
 30
0.0
 11
1411.9680296418
 21
36.637096365
 31
0.0
  0
LINE
  5
1FB
330
1F
100
AcDbEntity
  8
0
  6
Continuous
 62
     7
100
AcDbLine
 10
2021.4680296418
 20
122.369329412
 30
0.0
 11
2021.4680296418
 21
121.637096365
 31
0.0
  0
LINE
  5
1FC
330
1F
100
AcDbEntity
  8
0
  6
Continuous
 62
     7
100
AcDbLine
 10
1411.9680296418
 20
122.369329412
 30
0.0
 11
1411.9680296418
 21
122.8442031462
 31
0.0
  0
LINE
  5
1FD
330
1F
100
AcDbEntity
  8
0
  6
Continuous
 62
     7
100
AcDbLine
 10
1411.9680296418
 20
122.8442031462
 30
0.0
 11
1411.9680296418
 21
123.137096365
 31
0.0
  0
LINE
  5
1FE
330
1F
100
AcDbEntity
  8
0
  6
Continuous
 62
     7
100
AcDbLine
 10
1411.9680296418
 20
123.137096365
 30
0.0
 11
2021.4680296418
 21
123.137096365
 31
0.0
  0
LINE
  5
1FF
330
1F
100
AcDbEntity
  8
0
  6
Continuous
 62
     7
100
AcDbLine
 10
2021.4680296418
 20
122.8442031462
 30
0.0
 11
2021.4680296418
 21
123.137096365
 31
0.0
  0
LINE
  5
200
330
1F
100
AcDbEntity
  8
0
  6
Continuous
 62
     7
100
AcDbLine
 10
2021.4680296418
 20
122.8442031462
 30
0.0
 11
2021.4680296418
 21
122.369329412
 31
0.0
  0
LINE
  5
201
330
1F
100
AcDbEntity
  8
0
  6
Continuous
 62
     7
100
AcDbLine
 10
1411.9680296418
 20
122.369329412
 30
0.0
 11
1411.9680296418
 21
121.637096365
 31
0.0
  0
LINE
  5
202
330
1F
100
AcDbEntity
  8
0
  6
Continuous
 62
     7
100
AcDbLine
 10
2038.2180296418
 20
257.637096365
 30
0.0
 11
1395.2180296418
 21
257.637096365
 31
0.0
  0
LINE
  5
203
330
1F
100
AcDbEntity
  8
0
  6
Continuous
 62
     7
100
AcDbLine
 10
2056.2180296418
 20
239.637096365
 30
0.0
 11
2038.2180296418
 21
257.637096365
 31
0.0
  0
LINE
  5
204
330
1F
100
AcDbEntity
  8
0
  6
Continuous
 62
     7
100
AcDbLine
 10
2056.2180296418
 20
141.5513099273
 30
0.0
 11
2056.2180296418
 21
239.637096365
 31
0.0
  0
LINE
  5
205
330
1F
100
AcDbEntity
  8
0
  6
Continuous
 62
     7
100
AcDbLine
 10
2038.2180296418
 20
123.5513099273
 30
0.0
 11
2056.2180296418
 21
141.5513099273
 31
0.0
  0
LINE
  5
206
330
1F
100
AcDbEntity
  8
0
  6
Continuous
 62
     7
100
AcDbLine
 10
2021.4680296418
 20
123.5513099273
 30
0.0
 11
2038.2180296418
 21
123.5513099273
 31
0.0
  0
LINE
  5
207
330
1F
100
AcDbEntity
  8
0
  6
Continuous
 62
     7
100
AcDbLine
 10
1395.2180296418
 20
123.5513099273
 30
0.0
 11
1411.9680296418
 21
123.5513099273
 31
0.0
  0
LINE
  5
208
330
1F
100
AcDbEntity
  8
0
  6
Continuous
 62
     7
100
AcDbLine
 10
1377.2180296418
 20
239.637096365
 30
0.0
 11
1377.2180296418
 21
141.5513099273
 31
0.0
  0
LINE
  5
209
330
1F
100
AcDbEntity
  8
0
  6
Continuous
 62
     7
100
AcDbLine
 10
1395.2180296418
 20
257.637096365
 30
0.0
 11
1377.2180296418
 21
239.637096365
 31
0.0
  0
ARC
  5
20A
330
1F
100
AcDbEntity
  8
0
  6
Continuous
 62
     7
100
AcDbCircle
 10
2041.7180296418
 20
231.637096365
 30
0.0
 40
3.5
100
AcDbArc
 50
180.0
 51
0.0
  0
ARC
  5
20B
330
1F
100
AcDbEntity
  8
0
  6
Continuous
 62
     7
100
AcDbCircle
 10
2041.7180296418
 20
231.637096365
 30
0.0
 40
3.5
100
AcDbArc
 50
0.0
 51
180.0
  0
ARC
  5
20C
330
1F
100
AcDbEntity
  8
0
  6
Continuous
 62
     7
100
AcDbCircle
 10
1824.7180296418
 20
246.637096365
 30
0.0
 40
3.500000000000227
100
AcDbArc
 50
180.0
 51
0.0
  0
ARC
  5
20D
330
1F
100
AcDbEntity
  8
0
  6
Continuous
 62
     7
100
AcDbCircle
 10
1824.7180296418
 20
246.637096365
 30
0.0
 40
3.500000000000227
100
AcDbArc
 50
0.0
 51
180.0
  0
ARC
  5
20E
330
1F
100
AcDbEntity
  8
0
  6
Continuous
 62
     7
100
AcDbCircle
 10
1608.7180296418
 20
246.637096365
 30
0.0
 40
3.500000000000227
100
AcDbArc
 50
180.0
 51
0.0
  0
ARC
  5
20F
330
1F
100
AcDbEntity
  8
0
  6
Continuous
 62
     7
100
AcDbCircle
 10
1608.7180296418
 20
246.637096365
 30
0.0
 40
3.500000000000227
100
AcDbArc
 50
0.0
 51
180.0
  0
ARC
  5
210
330
1F
100
AcDbEntity
  8
0
  6
Continuous
 62
     7
100
AcDbCircle
 10
1391.7180296418
 20
231.637096365
 30
0.0
 40
3.5
100
AcDbArc
 50
180.0
 51
0.0
  0
ARC
  5
211
330
1F
100
AcDbEntity
  8
0
  6
Continuous
 62
     7
100
AcDbCircle
 10
1391.7180296418
 20
231.637096365
 30
0.0
 40
3.5
100
AcDbArc
 50
0.0
 51
180.0
  0
LINE
  5
212
330
1F
100
AcDbEntity
  8
0
  6
Continuous
 62
     7
100
AcDbLine
 10
1377.2180296418
 20
141.5513099273
 30
0.0
 11
1395.2180296418
 21
123.5513099273
 31
0.0
  0
LINE
  5
213
330
1F
100
AcDbEntity
  8
0
  6
Continuous
 62
     7
100
AcDbLine
 10
2021.4680296418
 20
123.5513099273
 30
0.0
 11
2021.4680296418
 21
123.137096365
 31
0.0
  0
LINE
  5
214
330
1F
100
AcDbEntity
  8
0
  6
Continuous
 62
     7
100
AcDbLine
 10
1411.9680296418
 20
123.5513099273
 30
0.0
 11
1411.9680296418
 21
123.137096365
 31
0.0
  0
ENDSEC
  0
SECTION
  2
OBJECTS
  0
DICTIONARY
  5
C
330
0
100
AcDbDictionary
281
     1
  3
ACAD_GROUP
350
D
  3
ACAD_LAYOUT
350
1A
  3
ACAD_MLINESTYLE
350
17
  3
ACAD_PLOTSETTINGS
350
19
  3
ACAD_PLOTSTYLENAME
350
E
  3
ACAD_SCALELIST
350
47
  3
DWGPROPS
350
215
  0
DICTIONARY
  5
D
102
{ACAD_REACTORS
330
C
102
}
330
C
100
AcDbDictionary
281
     1
  0
DICTIONARY
  5
1A
102
{ACAD_REACTORS
330
C
102
}
330
C
100
AcDbDictionary
281
     1
  3
Layout1
350
1E
  3
Layout2
350
26
  3
Model
350
22
  0
DICTIONARY
  5
17
102
{ACAD_REACTORS
330
C
102
}
330
C
100
AcDbDictionary
281
     1
  3
Standard
350
18
  0
DICTIONARY
  5
19
102
{ACAD_REACTORS
330
C
102
}
330
C
100
AcDbDictionary
281
     1
  0
ACDBDICTIONARYWDFLT
  5
E
102
{ACAD_REACTORS
330
C
102
}
330
C
100
AcDbDictionary
281
     1
  3
Normal
350
F
100
AcDbDictionaryWithDefault
340
F
  0
DICTIONARY
  5
47
102
{ACAD_REACTORS
330
C
102
}
330
C
100
AcDbDictionary
281
     1
  3
A0
350
48
  3
A1
350
49
  3
A2
350
4A
  3
A3
350
4B
  3
A4
350
4C
  3
A5
350
4D
  3
A6
350
4E
  3
A7
350
4F
  3
A8
350
50
  3
A9
350
51
  3
B0
350
52
  3
B1
350
53
  3
B2
350
54
  3
B3
350
55
  3
B4
350
56
  3
B5
350
57
  3
B6
350
58
  0
XRECORD
  5
215
102
{ACAD_REACTORS
330
C
102
}
330
C
100
AcDbXrecord
280
     1
  1
DWGPROPS COOKIE
  2

  3

  4

  6

  7

  8
moskovchenkovapa
  9

300
=
301
=
302
=
303
=
304
=
305
=
306
=
307
=
308
=
309
=
 40
0.0
 41
2460697.578197639
 42
2460697.578198021
  1

 90
        0
  0
LAYOUT
  5
1E
102
{ACAD_REACTORS
330
1A
102
}
330
1A
100
AcDbPlotSettings
  1

  2
none_device
  4

  6

 40
0.0
 41
0.0
 42
0.0
 43
0.0
 44
0.0
 45
0.0
 46
0.0
 47
0.0
 48
0.0
 49
0.0
140
0.0
141
0.0
142
1.0
143
1.0
 70
   688
 72
     1
 73
     0
 74
     5
  7

 75
    16
147
1.0
148
0.0
149
0.0
100
AcDbLayout
  1
Layout1
 70
     1
 71
     1
 10
0.0
 20
0.0
 11
420.0
 21
297.0
 12
0.0
 22
0.0
 32
0.0
 14
1.0000000000E+20
 24
1.0000000000E+20
 34
1.0000000000E+20
 15
-1.0000000000E+20
 25
-1.0000000000E+20
 35
-1.0000000000E+20
146
0.0
 13
0.0
 23
0.0
 33
0.0
 16
1.0
 26
0.0
 36
0.0
 17
0.0
 27
1.0
 37
0.0
 76
     0
330
1B
  0
LAYOUT
  5
26
102
{ACAD_REACTORS
330
1A
102
}
330
1A
100
AcDbPlotSettings
  1

  2
none_device
  4

  6

 40
0.0
 41
0.0
 42
0.0
 43
0.0
 44
0.0
 45
0.0
 46
0.0
 47
0.0
 48
0.0
 49
0.0
140
0.0
141
0.0
142
1.0
143
1.0
 70
   688
 72
     1
 73
     0
 74
     5
  7

 75
    16
147
1.0
148
0.0
149
0.0
100
AcDbLayout
  1
Layout2
 70
     1
 71
     2
 10
0.0
 20
0.0
 11
0.0
 21
0.0
 12
0.0
 22
0.0
 32
0.0
 14
0.0
 24
0.0
 34
0.0
 15
0.0
 25
0.0
 35
0.0
146
0.0
 13
0.0
 23
0.0
 33
0.0
 16
1.0
 26
0.0
 36
0.0
 17
0.0
 27
1.0
 37
0.0
 76
     0
330
23
  0
LAYOUT
  5
22
102
{ACAD_REACTORS
330
1A
102
}
330
1A
100
AcDbPlotSettings
  1

  2
none_device
  4
Letter_(8.50_x_11.00_Inches)
  6

 40
6.35
 41
6.35
 42
6.35000508
 43
6.35000508
 44
215.9
 45
279.4
 46
0.0
 47
0.0
 48
0.0
 49
0.0
140
0.0
141
0.0
142
1.0
143
1.0
 70
  1712
 72
     1
 73
     0
 74
     0
  7

 75
     0
147
1.0
148
0.0
149
0.0
100
AcDbLayout
  1
Model
 70
     1
 71
     0
 10
0.0
 20
0.0
 11
420.0
 21
297.0
 12
0.0
 22
0.0
 32
0.0
 14
0.0
 24
0.0
 34
0.0
 15
420.0
 25
297.0
 35
0.0
146
0.0
 13
0.0
 23
0.0
 33
0.0
 16
1.0
 26
0.0
 36
0.0
 17
0.0
 27
1.0
 37
0.0
 76
     0
330
1F
331
29
  0
MLINESTYLE
  5
18
102
{ACAD_REACTORS
330
17
102
}
330
17
100
AcDbMlineStyle
  2
Standard
 70
     0
  3

 62
   256
 51
90.0
 52
90.0
 71
     2
 49
0.5
 62
   256
  6
BYLAYER
 49
-0.5
 62
   256
  6
BYLAYER
  0
ACDBPLACEHOLDER
  5
F
102
{ACAD_REACTORS
330
E
102
}
330
E
  0
SCALE
  5
48
102
{ACAD_REACTORS
330
47
102
}
330
47
100
AcDbScale
 70
     0
300
1:1
140
1.0
141
1.0
290
     1
  0
SCALE
  5
49
102
{ACAD_REACTORS
330
47
102
}
330
47
100
AcDbScale
 70
     0
300
1:2
140
1.0
141
2.0
290
     0
  0
SCALE
  5
4A
102
{ACAD_REACTORS
330
47
102
}
330
47
100
AcDbScale
 70
     0
300
1:4
140
1.0
141
4.0
290
     0
  0
SCALE
  5
4B
102
{ACAD_REACTORS
330
47
102
}
330
47
100
AcDbScale
 70
     0
300
1:5
140
1.0
141
5.0
290
     0
  0
SCALE
  5
4C
102
{ACAD_REACTORS
330
47
102
}
330
47
100
AcDbScale
 70
     0
300
1:8
140
1.0
141
8.0
290
     0
  0
SCALE
  5
4D
102
{ACAD_REACTORS
330
47
102
}
330
47
100
AcDbScale
 70
     0
300
1:10
140
1.0
141
10.0
290
     0
  0
SCALE
  5
4E
102
{ACAD_REACTORS
330
47
102
}
330
47
100
AcDbScale
 70
     0
300
1:16
140
1.0
141
16.0
290
     0
  0
SCALE
  5
4F
102
{ACAD_REACTORS
330
47
102
}
330
47
100
AcDbScale
 70
     0
300
1:20
140
1.0
141
20.0
290
     0
  0
SCALE
  5
50
102
{ACAD_REACTORS
330
47
102
}
330
47
100
AcDbScale
 70
     0
300
1:30
140
1.0
141
30.0
290
     0
  0
SCALE
  5
51
102
{ACAD_REACTORS
330
47
102
}
330
47
100
AcDbScale
 70
     0
300
1:40
140
1.0
141
40.0
290
     0
  0
SCALE
  5
52
102
{ACAD_REACTORS
330
47
102
}
330
47
100
AcDbScale
 70
     0
300
1:50
140
1.0
141
50.0
290
     0
  0
SCALE
  5
53
102
{ACAD_REACTORS
330
47
102
}
330
47
100
AcDbScale
 70
     0
300
1:100
140
1.0
141
100.0
290
     0
  0
SCALE
  5
54
102
{ACAD_REACTORS
330
47
102
}
330
47
100
AcDbScale
 70
     0
300
2:1
140
2.0
141
1.0
290
     0
  0
SCALE
  5
55
102
{ACAD_REACTORS
330
47
102
}
330
47
100
AcDbScale
 70
     0
300
4:1
140
4.0
141
1.0
290
     0
  0
SCALE
  5
56
102
{ACAD_REACTORS
330
47
102
}
330
47
100
AcDbScale
 70
     0
300
8:1
140
8.0
141
1.0
290
     0
  0
SCALE
  5
57
102
{ACAD_REACTORS
330
47
102
}
330
47
100
AcDbScale
 70
     0
300
10:1
140
10.0
141
1.0
290
     0
  0
SCALE
  5
58
102
{ACAD_REACTORS
330
47
102
}
330
47
100
AcDbScale
 70
     0
300
100:1
140
100.0
141
1.0
290
     0
  0
ENDSEC
  0
EOF
