ISO-10303-21;
HEADER;
FILE_DESCRIPTION (( 'STEP AP203' ),
    '1' );
FILE_NAME ('CLP1K-300-3-M-HDZ Êðûøêà íà ëîòîê îñí. 300 IEK HDZ.STEP',
    '2016-02-05T12:07:28',
    ( '' ),
    ( '' ),
    'SwSTEP 2.0',
    'SolidWorks 2014',
    '' );
FILE_SCHEMA (( 'CONFIG_CONTROL_DESIGN' ));
ENDSEC;

DATA;
#1 = EDGE_CURVE ( 'NONE', #168, #128, #218, .T. ) ;
#2 = APPROVAL_PERSON_ORGANIZATION ( #79, #134, #241 ) ;
#3 = CALENDAR_DATE ( 2016, 5, 2 ) ;
#4 = ORIENTED_EDGE ( 'NONE', *, *, #256, .F. ) ;
#5 = VERTEX_POINT ( 'NONE', #66 ) ;
#6 = AXIS2_PLACEMENT_3D ( 'NONE', #126, #359, #181 ) ;
#7 = ADVANCED_FACE ( 'NONE', ( #70 ), #144, .T. ) ;
#8 = LINE ( 'NONE', #260, #24 ) ;
#9 = PERSON_AND_ORGANIZATION ( #149, #220 ) ;
#10 = CARTESIAN_POINT ( 'NONE',  ( 1492.500000000000000, 0.0000000000000000000, 299.0000000000000000 ) ) ;
#11 = EDGE_LOOP ( 'NONE', ( #83, #4, #318, #194 ) ) ;
#12 = CARTESIAN_POINT ( 'NONE',  ( -1492.500000000000000, -16.04999999999999700, 299.8000000000000700 ) ) ;
#13 = PLANE ( 'NONE',  #106 ) ;
#14 = CARTESIAN_POINT ( 'NONE',  ( -1492.500000000000000, 3.381309404395096700E-016, 299.0000000000000000 ) ) ;
#15 = CARTESIAN_POINT ( 'NONE',  ( 1492.500000000000000, 1.030674334387216900E-012, 299.0000000000000000 ) ) ;
#16 = VERTEX_POINT ( 'NONE', #91 ) ;
#17 = CARTESIAN_POINT ( 'NONE',  ( 0.0000000000000000000, 0.0000000000000000000, -1.000000000000000000 ) ) ;
#18 = CARTESIAN_POINT ( 'NONE',  ( 1492.500000000000000, -16.05000000000000100, 299.0000000000000600 ) ) ;
#19 = CARTESIAN_POINT ( 'NONE',  ( -1492.500000000000000, 1.030674334387216900E-012, 299.0000000000000000 ) ) ;
#20 = CC_DESIGN_APPROVAL ( #369, ( #306 ) ) ;
#21 = CARTESIAN_POINT ( 'NONE',  ( 1492.500000000000000, -16.04999999999999700, -1.800000000000056000 ) ) ;
#22 = VECTOR ( 'NONE', #158, 1000.000000000000000 ) ;
#23 = COORDINATED_UNIVERSAL_TIME_OFFSET ( 3, 0, .AHEAD. ) ;
#24 = VECTOR ( 'NONE', #150, 1000.000000000000000 ) ;
#25 = EDGE_CURVE ( 'NONE', #63, #16, #289, .T. ) ;
#26 = APPLICATION_CONTEXT ( 'configuration controlled 3d designs of mechanical parts and assemblies' ) ;
#27 = APPROVAL_STATUS ( 'not_yet_approved' ) ;
#28 = EDGE_LOOP ( 'NONE', ( #215, #341, #305, #331 ) ) ;
#29 = FACE_OUTER_BOUND ( 'NONE', #340, .T. ) ;
#30 = VECTOR ( 'NONE', #361, 1000.000000000000000 ) ;
#31 = LOCAL_TIME ( 15, 7, 28.00000000000000000, #103 ) ;
#32 = VERTEX_POINT ( 'NONE', #10 ) ;
#33 = ORIENTED_EDGE ( 'NONE', *, *, #90, .T. ) ;
#34 = AXIS2_PLACEMENT_3D ( 'NONE', #257, #119, #317 ) ;
#35 = ORIENTED_EDGE ( 'NONE', *, *, #279, .F. ) ;
#36 = VECTOR ( 'NONE', #72, 1000.000000000000000 ) ;
#37 = ADVANCED_FACE ( 'NONE', ( #60 ), #145, .T. ) ;
#38 = CC_DESIGN_SECURITY_CLASSIFICATION ( #306, ( #208 ) ) ;
#39 = VECTOR ( 'NONE', #157, 1000.000000000000000 ) ;
#40 = EDGE_CURVE ( 'NONE', #168, #118, #357, .T. ) ;
#41 = CARTESIAN_POINT ( 'NONE',  ( -1493.631370849898300, 0.8000000000000256900, 299.8000000000000100 ) ) ;
#42 = ORIENTED_EDGE ( 'NONE', *, *, #77, .T. ) ;
#43 = CARTESIAN_POINT ( 'NONE',  ( -1492.500000000000000, 0.8000000000000256900, 299.8000000000000100 ) ) ;
#44 = CARTESIAN_POINT ( 'NONE',  ( 1492.500000000000000, 0.0000000000000000000, 298.0000000000000000 ) ) ;
#45 = CARTESIAN_POINT ( 'NONE',  ( -1492.500000000000000, 0.0000000000000000000, 298.0000000000000000 ) ) ;
#46 = VECTOR ( 'NONE', #121, 1000.000000000000000 ) ;
#47 = FACE_OUTER_BOUND ( 'NONE', #223, .T. ) ;
#48 = PLANE ( 'NONE',  #217 ) ;
#49 = ORIENTED_EDGE ( 'NONE', *, *, #40, .T. ) ;
#50 = APPROVAL_STATUS ( 'not_yet_approved' ) ;
#51 = ORIENTED_EDGE ( 'NONE', *, *, #283, .T. ) ;
#52 = PRODUCT_DEFINITION_SHAPE ( 'NONE', 'NONE',  #113 ) ;
#53 = LINE ( 'NONE', #95, #264 ) ;
#54 = VECTOR ( 'NONE', #207, 1000.000000000000000 ) ;
#55 = PRODUCT_RELATED_PRODUCT_CATEGORY ( 'detail', '', ( #185 ) ) ;
#56 = EDGE_CURVE ( 'NONE', #16, #5, #204, .T. ) ;
#57 = VERTEX_POINT ( 'NONE', #288 ) ;
#58 = DESIGN_CONTEXT ( 'detailed design', #26, 'design' ) ;
#59 = ADVANCED_BREP_SHAPE_REPRESENTATION ( 'CLP1K-300-3-M-HDZ ¦¨v°úð ýð ûþªþú þ¸ý. 300 IEK HDZ', ( #287, #82 ), #355 ) ;
#60 = FACE_OUTER_BOUND ( 'NONE', #107, .T. ) ;
#61 = ORIENTED_EDGE ( 'NONE', *, *, #316, .F. ) ;
#62 = ADVANCED_FACE ( 'NONE', ( #275 ), #13, .F. ) ;
#63 = VERTEX_POINT ( 'NONE', #43 ) ;
#64 = COORDINATED_UNIVERSAL_TIME_OFFSET ( 3, 0, .AHEAD. ) ;
#65 = ORIENTED_EDGE ( 'NONE', *, *, #283, .F. ) ;
#66 = CARTESIAN_POINT ( 'NONE',  ( 1492.500000000000000, -16.04999999999999700, 299.8000000000000700 ) ) ;
#67 = AXIS2_PLACEMENT_3D ( 'NONE', #350, #258, #93 ) ;
#68 = DIRECTION ( 'NONE',  ( -0.0000000000000000000, 0.0000000000000000000, -1.000000000000000000 ) ) ;
#69 = DIRECTION ( 'NONE',  ( 0.0000000000000000000, -1.000000000000000000, 0.0000000000000000000 ) ) ;
#70 = FACE_OUTER_BOUND ( 'NONE', #11, .T. ) ;
#71 = PLANE ( 'NONE',  #336 ) ;
#72 = DIRECTION ( 'NONE',  ( 1.000000000000000000, -0.0000000000000000000, -0.0000000000000000000 ) ) ;
#73 = PLANE ( 'NONE',  #6 ) ;
#74 = CARTESIAN_POINT ( 'NONE',  ( -1492.500000000000000, -16.05000000000000100, -1.000000000000056000 ) ) ;
#75 = DIRECTION ( 'NONE',  ( 0.0000000000000000000, -3.458638705997372200E-015, -1.000000000000000000 ) ) ;
#76 =( NAMED_UNIT ( * ) PLANE_ANGLE_UNIT ( ) SI_UNIT ( $, .RADIAN. ) );
#77 = EDGE_CURVE ( 'NONE', #304, #118, #53, .T. ) ;
#78 = PERSON_AND_ORGANIZATION_ROLE ( 'creator' ) ;
#79 = PERSON_AND_ORGANIZATION ( #149, #220 ) ;
#80 = LOCAL_TIME ( 15, 7, 28.00000000000000000, #142 ) ;
#81 = ORIENTED_EDGE ( 'NONE', *, *, #332, .F. ) ;
#82 = AXIS2_PLACEMENT_3D ( 'NONE', #296, #327, #159 ) ;
#83 = ORIENTED_EDGE ( 'NONE', *, *, #130, .F. ) ;
#84 = FACE_OUTER_BOUND ( 'NONE', #125, .T. ) ;
#85 = APPROVAL_DATE_TIME ( #160, #225 ) ;
#86 = ORIENTED_EDGE ( 'NONE', *, *, #279, .T. ) ;
#87 = LINE ( 'NONE', #351, #307 ) ;
#88 = APPROVAL_PERSON_ORGANIZATION ( #164, #225, #302 ) ;
#89 = ORIENTED_EDGE ( 'NONE', *, *, #308, .T. ) ;
#90 = EDGE_CURVE ( 'NONE', #5, #136, #367, .T. ) ;
#91 = CARTESIAN_POINT ( 'NONE',  ( 1492.500000000000000, 0.8000000000000256900, 299.8000000000000100 ) ) ;
#92 = ORIENTED_EDGE ( 'NONE', *, *, #187, .F. ) ;
#93 = DIRECTION ( 'NONE',  ( 0.0000000000000000000, -3.491481338843133400E-015, -1.000000000000000000 ) ) ;
#94 = CARTESIAN_POINT ( 'NONE',  ( -1492.500000000000000, 0.0000000000000000000, -1.000000000000000000 ) ) ;
#95 = CARTESIAN_POINT ( 'NONE',  ( -1493.631370849898300, 0.8000000000000000400, -1.800000000000000000 ) ) ;
#96 = CC_DESIGN_PERSON_AND_ORGANIZATION_ASSIGNMENT ( #141, #186, ( #185 ) ) ;
#97 = PLANE ( 'NONE',  #137 ) ;
#98 = CARTESIAN_POINT ( 'NONE',  ( -1492.500000000000000, -16.05000000000000100, 299.0000000000000600 ) ) ;
#99 = DIRECTION ( 'NONE',  ( 0.0000000000000000000, 1.000000000000000000, -3.458638705997372200E-015 ) ) ;
#100 = VECTOR ( 'NONE', #236, 1000.000000000000000 ) ;
#101 = CARTESIAN_POINT ( 'NONE',  ( 1492.500000000000000, 0.0000000000000000000, -1.000000000000000000 ) ) ;
#102 = CARTESIAN_POINT ( 'NONE',  ( 0.0000000000000000000, -16.05000000000000100, 299.0000000000000600 ) ) ;
#103 = COORDINATED_UNIVERSAL_TIME_OFFSET ( 3, 0, .AHEAD. ) ;
#104 = APPROVAL_STATUS ( 'not_yet_approved' ) ;
#105 = ORIENTED_EDGE ( 'NONE', *, *, #270, .T. ) ;
#106 = AXIS2_PLACEMENT_3D ( 'NONE', #203, #69, #261 ) ;
#107 = EDGE_LOOP ( 'NONE', ( #92, #277, #353, #243 ) ) ;
#108 = FACE_OUTER_BOUND ( 'NONE', #28, .T. ) ;
#109 = LINE ( 'NONE', #129, #39 ) ;
#110 = ORIENTED_EDGE ( 'NONE', *, *, #130, .T. ) ;
#111 = EDGE_CURVE ( 'NONE', #32, #136, #191, .T. ) ;
#112 = ORIENTED_EDGE ( 'NONE', *, *, #198, .F. ) ;
#113 = PRODUCT_DEFINITION ( 'UNKNOWN', '', #208, #58 ) ;
#114 = LINE ( 'NONE', #155, #180 ) ;
#115 = VECTOR ( 'NONE', #358, 1000.000000000000000 ) ;
#116 = VERTEX_POINT ( 'NONE', #263 ) ;
#117 = ADVANCED_FACE ( 'NONE', ( #338 ), #97, .T. ) ;
#118 = VERTEX_POINT ( 'NONE', #206 ) ;
#119 = DIRECTION ( 'NONE',  ( 0.0000000000000000000, -1.000000000000000000, -3.491481338843133400E-015 ) ) ;
#120 = DIRECTION ( 'NONE',  ( 0.0000000000000000000, 3.491481338843133700E-015, -1.000000000000000000 ) ) ;
#121 = DIRECTION ( 'NONE',  ( 0.0000000000000000000, -1.000000000000000000, 3.458638705997372200E-015 ) ) ;
#122 = VECTOR ( 'NONE', #178, 1000.000000000000000 ) ;
#123 = DIRECTION ( 'NONE',  ( 0.0000000000000000000, 3.491481338843133700E-015, -1.000000000000000000 ) ) ;
#124 = DIRECTION ( 'NONE',  ( 0.0000000000000000000, 0.0000000000000000000, 1.000000000000000000 ) ) ;
#125 = EDGE_LOOP ( 'NONE', ( #89, #195, #229, #49, #112, #190, #33, #162 ) ) ;
#126 = CARTESIAN_POINT ( 'NONE',  ( -1492.500000000000000, 0.0000000000000000000, 298.0000000000000000 ) ) ;
#127 = VECTOR ( 'NONE', #262, 1000.000000000000000 ) ;
#128 = VERTEX_POINT ( 'NONE', #153 ) ;
#129 = CARTESIAN_POINT ( 'NONE',  ( -1492.500000000000000, -16.04999999999999700, 299.8000000000000700 ) ) ;
#130 = EDGE_CURVE ( 'NONE', #335, #128, #343, .T. ) ;
#131 = PERSON_AND_ORGANIZATION_ROLE ( 'creator' ) ;
#132 = APPROVAL_DATE_TIME ( #200, #369 ) ;
#133 = VECTOR ( 'NONE', #201, 1000.000000000000000 ) ;
#134 = APPROVAL ( #50, 'UNSPECIFIED' ) ;
#135 = APPROVAL_PERSON_ORGANIZATION ( #214, #369, #216 ) ;
#136 = VERTEX_POINT ( 'NONE', #18 ) ;
#137 = AXIS2_PLACEMENT_3D ( 'NONE', #45, #293, #124 ) ;
#138 = VECTOR ( 'NONE', #199, 1000.000000000000000 ) ;
#139 = EDGE_LOOP ( 'NONE', ( #173, #148, #294, #240 ) ) ;
#140 = ADVANCED_FACE ( 'NONE', ( #108 ), #233, .T. ) ;
#141 = PERSON_AND_ORGANIZATION ( #149, #220 ) ;
#142 = COORDINATED_UNIVERSAL_TIME_OFFSET ( 3, 0, .AHEAD. ) ;
#143 = EDGE_CURVE ( 'NONE', #57, #168, #114, .T. ) ;
#144 = PLANE ( 'NONE',  #34 ) ;
#145 = PLANE ( 'NONE',  #67 ) ;
#146 = DIRECTION ( 'NONE',  ( 0.0000000000000000000, -1.000000000000000000, -3.491481338843133700E-015 ) ) ;
#147 = CARTESIAN_POINT ( 'NONE',  ( 1492.500000000000000, 2.793185071074506700E-015, -1.800000000000000000 ) ) ;
#148 = ORIENTED_EDGE ( 'NONE', *, *, #77, .F. ) ;
#149 = PERSON ( 'UNSPECIFIED', 'UNSPECIFIED', 'UNSPECIFIED', ('UNSPECIFIED'), ('UNSPECIFIED'), ('UNSPECIFIED') ) ;
#150 = DIRECTION ( 'NONE',  ( 0.0000000000000000000, -3.491481338843133400E-015, 1.000000000000000000 ) ) ;
#151 = ORIENTED_EDGE ( 'NONE', *, *, #303, .F. ) ;
#152 = CC_DESIGN_APPROVAL ( #134, ( #113 ) ) ;
#153 = CARTESIAN_POINT ( 'NONE',  ( 1492.500000000000000, -16.05000000000000100, -1.000000000000056000 ) ) ;
#154 = DIRECTION ( 'NONE',  ( 0.0000000000000000000, 1.000000000000000000, -3.458638705997372200E-015 ) ) ;
#155 = CARTESIAN_POINT ( 'NONE',  ( 1492.500000000000000, -16.04999999999999700, -1.800000000000056000 ) ) ;
#156 = FACE_OUTER_BOUND ( 'NONE', #167, .T. ) ;
#157 = DIRECTION ( 'NONE',  ( 0.0000000000000000000, -3.491481338843133400E-015, -1.000000000000000000 ) ) ;
#158 = DIRECTION ( 'NONE',  ( -1.000000000000000000, -0.0000000000000000000, -0.0000000000000000000 ) ) ;
#159 = DIRECTION ( 'NONE',  ( 1.000000000000000000, 0.0000000000000000000, 0.0000000000000000000 ) ) ;
#160 = DATE_AND_TIME ( #228, #309 ) ;
#161 = SECURITY_CLASSIFICATION_LEVEL ( 'unclassified' ) ;
#162 = ORIENTED_EDGE ( 'NONE', *, *, #111, .F. ) ;
#163 = VECTOR ( 'NONE', #329, 1000.000000000000000 ) ;
#164 = PERSON_AND_ORGANIZATION ( #149, #220 ) ;
#165 = ORIENTED_EDGE ( 'NONE', *, *, #222, .F. ) ;
#166 = EDGE_CURVE ( 'NONE', #63, #304, #324, .T. ) ;
#167 = EDGE_LOOP ( 'NONE', ( #322, #42, #346, #286 ) ) ;
#168 = VERTEX_POINT ( 'NONE', #21 ) ;
#169 = CC_DESIGN_PERSON_AND_ORGANIZATION_ASSIGNMENT ( #172, #78, ( #113 ) ) ;
#170 = ADVANCED_FACE ( 'NONE', ( #29 ), #48, .F. ) ;
#171 = VECTOR ( 'NONE', #326, 1000.000000000000000 ) ;
#172 = PERSON_AND_ORGANIZATION ( #149, #220 ) ;
#173 = ORIENTED_EDGE ( 'NONE', *, *, #198, .T. ) ;
#174 = EDGE_LOOP ( 'NONE', ( #273, #311, #368, #35, #151, #61, #244, #105 ) ) ;
#175 = CARTESIAN_POINT ( 'NONE',  ( 1492.500000000000000, 0.8000000000000000400, 298.0000000000000000 ) ) ;
#176 = AXIS2_PLACEMENT_3D ( 'NONE', #209, #267, #99 ) ;
#177 = CARTESIAN_POINT ( 'NONE',  ( 1492.500000000000000, 2.793185071074506700E-015, 299.8000000000000100 ) ) ;
#178 = DIRECTION ( 'NONE',  ( 0.0000000000000000000, -3.491481338843133400E-015, -1.000000000000000000 ) ) ;
#179 = CARTESIAN_POINT ( 'NONE',  ( -1492.500000000000000, 0.0000000000000000000, 298.0000000000000000 ) ) ;
#180 = VECTOR ( 'NONE', #360, 1000.000000000000000 ) ;
#181 = DIRECTION ( 'NONE',  ( 0.0000000000000000000, -0.0000000000000000000, -1.000000000000000000 ) ) ;
#182 = CARTESIAN_POINT ( 'NONE',  ( -1492.500000000000000, 0.8000000000000000400, 298.0000000000000000 ) ) ;
#183 = VECTOR ( 'NONE', #154, 1000.000000000000000 ) ;
#184 = CARTESIAN_POINT ( 'NONE',  ( 0.0000000000000000000, 0.0000000000000000000, -1.000000000000000000 ) ) ;
#185 = PRODUCT ( 'CLP1K-300-3-M-HDZ Êðûøêà íà ëîòîê îñí. 300 IEK HDZ', 'CLP1K-300-3-M-HDZ Êðûøêà íà ëîòîê îñí. 300 IEK HDZ', '', ( #363 ) ) ;
#186 = PERSON_AND_ORGANIZATION_ROLE ( 'design_owner' ) ;
#187 = EDGE_CURVE ( 'NONE', #136, #310, #246, .T. ) ;
#188 = DATE_TIME_ROLE ( 'classification_date' ) ;
#189 = ORIENTED_EDGE ( 'NONE', *, *, #308, .F. ) ;
#190 = ORIENTED_EDGE ( 'NONE', *, *, #56, .T. ) ;
#191 = LINE ( 'NONE', #15, #46 ) ;
#192 = CC_DESIGN_DATE_AND_TIME_ASSIGNMENT ( #239, #272, ( #113 ) ) ;
#193 = LINE ( 'NONE', #235, #328 ) ;
#194 = ORIENTED_EDGE ( 'NONE', *, *, #1, .T. ) ;
#195 = ORIENTED_EDGE ( 'NONE', *, *, #347, .F. ) ;
#196 = VECTOR ( 'NONE', #320, 1000.000000000000000 ) ;
#197 = LINE ( 'NONE', #290, #127 ) ;
#198 = EDGE_CURVE ( 'NONE', #16, #118, #251, .T. ) ;
#199 = DIRECTION ( 'NONE',  ( 0.0000000000000000000, -3.491481338843133400E-015, 1.000000000000000000 ) ) ;
#200 = DATE_AND_TIME ( #278, #366 ) ;
#201 = DIRECTION ( 'NONE',  ( 1.000000000000000000, 0.0000000000000000000, 0.0000000000000000000 ) ) ;
#202 = PLANE ( 'NONE',  #291 ) ;
#203 = CARTESIAN_POINT ( 'NONE',  ( -1492.500000000000000, 0.8000000000000000400, 298.0000000000000000 ) ) ;
#204 = LINE ( 'NONE', #177, #196 ) ;
#205 = DIRECTION ( 'NONE',  ( -0.0000000000000000000, 1.000000000000000000, -3.458638705997372200E-015 ) ) ;
#206 = CARTESIAN_POINT ( 'NONE',  ( 1492.500000000000000, 0.8000000000000000400, -1.800000000000000000 ) ) ;
#207 = DIRECTION ( 'NONE',  ( -1.000000000000000000, -0.0000000000000000000, -0.0000000000000000000 ) ) ;
#208 = PRODUCT_DEFINITION_FORMATION_WITH_SPECIFIED_SOURCE ( 'ANY', '', #185, .NOT_KNOWN. ) ;
#209 = CARTESIAN_POINT ( 'NONE',  ( 0.0000000000000000000, 1.030674334387216900E-012, 299.0000000000000000 ) ) ;
#210 = ORIENTED_EDGE ( 'NONE', *, *, #56, .F. ) ;
#211 = CARTESIAN_POINT ( 'NONE',  ( 0.0000000000000000000, 1.033467519458291400E-012, 299.8000000000000100 ) ) ;
#212 = APPLICATION_PROTOCOL_DEFINITION ( 'international standard', 'config_control_design', 1994, #26 ) ;
#213 = LOCAL_TIME ( 15, 7, 28.00000000000000000, #284 ) ;
#214 = PERSON_AND_ORGANIZATION ( #149, #220 ) ;
#215 = ORIENTED_EDGE ( 'NONE', *, *, #111, .T. ) ;
#216 = APPROVAL_ROLE ( '' ) ;
#217 = AXIS2_PLACEMENT_3D ( 'NONE', #211, #75, #269 ) ;
#218 = LINE ( 'NONE', #349, #138 ) ;
#219 = LINE ( 'NONE', #354, #227 ) ;
#220 = ORGANIZATION ( 'UNSPECIFIED', 'UNSPECIFIED', '' ) ;
#221 = PERSON_AND_ORGANIZATION ( #149, #220 ) ;
#222 = EDGE_CURVE ( 'NONE', #5, #254, #234, .T. ) ;
#223 = EDGE_LOOP ( 'NONE', ( #224, #65, #189, #81 ) ) ;
#224 = ORIENTED_EDGE ( 'NONE', *, *, #303, .T. ) ;
#225 = APPROVAL ( #104, 'UNSPECIFIED' ) ;
#226 = ADVANCED_FACE ( 'NONE', ( #313 ), #238, .F. ) ;
#227 = VECTOR ( 'NONE', #205, 1000.000000000000000 ) ;
#228 = CALENDAR_DATE ( 2016, 5, 2 ) ;
#229 = ORIENTED_EDGE ( 'NONE', *, *, #1, .F. ) ;
#230 = DIRECTION ( 'NONE',  ( 1.000000000000000000, 0.0000000000000000000, -0.0000000000000000000 ) ) ;
#231 = DIRECTION ( 'NONE',  ( 1.000000000000000000, 0.0000000000000000000, 0.0000000000000000000 ) ) ;
#232 = CARTESIAN_POINT ( 'NONE',  ( -1492.500000000000000, 0.8000000000000000400, -1.800000000000000000 ) ) ;
#233 = PLANE ( 'NONE',  #176 ) ;
#234 = LINE ( 'NONE', #297, #22 ) ;
#235 = CARTESIAN_POINT ( 'NONE',  ( 0.0000000000000000000, 0.0000000000000000000, 299.0000000000000000 ) ) ;
#236 = DIRECTION ( 'NONE',  ( -1.000000000000000000, 0.0000000000000000000, 0.0000000000000000000 ) ) ;
#237 =( LENGTH_UNIT ( ) NAMED_UNIT ( * ) SI_UNIT ( .MILLI., .METRE. ) );
#238 = PLANE ( 'NONE',  #250 ) ;
#239 = DATE_AND_TIME ( #315, #31 ) ;
#240 = ORIENTED_EDGE ( 'NONE', *, *, #25, .T. ) ;
#241 = APPROVAL_ROLE ( '' ) ;
#242 = EDGE_CURVE ( 'NONE', #304, #57, #87, .T. ) ;
#243 = ORIENTED_EDGE ( 'NONE', *, *, #342, .T. ) ;
#244 = ORIENTED_EDGE ( 'NONE', *, *, #342, .F. ) ;
#245 = CC_DESIGN_APPROVAL ( #225, ( #208 ) ) ;
#246 = LINE ( 'NONE', #102, #100 ) ;
#247 = LINE ( 'NONE', #101, #30 ) ;
#248 = APPROVAL_DATE_TIME ( #330, #134 ) ;
#249 = ORIENTED_EDGE ( 'NONE', *, *, #270, .F. ) ;
#250 = AXIS2_PLACEMENT_3D ( 'NONE', #184, #120, #319 ) ;
#251 = LINE ( 'NONE', #362, #163 ) ;
#252 = ADVANCED_FACE ( 'NONE', ( #84 ), #202, .T. ) ;
#253 = VECTOR ( 'NONE', #295, 1000.000000000000000 ) ;
#254 = VERTEX_POINT ( 'NONE', #12 ) ;
#255 = VERTEX_POINT ( 'NONE', #94 ) ;
#256 = EDGE_CURVE ( 'NONE', #57, #335, #8, .T. ) ;
#257 = CARTESIAN_POINT ( 'NONE',  ( 1492.500000000000000, -16.04999999999999700, -1.800000000000056200 ) ) ;
#258 = DIRECTION ( 'NONE',  ( 0.0000000000000000000, -1.000000000000000000, 3.491481338843133400E-015 ) ) ;
#259 = CLOSED_SHELL ( 'NONE', ( #62, #117, #312, #252, #7, #282, #226, #37, #170, #140 ) ) ;
#260 = CARTESIAN_POINT ( 'NONE',  ( -1492.500000000000000, -16.04999999999999700, -1.800000000000056200 ) ) ;
#261 = DIRECTION ( 'NONE',  ( 0.0000000000000000000, 0.0000000000000000000, -1.000000000000000000 ) ) ;
#262 = DIRECTION ( 'NONE',  ( -0.0000000000000000000, -1.000000000000000000, -3.491481338843133700E-015 ) ) ;
#263 = CARTESIAN_POINT ( 'NONE',  ( 1492.500000000000000, 0.0000000000000000000, -1.000000000000000000 ) ) ;
#264 = VECTOR ( 'NONE', #231, 1000.000000000000000 ) ;
#265 = DIRECTION ( 'NONE',  ( 1.000000000000000000, 0.0000000000000000000, 0.0000000000000000000 ) ) ;
#266 = CC_DESIGN_PERSON_AND_ORGANIZATION_ASSIGNMENT ( #9, #131, ( #208 ) ) ;
#267 = DIRECTION ( 'NONE',  ( 0.0000000000000000000, -3.458638705997372200E-015, -1.000000000000000000 ) ) ;
#268 = LINE ( 'NONE', #17, #54 ) ;
#269 = DIRECTION ( 'NONE',  ( 0.0000000000000000000, 1.000000000000000000, -3.458638705997372200E-015 ) ) ;
#270 = EDGE_CURVE ( 'NONE', #254, #63, #219, .T. ) ;
#271 =( NAMED_UNIT ( * ) SI_UNIT ( $, .STERADIAN. ) SOLID_ANGLE_UNIT ( ) );
#272 = DATE_TIME_ROLE ( 'creation_date' ) ;
#273 = ORIENTED_EDGE ( 'NONE', *, *, #166, .T. ) ;
#274 = VERTEX_POINT ( 'NONE', #14 ) ;
#275 = FACE_OUTER_BOUND ( 'NONE', #139, .T. ) ;
#276 = LINE ( 'NONE', #179, #115 ) ;
#277 = ORIENTED_EDGE ( 'NONE', *, *, #90, .F. ) ;
#278 = CALENDAR_DATE ( 2016, 5, 2 ) ;
#279 = EDGE_CURVE ( 'NONE', #255, #335, #197, .T. ) ;
#280 = VECTOR ( 'NONE', #352, 1000.000000000000000 ) ;
#281 = CC_DESIGN_PERSON_AND_ORGANIZATION_ASSIGNMENT ( #301, #334, ( #208 ) ) ;
#282 = ADVANCED_FACE ( 'NONE', ( #156 ), #71, .T. ) ;
#283 = EDGE_CURVE ( 'NONE', #116, #255, #268, .T. ) ;
#284 = COORDINATED_UNIVERSAL_TIME_OFFSET ( 3, 0, .AHEAD. ) ;
#285 = DATE_AND_TIME ( #3, #80 ) ;
#286 = ORIENTED_EDGE ( 'NONE', *, *, #143, .F. ) ;
#287 = MANIFOLD_SOLID_BREP ( 'Áîáûøêà-Âûòÿíóòü1', #259 ) ;
#288 = CARTESIAN_POINT ( 'NONE',  ( -1492.500000000000000, -16.04999999999999700, -1.800000000000056000 ) ) ;
#289 = LINE ( 'NONE', #41, #133 ) ;
#290 = CARTESIAN_POINT ( 'NONE',  ( -1492.500000000000000, 0.0000000000000000000, -1.000000000000000000 ) ) ;
#291 = AXIS2_PLACEMENT_3D ( 'NONE', #175, #230, #68 ) ;
#292 = CARTESIAN_POINT ( 'NONE',  ( 0.0000000000000000000, 2.793185071074506700E-015, -1.800000000000000000 ) ) ;
#293 = DIRECTION ( 'NONE',  ( -1.000000000000000000, 0.0000000000000000000, 0.0000000000000000000 ) ) ;
#294 = ORIENTED_EDGE ( 'NONE', *, *, #166, .F. ) ;
#295 = DIRECTION ( 'NONE',  ( -0.0000000000000000000, -0.0000000000000000000, -1.000000000000000000 ) ) ;
#296 = CARTESIAN_POINT ( 'NONE',  ( 0.0000000000000000000, 0.0000000000000000000, 0.0000000000000000000 ) ) ;
#297 = CARTESIAN_POINT ( 'NONE',  ( 1492.500000000000000, -16.04999999999999700, 299.8000000000000700 ) ) ;
#298 = CALENDAR_DATE ( 2016, 5, 2 ) ;
#299 = APPLICATION_PROTOCOL_DEFINITION ( 'international standard', 'config_control_design', 1994, #333 ) ;
#300 = SHAPE_DEFINITION_REPRESENTATION ( #52, #59 ) ;
#301 = PERSON_AND_ORGANIZATION ( #149, #220 ) ;
#302 = APPROVAL_ROLE ( '' ) ;
#303 = EDGE_CURVE ( 'NONE', #274, #255, #276, .T. ) ;
#304 = VERTEX_POINT ( 'NONE', #232 ) ;
#305 = ORIENTED_EDGE ( 'NONE', *, *, #316, .T. ) ;
#306 = SECURITY_CLASSIFICATION ( '', '', #161 ) ;
#307 = VECTOR ( 'NONE', #146, 1000.000000000000000 ) ;
#308 = EDGE_CURVE ( 'NONE', #32, #116, #339, .T. ) ;
#309 = LOCAL_TIME ( 15, 7, 28.00000000000000000, #23 ) ;
#310 = VERTEX_POINT ( 'NONE', #98 ) ;
#311 = ORIENTED_EDGE ( 'NONE', *, *, #242, .T. ) ;
#312 = ADVANCED_FACE ( 'NONE', ( #47 ), #73, .T. ) ;
#313 = FACE_OUTER_BOUND ( 'NONE', #348, .T. ) ;
#314 = ORIENTED_EDGE ( 'NONE', *, *, #347, .T. ) ;
#315 = CALENDAR_DATE ( 2016, 5, 2 ) ;
#316 = EDGE_CURVE ( 'NONE', #310, #274, #345, .T. ) ;
#317 = DIRECTION ( 'NONE',  ( 0.0000000000000000000, 3.491481338843133400E-015, -1.000000000000000000 ) ) ;
#318 = ORIENTED_EDGE ( 'NONE', *, *, #143, .T. ) ;
#319 = DIRECTION ( 'NONE',  ( 0.0000000000000000000, 1.000000000000000000, 3.491481338843133700E-015 ) ) ;
#320 = DIRECTION ( 'NONE',  ( -0.0000000000000000000, -1.000000000000000000, 3.458638705997372200E-015 ) ) ;
#321 = DIRECTION ( 'NONE',  ( 0.0000000000000000000, 1.000000000000000000, 3.491481338843133700E-015 ) ) ;
#322 = ORIENTED_EDGE ( 'NONE', *, *, #242, .F. ) ;
#323 = CARTESIAN_POINT ( 'NONE',  ( 0.0000000000000000000, -16.05000000000000100, -1.000000000000056000 ) ) ;
#324 = LINE ( 'NONE', #182, #171 ) ;
#325 = CC_DESIGN_PERSON_AND_ORGANIZATION_ASSIGNMENT ( #221, #364, ( #306 ) ) ;
#326 = DIRECTION ( 'NONE',  ( -0.0000000000000000000, -0.0000000000000000000, -1.000000000000000000 ) ) ;
#327 = DIRECTION ( 'NONE',  ( 0.0000000000000000000, 0.0000000000000000000, 1.000000000000000000 ) ) ;
#328 = VECTOR ( 'NONE', #265, 1000.000000000000000 ) ;
#329 = DIRECTION ( 'NONE',  ( -0.0000000000000000000, -0.0000000000000000000, -1.000000000000000000 ) ) ;
#330 = DATE_AND_TIME ( #298, #213 ) ;
#331 = ORIENTED_EDGE ( 'NONE', *, *, #332, .T. ) ;
#332 = EDGE_CURVE ( 'NONE', #274, #32, #193, .T. ) ;
#333 = APPLICATION_CONTEXT ( 'configuration controlled 3d designs of mechanical parts and assemblies' ) ;
#334 = PERSON_AND_ORGANIZATION_ROLE ( 'design_supplier' ) ;
#335 = VERTEX_POINT ( 'NONE', #74 ) ;
#336 = AXIS2_PLACEMENT_3D ( 'NONE', #292, #123, #321 ) ;
#337 = ORIENTED_EDGE ( 'NONE', *, *, #25, .F. ) ;
#338 = FACE_OUTER_BOUND ( 'NONE', #174, .T. ) ;
#339 = LINE ( 'NONE', #44, #253 ) ;
#340 = EDGE_LOOP ( 'NONE', ( #210, #337, #249, #165 ) ) ;
#341 = ORIENTED_EDGE ( 'NONE', *, *, #187, .T. ) ;
#342 = EDGE_CURVE ( 'NONE', #254, #310, #109, .T. ) ;
#343 = LINE ( 'NONE', #323, #36 ) ;
#344 = CC_DESIGN_DATE_AND_TIME_ASSIGNMENT ( #285, #188, ( #306 ) ) ;
#345 = LINE ( 'NONE', #19, #183 ) ;
#346 = ORIENTED_EDGE ( 'NONE', *, *, #40, .F. ) ;
#347 = EDGE_CURVE ( 'NONE', #128, #116, #247, .T. ) ;
#348 = EDGE_LOOP ( 'NONE', ( #51, #86, #110, #314 ) ) ;
#349 = CARTESIAN_POINT ( 'NONE',  ( 1492.500000000000000, -16.04999999999999700, -1.800000000000056200 ) ) ;
#350 = CARTESIAN_POINT ( 'NONE',  ( 1492.500000000000000, -16.04999999999999700, 299.8000000000000700 ) ) ;
#351 = CARTESIAN_POINT ( 'NONE',  ( -1492.500000000000000, -16.04999999999999700, -1.800000000000056000 ) ) ;
#352 = DIRECTION ( 'NONE',  ( -0.0000000000000000000, 1.000000000000000000, 3.491481338843133700E-015 ) ) ;
#353 = ORIENTED_EDGE ( 'NONE', *, *, #222, .T. ) ;
#354 = CARTESIAN_POINT ( 'NONE',  ( -1492.500000000000000, -16.04999999999999700, 299.8000000000000700 ) ) ;
#355 =( GEOMETRIC_REPRESENTATION_CONTEXT ( 3 ) GLOBAL_UNCERTAINTY_ASSIGNED_CONTEXT ( ( #365 ) ) GLOBAL_UNIT_ASSIGNED_CONTEXT ( ( #237, #76, #271 ) ) REPRESENTATION_CONTEXT ( 'NONE', 'WORKASPACE' ) );
#356 = CARTESIAN_POINT ( 'NONE',  ( 1492.500000000000000, -16.04999999999999700, 299.8000000000000700 ) ) ;
#357 = LINE ( 'NONE', #147, #280 ) ;
#358 = DIRECTION ( 'NONE',  ( -0.0000000000000000000, -0.0000000000000000000, -1.000000000000000000 ) ) ;
#359 = DIRECTION ( 'NONE',  ( 0.0000000000000000000, -1.000000000000000000, 0.0000000000000000000 ) ) ;
#360 = DIRECTION ( 'NONE',  ( 1.000000000000000000, 0.0000000000000000000, 0.0000000000000000000 ) ) ;
#361 = DIRECTION ( 'NONE',  ( -0.0000000000000000000, 1.000000000000000000, 3.491481338843133700E-015 ) ) ;
#362 = CARTESIAN_POINT ( 'NONE',  ( 1492.500000000000000, 0.8000000000000000400, 298.0000000000000000 ) ) ;
#363 = MECHANICAL_CONTEXT ( 'NONE', #333, 'mechanical' ) ;
#364 = PERSON_AND_ORGANIZATION_ROLE ( 'classification_officer' ) ;
#365 = UNCERTAINTY_MEASURE_WITH_UNIT (LENGTH_MEASURE( 1.000000000000000100E-005 ), #237, 'distance_accuracy_value', 'NONE');
#366 = LOCAL_TIME ( 15, 7, 28.00000000000000000, #64 ) ;
#367 = LINE ( 'NONE', #356, #122 ) ;
#368 = ORIENTED_EDGE ( 'NONE', *, *, #256, .T. ) ;
#369 = APPROVAL ( #27, 'UNSPECIFIED' ) ;
ENDSEC;
END-ISO-10303-21;
