  0
SECTION
  2
HEADER
  9
$ACADVER
  1
AC1015
  9
$ACADMAINTVER
 70
     6
  9
$DWGCODEPAGE
  3
ANSI_1251
  9
$INSBASE
 10
0.0
 20
0.0
 30
0.0
  9
$EXTMIN
 10
0.0
 20
0.0
 30
0.0
  9
$EXTMAX
 10
431.8
 20
279.4
 30
0.0
  9
$LIMMIN
 10
0.0
 20
0.0
  9
$LIMMAX
 10
431.8
 20
279.4
  9
$ORTHOMODE
 70
     0
  9
$REGENMODE
 70
     1
  9
$FILLMODE
 70
     1
  9
$QTEXTMODE
 70
     0
  9
$MIRRTEXT
 70
     1
  9
$LTSCALE
 40
1.0
  9
$ATTMODE
 70
     1
  9
$TEXTSIZE
 40
3.5
  9
$TRACEWID
 40
1.0
  9
$TEXTSTYLE
  7
Standard
  9
$CLAYER
  8
0
  9
$CELTYPE
  6
ByLayer
  9
$CECOLOR
 62
   256
  9
$CELTSCALE
 40
1.0
  9
$DISPSILH
 70
     0
  9
$DIMSCALE
 40
1.0
  9
$DIMASZ
 40
3.5
  9
$DIMEXO
 40
0.01
  9
$DIMDLI
 40
3.75
  9
$DIMRND
 40
0.0
  9
$DIMDLE
 40
0.0
  9
$DIMEXE
 40
1.0
  9
$DIMTP
 40
0.0
  9
$DIMTM
 40
0.0
  9
$DIMTXT
 40
3.5
  9
$DIMCEN
 40
2.5
  9
$DIMTSZ
 40
0.0
  9
$DIMTOL
 70
     0
  9
$DIMLIM
 70
     0
  9
$DIMTIH
 70
     1
  9
$DIMTOH
 70
     1
  9
$DIMSE1
 70
     0
  9
$DIMSE2
 70
     0
  9
$DIMTAD
 70
     1
  9
$DIMZIN
 70
     0
  9
$DIMBLK
  1

  9
$DIMASO
 70
     1
  9
$DIMSHO
 70
     1
  9
$DIMPOST
  1

  9
$DIMAPOST
  1

  9
$DIMALT
 70
     0
  9
$DIMALTD
 70
     3
  9
$DIMALTF
 40
0.0393700787
  9
$DIMLFAC
 40
2.0
  9
$DIMTOFL
 70
     1
  9
$DIMTVP
 40
0.0
  9
$DIMTIX
 70
     0
  9
$DIMSOXD
 70
     0
  9
$DIMSAH
 70
     0
  9
$DIMBLK1
  1

  9
$DIMBLK2
  1

  9
$DIMSTYLE
  2
ISO-25
  9
$DIMCLRD
 70
     0
  9
$DIMCLRE
 70
     0
  9
$DIMCLRT
 70
     0
  9
$DIMTFAC
 40
1.0
  9
$DIMGAP
 40
3.0
  9
$DIMJUST
 70
     0
  9
$DIMSD1
 70
     0
  9
$DIMSD2
 70
     0
  9
$DIMTOLJ
 70
     0
  9
$DIMTZIN
 70
     0
  9
$DIMALTZ
 70
     0
  9
$DIMALTTZ
 70
     0
  9
$DIMUPT
 70
     0
  9
$DIMDEC
 70
     2
  9
$DIMTDEC
 70
     3
  9
$DIMALTU
 70
     2
  9
$DIMALTTD
 70
     3
  9
$DIMTXSTY
  7
Standard
  9
$DIMAUNIT
 70
     0
  9
$DIMADEC
 70
     2
  9
$DIMALTRND
 40
0.0
  9
$DIMAZIN
 70
     0
  9
$DIMDSEP
 70
    44
  9
$DIMATFIT
 70
     3
  9
$DIMFRAC
 70
     0
  9
$DIMLDRBLK
  1

  9
$DIMLUNIT
 70
     2
  9
$DIMLWD
 70
    -2
  9
$DIMLWE
 70
    -2
  9
$DIMTMOVE
 70
     0
  9
$LUNITS
 70
     2
  9
$LUPREC
 70
     4
  9
$SKETCHINC
 40
1.0
  9
$FILLETRAD
 40
0.0
  9
$AUNITS
 70
     0
  9
$AUPREC
 70
     2
  9
$MENU
  1
.
  9
$ELEVATION
 40
0.0
  9
$PELEVATION
 40
0.0
  9
$THICKNESS
 40
0.0
  9
$LIMCHECK
 70
     0
  9
$CHAMFERA
 40
0.0
  9
$CHAMFERB
 40
0.0
  9
$CHAMFERC
 40
0.0
  9
$CHAMFERD
 40
0.0
  9
$SKPOLY
 70
     0
  9
$TDCREATE
 40
2460654.646614826
  9
$TDUCREATE
 40
2460654.521614826
  9
$TDUPDATE
 40
2460654.646615289
  9
$TDUUPDATE
 40
2460654.521615289
  9
$TDINDWG
 40
0.0000000116
  9
$TDUSRTIMER
 40
0.0000000116
  9
$USRTIMER
 70
     1
  9
$ANGBASE
 50
0.0
  9
$ANGDIR
 70
     0
  9
$PDMODE
 70
     0
  9
$PDSIZE
 40
-1.0
  9
$PLINEWID
 40
0.0
  9
$SPLFRAME
 70
     0
  9
$SPLINETYPE
 70
     6
  9
$SPLINESEGS
 70
     8
  9
$HANDSEED
  5
2A1
  9
$SURFTAB1
 70
     6
  9
$SURFTAB2
 70
     6
  9
$SURFTYPE
 70
     6
  9
$SURFU
 70
     6
  9
$SURFV
 70
     6
  9
$UCSBASE
  2

  9
$UCSNAME
  2

  9
$UCSORG
 10
0.0
 20
0.0
 30
0.0
  9
$UCSXDIR
 10
1.0
 20
0.0
 30
0.0
  9
$UCSYDIR
 10
0.0
 20
1.0
 30
0.0
  9
$UCSORTHOREF
  2

  9
$UCSORTHOVIEW
 70
     0
  9
$UCSORGTOP
 10
0.0
 20
0.0
 30
0.0
  9
$UCSORGBOTTOM
 10
0.0
 20
0.0
 30
0.0
  9
$UCSORGLEFT
 10
0.0
 20
0.0
 30
0.0
  9
$UCSORGRIGHT
 10
0.0
 20
0.0
 30
0.0
  9
$UCSORGFRONT
 10
0.0
 20
0.0
 30
0.0
  9
$UCSORGBACK
 10
0.0
 20
0.0
 30
0.0
  9
$PUCSBASE
  2

  9
$PUCSNAME
  2

  9
$PUCSORG
 10
0.0
 20
0.0
 30
0.0
  9
$PUCSXDIR
 10
1.0
 20
0.0
 30
0.0
  9
$PUCSYDIR
 10
0.0
 20
1.0
 30
0.0
  9
$PUCSORTHOREF
  2

  9
$PUCSORTHOVIEW
 70
     0
  9
$PUCSORGTOP
 10
0.0
 20
0.0
 30
0.0
  9
$PUCSORGBOTTOM
 10
0.0
 20
0.0
 30
0.0
  9
$PUCSORGLEFT
 10
0.0
 20
0.0
 30
0.0
  9
$PUCSORGRIGHT
 10
0.0
 20
0.0
 30
0.0
  9
$PUCSORGFRONT
 10
0.0
 20
0.0
 30
0.0
  9
$PUCSORGBACK
 10
0.0
 20
0.0
 30
0.0
  9
$USERI1
 70
     0
  9
$USERI2
 70
     0
  9
$USERI3
 70
     0
  9
$USERI4
 70
     0
  9
$USERI5
 70
     0
  9
$USERR1
 40
0.0
  9
$USERR2
 40
0.0
  9
$USERR3
 40
0.0
  9
$USERR4
 40
0.0
  9
$USERR5
 40
0.0
  9
$WORLDVIEW
 70
     1
  9
$SHADEDGE
 70
     3
  9
$SHADEDIF
 70
    70
  9
$TILEMODE
 70
     1
  9
$MAXACTVP
 70
    64
  9
$PINSBASE
 10
0.0
 20
0.0
 30
0.0
  9
$PLIMCHECK
 70
     0
  9
$PEXTMIN
 10
1.0000000000E+20
 20
1.0000000000E+20
 30
1.0000000000E+20
  9
$PEXTMAX
 10
-1.0000000000E+20
 20
-1.0000000000E+20
 30
-1.0000000000E+20
  9
$PLIMMIN
 10
0.0
 20
0.0
  9
$PLIMMAX
 10
420.0
 20
297.0
  9
$UNITMODE
 70
     0
  9
$VISRETAIN
 70
     1
  9
$PLINEGEN
 70
     0
  9
$PSLTSCALE
 70
     1
  9
$TREEDEPTH
 70
  3020
  9
$CMLSTYLE
  2
Standard
  9
$CMLJUST
 70
     0
  9
$CMLSCALE
 40
20.0
  9
$PROXYGRAPHICS
 70
     1
  9
$MEASUREMENT
 70
     1
  9
$CELWEIGHT
370
    -1
  9
$ENDCAPS
280
     0
  9
$JOINSTYLE
280
     0
  9
$LWDISPLAY
290
     1
  9
$INSUNITS
 70
     4
  9
$HYPERLINKBASE
  1

  9
$STYLESHEET
  1

  9
$XEDIT
290
     1
  9
$CEPSNTYPE
380
     0
  9
$PSTYLEMODE
290
     1
  9
$FINGERPRINTGUID
  2
{fa07f163-45d6-4b50-8285-916bc32443d4}
  9
$VERSIONGUID
  2
{FAEB1C32-E019-11D5-929B-00C0DF256EC4}
  9
$EXTNAMES
290
     1
  9
$PSVPSCALE
 40
0.0
  9
$OLESTARTUP
290
     0
  0
ENDSEC
  0
SECTION
  2
CLASSES
  0
CLASS
  1
ACDBDICTIONARYWDFLT
  2
AcDbDictionaryWithDefault
  3
ObjectDBX Classes
 90
        0
280
     0
281
     0
  0
CLASS
  1
VISUALSTYLE
  2
AcDbVisualStyle
  3
ObjectDBX Classes
 90
     4095
280
     0
281
     0
  0
CLASS
  1
MATERIAL
  2
AcDbMaterial
  3
ObjectDBX Classes
 90
     1153
280
     0
281
     0
  0
CLASS
  1
SCALE
  2
AcDbScale
  3
ObjectDBX Classes
 90
     1153
280
     0
281
     0
  0
CLASS
  1
TABLESTYLE
  2
AcDbTableStyle
  3
ObjectDBX Classes
 90
     4095
280
     0
281
     0
  0
CLASS
  1
MLEADERSTYLE
  2
AcDbMLeaderStyle
  3
ACDB_MLEADERSTYLE_CLASS
 90
     4095
280
     0
281
     0
  0
CLASS
  1
SUN
  2
AcDbSun
  3
SCENEOE
 90
     1153
280
     0
281
     0
  0
CLASS
  1
ACDBPLACEHOLDER
  2
AcDbPlaceHolder
  3
ObjectDBX Classes
 90
        0
280
     0
281
     0
  0
CLASS
  1
LAYOUT
  2
AcDbLayout
  3
ObjectDBX Classes
 90
        0
280
     0
281
     0
  0
ENDSEC
  0
SECTION
  2
TABLES
  0
TABLE
  2
VPORT
  5
8
330
0
100
AcDbSymbolTable
 70
     1
  0
VPORT
  5
29
330
8
100
AcDbSymbolTableRecord
100
AcDbViewportTableRecord
  2
*Active
 70
     0
 10
0.0
 20
0.0
 11
1.0
 21
1.0
 12
215.9
 22
139.7
 13
0.0
 23
0.0
 14
10.0
 24
10.0
 15
10.0
 25
10.0
 16
0.0
 26
0.0
 36
1.0
 17
0.0
 27
0.0
 37
0.0
 40
279.4
 41
1.5454545455
 42
50.0
 43
0.0
 44
0.0
 50
0.0
 51
0.0
 71
     0
 72
  2000
 73
     1
 74
     3
 75
     0
 76
     0
 77
     0
 78
     0
281
     0
 65
     1
110
0.0
120
0.0
130
0.0
111
1.0
121
0.0
131
0.0
112
0.0
122
1.0
132
0.0
 79
     0
146
0.0
  0
ENDTAB
  0
TABLE
  2
LTYPE
  5
5
330
0
100
AcDbSymbolTable
 70
     6
  0
LTYPE
  5
14
330
5
100
AcDbSymbolTableRecord
100
AcDbLinetypeTableRecord
  2
ByBlock
 70
     0
  3

 72
    65
 73
     0
 40
0.0
  0
LTYPE
  5
15
330
5
100
AcDbSymbolTableRecord
100
AcDbLinetypeTableRecord
  2
ByLayer
 70
     0
  3

 72
    65
 73
     0
 40
0.0
  0
LTYPE
  5
16
330
5
100
AcDbSymbolTableRecord
100
AcDbLinetypeTableRecord
  2
Continuous
 70
     0
  3
Solid line
 72
    65
 73
     0
 40
0.0
  0
LTYPE
  5
5E
330
5
100
AcDbSymbolTableRecord
100
AcDbLinetypeTableRecord
  2
HIDDEN
 70
     0
  3
Hidden __ __ __ __ __ __ __ __ __ __ __ __ __ __
 72
    65
 73
     2
 40
1.905
 49
1.27
 74
     0
 49
-0.635
 74
     0
  0
LTYPE
  5
5F
330
5
100
AcDbSymbolTableRecord
100
AcDbLinetypeTableRecord
  2
PHANTOM
 70
     0
  3
Phantom ______  __  __  ______  __  __  ______
 72
    65
 73
     6
 40
12.7
 49
6.35
 74
     0
 49
-1.27
 74
     0
 49
1.27
 74
     0
 49
-1.27
 74
     0
 49
1.27
 74
     0
 49
-1.27
 74
     0
  0
LTYPE
  5
60
330
5
100
AcDbSymbolTableRecord
100
AcDbLinetypeTableRecord
  2
CENTER
 70
     0
  3
Center ____ _ ____ _ ____ _ ____ _ ____ _ ____
 72
    65
 73
     4
 40
10.16
 49
6.35
 74
     0
 49
-1.27
 74
     0
 49
1.27
 74
     0
 49
-1.27
 74
     0
  0
LTYPE
  5
61
330
5
100
AcDbSymbolTableRecord
100
AcDbLinetypeTableRecord
  2
CENTERX2
 70
     0
  3
Center (2x) ________  __  ________  __  _____
 72
    65
 73
     4
 40
20.32
 49
12.7
 74
     0
 49
-2.54
 74
     0
 49
2.54
 74
     0
 49
-2.54
 74
     0
  0
LTYPE
  5
62
330
5
100
AcDbSymbolTableRecord
100
AcDbLinetypeTableRecord
  2
DOT2
 70
     0
  3
Dot (.5x) ........................................
 72
    65
 73
     2
 40
0.635
 49
0.0
 74
     0
 49
-0.635
 74
     0
  0
ENDTAB
  0
TABLE
  2
LAYER
  5
2
330
0
100
AcDbSymbolTable
 70
     1
  0
LAYER
  5
10
330
2
100
AcDbSymbolTableRecord
100
AcDbLayerTableRecord
  2
0
 70
     0
 62
     7
  6
Continuous
370
    -3
390
F
  0
ENDTAB
  0
TABLE
  2
STYLE
  5
3
330
0
100
AcDbSymbolTable
 70
     1
  0
STYLE
  5
11
330
3
100
AcDbSymbolTableRecord
100
AcDbTextStyleTableRecord
  2
Standard
 70
     0
 40
0.0
 41
1.0
 50
0.0
 71
     0
 42
3.5
  3
txt
  4

  0
ENDTAB
  0
TABLE
  2
VIEW
  5
6
330
0
100
AcDbSymbolTable
 70
     0
  0
ENDTAB
  0
TABLE
  2
UCS
  5
7
330
0
100
AcDbSymbolTable
 70
     0
  0
ENDTAB
  0
TABLE
  2
APPID
  5
9
330
0
100
AcDbSymbolTable
 70
     1
  0
APPID
  5
12
330
9
100
AcDbSymbolTableRecord
100
AcDbRegAppTableRecord
  2
ACAD
 70
     0
  0
ENDTAB
  0
TABLE
  2
DIMSTYLE
  5
A
330
0
100
AcDbSymbolTable
 70
     1
100
AcDbDimStyleTable
  0
DIMSTYLE
105
27
330
A
100
AcDbSymbolTableRecord
100
AcDbDimStyleTableRecord
  2
ISO-25
 70
     0
 41
2.5
 42
0.625
 43
3.75
 44
1.25
 73
     0
 74
     0
 77
     1
 78
     8
140
2.5
141
2.5
143
0.0393700787
147
0.625
171
     3
172
     1
178
     0
271
     2
272
     2
274
     3
278
    44
283
     0
284
     8
340
11
  0
ENDTAB
  0
TABLE
  2
BLOCK_RECORD
  5
1
330
0
100
AcDbSymbolTable
 70
     1
  0
BLOCK_RECORD
  5
1F
330
1
100
AcDbSymbolTableRecord
100
AcDbBlockTableRecord
  2
*Model_Space
340
22
  0
BLOCK_RECORD
  5
1B
330
1
100
AcDbSymbolTableRecord
100
AcDbBlockTableRecord
  2
*Paper_Space
340
1E
  0
BLOCK_RECORD
  5
23
330
1
100
AcDbSymbolTableRecord
100
AcDbBlockTableRecord
  2
*Paper_Space0
340
26
  0
ENDTAB
  0
ENDSEC
  0
SECTION
  2
BLOCKS
  0
BLOCK
  5
20
330
1F
100
AcDbEntity
  8
0
100
AcDbBlockBegin
  2
*Model_Space
 70
     0
 10
0.0
 20
0.0
 30
0.0
  3
*Model_Space
  1

  0
ENDBLK
  5
21
330
1F
100
AcDbEntity
  8
0
100
AcDbBlockEnd
  0
BLOCK
  5
1C
330
1B
100
AcDbEntity
 67
     1
  8
0
100
AcDbBlockBegin
  2
*Paper_Space
 70
     0
 10
0.0
 20
0.0
 30
0.0
  3
*Paper_Space
  1

  0
ENDBLK
  5
1D
330
1B
100
AcDbEntity
 67
     1
  8
0
100
AcDbBlockEnd
  0
BLOCK
  5
24
330
23
100
AcDbEntity
  8
0
100
AcDbBlockBegin
  2
*Paper_Space0
 70
     0
 10
0.0
 20
0.0
 30
0.0
  3
*Paper_Space0
  1

  0
ENDBLK
  5
25
330
23
100
AcDbEntity
  8
0
100
AcDbBlockEnd
  0
ENDSEC
  0
SECTION
  2
ENTITIES
  0
LINE
  5
63
330
1F
100
AcDbEntity
  8
0
  6
Continuous
 62
     7
370
    18
100
AcDbLine
 10
902.0295289457
 20
124.874939491
 30
0.0
 11
903.5295289457
 21
124.874939491
 31
0.0
  0
LINE
  5
64
330
1F
100
AcDbEntity
  8
0
  6
Continuous
 62
     7
370
    18
100
AcDbLine
 10
1153.5295289457
 20
124.874939491
 30
0.0
 11
1155.0295289457
 21
124.874939491
 31
0.0
  0
LINE
  5
65
330
1F
100
AcDbEntity
  8
0
  6
Continuous
 62
     7
370
    18
100
AcDbLine
 10
1152.5295289457
 20
151.7020289134
 30
0.0
 11
904.5295289457
 21
151.7020289134
 31
0.0
  0
LINE
  5
66
330
1F
100
AcDbEntity
  8
0
  6
Continuous
 62
     7
370
    18
100
AcDbLine
 10
904.5295289457
 20
151.7020289134
 30
0.0
 11
904.5295289457
 21
153.967798381
 31
0.0
  0
LINE
  5
67
330
1F
100
AcDbEntity
  8
0
  6
Continuous
 62
     7
370
    18
100
AcDbLine
 10
904.5295289457
 20
153.967798381
 30
0.0
 11
1152.5295289457
 21
153.967798381
 31
0.0
  0
LINE
  5
68
330
1F
100
AcDbEntity
  8
0
  6
Continuous
 62
     7
370
    18
100
AcDbLine
 10
1152.5295289457
 20
151.7020289134
 30
0.0
 11
1152.5295289457
 21
153.967798381
 31
0.0
  0
ARC
  5
69
330
1F
100
AcDbEntity
  8
0
  6
Continuous
 62
     7
370
    18
100
AcDbCircle
 10
907.5295289457
 20
127.3390991742
 30
0.0
 40
3.0
100
AcDbArc
 50
180.0
 51
270.0
  0
ARC
  5
6A
330
1F
100
AcDbEntity
  8
0
  6
Continuous
 62
     7
370
    18
100
AcDbCircle
 10
1149.5295289457
 20
127.3390991742
 30
0.0
 40
3.0
100
AcDbArc
 50
270.0
 51
0.0
  0
LINE
  5
6B
330
1F
100
AcDbEntity
  8
0
  6
Continuous
 62
     7
370
    18
100
AcDbLine
 10
1149.5295289457
 20
124.3390991742
 30
0.0
 11
907.5295289457
 21
124.3390991742
 31
0.0
  0
LINE
  5
6C
330
1F
100
AcDbEntity
  8
0
  6
Continuous
 62
     7
370
    18
100
AcDbLine
 10
1152.5295289457
 20
151.7020289134
 30
0.0
 11
1152.5295289457
 21
127.3390991742
 31
0.0
  0
LINE
  5
6D
330
1F
100
AcDbEntity
  8
0
  6
Continuous
 62
     7
370
    18
100
AcDbLine
 10
904.5295289457
 20
151.7020289134
 30
0.0
 11
904.5295289457
 21
127.3390991742
 31
0.0
  0
LINE
  5
6E
330
1F
100
AcDbEntity
  8
0
  6
Continuous
 62
     7
370
    18
100
AcDbLine
 10
922.0295289457
 20
157.1734115872
 30
0.0
 11
922.0295289457
 21
165.4567295174
 31
0.0
  0
LINE
  5
6F
330
1F
100
AcDbEntity
  8
0
  6
Continuous
 62
     7
370
    18
100
AcDbLine
 10
937.0295289457
 20
157.1734115872
 30
0.0
 11
922.0295289457
 21
157.1734115872
 31
0.0
  0
LINE
  5
70
330
1F
100
AcDbEntity
  8
0
  6
Continuous
 62
     7
370
    18
100
AcDbLine
 10
937.0295289457
 20
165.4567295174
 30
0.0
 11
937.0295289457
 21
157.1734115872
 31
0.0
  0
LINE
  5
71
330
1F
100
AcDbEntity
  8
0
  6
Continuous
 62
     7
370
    18
100
AcDbLine
 10
922.0295289457
 20
165.4567295174
 30
0.0
 11
937.0295289457
 21
165.4567295174
 31
0.0
  0
LINE
  5
72
330
1F
100
AcDbEntity
  8
0
  6
Continuous
 62
     7
370
    18
100
AcDbLine
 10
940.0295289457
 20
157.1734115872
 30
0.0
 11
940.0295289457
 21
165.4567295174
 31
0.0
  0
LINE
  5
73
330
1F
100
AcDbEntity
  8
0
  6
Continuous
 62
     7
370
    18
100
AcDbLine
 10
955.0295289457
 20
157.1734115872
 30
0.0
 11
940.0295289457
 21
157.1734115872
 31
0.0
  0
LINE
  5
74
330
1F
100
AcDbEntity
  8
0
  6
Continuous
 62
     7
370
    18
100
AcDbLine
 10
955.0295289457
 20
165.4567295174
 30
0.0
 11
955.0295289457
 21
157.1734115872
 31
0.0
  0
LINE
  5
75
330
1F
100
AcDbEntity
  8
0
  6
Continuous
 62
     7
370
    18
100
AcDbLine
 10
940.0295289457
 20
165.4567295174
 30
0.0
 11
955.0295289457
 21
165.4567295174
 31
0.0
  0
LINE
  5
76
330
1F
100
AcDbEntity
  8
0
  6
Continuous
 62
     7
370
    18
100
AcDbLine
 10
958.0295289457
 20
157.1734115872
 30
0.0
 11
958.0295289457
 21
165.4567295174
 31
0.0
  0
LINE
  5
77
330
1F
100
AcDbEntity
  8
0
  6
Continuous
 62
     7
370
    18
100
AcDbLine
 10
973.0295289457
 20
157.1734115872
 30
0.0
 11
958.0295289457
 21
157.1734115872
 31
0.0
  0
LINE
  5
78
330
1F
100
AcDbEntity
  8
0
  6
Continuous
 62
     7
370
    18
100
AcDbLine
 10
973.0295289457
 20
165.4567295174
 30
0.0
 11
973.0295289457
 21
157.1734115872
 31
0.0
  0
LINE
  5
79
330
1F
100
AcDbEntity
  8
0
  6
Continuous
 62
     7
370
    18
100
AcDbLine
 10
958.0295289457
 20
165.4567295174
 30
0.0
 11
973.0295289457
 21
165.4567295174
 31
0.0
  0
LINE
  5
7A
330
1F
100
AcDbEntity
  8
0
  6
Continuous
 62
     7
370
    18
100
AcDbLine
 10
976.0295289457
 20
157.1734115872
 30
0.0
 11
976.0295289457
 21
165.4567295174
 31
0.0
  0
LINE
  5
7B
330
1F
100
AcDbEntity
  8
0
  6
Continuous
 62
     7
370
    18
100
AcDbLine
 10
991.0295289457
 20
157.1734115872
 30
0.0
 11
976.0295289457
 21
157.1734115872
 31
0.0
  0
LINE
  5
7C
330
1F
100
AcDbEntity
  8
0
  6
Continuous
 62
     7
370
    18
100
AcDbLine
 10
991.0295289457
 20
165.4567295174
 30
0.0
 11
991.0295289457
 21
157.1734115872
 31
0.0
  0
LINE
  5
7D
330
1F
100
AcDbEntity
  8
0
  6
Continuous
 62
     7
370
    18
100
AcDbLine
 10
976.0295289457
 20
165.4567295174
 30
0.0
 11
991.0295289457
 21
165.4567295174
 31
0.0
  0
LINE
  5
7E
330
1F
100
AcDbEntity
  8
0
  6
Continuous
 62
     7
370
    18
100
AcDbLine
 10
1012.0295289457
 20
165.4567295174
 30
0.0
 11
1027.0295289457
 21
165.4567295174
 31
0.0
  0
LINE
  5
7F
330
1F
100
AcDbEntity
  8
0
  6
Continuous
 62
     7
370
    18
100
AcDbLine
 10
1012.0295289457
 20
157.1734115872
 30
0.0
 11
1012.0295289457
 21
165.4567295174
 31
0.0
  0
LINE
  5
80
330
1F
100
AcDbEntity
  8
0
  6
Continuous
 62
     7
370
    18
100
AcDbLine
 10
1027.0295289457
 20
157.1734115872
 30
0.0
 11
1012.0295289457
 21
157.1734115872
 31
0.0
  0
LINE
  5
81
330
1F
100
AcDbEntity
  8
0
  6
Continuous
 62
     7
370
    18
100
AcDbLine
 10
1027.0295289457
 20
165.4567295174
 30
0.0
 11
1027.0295289457
 21
157.1734115872
 31
0.0
  0
LINE
  5
82
330
1F
100
AcDbEntity
  8
0
  6
Continuous
 62
     7
370
    18
100
AcDbLine
 10
994.0295289457
 20
165.4567295174
 30
0.0
 11
1009.0295289457
 21
165.4567295174
 31
0.0
  0
LINE
  5
83
330
1F
100
AcDbEntity
  8
0
  6
Continuous
 62
     7
370
    18
100
AcDbLine
 10
994.0295289457
 20
157.1734115872
 30
0.0
 11
994.0295289457
 21
165.4567295174
 31
0.0
  0
LINE
  5
84
330
1F
100
AcDbEntity
  8
0
  6
Continuous
 62
     7
370
    18
100
AcDbLine
 10
1009.0295289457
 20
157.1734115872
 30
0.0
 11
994.0295289457
 21
157.1734115872
 31
0.0
  0
LINE
  5
85
330
1F
100
AcDbEntity
  8
0
  6
Continuous
 62
     7
370
    18
100
AcDbLine
 10
1009.0295289457
 20
165.4567295174
 30
0.0
 11
1009.0295289457
 21
157.1734115872
 31
0.0
  0
LINE
  5
86
330
1F
100
AcDbEntity
  8
0
  6
Continuous
 62
     7
370
    18
100
AcDbLine
 10
1120.0295289457
 20
165.4567295174
 30
0.0
 11
1120.0295289457
 21
157.1734115872
 31
0.0
  0
LINE
  5
87
330
1F
100
AcDbEntity
  8
0
  6
Continuous
 62
     7
370
    18
100
AcDbLine
 10
1120.0295289457
 20
157.1734115872
 30
0.0
 11
1135.0295289457
 21
157.1734115872
 31
0.0
  0
LINE
  5
88
330
1F
100
AcDbEntity
  8
0
  6
Continuous
 62
     7
370
    18
100
AcDbLine
 10
1135.0295289457
 20
157.1734115872
 30
0.0
 11
1135.0295289457
 21
165.4567295174
 31
0.0
  0
LINE
  5
89
330
1F
100
AcDbEntity
  8
0
  6
Continuous
 62
     7
370
    18
100
AcDbLine
 10
1135.0295289457
 20
165.4567295174
 30
0.0
 11
1120.0295289457
 21
165.4567295174
 31
0.0
  0
LINE
  5
8A
330
1F
100
AcDbEntity
  8
0
  6
Continuous
 62
     7
370
    18
100
AcDbLine
 10
1102.0295289457
 20
165.4567295174
 30
0.0
 11
1102.0295289457
 21
157.1734115872
 31
0.0
  0
LINE
  5
8B
330
1F
100
AcDbEntity
  8
0
  6
Continuous
 62
     7
370
    18
100
AcDbLine
 10
1102.0295289457
 20
157.1734115872
 30
0.0
 11
1117.0295289457
 21
157.1734115872
 31
0.0
  0
LINE
  5
8C
330
1F
100
AcDbEntity
  8
0
  6
Continuous
 62
     7
370
    18
100
AcDbLine
 10
1117.0295289457
 20
157.1734115872
 30
0.0
 11
1117.0295289457
 21
165.4567295174
 31
0.0
  0
LINE
  5
8D
330
1F
100
AcDbEntity
  8
0
  6
Continuous
 62
     7
370
    18
100
AcDbLine
 10
1117.0295289457
 20
165.4567295174
 30
0.0
 11
1102.0295289457
 21
165.4567295174
 31
0.0
  0
LINE
  5
8E
330
1F
100
AcDbEntity
  8
0
  6
Continuous
 62
     7
370
    18
100
AcDbLine
 10
1084.0295289457
 20
165.4567295174
 30
0.0
 11
1084.0295289457
 21
157.1734115872
 31
0.0
  0
LINE
  5
8F
330
1F
100
AcDbEntity
  8
0
  6
Continuous
 62
     7
370
    18
100
AcDbLine
 10
1084.0295289457
 20
157.1734115872
 30
0.0
 11
1099.0295289457
 21
157.1734115872
 31
0.0
  0
LINE
  5
90
330
1F
100
AcDbEntity
  8
0
  6
Continuous
 62
     7
370
    18
100
AcDbLine
 10
1099.0295289457
 20
157.1734115872
 30
0.0
 11
1099.0295289457
 21
165.4567295174
 31
0.0
  0
LINE
  5
91
330
1F
100
AcDbEntity
  8
0
  6
Continuous
 62
     7
370
    18
100
AcDbLine
 10
1099.0295289457
 20
165.4567295174
 30
0.0
 11
1084.0295289457
 21
165.4567295174
 31
0.0
  0
LINE
  5
92
330
1F
100
AcDbEntity
  8
0
  6
Continuous
 62
     7
370
    18
100
AcDbLine
 10
1066.0295289457
 20
165.4567295174
 30
0.0
 11
1066.0295289457
 21
157.1734115872
 31
0.0
  0
LINE
  5
93
330
1F
100
AcDbEntity
  8
0
  6
Continuous
 62
     7
370
    18
100
AcDbLine
 10
1066.0295289457
 20
157.1734115872
 30
0.0
 11
1081.0295289457
 21
157.1734115872
 31
0.0
  0
LINE
  5
94
330
1F
100
AcDbEntity
  8
0
  6
Continuous
 62
     7
370
    18
100
AcDbLine
 10
1081.0295289457
 20
157.1734115872
 30
0.0
 11
1081.0295289457
 21
165.4567295174
 31
0.0
  0
LINE
  5
95
330
1F
100
AcDbEntity
  8
0
  6
Continuous
 62
     7
370
    18
100
AcDbLine
 10
1081.0295289457
 20
165.4567295174
 30
0.0
 11
1066.0295289457
 21
165.4567295174
 31
0.0
  0
LINE
  5
96
330
1F
100
AcDbEntity
  8
0
  6
Continuous
 62
     7
370
    18
100
AcDbLine
 10
1152.5295289457
 20
169.3354365392
 30
0.0
 11
1152.5295289457
 21
154.2554966707
 31
0.0
  0
LINE
  5
97
330
1F
100
AcDbEntity
  8
0
  6
Continuous
 62
     7
370
    18
100
AcDbLine
 10
1152.5295289457
 20
154.2554966707
 30
0.0
 11
1152.5295289457
 21
153.967798381
 31
0.0
  0
LINE
  5
98
330
1F
100
AcDbEntity
  8
0
  6
Continuous
 62
     7
370
    18
100
AcDbLine
 10
904.5295289457
 20
169.3354365392
 30
0.0
 11
904.5295289457
 21
154.2554966707
 31
0.0
  0
LINE
  5
99
330
1F
100
AcDbEntity
  8
0
  6
Continuous
 62
     7
370
    18
100
AcDbLine
 10
1152.5295289457
 20
169.3354365392
 30
0.0
 11
904.5295289457
 21
169.3354365392
 31
0.0
  0
LINE
  5
9A
330
1F
100
AcDbEntity
  8
0
  6
Continuous
 62
     7
370
    18
100
AcDbLine
 10
1030.0295289457
 20
157.1734115872
 30
0.0
 11
1045.0295289457
 21
157.1734115872
 31
0.0
  0
LINE
  5
9B
330
1F
100
AcDbEntity
  8
0
  6
Continuous
 62
     7
370
    18
100
AcDbLine
 10
1045.0295289457
 20
157.1734115872
 30
0.0
 11
1045.0295289457
 21
165.4567295174
 31
0.0
  0
LINE
  5
9C
330
1F
100
AcDbEntity
  8
0
  6
Continuous
 62
     7
370
    18
100
AcDbLine
 10
1045.0295289457
 20
165.4567295174
 30
0.0
 11
1030.0295289457
 21
165.4567295174
 31
0.0
  0
LINE
  5
9D
330
1F
100
AcDbEntity
  8
0
  6
Continuous
 62
     7
370
    18
100
AcDbLine
 10
1030.0295289457
 20
165.4567295174
 30
0.0
 11
1030.0295289457
 21
157.1734115872
 31
0.0
  0
LINE
  5
9E
330
1F
100
AcDbEntity
  8
0
  6
Continuous
 62
     7
370
    18
100
AcDbLine
 10
1048.0295289457
 20
157.1734115872
 30
0.0
 11
1063.0295289457
 21
157.1734115872
 31
0.0
  0
LINE
  5
9F
330
1F
100
AcDbEntity
  8
0
  6
Continuous
 62
     7
370
    18
100
AcDbLine
 10
1063.0295289457
 20
157.1734115872
 30
0.0
 11
1063.0295289457
 21
165.4567295174
 31
0.0
  0
LINE
  5
A0
330
1F
100
AcDbEntity
  8
0
  6
Continuous
 62
     7
370
    18
100
AcDbLine
 10
1063.0295289457
 20
165.4567295174
 30
0.0
 11
1048.0295289457
 21
165.4567295174
 31
0.0
  0
LINE
  5
A1
330
1F
100
AcDbEntity
  8
0
  6
Continuous
 62
     7
370
    18
100
AcDbLine
 10
1048.0295289457
 20
165.4567295174
 30
0.0
 11
1048.0295289457
 21
157.1734115872
 31
0.0
  0
LINE
  5
A2
330
1F
100
AcDbEntity
  8
0
  6
Continuous
 62
     7
370
    18
100
AcDbLine
 10
904.5295289457
 20
154.2554966707
 30
0.0
 11
904.5295289457
 21
153.967798381
 31
0.0
  0
ARC
  5
A3
330
1F
100
AcDbEntity
  8
0
  6
Continuous
 62
     7
370
    18
100
AcDbCircle
 10
1152.6411578176
 20
166.9464982391
 30
0.0
 40
2.391544941346769
100
AcDbArc
 50
2.9521409374
 51
92.6753367005
  0
LINE
  5
A4
330
1F
100
AcDbEntity
  8
0
  6
Continuous
 62
     7
370
    18
100
AcDbLine
 10
1155.0295289457
 20
152.1815260629
 30
0.0
 11
1155.0295289457
 21
167.0696670716
 31
0.0
  0
ELLIPSE
  5
A5
330
1F
100
AcDbEntity
  8
0
  6
Continuous
 62
     7
370
    18
100
AcDbEllipse
 10
1152.5295289457
 20
152.1815260629
 30
0.0
 11
2.5
 21
0.0
 31
0.0
210
0.0
220
0.0
230
1.0
 40
0.8295882431
 41
0.0
 42
1.570796326794897
  0
LINE
  5
A6
330
1F
100
AcDbEntity
  8
0
  6
Continuous
 62
     7
370
    18
100
AcDbLine
 10
1155.0295289457
 20
152.1815260629
 30
0.0
 11
1153.5295289457
 21
152.1815260629
 31
0.0
  0
ELLIPSE
  5
A7
330
1F
100
AcDbEntity
  8
0
  6
Continuous
 62
     7
370
    18
100
AcDbEllipse
 10
1152.5295289457
 20
152.1815260629
 30
0.0
 11
1.0
 21
0.0
 31
0.0
210
0.0
220
0.0
230
1.0
 40
0.7145089272
 41
0.0
 42
1.570796326794897
  0
ELLIPSE
  5
A8
330
1F
100
AcDbEntity
  8
0
  6
Continuous
 62
     7
370
    18
100
AcDbEllipse
 10
904.5295289457
 20
152.1815260629
 30
0.0
 11
2.5
 21
0.0
 31
0.0
210
0.0
220
0.0
230
1.0
 40
0.8295882431
 41
1.570796326794897
 42
3.141592653589793
  0
LINE
  5
A9
330
1F
100
AcDbEntity
  8
0
  6
Continuous
 62
     7
370
    18
100
AcDbLine
 10
902.0295289457
 20
152.1815260629
 30
0.0
 11
902.0295289457
 21
167.0696670716
 31
0.0
  0
ARC
  5
AA
330
1F
100
AcDbEntity
  8
0
  6
Continuous
 62
     7
370
    18
100
AcDbCircle
 10
904.4179000737
 20
166.9464982391
 30
0.0
 40
2.391544941346941
100
AcDbArc
 50
87.3246632995
 51
177.0478590626
  0
ELLIPSE
  5
AB
330
1F
100
AcDbEntity
  8
0
  6
Continuous
 62
     7
370
    18
100
AcDbEllipse
 10
904.5295289457
 20
152.1815260629
 30
0.0
 11
1.0
 21
0.0
 31
0.0
210
0.0
220
0.0
230
1.0
 40
0.7145089272
 41
1.570796326794897
 42
3.141592653589793
  0
LINE
  5
AC
330
1F
100
AcDbEntity
  8
0
  6
Continuous
 62
     7
370
    18
100
AcDbLine
 10
902.0295289457
 20
152.1815260629
 30
0.0
 11
903.5295289457
 21
152.1815260629
 31
0.0
  0
LINE
  5
AD
330
1F
100
AcDbEntity
  8
0
  6
Continuous
 62
     7
370
    18
100
AcDbLine
 10
1155.0295289457
 20
125.5967780868
 30
0.0
 11
1155.0295289457
 21
152.1815260629
 31
0.0
  0
LINE
  5
AE
330
1F
100
AcDbEntity
  8
0
  6
Continuous
 62
     7
370
    18
100
AcDbLine
 10
1153.5295289457
 20
125.5967780868
 30
0.0
 11
1155.0295289457
 21
125.5967780868
 31
0.0
  0
LINE
  5
AF
330
1F
100
AcDbEntity
  8
0
  6
Continuous
 62
     7
370
    18
100
AcDbLine
 10
1153.5295289457
 20
125.5967780868
 30
0.0
 11
1153.5295289457
 21
152.1815260629
 31
0.0
  0
LINE
  5
B0
330
1F
100
AcDbEntity
  8
0
  6
Continuous
 62
     7
370
    18
100
AcDbLine
 10
903.5295289457
 20
125.5967780868
 30
0.0
 11
902.0295289457
 21
125.5967780868
 31
0.0
  0
LINE
  5
B1
330
1F
100
AcDbEntity
  8
0
  6
Continuous
 62
     7
370
    18
100
AcDbLine
 10
902.0295289457
 20
125.5967780868
 30
0.0
 11
902.0295289457
 21
152.1815260629
 31
0.0
  0
LINE
  5
B2
330
1F
100
AcDbEntity
  8
0
  6
Continuous
 62
     7
370
    18
100
AcDbLine
 10
903.5295289457
 20
125.5967780868
 30
0.0
 11
903.5295289457
 21
152.1815260629
 31
0.0
  0
LINE
  5
B3
330
1F
100
AcDbEntity
  8
0
  6
Continuous
 62
     7
370
    18
100
AcDbLine
 10
940.0295289457
 20
164.0972678368
 30
0.0
 11
955.0295289457
 21
164.0972678368
 31
0.0
  0
LINE
  5
B4
330
1F
100
AcDbEntity
  8
0
  6
Continuous
 62
     7
370
    18
100
AcDbLine
 10
1099.0295289457
 20
164.0972678368
 30
0.0
 11
1084.0295289457
 21
164.0972678368
 31
0.0
  0
LINE
  5
B5
330
1F
100
AcDbEntity
  8
0
  6
Continuous
 62
     7
370
    18
100
AcDbLine
 10
1081.0295289457
 20
164.0972678368
 30
0.0
 11
1066.0295289457
 21
164.0972678368
 31
0.0
  0
LINE
  5
B6
330
1F
100
AcDbEntity
  8
0
  6
Continuous
 62
     7
370
    18
100
AcDbLine
 10
994.0295289457
 20
164.0972678368
 30
0.0
 11
1009.0295289457
 21
164.0972678368
 31
0.0
  0
LINE
  5
B7
330
1F
100
AcDbEntity
  8
0
  6
Continuous
 62
     7
370
    18
100
AcDbLine
 10
1012.0295289457
 20
164.0972678368
 30
0.0
 11
1027.0295289457
 21
164.0972678368
 31
0.0
  0
LINE
  5
B8
330
1F
100
AcDbEntity
  8
0
  6
Continuous
 62
     7
370
    18
100
AcDbLine
 10
976.0295289457
 20
164.0972678368
 30
0.0
 11
991.0295289457
 21
164.0972678368
 31
0.0
  0
LINE
  5
B9
330
1F
100
AcDbEntity
  8
0
  6
Continuous
 62
     7
370
    18
100
AcDbLine
 10
1045.0295289457
 20
164.0972678368
 30
0.0
 11
1030.0295289457
 21
164.0972678368
 31
0.0
  0
LINE
  5
BA
330
1F
100
AcDbEntity
  8
0
  6
Continuous
 62
     7
370
    18
100
AcDbLine
 10
1063.0295289457
 20
164.0972678368
 30
0.0
 11
1048.0295289457
 21
164.0972678368
 31
0.0
  0
LINE
  5
BB
330
1F
100
AcDbEntity
  8
0
  6
Continuous
 62
     7
370
    18
100
AcDbLine
 10
1135.0295289457
 20
164.0972678368
 30
0.0
 11
1120.0295289457
 21
164.0972678368
 31
0.0
  0
LINE
  5
BC
330
1F
100
AcDbEntity
  8
0
  6
Continuous
 62
     7
370
    18
100
AcDbLine
 10
922.0295289457
 20
164.0972678368
 30
0.0
 11
937.0295289457
 21
164.0972678368
 31
0.0
  0
LINE
  5
BD
330
1F
100
AcDbEntity
  8
0
  6
Continuous
 62
     7
370
    18
100
AcDbLine
 10
1117.0295289457
 20
164.0972678368
 30
0.0
 11
1102.0295289457
 21
164.0972678368
 31
0.0
  0
LINE
  5
BE
330
1F
100
AcDbEntity
  8
0
  6
Continuous
 62
     7
370
    18
100
AcDbLine
 10
958.0295289457
 20
164.0972678368
 30
0.0
 11
973.0295289457
 21
164.0972678368
 31
0.0
  0
LINE
  5
BF
330
1F
100
AcDbEntity
  8
0
  6
Continuous
 62
     7
370
    18
100
AcDbLine
 10
903.5295289457
 20
124.874939491
 30
0.0
 11
903.5295289457
 21
125.5967780868
 31
0.0
  0
LINE
  5
C0
330
1F
100
AcDbEntity
  8
0
  6
Continuous
 62
     7
370
    18
100
AcDbLine
 10
902.0295289457
 20
125.5967780868
 30
0.0
 11
902.0295289457
 21
124.874939491
 31
0.0
  0
LINE
  5
C1
330
1F
100
AcDbEntity
  8
0
  6
Continuous
 62
     7
370
    18
100
AcDbLine
 10
1153.5295289457
 20
124.874939491
 30
0.0
 11
1153.5295289457
 21
125.5967780868
 31
0.0
  0
LINE
  5
C2
330
1F
100
AcDbEntity
  8
0
  6
Continuous
 62
     7
370
    18
100
AcDbLine
 10
1155.0295289457
 20
125.5967780868
 30
0.0
 11
1155.0295289457
 21
124.874939491
 31
0.0
  0
ELLIPSE
  5
C3
330
1F
100
AcDbEntity
  8
0
  6
Continuous
 62
     7
370
    18
100
AcDbEllipse
 10
1152.5295289457
 20
128.2447491697
 30
0.0
 11
0.0
 21
1.165769145387515
 31
0.0
210
0.0
220
0.0
230
1.0
 40
0.8578027682
 41
4.712388980384726
 42
6.283185307179586
  0
ELLIPSE
  5
C4
330
1F
100
AcDbEntity
  8
0
  6
Continuous
 62
     7
370
    18
100
AcDbEllipse
 10
904.5295289457
 20
128.2447491697
 30
0.0
 11
0.0
 21
1.165769145387515
 31
0.0
210
0.0
220
0.0
230
1.0
 40
0.8578027682
 41
0.0
 42
1.570796326794872
  0
LINE
  5
C5
330
1F
100
AcDbEntity
  8
0
  6
Continuous
 62
     7
370
    18
100
AcDbLine
 10
921.8295289457
 20
112.3390991742
 30
0.0
 11
921.8295289457
 21
124.3390991742
 31
0.0
  0
ARC
  5
C6
330
1F
100
AcDbEntity
  8
0
  6
Continuous
 62
     7
370
    18
100
AcDbCircle
 10
918.8295289457
 20
112.3390991742
 30
0.0
 40
3.000000000000014
100
AcDbArc
 50
270.0
 51
0.0
  0
LINE
  5
C7
330
1F
100
AcDbEntity
  8
0
  6
Continuous
 62
     7
370
    18
100
AcDbLine
 10
908.2295289457
 20
109.3390991742
 30
0.0
 11
918.8295289457
 21
109.3390991742
 31
0.0
  0
ARC
  5
C8
330
1F
100
AcDbEntity
  8
0
  6
Continuous
 62
     7
370
    18
100
AcDbCircle
 10
908.2295289457
 20
112.3390991742
 30
0.0
 40
3.000000000000014
100
AcDbArc
 50
180.0
 51
270.0
  0
LINE
  5
C9
330
1F
100
AcDbEntity
  8
0
  6
Continuous
 62
     7
370
    18
100
AcDbLine
 10
905.2295289457
 20
124.3390991742
 30
0.0
 11
905.2295289457
 21
112.3390991742
 31
0.0
  0
ARC
  5
CA
330
1F
100
AcDbEntity
  8
0
  6
Continuous
 62
     7
370
    18
100
AcDbCircle
 10
913.5295289457
 20
114.9390991742
 30
0.0
 40
2.600000000000136
100
AcDbArc
 50
180.0
 51
0.0
  0
LINE
  5
CB
330
1F
100
AcDbEntity
  8
0
  6
Continuous
 62
     7
370
    18
100
AcDbLine
 10
916.1295289457
 20
120.4792604672
 30
0.0
 11
916.1295289457
 21
114.9390991742
 31
0.0
  0
ARC
  5
CC
330
1F
100
AcDbEntity
  8
0
  6
Continuous
 62
     7
370
    18
100
AcDbCircle
 10
913.5295289457
 20
125.4390991742
 30
0.0
 40
5.600000000000024
100
AcDbArc
 50
191.3281888521
 51
242.3359955038
  0
ARC
  5
CD
330
1F
100
AcDbEntity
  8
0
  6
Continuous
 62
     7
370
    18
100
AcDbCircle
 10
913.5295289457
 20
125.4390991742
 30
0.0
 40
5.600000000000024
100
AcDbArc
 50
297.6640044962
 51
348.6718111479
  0
LINE
  5
CE
330
1F
100
AcDbEntity
  8
0
  6
Continuous
 62
     7
370
    18
100
AcDbLine
 10
910.9295289457
 20
114.9390991742
 30
0.0
 11
910.9295289457
 21
120.4792604672
 31
0.0
  0
LINE
  5
CF
330
1F
100
AcDbEntity
  8
0
  6
Continuous
 62
     7
370
    18
100
AcDbLine
 10
905.2295289457
 20
125.4129631458
 30
0.0
 11
905.2295289457
 21
124.3390991742
 31
0.0
  0
LINE
  5
D0
330
1F
100
AcDbEntity
  8
0
  6
Continuous
 62
     7
370
    18
100
AcDbLine
 10
1148.8295289457
 20
109.3390991742
 30
0.0
 11
1138.2295289457
 21
109.3390991742
 31
0.0
  0
ARC
  5
D1
330
1F
100
AcDbEntity
  8
0
  6
Continuous
 62
     7
370
    18
100
AcDbCircle
 10
1138.2295289457
 20
112.3390991742
 30
0.0
 40
3.000000000000014
100
AcDbArc
 50
180.0
 51
270.0
  0
LINE
  5
D2
330
1F
100
AcDbEntity
  8
0
  6
Continuous
 62
     7
370
    18
100
AcDbLine
 10
1135.2295289457
 20
112.3390991742
 30
0.0
 11
1135.2295289457
 21
124.3390991742
 31
0.0
  0
ARC
  5
D3
330
1F
100
AcDbEntity
  8
0
  6
Continuous
 62
     7
370
    18
100
AcDbCircle
 10
1143.5295289457
 20
125.4390991742
 30
0.0
 40
5.600000000000001
100
AcDbArc
 50
297.6640044962
 51
348.6718111479
  0
ARC
  5
D4
330
1F
100
AcDbEntity
  8
0
  6
Continuous
 62
     7
370
    18
100
AcDbCircle
 10
1143.5295289457
 20
125.4390991742
 30
0.0
 40
5.600000000000001
100
AcDbArc
 50
191.3281888521
 51
242.3359955038
  0
LINE
  5
D5
330
1F
100
AcDbEntity
  8
0
  6
Continuous
 62
     7
370
    18
100
AcDbLine
 10
1140.9295289457
 20
120.4792604672
 30
0.0
 11
1140.9295289457
 21
114.9390991742
 31
0.0
  0
ARC
  5
D6
330
1F
100
AcDbEntity
  8
0
  6
Continuous
 62
     7
370
    18
100
AcDbCircle
 10
1143.5295289457
 20
114.9390991742
 30
0.0
 40
2.600000000000136
100
AcDbArc
 50
180.0
 51
0.0
  0
LINE
  5
D7
330
1F
100
AcDbEntity
  8
0
  6
Continuous
 62
     7
370
    18
100
AcDbLine
 10
1146.1295289457
 20
114.9390991742
 30
0.0
 11
1146.1295289457
 21
120.4792604672
 31
0.0
  0
LINE
  5
D8
330
1F
100
AcDbEntity
  8
0
  6
Continuous
 62
     7
370
    18
100
AcDbLine
 10
1151.8295289457
 20
125.4129631458
 30
0.0
 11
1151.8295289457
 21
124.3390991742
 31
0.0
  0
LINE
  5
D9
330
1F
100
AcDbEntity
  8
0
  6
Continuous
 62
     7
370
    18
100
AcDbLine
 10
1151.8295289457
 20
124.3390991742
 30
0.0
 11
1151.8295289457
 21
112.3390991742
 31
0.0
  0
ARC
  5
DA
330
1F
100
AcDbEntity
  8
0
  6
Continuous
 62
     7
370
    18
100
AcDbCircle
 10
1148.8295289457
 20
112.3390991742
 30
0.0
 40
3.000000000000227
100
AcDbArc
 50
270.0
 51
0.0
  0
LINE
  5
DB
330
1F
100
AcDbEntity
  8
0
  6
Continuous
 62
     7
370
    18
100
AcDbLine
 10
856.5060287077
 20
166.6165131781
 30
0.0
 11
859.0060287077
 21
166.6165131781
 31
0.0
  0
LINE
  5
DC
330
1F
100
AcDbEntity
  8
0
  6
Continuous
 62
     7
370
    18
100
AcDbLine
 10
859.0060287077
 20
129.4105183151
 30
0.0
 11
859.0060287077
 21
166.6165131781
 31
0.0
  0
LINE
  5
DD
330
1F
100
AcDbEntity
  8
0
  6
Continuous
 62
     7
370
    18
100
AcDbLine
 10
859.0060287077
 20
129.4105183151
 30
0.0
 11
856.5060287077
 21
128.2447491697
 31
0.0
  0
LINE
  5
DE
330
1F
100
AcDbEntity
  8
0
  6
Continuous
 62
     7
370
    18
100
AcDbLine
 10
856.5060287077
 20
128.2447491697
 30
0.0
 11
856.5060287077
 21
166.6165131781
 31
0.0
  0
LINE
  5
DF
330
1F
100
AcDbEntity
  8
0
  6
Continuous
 62
     7
370
    18
100
AcDbLine
 10
815.6343136633
 20
152.1815260629
 30
0.0
 11
847.5620350898
 21
167.0696670716
 31
0.0
  0
LINE
  5
E0
330
1F
100
AcDbEntity
  8
0
  6
Continuous
 62
     7
370
    18
100
AcDbLine
 10
847.7733442207
 20
166.6165131781
 30
0.0
 11
847.5620350898
 21
167.0696670716
 31
0.0
  0
LINE
  5
E1
330
1F
100
AcDbEntity
  8
0
  6
Continuous
 62
     7
370
    18
100
AcDbLine
 10
856.5060287077
 20
166.6165131781
 30
0.0
 11
847.7733442207
 21
166.6165131781
 31
0.0
  0
LINE
  5
E2
330
1F
100
AcDbEntity
  8
0
  6
Continuous
 62
     7
370
    18
100
AcDbLine
 10
849.8822193282
 20
125.1560161299
 30
0.0
 11
856.5060287077
 21
128.2447491697
 31
0.0
  0
ARC
  5
E3
330
1F
100
AcDbEntity
  8
0
  6
Continuous
 62
     7
370
    18
100
AcDbCircle
 10
848.614364543
 20
127.874939491
 30
0.0
 40
3.000000000000036
100
AcDbArc
 50
229.4101987895
 51
295.0
  0
LINE
  5
E4
330
1F
100
AcDbEntity
  8
0
  6
Continuous
 62
     7
370
    18
100
AcDbLine
 10
846.6624473786
 20
125.5967780868
 30
0.0
 11
815.6343136633
 21
152.1815260629
 31
0.0
  0
LINE
  5
E5
330
1F
100
AcDbEntity
  8
0
  6
Continuous
 62
     7
370
    18
100
AcDbLine
 10
846.5054894355
 20
169.3354365392
 30
0.0
 11
847.5620350898
 21
167.0696670716
 31
0.0
  0
LINE
  5
E6
330
1F
100
AcDbEntity
  8
0
  6
Continuous
 62
     7
370
    18
100
AcDbLine
 10
815.6343136633
 20
152.1815260629
 30
0.0
 11
814.1664540267
 21
154.2554966707
 31
0.0
  0
LINE
  5
E7
330
1F
100
AcDbEntity
  8
0
  6
Continuous
 62
     7
370
    18
100
AcDbLine
 10
846.5054894355
 20
169.3354365392
 30
0.0
 11
814.1664540267
 21
154.2554966707
 31
0.0
  0
LINE
  5
E8
330
1F
100
AcDbEntity
  8
0
  6
Continuous
 62
     7
370
    18
100
AcDbLine
 10
815.6343136633
 20
152.1815260629
 30
0.0
 11
814.8003814193
 21
152.8960349902
 31
0.0
  0
LINE
  5
E9
330
1F
100
AcDbEntity
  8
0
  6
Continuous
 62
     7
370
    18
100
AcDbLine
 10
814.8003814193
 20
152.8960349902
 30
0.0
 11
814.1664540267
 21
154.2554966707
 31
0.0
  0
LINE
  5
EA
330
1F
100
AcDbEntity
  8
0
  6
Continuous
 62
     7
370
    18
100
AcDbLine
 10
814.183410446
 20
152.6083367004
 30
0.0
 11
813.5494830534
 21
153.967798381
 31
0.0
  0
LINE
  5
EB
330
1F
100
AcDbEntity
  8
0
  6
Continuous
 62
     7
370
    18
100
AcDbLine
 10
814.8003814193
 20
152.8960349902
 30
0.0
 11
814.183410446
 21
152.6083367004
 31
0.0
  0
LINE
  5
EC
330
1F
100
AcDbEntity
  8
0
  6
Continuous
 62
     7
370
    18
100
AcDbLine
 10
814.1664540267
 20
154.2554966707
 30
0.0
 11
813.5494830534
 21
153.967798381
 31
0.0
  0
LINE
  5
ED
330
1F
100
AcDbEntity
  8
0
  6
Continuous
 62
     7
370
    18
100
AcDbLine
 10
813.6060287077
 20
124.3390991742
 30
0.0
 11
812.1060287077
 21
124.3390991742
 31
0.0
  0
LINE
  5
EE
330
1F
100
AcDbEntity
  8
0
  6
Continuous
 62
     7
370
    18
100
AcDbLine
 10
812.1060287077
 20
124.3390991742
 30
0.0
 11
812.1060287077
 21
127.3390991742
 31
0.0
  0
LINE
  5
EF
330
1F
100
AcDbEntity
  8
0
  6
Continuous
 62
     7
370
    18
100
AcDbLine
 10
812.1060287077
 20
127.3390991742
 30
0.0
 11
813.6060287077
 21
127.3390991742
 31
0.0
  0
LINE
  5
F0
330
1F
100
AcDbEntity
  8
0
  6
Continuous
 62
     7
370
    18
100
AcDbLine
 10
813.6060287077
 20
127.3390991742
 30
0.0
 11
813.6060287077
 21
124.3390991742
 31
0.0
  0
LINE
  5
F1
330
1F
100
AcDbEntity
  8
0
  6
Continuous
 62
     7
370
    18
100
AcDbLine
 10
813.6060287077
 20
151.7020289134
 30
0.0
 11
812.1060287077
 21
151.7020289134
 31
0.0
  0
ARC
  5
F2
330
1F
100
AcDbEntity
  8
0
  6
Continuous
 62
     7
370
    18
100
AcDbCircle
 10
814.6060287077
 20
151.7020289134
 30
0.0
 40
2.5
100
AcDbArc
 50
115.0
 51
180.0
  0
ARC
  5
F3
330
1F
100
AcDbEntity
  8
0
  6
Continuous
 62
     7
370
    18
100
AcDbCircle
 10
814.6060287077
 20
151.7020289134
 30
0.0
 40
1.0
100
AcDbArc
 50
115.0
 51
180.0
  0
LINE
  5
F4
330
1F
100
AcDbEntity
  8
0
  6
Continuous
 62
     7
370
    18
100
AcDbLine
 10
812.1060287077
 20
151.7020289134
 30
0.0
 11
812.1060287077
 21
127.3390991742
 31
0.0
  0
LINE
  5
F5
330
1F
100
AcDbEntity
  8
0
  6
Continuous
 62
     7
370
    18
100
AcDbLine
 10
813.6060287077
 20
151.7020289134
 30
0.0
 11
813.6060287077
 21
127.3390991742
 31
0.0
  0
LINE
  5
F6
330
1F
100
AcDbEntity
  8
0
  6
Continuous
 62
     7
370
    18
100
AcDbLine
 10
857.5060287077
 20
112.3390991742
 30
0.0
 11
859.0060287077
 21
112.3390991742
 31
0.0
  0
LINE
  5
F7
330
1F
100
AcDbEntity
  8
0
  6
Continuous
 62
     7
370
    18
100
AcDbLine
 10
859.0060287077
 20
109.3390991742
 30
0.0
 11
857.5060287077
 21
109.3390991742
 31
0.0
  0
LINE
  5
F8
330
1F
100
AcDbEntity
  8
0
  6
Continuous
 62
     7
370
    18
100
AcDbLine
 10
857.5060287077
 20
109.3390991742
 30
0.0
 11
857.5060287077
 21
112.3390991742
 31
0.0
  0
LINE
  5
F9
330
1F
100
AcDbEntity
  8
0
  6
Continuous
 62
     7
370
    18
100
AcDbLine
 10
859.0060287077
 20
112.3390991742
 30
0.0
 11
859.0060287077
 21
109.3390991742
 31
0.0
  0
LINE
  5
FA
330
1F
100
AcDbEntity
  8
0
  6
Continuous
 62
     7
370
    18
100
AcDbLine
 10
857.5060287077
 20
124.3390991742
 30
0.0
 11
859.0060287077
 21
124.3390991742
 31
0.0
  0
LINE
  5
FB
330
1F
100
AcDbEntity
  8
0
  6
Continuous
 62
     7
370
    18
100
AcDbLine
 10
857.5060287077
 20
124.3390991742
 30
0.0
 11
857.5060287077
 21
112.3390991742
 31
0.0
  0
LINE
  5
FC
330
1F
100
AcDbEntity
  8
0
  6
Continuous
 62
     7
370
    18
100
AcDbLine
 10
859.0060287077
 20
124.3390991742
 30
0.0
 11
859.0060287077
 21
112.3390991742
 31
0.0
  0
LINE
  5
FD
330
1F
100
AcDbEntity
  8
0
  6
Continuous
 62
     7
370
    18
100
AcDbLine
 10
857.5060287077
 20
128.7110568279
 30
0.0
 11
857.5060287077
 21
124.3390991742
 31
0.0
  0
LINE
  5
FE
330
1F
100
AcDbEntity
  8
0
  6
Continuous
 62
     7
370
    18
100
AcDbLine
 10
859.0060287077
 20
129.4105183151
 30
0.0
 11
859.0060287077
 21
124.3390991742
 31
0.0
  0
LINE
  5
FF
330
1F
100
AcDbEntity
  8
0
  6
Continuous
 62
     7
370
    18
100
AcDbLine
 10
918.8295289457
 20
220.4031965551
 30
0.0
 11
918.8295289457
 21
218.9031965551
 31
0.0
  0
LINE
  5
100
330
1F
100
AcDbEntity
  8
0
  6
Continuous
 62
     7
370
    18
100
AcDbLine
 10
908.2295289457
 20
218.9031965551
 30
0.0
 11
918.8295289457
 21
218.9031965551
 31
0.0
  0
LINE
  5
101
330
1F
100
AcDbEntity
  8
0
  6
Continuous
 62
     7
370
    18
100
AcDbLine
 10
908.2295289457
 20
218.9031965551
 30
0.0
 11
908.2295289457
 21
220.4031965551
 31
0.0
  0
LINE
  5
102
330
1F
100
AcDbEntity
  8
0
  6
Continuous
 62
     7
370
    18
100
AcDbLine
 10
908.2295289457
 20
220.4031965551
 30
0.0
 11
918.8295289457
 21
220.4031965551
 31
0.0
  0
LINE
  5
103
330
1F
100
AcDbEntity
  8
0
  6
Continuous
 62
     7
370
    18
100
AcDbLine
 10
1138.2295289457
 20
220.4031965551
 30
0.0
 11
1138.2295289457
 21
218.9031965551
 31
0.0
  0
LINE
  5
104
330
1F
100
AcDbEntity
  8
0
  6
Continuous
 62
     7
370
    18
100
AcDbLine
 10
1138.2295289457
 20
218.9031965551
 30
0.0
 11
1135.2295289457
 21
218.9031965551
 31
0.0
  0
LINE
  5
105
330
1F
100
AcDbEntity
  8
0
  6
Continuous
 62
     7
370
    18
100
AcDbLine
 10
1135.2295289457
 20
218.9031965551
 30
0.0
 11
1135.2295289457
 21
220.4031965551
 31
0.0
  0
LINE
  5
106
330
1F
100
AcDbEntity
  8
0
  6
Continuous
 62
     7
370
    18
100
AcDbLine
 10
1135.2295289457
 20
220.4031965551
 30
0.0
 11
1138.2295289457
 21
220.4031965551
 31
0.0
  0
LINE
  5
107
330
1F
100
AcDbEntity
  8
0
  6
Continuous
 62
     7
370
    18
100
AcDbLine
 10
1151.8295289457
 20
220.4031965551
 30
0.0
 11
1151.8295289457
 21
218.9031965551
 31
0.0
  0
LINE
  5
108
330
1F
100
AcDbEntity
  8
0
  6
Continuous
 62
     7
370
    18
100
AcDbLine
 10
1151.8295289457
 20
218.9031965551
 30
0.0
 11
1148.8295289457
 21
218.9031965551
 31
0.0
  0
LINE
  5
109
330
1F
100
AcDbEntity
  8
0
  6
Continuous
 62
     7
370
    18
100
AcDbLine
 10
1148.8295289457
 20
218.9031965551
 30
0.0
 11
1148.8295289457
 21
220.4031965551
 31
0.0
  0
LINE
  5
10A
330
1F
100
AcDbEntity
  8
0
  6
Continuous
 62
     7
370
    18
100
AcDbLine
 10
1148.8295289457
 20
220.4031965551
 30
0.0
 11
1151.8295289457
 21
220.4031965551
 31
0.0
  0
LINE
  5
10B
330
1F
100
AcDbEntity
  8
0
  6
Continuous
 62
     7
370
    18
100
AcDbLine
 10
1148.8295289457
 20
218.9031965551
 30
0.0
 11
1138.2295289457
 21
218.9031965551
 31
0.0
  0
LINE
  5
10C
330
1F
100
AcDbEntity
  8
0
  6
Continuous
 62
     7
370
    18
100
AcDbLine
 10
1148.8295289457
 20
220.4031965551
 30
0.0
 11
1138.2295289457
 21
220.4031965551
 31
0.0
  0
LINE
  5
10D
330
1F
100
AcDbEntity
  8
0
  6
Continuous
 62
     7
370
    18
100
AcDbLine
 10
921.8295289457
 20
218.9031965551
 30
0.0
 11
921.8295289457
 21
220.4031965551
 31
0.0
  0
LINE
  5
10E
330
1F
100
AcDbEntity
  8
0
  6
Continuous
 62
     7
370
    18
100
AcDbLine
 10
921.8295289457
 20
220.4031965551
 30
0.0
 11
918.8295289457
 21
220.4031965551
 31
0.0
  0
LINE
  5
10F
330
1F
100
AcDbEntity
  8
0
  6
Continuous
 62
     7
370
    18
100
AcDbLine
 10
918.8295289457
 20
218.9031965551
 30
0.0
 11
921.8295289457
 21
218.9031965551
 31
0.0
  0
LINE
  5
110
330
1F
100
AcDbEntity
  8
0
  6
Continuous
 62
     7
370
    18
100
AcDbLine
 10
905.2295289457
 20
220.4031965551
 30
0.0
 11
905.2295289457
 21
218.9031965551
 31
0.0
  0
LINE
  5
111
330
1F
100
AcDbEntity
  8
0
  6
Continuous
 62
     7
370
    18
100
AcDbLine
 10
908.2295289457
 20
220.4031965551
 30
0.0
 11
905.2295289457
 21
220.4031965551
 31
0.0
  0
LINE
  5
112
330
1F
100
AcDbEntity
  8
0
  6
Continuous
 62
     7
370
    18
100
AcDbLine
 10
905.2295289457
 20
218.9031965551
 30
0.0
 11
908.2295289457
 21
218.9031965551
 31
0.0
  0
LINE
  5
113
330
1F
100
AcDbEntity
  8
0
  6
Continuous
 62
     7
370
    18
100
AcDbLine
 10
904.5295289457
 20
265.8031965551
 30
0.0
 11
904.5295289457
 21
264.3031965551
 31
0.0
  0
LINE
  5
114
330
1F
100
AcDbEntity
  8
0
  6
Continuous
 62
     7
370
    18
100
AcDbLine
 10
907.5295289457
 20
265.8031965551
 30
0.0
 11
904.5295289457
 21
265.8031965551
 31
0.0
  0
LINE
  5
115
330
1F
100
AcDbEntity
  8
0
  6
Continuous
 62
     7
370
    18
100
AcDbLine
 10
907.5295289457
 20
264.3031965551
 30
0.0
 11
907.5295289457
 21
265.8031965551
 31
0.0
  0
LINE
  5
116
330
1F
100
AcDbEntity
  8
0
  6
Continuous
 62
     7
370
    18
100
AcDbLine
 10
904.5295289457
 20
264.3031965551
 30
0.0
 11
907.5295289457
 21
264.3031965551
 31
0.0
  0
LINE
  5
117
330
1F
100
AcDbEntity
  8
0
  6
Continuous
 62
     7
370
    18
100
AcDbLine
 10
1149.5295289457
 20
264.3031965551
 30
0.0
 11
1149.5295289457
 21
265.8031965551
 31
0.0
  0
LINE
  5
118
330
1F
100
AcDbEntity
  8
0
  6
Continuous
 62
     7
370
    18
100
AcDbLine
 10
1149.5295289457
 20
265.8031965551
 30
0.0
 11
1152.5295289457
 21
265.8031965551
 31
0.0
  0
LINE
  5
119
330
1F
100
AcDbEntity
  8
0
  6
Continuous
 62
     7
370
    18
100
AcDbLine
 10
1152.5295289457
 20
265.8031965551
 30
0.0
 11
1152.5295289457
 21
264.3031965551
 31
0.0
  0
LINE
  5
11A
330
1F
100
AcDbEntity
  8
0
  6
Continuous
 62
     7
370
    18
100
AcDbLine
 10
1152.5295289457
 20
264.3031965551
 30
0.0
 11
1149.5295289457
 21
264.3031965551
 31
0.0
  0
LINE
  5
11B
330
1F
100
AcDbEntity
  8
0
  6
Continuous
 62
     7
370
    18
100
AcDbLine
 10
1149.5295289457
 20
265.8031965551
 30
0.0
 11
907.5295289457
 21
265.8031965551
 31
0.0
  0
LINE
  5
11C
330
1F
100
AcDbEntity
  8
0
  6
Continuous
 62
     7
370
    18
100
AcDbLine
 10
1149.5295289457
 20
264.3031965551
 30
0.0
 11
907.5295289457
 21
264.3031965551
 31
0.0
  0
LINE
  5
11D
330
1F
100
AcDbEntity
  8
0
  6
Continuous
 62
     7
370
    18
100
AcDbLine
 10
902.0295289457
 20
228.0270059347
 30
0.0
 11
903.5295289457
 21
228.0270059347
 31
0.0
  0
LINE
  5
11E
330
1F
100
AcDbEntity
  8
0
  6
Continuous
 62
     7
370
    18
100
AcDbLine
 10
903.5295289457
 20
231.2467778843
 30
0.0
 11
902.0295289457
 21
231.2467778843
 31
0.0
  0
LINE
  5
11F
330
1F
100
AcDbEntity
  8
0
  6
Continuous
 62
     7
370
    18
100
AcDbLine
 10
902.0295289457
 20
231.2467778843
 30
0.0
 11
902.0295289457
 21
228.0270059347
 31
0.0
  0
LINE
  5
120
330
1F
100
AcDbEntity
  8
0
  6
Continuous
 62
     7
370
    18
100
AcDbLine
 10
903.5295289457
 20
228.0270059347
 30
0.0
 11
903.5295289457
 21
231.2467778843
 31
0.0
  0
LINE
  5
121
330
1F
100
AcDbEntity
  8
0
  6
Continuous
 62
     7
370
    18
100
AcDbLine
 10
1153.5295289457
 20
231.2467778843
 30
0.0
 11
1155.0295289457
 21
231.2467778843
 31
0.0
  0
LINE
  5
122
330
1F
100
AcDbEntity
  8
0
  6
Continuous
 62
     7
370
    18
100
AcDbLine
 10
1155.0295289457
 20
228.0270059347
 30
0.0
 11
1153.5295289457
 21
228.0270059347
 31
0.0
  0
LINE
  5
123
330
1F
100
AcDbEntity
  8
0
  6
Continuous
 62
     7
370
    18
100
AcDbLine
 10
1155.0295289457
 20
231.2467778843
 30
0.0
 11
1155.0295289457
 21
228.0270059347
 31
0.0
  0
LINE
  5
124
330
1F
100
AcDbEntity
  8
0
  6
Continuous
 62
     7
370
    18
100
AcDbLine
 10
1153.5295289457
 20
228.0270059347
 30
0.0
 11
1153.5295289457
 21
231.2467778843
 31
0.0
  0
LINE
  5
125
330
1F
100
AcDbEntity
  8
0
  6
Continuous
 62
     7
370
    18
100
AcDbLine
 10
903.5295289457
 20
221.4031965551
 30
0.0
 11
902.0295289457
 21
221.4031965551
 31
0.0
  0
LINE
  5
126
330
1F
100
AcDbEntity
  8
0
  6
Continuous
 62
     7
370
    18
100
AcDbLine
 10
902.0295289457
 20
228.0270059347
 30
0.0
 11
902.0295289457
 21
221.4031965551
 31
0.0
  0
LINE
  5
127
330
1F
100
AcDbEntity
  8
0
  6
Continuous
 62
     7
370
    18
100
AcDbLine
 10
903.5295289457
 20
228.0270059347
 30
0.0
 11
903.5295289457
 21
221.4031965551
 31
0.0
  0
LINE
  5
128
330
1F
100
AcDbEntity
  8
0
  6
Continuous
 62
     7
370
    18
100
AcDbLine
 10
1153.5295289457
 20
221.4031965551
 30
0.0
 11
1155.0295289457
 21
221.4031965551
 31
0.0
  0
LINE
  5
129
330
1F
100
AcDbEntity
  8
0
  6
Continuous
 62
     7
370
    18
100
AcDbLine
 10
1155.0295289457
 20
228.0270059347
 30
0.0
 11
1155.0295289457
 21
221.4031965551
 31
0.0
  0
LINE
  5
12A
330
1F
100
AcDbEntity
  8
0
  6
Continuous
 62
     7
370
    18
100
AcDbLine
 10
1153.5295289457
 20
228.0270059347
 30
0.0
 11
1153.5295289457
 21
221.4031965551
 31
0.0
  0
LINE
  5
12B
330
1F
100
AcDbEntity
  8
0
  6
Continuous
 62
     7
370
    18
100
AcDbLine
 10
902.0295289457
 20
262.2749115996
 30
0.0
 11
903.5295289457
 21
262.2749115996
 31
0.0
  0
LINE
  5
12C
330
1F
100
AcDbEntity
  8
0
  6
Continuous
 62
     7
370
    18
100
AcDbLine
 10
902.0295289457
 20
231.2467778843
 30
0.0
 11
902.0295289457
 21
262.2749115996
 31
0.0
  0
LINE
  5
12D
330
1F
100
AcDbEntity
  8
0
  6
Continuous
 62
     7
370
    18
100
AcDbLine
 10
903.5295289457
 20
231.2467778843
 30
0.0
 11
903.5295289457
 21
262.2749115996
 31
0.0
  0
LINE
  5
12E
330
1F
100
AcDbEntity
  8
0
  6
Continuous
 62
     7
370
    18
100
AcDbLine
 10
1155.0295289457
 20
262.2749115996
 30
0.0
 11
1153.5295289457
 21
262.2749115996
 31
0.0
  0
LINE
  5
12F
330
1F
100
AcDbEntity
  8
0
  6
Continuous
 62
     7
370
    18
100
AcDbLine
 10
1155.0295289457
 20
231.2467778843
 30
0.0
 11
1155.0295289457
 21
262.2749115996
 31
0.0
  0
LINE
  5
130
330
1F
100
AcDbEntity
  8
0
  6
Continuous
 62
     7
370
    18
100
AcDbLine
 10
1153.5295289457
 20
231.2467778843
 30
0.0
 11
1153.5295289457
 21
262.2749115996
 31
0.0
  0
LINE
  5
131
330
1F
100
AcDbEntity
  8
0
  6
Continuous
 62
     7
370
    18
100
AcDbLine
 10
1152.5295289457
 20
218.9031965551
 30
0.0
 11
1152.5295289457
 21
220.4031965551
 31
0.0
  0
ARC
  5
132
330
1F
100
AcDbEntity
  8
0
  6
Continuous
 62
     7
370
    18
100
AcDbCircle
 10
1152.5295289457
 20
221.4031965551
 30
0.0
 40
1.0
100
AcDbArc
 50
270.0
 51
0.0
  0
ARC
  5
133
330
1F
100
AcDbEntity
  8
0
  6
Continuous
 62
     7
370
    18
100
AcDbCircle
 10
1152.5295289457
 20
221.4031965551
 30
0.0
 40
2.5
100
AcDbArc
 50
270.0
 51
0.0
  0
ARC
  5
134
330
1F
100
AcDbEntity
  8
0
  6
Continuous
 62
     7
370
    18
100
AcDbCircle
 10
904.5295289457
 20
221.4031965551
 30
0.0
 40
1.0
100
AcDbArc
 50
180.0
 51
270.0
  0
LINE
  5
135
330
1F
100
AcDbEntity
  8
0
  6
Continuous
 62
     7
370
    18
100
AcDbLine
 10
904.5295289457
 20
218.9031965551
 30
0.0
 11
904.5295289457
 21
220.4031965551
 31
0.0
  0
ARC
  5
136
330
1F
100
AcDbEntity
  8
0
  6
Continuous
 62
     7
370
    18
100
AcDbCircle
 10
904.5295289457
 20
221.4031965551
 30
0.0
 40
2.5
100
AcDbArc
 50
180.0
 51
270.0
  0
LINE
  5
137
330
1F
100
AcDbEntity
  8
0
  6
Continuous
 62
     7
370
    18
100
AcDbLine
 10
1151.8295289457
 20
220.4031965551
 30
0.0
 11
1152.5295289457
 21
220.4031965551
 31
0.0
  0
LINE
  5
138
330
1F
100
AcDbEntity
  8
0
  6
Continuous
 62
     7
370
    18
100
AcDbLine
 10
1151.8295289457
 20
218.9031965551
 30
0.0
 11
1152.5295289457
 21
218.9031965551
 31
0.0
  0
LINE
  5
139
330
1F
100
AcDbEntity
  8
0
  6
Continuous
 62
     7
370
    18
100
AcDbLine
 10
905.2295289457
 20
220.4031965551
 30
0.0
 11
904.5295289457
 21
220.4031965551
 31
0.0
  0
LINE
  5
13A
330
1F
100
AcDbEntity
  8
0
  6
Continuous
 62
     7
370
    18
100
AcDbLine
 10
905.2295289457
 20
218.9031965551
 30
0.0
 11
904.5295289457
 21
218.9031965551
 31
0.0
  0
LINE
  5
13B
330
1F
100
AcDbEntity
  8
0
  6
Continuous
 62
     7
370
    18
100
AcDbLine
 10
904.5295289457
 20
263.7258148169
 30
0.0
 11
1152.5295289457
 21
263.7258148169
 31
0.0
  0
LINE
  5
13C
330
1F
100
AcDbEntity
  8
0
  6
Continuous
 62
     7
370
    18
100
AcDbLine
 10
1152.5295289457
 20
264.3031965551
 30
0.0
 11
1152.5295289457
 21
263.7258148169
 31
0.0
  0
LINE
  5
13D
330
1F
100
AcDbEntity
  8
0
  6
Continuous
 62
     7
370
    18
100
AcDbLine
 10
904.5295289457
 20
264.3031965551
 30
0.0
 11
904.5295289457
 21
263.7258148169
 31
0.0
  0
LWPOLYLINE
  5
13E
330
1F
100
AcDbEntity
  8
0
  6
Continuous
 62
     7
370
    18
100
AcDbPolyline
 90
        9
 70
   128
 43
0.0
 10
1152.5295289457
 20
230.7698084348
 10
1152.7246192677
 20
230.7616879434
 10
1152.912212378
 20
230.7376385351
 10
1153.0850991787
 20
230.6985844153
 10
1153.2366357268
 20
230.6460264118
 10
1153.360998558
 20
230.5819842992
 10
1153.4534084782
 20
230.50891918
 10
1153.5103142261
 20
230.4296389058
 10
1153.5295289457
 20
230.347190173
  0
LINE
  5
13F
330
1F
100
AcDbEntity
  8
0
  6
Continuous
 62
     7
370
    18
100
AcDbLine
 10
1152.5295289457
 20
230.7698084348
 30
0.0
 11
1152.5295289457
 21
263.1088438435
 31
0.0
  0
ELLIPSE
  5
140
330
1F
100
AcDbEntity
  8
0
  6
Continuous
 62
     7
370
    18
100
AcDbEllipse
 10
1152.5295289457
 20
262.2749115996
 30
0.0
 11
1.0
 21
0.0
 31
0.0
210
0.0
220
0.0
230
1.0
 40
0.833932244
 41
0.0
 42
1.570796326794897
  0
LINE
  5
141
330
1F
100
AcDbEntity
  8
0
  6
Continuous
 62
     7
370
    18
100
AcDbLine
 10
904.5295289457
 20
230.7698084348
 30
0.0
 11
904.5295289457
 21
263.1088438435
 31
0.0
  0
LWPOLYLINE
  5
142
330
1F
100
AcDbEntity
  8
0
  6
Continuous
 62
     7
370
    18
100
AcDbPolyline
 90
        9
 70
   128
 43
0.0
 10
904.5295289457
 20
230.7698084348
 10
904.3344386236
 20
230.7616879434
 10
904.1468455133
 20
230.7376385351
 10
903.9739587126
 20
230.6985844153
 10
903.8224221645
 20
230.6460264118
 10
903.6980593334
 20
230.5819842992
 10
903.6056494131
 20
230.50891918
 10
903.5487436653
 20
230.4296389058
 10
903.5295289457
 20
230.347190173
  0
ELLIPSE
  5
143
330
1F
100
AcDbEntity
  8
0
  6
Continuous
 62
     7
370
    18
100
AcDbEllipse
 10
904.5295289457
 20
262.2749115996
 30
0.0
 11
1.0
 21
0.0
 31
0.0
210
0.0
220
0.0
230
1.0
 40
0.833932244
 41
1.570796326794897
 42
3.141592653589793
  0
ELLIPSE
  5
144
330
1F
100
AcDbEntity
  8
0
  6
Continuous
 62
     7
370
    18
100
AcDbEllipse
 10
904.5295289457
 20
262.2749115996
 30
0.0
 11
2.5
 21
0.0
 31
0.0
210
0.0
220
0.0
230
1.0
 40
0.5871438546
 41
1.570796326794897
 42
3.141592653589793
  0
ELLIPSE
  5
145
330
1F
100
AcDbEntity
  8
0
  6
Continuous
 62
     7
370
    18
100
AcDbEllipse
 10
1152.5295289457
 20
262.2749115996
 30
0.0
 11
2.5
 21
0.0
 31
0.0
210
0.0
220
0.0
230
1.0
 40
0.5871438546
 41
0.0
 42
1.570796326794897
  0
LINE
  5
146
330
1F
100
AcDbEntity
  8
0
  6
Continuous
 62
     7
370
    18
100
AcDbLine
 10
937.0295289457
 20
239.0877224857
 30
0.0
 11
937.0295289457
 21
256.8513551116
 31
0.0
  0
LINE
  5
147
330
1F
100
AcDbEntity
  8
0
  6
Continuous
 62
     7
370
    18
100
AcDbLine
 10
937.0295289457
 20
256.8513551116
 30
0.0
 11
922.0295289457
 21
256.8513551116
 31
0.0
  0
LINE
  5
148
330
1F
100
AcDbEntity
  8
0
  6
Continuous
 62
     7
370
    18
100
AcDbLine
 10
922.0295289457
 20
256.8513551116
 30
0.0
 11
922.0295289457
 21
239.0877224857
 31
0.0
  0
LINE
  5
149
330
1F
100
AcDbEntity
  8
0
  6
Continuous
 62
     7
370
    18
100
AcDbLine
 10
922.0295289457
 20
239.0877224857
 30
0.0
 11
937.0295289457
 21
239.0877224857
 31
0.0
  0
LINE
  5
14A
330
1F
100
AcDbEntity
  8
0
  6
Continuous
 62
     7
370
    18
100
AcDbLine
 10
955.0295289457
 20
239.0877224857
 30
0.0
 11
955.0295289457
 21
256.8513551116
 31
0.0
  0
LINE
  5
14B
330
1F
100
AcDbEntity
  8
0
  6
Continuous
 62
     7
370
    18
100
AcDbLine
 10
955.0295289457
 20
256.8513551116
 30
0.0
 11
940.0295289457
 21
256.8513551116
 31
0.0
  0
LINE
  5
14C
330
1F
100
AcDbEntity
  8
0
  6
Continuous
 62
     7
370
    18
100
AcDbLine
 10
940.0295289457
 20
256.8513551116
 30
0.0
 11
940.0295289457
 21
239.0877224857
 31
0.0
  0
LINE
  5
14D
330
1F
100
AcDbEntity
  8
0
  6
Continuous
 62
     7
370
    18
100
AcDbLine
 10
940.0295289457
 20
239.0877224857
 30
0.0
 11
955.0295289457
 21
239.0877224857
 31
0.0
  0
LINE
  5
14E
330
1F
100
AcDbEntity
  8
0
  6
Continuous
 62
     7
370
    18
100
AcDbLine
 10
973.0295289457
 20
239.0877224857
 30
0.0
 11
973.0295289457
 21
256.8513551116
 31
0.0
  0
LINE
  5
14F
330
1F
100
AcDbEntity
  8
0
  6
Continuous
 62
     7
370
    18
100
AcDbLine
 10
973.0295289457
 20
256.8513551116
 30
0.0
 11
958.0295289457
 21
256.8513551116
 31
0.0
  0
LINE
  5
150
330
1F
100
AcDbEntity
  8
0
  6
Continuous
 62
     7
370
    18
100
AcDbLine
 10
958.0295289457
 20
256.8513551116
 30
0.0
 11
958.0295289457
 21
239.0877224857
 31
0.0
  0
LINE
  5
151
330
1F
100
AcDbEntity
  8
0
  6
Continuous
 62
     7
370
    18
100
AcDbLine
 10
958.0295289457
 20
239.0877224857
 30
0.0
 11
973.0295289457
 21
239.0877224857
 31
0.0
  0
LINE
  5
152
330
1F
100
AcDbEntity
  8
0
  6
Continuous
 62
     7
370
    18
100
AcDbLine
 10
991.0295289457
 20
239.0877224857
 30
0.0
 11
991.0295289457
 21
256.8513551116
 31
0.0
  0
LINE
  5
153
330
1F
100
AcDbEntity
  8
0
  6
Continuous
 62
     7
370
    18
100
AcDbLine
 10
991.0295289457
 20
256.8513551116
 30
0.0
 11
976.0295289457
 21
256.8513551116
 31
0.0
  0
LINE
  5
154
330
1F
100
AcDbEntity
  8
0
  6
Continuous
 62
     7
370
    18
100
AcDbLine
 10
976.0295289457
 20
256.8513551116
 30
0.0
 11
976.0295289457
 21
239.0877224857
 31
0.0
  0
LINE
  5
155
330
1F
100
AcDbEntity
  8
0
  6
Continuous
 62
     7
370
    18
100
AcDbLine
 10
976.0295289457
 20
239.0877224857
 30
0.0
 11
991.0295289457
 21
239.0877224857
 31
0.0
  0
LINE
  5
156
330
1F
100
AcDbEntity
  8
0
  6
Continuous
 62
     7
370
    18
100
AcDbLine
 10
1027.0295289457
 20
256.8513551116
 30
0.0
 11
1012.0295289457
 21
256.8513551116
 31
0.0
  0
LINE
  5
157
330
1F
100
AcDbEntity
  8
0
  6
Continuous
 62
     7
370
    18
100
AcDbLine
 10
1012.0295289457
 20
256.8513551116
 30
0.0
 11
1012.0295289457
 21
239.0877224857
 31
0.0
  0
LINE
  5
158
330
1F
100
AcDbEntity
  8
0
  6
Continuous
 62
     7
370
    18
100
AcDbLine
 10
1012.0295289457
 20
239.0877224857
 30
0.0
 11
1027.0295289457
 21
239.0877224857
 31
0.0
  0
LINE
  5
159
330
1F
100
AcDbEntity
  8
0
  6
Continuous
 62
     7
370
    18
100
AcDbLine
 10
1027.0295289457
 20
239.0877224857
 30
0.0
 11
1027.0295289457
 21
256.8513551116
 31
0.0
  0
LINE
  5
15A
330
1F
100
AcDbEntity
  8
0
  6
Continuous
 62
     7
370
    18
100
AcDbLine
 10
1009.0295289457
 20
256.8513551116
 30
0.0
 11
994.0295289457
 21
256.8513551116
 31
0.0
  0
LINE
  5
15B
330
1F
100
AcDbEntity
  8
0
  6
Continuous
 62
     7
370
    18
100
AcDbLine
 10
994.0295289457
 20
256.8513551116
 30
0.0
 11
994.0295289457
 21
239.0877224857
 31
0.0
  0
LINE
  5
15C
330
1F
100
AcDbEntity
  8
0
  6
Continuous
 62
     7
370
    18
100
AcDbLine
 10
994.0295289457
 20
239.0877224857
 30
0.0
 11
1009.0295289457
 21
239.0877224857
 31
0.0
  0
LINE
  5
15D
330
1F
100
AcDbEntity
  8
0
  6
Continuous
 62
     7
370
    18
100
AcDbLine
 10
1009.0295289457
 20
239.0877224857
 30
0.0
 11
1009.0295289457
 21
256.8513551116
 31
0.0
  0
LINE
  5
15E
330
1F
100
AcDbEntity
  8
0
  6
Continuous
 62
     7
370
    18
100
AcDbLine
 10
1135.0295289457
 20
256.8513551116
 30
0.0
 11
1135.0295289457
 21
239.0877224857
 31
0.0
  0
LINE
  5
15F
330
1F
100
AcDbEntity
  8
0
  6
Continuous
 62
     7
370
    18
100
AcDbLine
 10
1120.0295289457
 20
256.8513551116
 30
0.0
 11
1135.0295289457
 21
256.8513551116
 31
0.0
  0
LINE
  5
160
330
1F
100
AcDbEntity
  8
0
  6
Continuous
 62
     7
370
    18
100
AcDbLine
 10
1120.0295289457
 20
239.0877224857
 30
0.0
 11
1120.0295289457
 21
256.8513551116
 31
0.0
  0
LINE
  5
161
330
1F
100
AcDbEntity
  8
0
  6
Continuous
 62
     7
370
    18
100
AcDbLine
 10
1135.0295289457
 20
239.0877224857
 30
0.0
 11
1120.0295289457
 21
239.0877224857
 31
0.0
  0
LINE
  5
162
330
1F
100
AcDbEntity
  8
0
  6
Continuous
 62
     7
370
    18
100
AcDbLine
 10
1117.0295289457
 20
256.8513551116
 30
0.0
 11
1117.0295289457
 21
239.0877224857
 31
0.0
  0
LINE
  5
163
330
1F
100
AcDbEntity
  8
0
  6
Continuous
 62
     7
370
    18
100
AcDbLine
 10
1102.0295289457
 20
256.8513551116
 30
0.0
 11
1117.0295289457
 21
256.8513551116
 31
0.0
  0
LINE
  5
164
330
1F
100
AcDbEntity
  8
0
  6
Continuous
 62
     7
370
    18
100
AcDbLine
 10
1102.0295289457
 20
239.0877224857
 30
0.0
 11
1102.0295289457
 21
256.8513551116
 31
0.0
  0
LINE
  5
165
330
1F
100
AcDbEntity
  8
0
  6
Continuous
 62
     7
370
    18
100
AcDbLine
 10
1117.0295289457
 20
239.0877224857
 30
0.0
 11
1102.0295289457
 21
239.0877224857
 31
0.0
  0
LINE
  5
166
330
1F
100
AcDbEntity
  8
0
  6
Continuous
 62
     7
370
    18
100
AcDbLine
 10
1099.0295289457
 20
256.8513551116
 30
0.0
 11
1099.0295289457
 21
239.0877224857
 31
0.0
  0
LINE
  5
167
330
1F
100
AcDbEntity
  8
0
  6
Continuous
 62
     7
370
    18
100
AcDbLine
 10
1084.0295289457
 20
256.8513551116
 30
0.0
 11
1099.0295289457
 21
256.8513551116
 31
0.0
  0
LINE
  5
168
330
1F
100
AcDbEntity
  8
0
  6
Continuous
 62
     7
370
    18
100
AcDbLine
 10
1084.0295289457
 20
239.0877224857
 30
0.0
 11
1084.0295289457
 21
256.8513551116
 31
0.0
  0
LINE
  5
169
330
1F
100
AcDbEntity
  8
0
  6
Continuous
 62
     7
370
    18
100
AcDbLine
 10
1099.0295289457
 20
239.0877224857
 30
0.0
 11
1084.0295289457
 21
239.0877224857
 31
0.0
  0
LINE
  5
16A
330
1F
100
AcDbEntity
  8
0
  6
Continuous
 62
     7
370
    18
100
AcDbLine
 10
1081.0295289457
 20
256.8513551116
 30
0.0
 11
1081.0295289457
 21
239.0877224857
 31
0.0
  0
LINE
  5
16B
330
1F
100
AcDbEntity
  8
0
  6
Continuous
 62
     7
370
    18
100
AcDbLine
 10
1066.0295289457
 20
256.8513551116
 30
0.0
 11
1081.0295289457
 21
256.8513551116
 31
0.0
  0
LINE
  5
16C
330
1F
100
AcDbEntity
  8
0
  6
Continuous
 62
     7
370
    18
100
AcDbLine
 10
1066.0295289457
 20
239.0877224857
 30
0.0
 11
1066.0295289457
 21
256.8513551116
 31
0.0
  0
LINE
  5
16D
330
1F
100
AcDbEntity
  8
0
  6
Continuous
 62
     7
370
    18
100
AcDbLine
 10
1081.0295289457
 20
239.0877224857
 30
0.0
 11
1066.0295289457
 21
239.0877224857
 31
0.0
  0
LINE
  5
16E
330
1F
100
AcDbEntity
  8
0
  6
Continuous
 62
     7
370
    18
100
AcDbLine
 10
1152.5295289457
 20
263.1088438435
 30
0.0
 11
1152.5295289457
 21
263.7258148169
 31
0.0
  0
LINE
  5
16F
330
1F
100
AcDbEntity
  8
0
  6
Continuous
 62
     7
370
    18
100
AcDbLine
 10
1152.5295289457
 20
230.7698084348
 30
0.0
 11
904.5295289457
 21
230.7698084348
 31
0.0
  0
LINE
  5
170
330
1F
100
AcDbEntity
  8
0
  6
Continuous
 62
     7
370
    18
100
AcDbLine
 10
904.5295289457
 20
263.1088438435
 30
0.0
 11
904.5295289457
 21
263.7258148169
 31
0.0
  0
LINE
  5
171
330
1F
100
AcDbEntity
  8
0
  6
Continuous
 62
     7
370
    18
100
AcDbLine
 10
1045.0295289457
 20
239.0877224857
 30
0.0
 11
1030.0295289457
 21
239.0877224857
 31
0.0
  0
LINE
  5
172
330
1F
100
AcDbEntity
  8
0
  6
Continuous
 62
     7
370
    18
100
AcDbLine
 10
1045.0295289457
 20
256.8513551116
 30
0.0
 11
1045.0295289457
 21
239.0877224857
 31
0.0
  0
LINE
  5
173
330
1F
100
AcDbEntity
  8
0
  6
Continuous
 62
     7
370
    18
100
AcDbLine
 10
1030.0295289457
 20
256.8513551116
 30
0.0
 11
1045.0295289457
 21
256.8513551116
 31
0.0
  0
LINE
  5
174
330
1F
100
AcDbEntity
  8
0
  6
Continuous
 62
     7
370
    18
100
AcDbLine
 10
1030.0295289457
 20
239.0877224857
 30
0.0
 11
1030.0295289457
 21
256.8513551116
 31
0.0
  0
LINE
  5
175
330
1F
100
AcDbEntity
  8
0
  6
Continuous
 62
     7
370
    18
100
AcDbLine
 10
1063.0295289457
 20
239.0877224857
 30
0.0
 11
1048.0295289457
 21
239.0877224857
 31
0.0
  0
LINE
  5
176
330
1F
100
AcDbEntity
  8
0
  6
Continuous
 62
     7
370
    18
100
AcDbLine
 10
1063.0295289457
 20
256.8513551116
 30
0.0
 11
1063.0295289457
 21
239.0877224857
 31
0.0
  0
LINE
  5
177
330
1F
100
AcDbEntity
  8
0
  6
Continuous
 62
     7
370
    18
100
AcDbLine
 10
1048.0295289457
 20
256.8513551116
 30
0.0
 11
1063.0295289457
 21
256.8513551116
 31
0.0
  0
LINE
  5
178
330
1F
100
AcDbEntity
  8
0
  6
Continuous
 62
     7
370
    18
100
AcDbLine
 10
1048.0295289457
 20
239.0877224857
 30
0.0
 11
1048.0295289457
 21
256.8513551116
 31
0.0
  0
LINE
  5
179
330
1F
100
AcDbEntity
  8
0
  6
Continuous
 62
     7
370
    18
100
AcDbLine
 10
994.0295289457
 20
239.7216498783
 30
0.0
 11
1009.0295289457
 21
239.7216498783
 31
0.0
  0
LINE
  5
17A
330
1F
100
AcDbEntity
  8
0
  6
Continuous
 62
     7
370
    18
100
AcDbLine
 10
1012.0295289457
 20
239.7216498783
 30
0.0
 11
1027.0295289457
 21
239.7216498783
 31
0.0
  0
LINE
  5
17B
330
1F
100
AcDbEntity
  8
0
  6
Continuous
 62
     7
370
    18
100
AcDbLine
 10
940.0295289457
 20
239.7216498783
 30
0.0
 11
955.0295289457
 21
239.7216498783
 31
0.0
  0
LINE
  5
17C
330
1F
100
AcDbEntity
  8
0
  6
Continuous
 62
     7
370
    18
100
AcDbLine
 10
1063.0295289457
 20
239.7216498783
 30
0.0
 11
1048.0295289457
 21
239.7216498783
 31
0.0
  0
LINE
  5
17D
330
1F
100
AcDbEntity
  8
0
  6
Continuous
 62
     7
370
    18
100
AcDbLine
 10
1135.0295289457
 20
239.7216498783
 30
0.0
 11
1120.0295289457
 21
239.7216498783
 31
0.0
  0
LINE
  5
17E
330
1F
100
AcDbEntity
  8
0
  6
Continuous
 62
     7
370
    18
100
AcDbLine
 10
922.0295289457
 20
239.7216498783
 30
0.0
 11
937.0295289457
 21
239.7216498783
 31
0.0
  0
LINE
  5
17F
330
1F
100
AcDbEntity
  8
0
  6
Continuous
 62
     7
370
    18
100
AcDbLine
 10
1045.0295289457
 20
239.7216498783
 30
0.0
 11
1030.0295289457
 21
239.7216498783
 31
0.0
  0
LINE
  5
180
330
1F
100
AcDbEntity
  8
0
  6
Continuous
 62
     7
370
    18
100
AcDbLine
 10
1117.0295289457
 20
239.7216498783
 30
0.0
 11
1102.0295289457
 21
239.7216498783
 31
0.0
  0
LINE
  5
181
330
1F
100
AcDbEntity
  8
0
  6
Continuous
 62
     7
370
    18
100
AcDbLine
 10
1099.0295289457
 20
239.7216498783
 30
0.0
 11
1084.0295289457
 21
239.7216498783
 31
0.0
  0
LINE
  5
182
330
1F
100
AcDbEntity
  8
0
  6
Continuous
 62
     7
370
    18
100
AcDbLine
 10
958.0295289457
 20
239.7216498783
 30
0.0
 11
973.0295289457
 21
239.7216498783
 31
0.0
  0
LINE
  5
183
330
1F
100
AcDbEntity
  8
0
  6
Continuous
 62
     7
370
    18
100
AcDbLine
 10
976.0295289457
 20
239.7216498783
 30
0.0
 11
991.0295289457
 21
239.7216498783
 31
0.0
  0
LINE
  5
184
330
1F
100
AcDbEntity
  8
0
  6
Continuous
 62
     7
370
    18
100
AcDbLine
 10
1081.0295289457
 20
239.7216498783
 30
0.0
 11
1066.0295289457
 21
239.7216498783
 31
0.0
  0
LWPOLYLINE
  5
185
330
1F
100
AcDbEntity
  8
0
  6
Continuous
 62
     7
370
    18
100
AcDbPolyline
 90
        9
 70
   128
 43
0.0
 10
904.5295289457
 20
43.551941559
 10
904.3344386236
 20
43.5600620504
 10
904.1468455133
 20
43.5841114586
 10
903.9739587126
 20
43.6231655785
 10
903.8224221645
 20
43.675723582
 10
903.6980593334
 20
43.7397656946
 10
903.6056494131
 20
43.8128308137
 10
903.5487436653
 20
43.8921110879
 10
903.5295289457
 20
43.9745598207
  0
LINE
  5
186
330
1F
100
AcDbEntity
  8
0
  6
Continuous
 62
     7
370
    18
100
AcDbLine
 10
904.5295289457
 20
43.551941559
 30
0.0
 11
904.5295289457
 21
42.9180141664
 31
0.0
  0
LWPOLYLINE
  5
187
330
1F
100
AcDbEntity
  8
0
  6
Continuous
 62
     7
370
    18
100
AcDbPolyline
 90
        9
 70
   128
 43
0.0
 10
904.5295289457
 20
42.9180141664
 10
904.0418031406
 20
42.9383153948
 10
903.5728203647
 20
42.9984389155
 10
903.1406033631
 20
43.0960742151
 10
902.7617619927
 20
43.2274692239
 10
902.4508549149
 20
43.3875745053
 10
902.2198301144
 20
43.5702373032
 10
902.0775657446
 20
43.7684379888
 10
902.0295289457
 20
43.9745598207
  0
LINE
  5
188
330
1F
100
AcDbEntity
  8
0
  6
Continuous
 62
     7
370
    18
100
AcDbLine
 10
903.5295289457
 20
43.9745598207
 30
0.0
 11
902.0295289457
 21
43.9745598207
 31
0.0
  0
LWPOLYLINE
  5
189
330
1F
100
AcDbEntity
  8
0
  6
Continuous
 62
     7
370
    18
100
AcDbPolyline
 90
        9
 70
   128
 43
0.0
 10
1152.5295289457
 20
42.9180141664
 10
1153.0172547507
 20
42.9383153948
 10
1153.4862375266
 20
42.9984389155
 10
1153.9184545282
 20
43.0960742151
 10
1154.2972958986
 20
43.2274692239
 10
1154.6082029764
 20
43.3875745053
 10
1154.8392277769
 20
43.5702373032
 10
1154.9814921467
 20
43.7684379888
 10
1155.0295289457
 20
43.9745598207
  0
LINE
  5
18A
330
1F
100
AcDbEntity
  8
0
  6
Continuous
 62
     7
370
    18
100
AcDbLine
 10
1152.5295289457
 20
43.551941559
 30
0.0
 11
1152.5295289457
 21
42.9180141664
 31
0.0
  0
LWPOLYLINE
  5
18B
330
1F
100
AcDbEntity
  8
0
  6
Continuous
 62
     7
370
    18
100
AcDbPolyline
 90
        9
 70
   128
 43
0.0
 10
1152.5295289457
 20
43.551941559
 10
1152.7246192677
 20
43.5600620504
 10
1152.912212378
 20
43.5841114586
 10
1153.0850991787
 20
43.6231655785
 10
1153.2366357268
 20
43.675723582
 10
1153.360998558
 20
43.7397656946
 10
1153.4534084782
 20
43.8128308137
 10
1153.5103142261
 20
43.8921110879
 10
1153.5295289457
 20
43.9745598207
  0
LINE
  5
18C
330
1F
100
AcDbEntity
  8
0
  6
Continuous
 62
     7
370
    18
100
AcDbLine
 10
1153.5295289457
 20
43.9745598207
 30
0.0
 11
1155.0295289457
 21
43.9745598207
 31
0.0
  0
LINE
  5
18D
330
1F
100
AcDbEntity
  8
0
  6
Continuous
 62
     7
370
    18
100
AcDbLine
 10
1155.0295289457
 20
12.0468383941
 30
0.0
 11
1155.0295289457
 21
43.9745598207
 31
0.0
  0
ELLIPSE
  5
18E
330
1F
100
AcDbEntity
  8
0
  6
Continuous
 62
     7
370
    18
100
AcDbEllipse
 10
1152.5295289457
 20
12.0468383941
 30
0.0
 11
2.5
 21
0.0
 31
0.0
210
0.0
220
0.0
230
1.0
 40
0.5871438546
 41
4.712388980384698
 42
6.283185307179586
  0
LINE
  5
18F
330
1F
100
AcDbEntity
  8
0
  6
Continuous
 62
     7
370
    18
100
AcDbLine
 10
1152.5295289457
 20
42.9180141664
 30
0.0
 11
1152.5295289457
 21
10.5789787576
 31
0.0
  0
ELLIPSE
  5
190
330
1F
100
AcDbEntity
  8
0
  6
Continuous
 62
     7
370
    18
100
AcDbEllipse
 10
904.5295289457
 20
12.0468383941
 30
0.0
 11
2.5
 21
0.0
 31
0.0
210
0.0
220
0.0
230
1.0
 40
0.5871438546
 41
3.141592653589793
 42
4.712388980384698
  0
LINE
  5
191
330
1F
100
AcDbEntity
  8
0
  6
Continuous
 62
     7
370
    18
100
AcDbLine
 10
902.0295289457
 20
12.0468383941
 30
0.0
 11
902.0295289457
 21
43.9745598207
 31
0.0
  0
LINE
  5
192
330
1F
100
AcDbEntity
  8
0
  6
Continuous
 62
     7
370
    18
100
AcDbLine
 10
904.5295289457
 20
42.9180141664
 30
0.0
 11
904.5295289457
 21
10.5789787576
 31
0.0
  0
LINE
  5
193
330
1F
100
AcDbEntity
  8
0
  6
Continuous
 62
     7
370
    18
100
AcDbLine
 10
1152.5295289457
 20
42.9180141664
 30
0.0
 11
904.5295289457
 21
42.9180141664
 31
0.0
  0
LINE
  5
194
330
1F
100
AcDbEntity
  8
0
  6
Continuous
 62
     7
370
    18
100
AcDbLine
 10
1152.5295289457
 20
43.551941559
 30
0.0
 11
904.5295289457
 21
43.551941559
 31
0.0
  0
LINE
  5
195
330
1F
100
AcDbEntity
  8
0
  6
Continuous
 62
     7
370
    18
100
AcDbLine
 10
922.0295289457
 20
16.8364674895
 30
0.0
 11
922.0295289457
 21
34.6001001154
 31
0.0
  0
LINE
  5
196
330
1F
100
AcDbEntity
  8
0
  6
Continuous
 62
     7
370
    18
100
AcDbLine
 10
937.0295289457
 20
16.8364674895
 30
0.0
 11
922.0295289457
 21
16.8364674895
 31
0.0
  0
LINE
  5
197
330
1F
100
AcDbEntity
  8
0
  6
Continuous
 62
     7
370
    18
100
AcDbLine
 10
937.0295289457
 20
34.6001001154
 30
0.0
 11
937.0295289457
 21
16.8364674895
 31
0.0
  0
LINE
  5
198
330
1F
100
AcDbEntity
  8
0
  6
Continuous
 62
     7
370
    18
100
AcDbLine
 10
922.0295289457
 20
34.6001001154
 30
0.0
 11
937.0295289457
 21
34.6001001154
 31
0.0
  0
LINE
  5
199
330
1F
100
AcDbEntity
  8
0
  6
Continuous
 62
     7
370
    18
100
AcDbLine
 10
940.0295289457
 20
16.8364674895
 30
0.0
 11
940.0295289457
 21
34.6001001154
 31
0.0
  0
LINE
  5
19A
330
1F
100
AcDbEntity
  8
0
  6
Continuous
 62
     7
370
    18
100
AcDbLine
 10
955.0295289457
 20
16.8364674895
 30
0.0
 11
940.0295289457
 21
16.8364674895
 31
0.0
  0
LINE
  5
19B
330
1F
100
AcDbEntity
  8
0
  6
Continuous
 62
     7
370
    18
100
AcDbLine
 10
955.0295289457
 20
34.6001001154
 30
0.0
 11
955.0295289457
 21
16.8364674895
 31
0.0
  0
LINE
  5
19C
330
1F
100
AcDbEntity
  8
0
  6
Continuous
 62
     7
370
    18
100
AcDbLine
 10
940.0295289457
 20
34.6001001154
 30
0.0
 11
955.0295289457
 21
34.6001001154
 31
0.0
  0
LINE
  5
19D
330
1F
100
AcDbEntity
  8
0
  6
Continuous
 62
     7
370
    18
100
AcDbLine
 10
958.0295289457
 20
16.8364674895
 30
0.0
 11
958.0295289457
 21
34.6001001154
 31
0.0
  0
LINE
  5
19E
330
1F
100
AcDbEntity
  8
0
  6
Continuous
 62
     7
370
    18
100
AcDbLine
 10
973.0295289457
 20
16.8364674895
 30
0.0
 11
958.0295289457
 21
16.8364674895
 31
0.0
  0
LINE
  5
19F
330
1F
100
AcDbEntity
  8
0
  6
Continuous
 62
     7
370
    18
100
AcDbLine
 10
973.0295289457
 20
34.6001001154
 30
0.0
 11
973.0295289457
 21
16.8364674895
 31
0.0
  0
LINE
  5
1A0
330
1F
100
AcDbEntity
  8
0
  6
Continuous
 62
     7
370
    18
100
AcDbLine
 10
958.0295289457
 20
34.6001001154
 30
0.0
 11
973.0295289457
 21
34.6001001154
 31
0.0
  0
LINE
  5
1A1
330
1F
100
AcDbEntity
  8
0
  6
Continuous
 62
     7
370
    18
100
AcDbLine
 10
976.0295289457
 20
16.8364674895
 30
0.0
 11
976.0295289457
 21
34.6001001154
 31
0.0
  0
LINE
  5
1A2
330
1F
100
AcDbEntity
  8
0
  6
Continuous
 62
     7
370
    18
100
AcDbLine
 10
991.0295289457
 20
16.8364674895
 30
0.0
 11
976.0295289457
 21
16.8364674895
 31
0.0
  0
LINE
  5
1A3
330
1F
100
AcDbEntity
  8
0
  6
Continuous
 62
     7
370
    18
100
AcDbLine
 10
991.0295289457
 20
34.6001001154
 30
0.0
 11
991.0295289457
 21
16.8364674895
 31
0.0
  0
LINE
  5
1A4
330
1F
100
AcDbEntity
  8
0
  6
Continuous
 62
     7
370
    18
100
AcDbLine
 10
976.0295289457
 20
34.6001001154
 30
0.0
 11
991.0295289457
 21
34.6001001154
 31
0.0
  0
LINE
  5
1A5
330
1F
100
AcDbEntity
  8
0
  6
Continuous
 62
     7
370
    18
100
AcDbLine
 10
1012.0295289457
 20
34.6001001154
 30
0.0
 11
1027.0295289457
 21
34.6001001154
 31
0.0
  0
LINE
  5
1A6
330
1F
100
AcDbEntity
  8
0
  6
Continuous
 62
     7
370
    18
100
AcDbLine
 10
1012.0295289457
 20
16.8364674895
 30
0.0
 11
1012.0295289457
 21
34.6001001154
 31
0.0
  0
LINE
  5
1A7
330
1F
100
AcDbEntity
  8
0
  6
Continuous
 62
     7
370
    18
100
AcDbLine
 10
1027.0295289457
 20
16.8364674895
 30
0.0
 11
1012.0295289457
 21
16.8364674895
 31
0.0
  0
LINE
  5
1A8
330
1F
100
AcDbEntity
  8
0
  6
Continuous
 62
     7
370
    18
100
AcDbLine
 10
1027.0295289457
 20
34.6001001154
 30
0.0
 11
1027.0295289457
 21
16.8364674895
 31
0.0
  0
LINE
  5
1A9
330
1F
100
AcDbEntity
  8
0
  6
Continuous
 62
     7
370
    18
100
AcDbLine
 10
994.0295289457
 20
34.6001001154
 30
0.0
 11
1009.0295289457
 21
34.6001001154
 31
0.0
  0
LINE
  5
1AA
330
1F
100
AcDbEntity
  8
0
  6
Continuous
 62
     7
370
    18
100
AcDbLine
 10
994.0295289457
 20
16.8364674895
 30
0.0
 11
994.0295289457
 21
34.6001001154
 31
0.0
  0
LINE
  5
1AB
330
1F
100
AcDbEntity
  8
0
  6
Continuous
 62
     7
370
    18
100
AcDbLine
 10
1009.0295289457
 20
16.8364674895
 30
0.0
 11
994.0295289457
 21
16.8364674895
 31
0.0
  0
LINE
  5
1AC
330
1F
100
AcDbEntity
  8
0
  6
Continuous
 62
     7
370
    18
100
AcDbLine
 10
1009.0295289457
 20
34.6001001154
 30
0.0
 11
1009.0295289457
 21
16.8364674895
 31
0.0
  0
LINE
  5
1AD
330
1F
100
AcDbEntity
  8
0
  6
Continuous
 62
     7
370
    18
100
AcDbLine
 10
1120.0295289457
 20
34.6001001154
 30
0.0
 11
1120.0295289457
 21
16.8364674895
 31
0.0
  0
LINE
  5
1AE
330
1F
100
AcDbEntity
  8
0
  6
Continuous
 62
     7
370
    18
100
AcDbLine
 10
1120.0295289457
 20
16.8364674895
 30
0.0
 11
1135.0295289457
 21
16.8364674895
 31
0.0
  0
LINE
  5
1AF
330
1F
100
AcDbEntity
  8
0
  6
Continuous
 62
     7
370
    18
100
AcDbLine
 10
1135.0295289457
 20
16.8364674895
 30
0.0
 11
1135.0295289457
 21
34.6001001154
 31
0.0
  0
LINE
  5
1B0
330
1F
100
AcDbEntity
  8
0
  6
Continuous
 62
     7
370
    18
100
AcDbLine
 10
1135.0295289457
 20
34.6001001154
 30
0.0
 11
1120.0295289457
 21
34.6001001154
 31
0.0
  0
LINE
  5
1B1
330
1F
100
AcDbEntity
  8
0
  6
Continuous
 62
     7
370
    18
100
AcDbLine
 10
1102.0295289457
 20
34.6001001154
 30
0.0
 11
1102.0295289457
 21
16.8364674895
 31
0.0
  0
LINE
  5
1B2
330
1F
100
AcDbEntity
  8
0
  6
Continuous
 62
     7
370
    18
100
AcDbLine
 10
1102.0295289457
 20
16.8364674895
 30
0.0
 11
1117.0295289457
 21
16.8364674895
 31
0.0
  0
LINE
  5
1B3
330
1F
100
AcDbEntity
  8
0
  6
Continuous
 62
     7
370
    18
100
AcDbLine
 10
1117.0295289457
 20
16.8364674895
 30
0.0
 11
1117.0295289457
 21
34.6001001154
 31
0.0
  0
LINE
  5
1B4
330
1F
100
AcDbEntity
  8
0
  6
Continuous
 62
     7
370
    18
100
AcDbLine
 10
1117.0295289457
 20
34.6001001154
 30
0.0
 11
1102.0295289457
 21
34.6001001154
 31
0.0
  0
LINE
  5
1B5
330
1F
100
AcDbEntity
  8
0
  6
Continuous
 62
     7
370
    18
100
AcDbLine
 10
1084.0295289457
 20
34.6001001154
 30
0.0
 11
1084.0295289457
 21
16.8364674895
 31
0.0
  0
LINE
  5
1B6
330
1F
100
AcDbEntity
  8
0
  6
Continuous
 62
     7
370
    18
100
AcDbLine
 10
1084.0295289457
 20
16.8364674895
 30
0.0
 11
1099.0295289457
 21
16.8364674895
 31
0.0
  0
LINE
  5
1B7
330
1F
100
AcDbEntity
  8
0
  6
Continuous
 62
     7
370
    18
100
AcDbLine
 10
1099.0295289457
 20
16.8364674895
 30
0.0
 11
1099.0295289457
 21
34.6001001154
 31
0.0
  0
LINE
  5
1B8
330
1F
100
AcDbEntity
  8
0
  6
Continuous
 62
     7
370
    18
100
AcDbLine
 10
1099.0295289457
 20
34.6001001154
 30
0.0
 11
1084.0295289457
 21
34.6001001154
 31
0.0
  0
LINE
  5
1B9
330
1F
100
AcDbEntity
  8
0
  6
Continuous
 62
     7
370
    18
100
AcDbLine
 10
1066.0295289457
 20
34.6001001154
 30
0.0
 11
1066.0295289457
 21
16.8364674895
 31
0.0
  0
LINE
  5
1BA
330
1F
100
AcDbEntity
  8
0
  6
Continuous
 62
     7
370
    18
100
AcDbLine
 10
1066.0295289457
 20
16.8364674895
 30
0.0
 11
1081.0295289457
 21
16.8364674895
 31
0.0
  0
LINE
  5
1BB
330
1F
100
AcDbEntity
  8
0
  6
Continuous
 62
     7
370
    18
100
AcDbLine
 10
1081.0295289457
 20
16.8364674895
 30
0.0
 11
1081.0295289457
 21
34.6001001154
 31
0.0
  0
LINE
  5
1BC
330
1F
100
AcDbEntity
  8
0
  6
Continuous
 62
     7
370
    18
100
AcDbLine
 10
1081.0295289457
 20
34.6001001154
 30
0.0
 11
1066.0295289457
 21
34.6001001154
 31
0.0
  0
LINE
  5
1BD
330
1F
100
AcDbEntity
  8
0
  6
Continuous
 62
     7
370
    18
100
AcDbLine
 10
1152.5295289457
 20
10.5789787576
 30
0.0
 11
1152.5295289457
 21
9.9620077843
 31
0.0
  0
LINE
  5
1BE
330
1F
100
AcDbEntity
  8
0
  6
Continuous
 62
     7
370
    18
100
AcDbLine
 10
904.5295289457
 20
9.9620077843
 30
0.0
 11
1152.5295289457
 21
9.9620077843
 31
0.0
  0
LINE
  5
1BF
330
1F
100
AcDbEntity
  8
0
  6
Continuous
 62
     7
370
    18
100
AcDbLine
 10
904.5295289457
 20
10.5789787576
 30
0.0
 11
904.5295289457
 21
9.9620077843
 31
0.0
  0
LINE
  5
1C0
330
1F
100
AcDbEntity
  8
0
  6
Continuous
 62
     7
370
    18
100
AcDbLine
 10
1030.0295289457
 20
16.8364674895
 30
0.0
 11
1045.0295289457
 21
16.8364674895
 31
0.0
  0
LINE
  5
1C1
330
1F
100
AcDbEntity
  8
0
  6
Continuous
 62
     7
370
    18
100
AcDbLine
 10
1045.0295289457
 20
16.8364674895
 30
0.0
 11
1045.0295289457
 21
34.6001001154
 31
0.0
  0
LINE
  5
1C2
330
1F
100
AcDbEntity
  8
0
  6
Continuous
 62
     7
370
    18
100
AcDbLine
 10
1045.0295289457
 20
34.6001001154
 30
0.0
 11
1030.0295289457
 21
34.6001001154
 31
0.0
  0
LINE
  5
1C3
330
1F
100
AcDbEntity
  8
0
  6
Continuous
 62
     7
370
    18
100
AcDbLine
 10
1030.0295289457
 20
34.6001001154
 30
0.0
 11
1030.0295289457
 21
16.8364674895
 31
0.0
  0
LINE
  5
1C4
330
1F
100
AcDbEntity
  8
0
  6
Continuous
 62
     7
370
    18
100
AcDbLine
 10
1048.0295289457
 20
16.8364674895
 30
0.0
 11
1063.0295289457
 21
16.8364674895
 31
0.0
  0
LINE
  5
1C5
330
1F
100
AcDbEntity
  8
0
  6
Continuous
 62
     7
370
    18
100
AcDbLine
 10
1063.0295289457
 20
16.8364674895
 30
0.0
 11
1063.0295289457
 21
34.6001001154
 31
0.0
  0
LINE
  5
1C6
330
1F
100
AcDbEntity
  8
0
  6
Continuous
 62
     7
370
    18
100
AcDbLine
 10
1063.0295289457
 20
34.6001001154
 30
0.0
 11
1048.0295289457
 21
34.6001001154
 31
0.0
  0
LINE
  5
1C7
330
1F
100
AcDbEntity
  8
0
  6
Continuous
 62
     7
370
    18
100
AcDbLine
 10
1048.0295289457
 20
34.6001001154
 30
0.0
 11
1048.0295289457
 21
16.8364674895
 31
0.0
  0
LINE
  5
1C8
330
1F
100
AcDbEntity
  8
0
  6
Continuous
 62
     7
370
    18
100
AcDbLine
 10
1153.5295289457
 20
44.1858689516
 30
0.0
 11
1155.0295289457
 21
44.1858689516
 31
0.0
  0
LINE
  5
1C9
330
1F
100
AcDbEntity
  8
0
  6
Continuous
 62
     7
370
    18
100
AcDbLine
 10
1153.5295289457
 20
44.1858689516
 30
0.0
 11
1153.5295289457
 21
43.9745598207
 31
0.0
  0
LINE
  5
1CA
330
1F
100
AcDbEntity
  8
0
  6
Continuous
 62
     7
370
    18
100
AcDbLine
 10
1155.0295289457
 20
44.1858689516
 30
0.0
 11
1155.0295289457
 21
43.9745598207
 31
0.0
  0
LINE
  5
1CB
330
1F
100
AcDbEntity
  8
0
  6
Continuous
 62
     7
370
    18
100
AcDbLine
 10
903.5295289457
 20
44.1858689516
 30
0.0
 11
902.0295289457
 21
44.1858689516
 31
0.0
  0
LINE
  5
1CC
330
1F
100
AcDbEntity
  8
0
  6
Continuous
 62
     7
370
    18
100
AcDbLine
 10
903.5295289457
 20
44.1858689516
 30
0.0
 11
903.5295289457
 21
43.9745598207
 31
0.0
  0
LINE
  5
1CD
330
1F
100
AcDbEntity
  8
0
  6
Continuous
 62
     7
370
    18
100
AcDbLine
 10
902.0295289457
 20
44.1858689516
 30
0.0
 11
902.0295289457
 21
43.9745598207
 31
0.0
  0
LINE
  5
1CE
330
1F
100
AcDbEntity
  8
0
  6
Continuous
 62
     7
370
    18
100
AcDbLine
 10
1153.5295289457
 20
52.9185534386
 30
0.0
 11
1155.0295289457
 21
52.9185534386
 31
0.0
  0
LINE
  5
1CF
330
1F
100
AcDbEntity
  8
0
  6
Continuous
 62
     7
370
    18
100
AcDbLine
 10
1153.5295289457
 20
52.9185534386
 30
0.0
 11
1153.5295289457
 21
44.1858689516
 31
0.0
  0
LINE
  5
1D0
330
1F
100
AcDbEntity
  8
0
  6
Continuous
 62
     7
370
    18
100
AcDbLine
 10
1155.0295289457
 20
52.9185534386
 30
0.0
 11
1155.0295289457
 21
44.1858689516
 31
0.0
  0
LINE
  5
1D1
330
1F
100
AcDbEntity
  8
0
  6
Continuous
 62
     7
370
    18
100
AcDbLine
 10
903.5295289457
 20
52.9185534386
 30
0.0
 11
902.0295289457
 21
52.9185534386
 31
0.0
  0
LINE
  5
1D2
330
1F
100
AcDbEntity
  8
0
  6
Continuous
 62
     7
370
    18
100
AcDbLine
 10
903.5295289457
 20
52.9185534386
 30
0.0
 11
903.5295289457
 21
44.1858689516
 31
0.0
  0
LINE
  5
1D3
330
1F
100
AcDbEntity
  8
0
  6
Continuous
 62
     7
370
    18
100
AcDbLine
 10
902.0295289457
 20
52.9185534386
 30
0.0
 11
902.0295289457
 21
44.1858689516
 31
0.0
  0
ARC
  5
1D4
330
1F
100
AcDbEntity
  8
0
  6
Continuous
 62
     7
370
    18
100
AcDbCircle
 10
1152.5295289457
 20
52.9185534386
 30
0.0
 40
1.0
100
AcDbArc
 50
0.0
 51
90.0
  0
LINE
  5
1D5
330
1F
100
AcDbEntity
  8
0
  6
Continuous
 62
     7
370
    18
100
AcDbLine
 10
1152.5295289457
 20
53.9185534386
 30
0.0
 11
1152.5295289457
 21
55.4185534386
 31
0.0
  0
ARC
  5
1D6
330
1F
100
AcDbEntity
  8
0
  6
Continuous
 62
     7
370
    18
100
AcDbCircle
 10
1152.5295289457
 20
52.9185534386
 30
0.0
 40
2.5
100
AcDbArc
 50
0.0
 51
90.0
  0
ARC
  5
1D7
330
1F
100
AcDbEntity
  8
0
  6
Continuous
 62
     7
370
    18
100
AcDbCircle
 10
904.5295289457
 20
52.9185534386
 30
0.0
 40
1.0
100
AcDbArc
 50
90.0
 51
180.0
  0
ARC
  5
1D8
330
1F
100
AcDbEntity
  8
0
  6
Continuous
 62
     7
370
    18
100
AcDbCircle
 10
904.5295289457
 20
52.9185534386
 30
0.0
 40
2.5
100
AcDbArc
 50
90.0
 51
180.0
  0
LINE
  5
1D9
330
1F
100
AcDbEntity
  8
0
  6
Continuous
 62
     7
370
    18
100
AcDbLine
 10
904.5295289457
 20
53.9185534386
 30
0.0
 11
904.5295289457
 21
55.4185534386
 31
0.0
  0
LINE
  5
1DA
330
1F
100
AcDbEntity
  8
0
  6
Continuous
 62
     7
370
    18
100
AcDbLine
 10
1138.2295289457
 20
53.9185534386
 30
0.0
 11
1152.5295289457
 21
53.9185534386
 31
0.0
  0
LINE
  5
1DB
330
1F
100
AcDbEntity
  8
0
  6
Continuous
 62
     7
370
    18
100
AcDbLine
 10
1138.2295289457
 20
55.4185534386
 30
0.0
 11
1138.2295289457
 21
53.9185534386
 31
0.0
  0
LINE
  5
1DC
330
1F
100
AcDbEntity
  8
0
  6
Continuous
 62
     7
370
    18
100
AcDbLine
 10
1138.2295289457
 20
55.4185534386
 30
0.0
 11
1152.5295289457
 21
55.4185534386
 31
0.0
  0
LINE
  5
1DD
330
1F
100
AcDbEntity
  8
0
  6
Continuous
 62
     7
370
    18
100
AcDbLine
 10
918.8295289457
 20
55.4185534386
 30
0.0
 11
918.8295289457
 21
53.9185534386
 31
0.0
  0
LINE
  5
1DE
330
1F
100
AcDbEntity
  8
0
  6
Continuous
 62
     7
370
    18
100
AcDbLine
 10
918.8295289457
 20
53.9185534386
 30
0.0
 11
904.5295289457
 21
53.9185534386
 31
0.0
  0
LINE
  5
1DF
330
1F
100
AcDbEntity
  8
0
  6
Continuous
 62
     7
370
    18
100
AcDbLine
 10
918.8295289457
 20
55.4185534386
 30
0.0
 11
904.5295289457
 21
55.4185534386
 31
0.0
  0
LINE
  5
1E0
330
1F
100
AcDbEntity
  8
0
  6
Continuous
 62
     7
370
    18
100
AcDbLine
 10
921.8295289457
 20
53.9185534386
 30
0.0
 11
921.8295289457
 21
55.4185534386
 31
0.0
  0
LINE
  5
1E1
330
1F
100
AcDbEntity
  8
0
  6
Continuous
 62
     7
370
    18
100
AcDbLine
 10
918.8295289457
 20
53.9185534386
 30
0.0
 11
921.8295289457
 21
53.9185534386
 31
0.0
  0
LINE
  5
1E2
330
1F
100
AcDbEntity
  8
0
  6
Continuous
 62
     7
370
    18
100
AcDbLine
 10
921.8295289457
 20
55.4185534386
 30
0.0
 11
918.8295289457
 21
55.4185534386
 31
0.0
  0
LINE
  5
1E3
330
1F
100
AcDbEntity
  8
0
  6
Continuous
 62
     7
370
    18
100
AcDbLine
 10
1135.2295289457
 20
53.9185534386
 30
0.0
 11
1135.2295289457
 21
55.4185534386
 31
0.0
  0
LINE
  5
1E4
330
1F
100
AcDbEntity
  8
0
  6
Continuous
 62
     7
370
    18
100
AcDbLine
 10
1138.2295289457
 20
53.9185534386
 30
0.0
 11
1135.2295289457
 21
53.9185534386
 31
0.0
  0
LINE
  5
1E5
330
1F
100
AcDbEntity
  8
0
  6
Continuous
 62
     7
370
    18
100
AcDbLine
 10
1135.2295289457
 20
55.4185534386
 30
0.0
 11
1138.2295289457
 21
55.4185534386
 31
0.0
  0
LINE
  5
1E6
330
1F
100
AcDbEntity
  8
0
  6
Continuous
 62
     7
370
    18
100
AcDbLine
 10
1030.0295289457
 20
17.4703948821
 30
0.0
 11
1045.0295289457
 21
17.4703948821
 31
0.0
  0
LINE
  5
1E7
330
1F
100
AcDbEntity
  8
0
  6
Continuous
 62
     7
370
    18
100
AcDbLine
 10
955.0295289457
 20
17.4703948821
 30
0.0
 11
940.0295289457
 21
17.4703948821
 31
0.0
  0
LINE
  5
1E8
330
1F
100
AcDbEntity
  8
0
  6
Continuous
 62
     7
370
    18
100
AcDbLine
 10
973.0295289457
 20
17.4703948821
 30
0.0
 11
958.0295289457
 21
17.4703948821
 31
0.0
  0
LINE
  5
1E9
330
1F
100
AcDbEntity
  8
0
  6
Continuous
 62
     7
370
    18
100
AcDbLine
 10
991.0295289457
 20
17.4703948821
 30
0.0
 11
976.0295289457
 21
17.4703948821
 31
0.0
  0
LINE
  5
1EA
330
1F
100
AcDbEntity
  8
0
  6
Continuous
 62
     7
370
    18
100
AcDbLine
 10
1084.0295289457
 20
17.4703948821
 30
0.0
 11
1099.0295289457
 21
17.4703948821
 31
0.0
  0
LINE
  5
1EB
330
1F
100
AcDbEntity
  8
0
  6
Continuous
 62
     7
370
    18
100
AcDbLine
 10
1048.0295289457
 20
17.4703948821
 30
0.0
 11
1063.0295289457
 21
17.4703948821
 31
0.0
  0
LINE
  5
1EC
330
1F
100
AcDbEntity
  8
0
  6
Continuous
 62
     7
370
    18
100
AcDbLine
 10
1009.0295289457
 20
17.4703948821
 30
0.0
 11
994.0295289457
 21
17.4703948821
 31
0.0
  0
LINE
  5
1ED
330
1F
100
AcDbEntity
  8
0
  6
Continuous
 62
     7
370
    18
100
AcDbLine
 10
1066.0295289457
 20
17.4703948821
 30
0.0
 11
1081.0295289457
 21
17.4703948821
 31
0.0
  0
LINE
  5
1EE
330
1F
100
AcDbEntity
  8
0
  6
Continuous
 62
     7
370
    18
100
AcDbLine
 10
937.0295289457
 20
17.4703948821
 30
0.0
 11
922.0295289457
 21
17.4703948821
 31
0.0
  0
LINE
  5
1EF
330
1F
100
AcDbEntity
  8
0
  6
Continuous
 62
     7
370
    18
100
AcDbLine
 10
1120.0295289457
 20
17.4703948821
 30
0.0
 11
1135.0295289457
 21
17.4703948821
 31
0.0
  0
LINE
  5
1F0
330
1F
100
AcDbEntity
  8
0
  6
Continuous
 62
     7
370
    18
100
AcDbLine
 10
1027.0295289457
 20
17.4703948821
 30
0.0
 11
1012.0295289457
 21
17.4703948821
 31
0.0
  0
LINE
  5
1F1
330
1F
100
AcDbEntity
  8
0
  6
Continuous
 62
     7
370
    18
100
AcDbLine
 10
1102.0295289457
 20
17.4703948821
 30
0.0
 11
1117.0295289457
 21
17.4703948821
 31
0.0
  0
LINE
  5
1F2
330
1F
100
AcDbEntity
  8
0
  6
Continuous
 62
     7
370
    18
100
AcDbLine
 10
1152.5295289457
 20
8.5185534386
 30
0.0
 11
904.5295289457
 21
8.5185534386
 31
0.0
  0
LINE
  5
1F3
330
1F
100
AcDbEntity
  8
0
  6
Continuous
 62
     7
370
    18
100
AcDbLine
 10
1152.5295289457
 20
8.5185534386
 30
0.0
 11
1152.5295289457
 21
9.9620077843
 31
0.0
  0
LINE
  5
1F4
330
1F
100
AcDbEntity
  8
0
  6
Continuous
 62
     7
370
    18
100
AcDbLine
 10
904.5295289457
 20
8.5185534386
 30
0.0
 11
904.5295289457
 21
9.9620077843
 31
0.0
  0
LINE
  5
1F5
330
1F
100
AcDbEntity
  8
0
  6
Continuous
 62
     7
370
    18
100
AcDbLine
 10
1193.7002434639
 20
129.4105183151
 30
0.0
 11
1196.2002434639
 21
128.2447491697
 31
0.0
  0
LINE
  5
1F6
330
1F
100
AcDbEntity
  8
0
  6
Continuous
 62
     7
370
    18
100
AcDbLine
 10
1193.7002434639
 20
129.4105183151
 30
0.0
 11
1193.7002434639
 21
166.6165131781
 31
0.0
  0
LINE
  5
1F7
330
1F
100
AcDbEntity
  8
0
  6
Continuous
 62
     7
370
    18
100
AcDbLine
 10
1196.2002434639
 20
166.6165131781
 30
0.0
 11
1193.7002434639
 21
166.6165131781
 31
0.0
  0
LINE
  5
1F8
330
1F
100
AcDbEntity
  8
0
  6
Continuous
 62
     7
370
    18
100
AcDbLine
 10
1196.2002434639
 20
128.2447491697
 30
0.0
 11
1196.2002434639
 21
166.6165131781
 31
0.0
  0
ARC
  5
1F9
330
1F
100
AcDbEntity
  8
0
  6
Continuous
 62
     7
370
    18
100
AcDbCircle
 10
1204.0919076287
 20
127.874939491
 30
0.0
 40
2.999999999999962
100
AcDbArc
 50
245.0
 51
310.5898012105
  0
LINE
  5
1FA
330
1F
100
AcDbEntity
  8
0
  6
Continuous
 62
     7
370
    18
100
AcDbLine
 10
1202.8240528434
 20
125.1560161299
 30
0.0
 11
1196.2002434639
 21
128.2447491697
 31
0.0
  0
LINE
  5
1FB
330
1F
100
AcDbEntity
  8
0
  6
Continuous
 62
     7
370
    18
100
AcDbLine
 10
1196.2002434639
 20
166.6165131781
 30
0.0
 11
1204.9329279509
 21
166.6165131781
 31
0.0
  0
LINE
  5
1FC
330
1F
100
AcDbEntity
  8
0
  6
Continuous
 62
     7
370
    18
100
AcDbLine
 10
1204.9329279509
 20
166.6165131781
 30
0.0
 11
1205.1442370818
 21
167.0696670716
 31
0.0
  0
LINE
  5
1FD
330
1F
100
AcDbEntity
  8
0
  6
Continuous
 62
     7
370
    18
100
AcDbLine
 10
1237.0719585084
 20
152.1815260629
 30
0.0
 11
1205.1442370818
 21
167.0696670716
 31
0.0
  0
LINE
  5
1FE
330
1F
100
AcDbEntity
  8
0
  6
Continuous
 62
     7
370
    18
100
AcDbLine
 10
1206.0438247931
 20
125.5967780868
 30
0.0
 11
1237.0719585084
 21
152.1815260629
 31
0.0
  0
LINE
  5
1FF
330
1F
100
AcDbEntity
  8
0
  6
Continuous
 62
     7
370
    18
100
AcDbLine
 10
1237.0719585084
 20
152.1815260629
 30
0.0
 11
1238.5398181449
 21
154.2554966707
 31
0.0
  0
LINE
  5
200
330
1F
100
AcDbEntity
  8
0
  6
Continuous
 62
     7
370
    18
100
AcDbLine
 10
1206.2007827362
 20
169.3354365392
 30
0.0
 11
1205.1442370818
 21
167.0696670716
 31
0.0
  0
LINE
  5
201
330
1F
100
AcDbEntity
  8
0
  6
Continuous
 62
     7
370
    18
100
AcDbLine
 10
1206.2007827362
 20
169.3354365392
 30
0.0
 11
1238.5398181449
 21
154.2554966707
 31
0.0
  0
LINE
  5
202
330
1F
100
AcDbEntity
  8
0
  6
Continuous
 62
     7
370
    18
100
AcDbLine
 10
1237.0719585084
 20
152.1815260629
 30
0.0
 11
1237.9058907523
 21
152.8960349902
 31
0.0
  0
LINE
  5
203
330
1F
100
AcDbEntity
  8
0
  6
Continuous
 62
     7
370
    18
100
AcDbLine
 10
1237.9058907523
 20
152.8960349902
 30
0.0
 11
1238.5398181449
 21
154.2554966707
 31
0.0
  0
LINE
  5
204
330
1F
100
AcDbEntity
  8
0
  6
Continuous
 62
     7
370
    18
100
AcDbLine
 10
1240.6002434639
 20
127.3390991742
 30
0.0
 11
1239.1002434639
 21
127.3390991742
 31
0.0
  0
LINE
  5
205
330
1F
100
AcDbEntity
  8
0
  6
Continuous
 62
     7
370
    18
100
AcDbLine
 10
1239.1002434639
 20
124.3390991742
 30
0.0
 11
1240.6002434639
 21
124.3390991742
 31
0.0
  0
LINE
  5
206
330
1F
100
AcDbEntity
  8
0
  6
Continuous
 62
     7
370
    18
100
AcDbLine
 10
1239.1002434639
 20
127.3390991742
 30
0.0
 11
1239.1002434639
 21
124.3390991742
 31
0.0
  0
LINE
  5
207
330
1F
100
AcDbEntity
  8
0
  6
Continuous
 62
     7
370
    18
100
AcDbLine
 10
1240.6002434639
 20
124.3390991742
 30
0.0
 11
1240.6002434639
 21
127.3390991742
 31
0.0
  0
ARC
  5
208
330
1F
100
AcDbEntity
  8
0
  6
Continuous
 62
     7
370
    18
100
AcDbCircle
 10
1238.1002434639
 20
151.7020289134
 30
0.0
 40
1.000000000000227
100
AcDbArc
 50
0.0
 51
65.0
  0
LINE
  5
209
330
1F
100
AcDbEntity
  8
0
  6
Continuous
 62
     7
370
    18
100
AcDbLine
 10
1238.5228617257
 20
152.6083367004
 30
0.0
 11
1239.1567891183
 21
153.967798381
 31
0.0
  0
ARC
  5
20A
330
1F
100
AcDbEntity
  8
0
  6
Continuous
 62
     7
370
    18
100
AcDbCircle
 10
1238.1002434639
 20
151.7020289134
 30
0.0
 40
2.500000000000102
100
AcDbArc
 50
0.0
 51
65.0
  0
LINE
  5
20B
330
1F
100
AcDbEntity
  8
0
  6
Continuous
 62
     7
370
    18
100
AcDbLine
 10
1239.1002434639
 20
151.7020289134
 30
0.0
 11
1240.6002434639
 21
151.7020289134
 31
0.0
  0
LINE
  5
20C
330
1F
100
AcDbEntity
  8
0
  6
Continuous
 62
     7
370
    18
100
AcDbLine
 10
1239.1002434639
 20
151.7020289134
 30
0.0
 11
1239.1002434639
 21
127.3390991742
 31
0.0
  0
LINE
  5
20D
330
1F
100
AcDbEntity
  8
0
  6
Continuous
 62
     7
370
    18
100
AcDbLine
 10
1240.6002434639
 20
151.7020289134
 30
0.0
 11
1240.6002434639
 21
127.3390991742
 31
0.0
  0
LINE
  5
20E
330
1F
100
AcDbEntity
  8
0
  6
Continuous
 62
     7
370
    18
100
AcDbLine
 10
1237.9058907523
 20
152.8960349902
 30
0.0
 11
1238.5228617257
 21
152.6083367004
 31
0.0
  0
LINE
  5
20F
330
1F
100
AcDbEntity
  8
0
  6
Continuous
 62
     7
370
    18
100
AcDbLine
 10
1238.5398181449
 20
154.2554966707
 30
0.0
 11
1239.1567891183
 21
153.967798381
 31
0.0
  0
LINE
  5
210
330
1F
100
AcDbEntity
  8
0
  6
Continuous
 62
     7
370
    18
100
AcDbLine
 10
1193.7002434639
 20
109.3390991742
 30
0.0
 11
1195.2002434639
 21
109.3390991742
 31
0.0
  0
LINE
  5
211
330
1F
100
AcDbEntity
  8
0
  6
Continuous
 62
     7
370
    18
100
AcDbLine
 10
1195.2002434639
 20
112.3390991742
 30
0.0
 11
1193.7002434639
 21
112.3390991742
 31
0.0
  0
LINE
  5
212
330
1F
100
AcDbEntity
  8
0
  6
Continuous
 62
     7
370
    18
100
AcDbLine
 10
1195.2002434639
 20
109.3390991742
 30
0.0
 11
1195.2002434639
 21
112.3390991742
 31
0.0
  0
LINE
  5
213
330
1F
100
AcDbEntity
  8
0
  6
Continuous
 62
     7
370
    18
100
AcDbLine
 10
1193.7002434639
 20
112.3390991742
 30
0.0
 11
1193.7002434639
 21
109.3390991742
 31
0.0
  0
LINE
  5
214
330
1F
100
AcDbEntity
  8
0
  6
Continuous
 62
     7
370
    18
100
AcDbLine
 10
1195.2002434639
 20
124.3390991742
 30
0.0
 11
1193.7002434639
 21
124.3390991742
 31
0.0
  0
LINE
  5
215
330
1F
100
AcDbEntity
  8
0
  6
Continuous
 62
     7
370
    18
100
AcDbLine
 10
1195.2002434639
 20
124.3390991742
 30
0.0
 11
1195.2002434639
 21
112.3390991742
 31
0.0
  0
LINE
  5
216
330
1F
100
AcDbEntity
  8
0
  6
Continuous
 62
     7
370
    18
100
AcDbLine
 10
1193.7002434639
 20
124.3390991742
 30
0.0
 11
1193.7002434639
 21
112.3390991742
 31
0.0
  0
LINE
  5
217
330
1F
100
AcDbEntity
  8
0
  6
Continuous
 62
     7
370
    18
100
AcDbLine
 10
1195.2002434639
 20
128.7110568279
 30
0.0
 11
1195.2002434639
 21
124.3390991742
 31
0.0
  0
LINE
  5
218
330
1F
100
AcDbEntity
  8
0
  6
Continuous
 62
     7
370
    18
100
AcDbLine
 10
1193.7002434639
 20
129.4105183151
 30
0.0
 11
1193.7002434639
 21
124.3390991742
 31
0.0
  0
LINE
  5
219
330
1F
100
AcDbEntity
  8
0
  6
Continuous
 62
     7
370
    18
100
AcDbLine
 10
1279.2709579822
 20
124.874939491
 30
0.0
 11
1280.7709579822
 21
124.874939491
 31
0.0
  0
LINE
  5
21A
330
1F
100
AcDbEntity
  8
0
  6
Continuous
 62
     7
370
    18
100
AcDbLine
 10
1530.7709579822
 20
124.874939491
 30
0.0
 11
1532.2709579822
 21
124.874939491
 31
0.0
  0
ARC
  5
21B
330
1F
100
AcDbEntity
  8
0
  6
Continuous
 62
     7
370
    18
100
AcDbCircle
 10
1296.0709579822
 20
112.3390991742
 30
0.0
 40
3.000000000000014
100
AcDbArc
 50
270.0
 51
0.0
  0
LINE
  5
21C
330
1F
100
AcDbEntity
  8
0
  6
Continuous
 62
     7
370
    18
100
AcDbLine
 10
1285.4709579822
 20
109.3390991742
 30
0.0
 11
1296.0709579822
 21
109.3390991742
 31
0.0
  0
ARC
  5
21D
330
1F
100
AcDbEntity
  8
0
  6
Continuous
 62
     7
370
    18
100
AcDbCircle
 10
1285.4709579822
 20
112.3390991742
 30
0.0
 40
3.000000000000014
100
AcDbArc
 50
180.0
 51
270.0
  0
LINE
  5
21E
330
1F
100
AcDbEntity
  8
0
  6
Continuous
 62
     7
370
    18
100
AcDbLine
 10
1282.4709579822
 20
124.3390991742
 30
0.0
 11
1282.4709579822
 21
112.3390991742
 31
0.0
  0
LINE
  5
21F
330
1F
100
AcDbEntity
  8
0
  6
Continuous
 62
     7
370
    18
100
AcDbLine
 10
1282.4709579822
 20
129.4105183151
 30
0.0
 11
1282.4709579822
 21
124.3390991742
 31
0.0
  0
LINE
  5
220
330
1F
100
AcDbEntity
  8
0
  6
Continuous
 62
     7
370
    18
100
AcDbLine
 10
1282.4709579822
 20
129.4105183151
 30
0.0
 11
1281.7709579822
 21
129.4105183151
 31
0.0
  0
LINE
  5
221
330
1F
100
AcDbEntity
  8
0
  6
Continuous
 62
     7
370
    18
100
AcDbLine
 10
1281.7709579822
 20
129.4105183151
 30
0.0
 11
1281.7709579822
 21
166.6165131781
 31
0.0
  0
LINE
  5
222
330
1F
100
AcDbEntity
  8
0
  6
Continuous
 62
     7
370
    18
100
AcDbLine
 10
1296.0709579822
 20
166.6165131781
 30
0.0
 11
1281.7709579822
 21
166.6165131781
 31
0.0
  0
ARC
  5
223
330
1F
100
AcDbEntity
  8
0
  6
Continuous
 62
     7
370
    18
100
AcDbCircle
 10
1296.0709579822
 20
163.6165131781
 30
0.0
 40
3.0
100
AcDbArc
 50
0.0
 51
90.0
  0
LINE
  5
224
330
1F
100
AcDbEntity
  8
0
  6
Continuous
 62
     7
370
    18
100
AcDbLine
 10
1299.0709579822
 20
112.3390991742
 30
0.0
 11
1299.0709579822
 21
163.6165131781
 31
0.0
  0
LINE
  5
225
330
1F
100
AcDbEntity
  8
0
  6
Continuous
 62
     7
370
    18
100
AcDbLine
 10
1293.3709579822
 20
120.4792604672
 30
0.0
 11
1293.3709579822
 21
114.9390991742
 31
0.0
  0
ARC
  5
226
330
1F
100
AcDbEntity
  8
0
  6
Continuous
 62
     7
370
    18
100
AcDbCircle
 10
1290.7709579822
 20
125.4390991742
 30
0.0
 40
5.600000000000001
100
AcDbArc
 50
297.6640044962
 51
242.3359955038
  0
LINE
  5
227
330
1F
100
AcDbEntity
  8
0
  6
Continuous
 62
     7
370
    18
100
AcDbLine
 10
1288.1709579822
 20
114.9390991742
 30
0.0
 11
1288.1709579822
 21
120.4792604672
 31
0.0
  0
ARC
  5
228
330
1F
100
AcDbEntity
  8
0
  6
Continuous
 62
     7
370
    18
100
AcDbCircle
 10
1290.7709579822
 20
114.9390991742
 30
0.0
 40
2.600000000000136
100
AcDbArc
 50
180.0
 51
0.0
  0
ELLIPSE
  5
229
330
1F
100
AcDbEntity
  8
0
  6
Continuous
 62
     7
370
    18
100
AcDbEllipse
 10
1281.7709579822
 20
128.2447491697
 30
0.0
 11
0.0
 21
1.165769145387515
 31
0.0
210
0.0
220
0.0
230
1.0
 40
0.8578027682
 41
0.0
 42
1.570796326794872
  0
LINE
  5
22A
330
1F
100
AcDbEntity
  8
0
  6
Continuous
 62
     7
370
    18
100
AcDbLine
 10
1280.7709579822
 20
128.2447491697
 30
0.0
 11
1279.2709579822
 21
128.2447491697
 31
0.0
  0
ELLIPSE
  5
22B
330
1F
100
AcDbEntity
  8
0
  6
Continuous
 62
     7
370
    18
100
AcDbEllipse
 10
1281.7709579822
 20
128.2447491697
 30
0.0
 11
2.500000000000227
 21
0.0
 31
0.0
210
0.0
220
0.0
230
1.0
 40
0.4663076582
 41
1.570796326794897
 42
3.141592653589769
  0
LINE
  5
22C
330
1F
100
AcDbEntity
  8
0
  6
Continuous
 62
     7
370
    18
100
AcDbLine
 10
1279.2709579822
 20
128.2447491697
 30
0.0
 11
1279.2709579822
 21
166.6165131781
 31
0.0
  0
LINE
  5
22D
330
1F
100
AcDbEntity
  8
0
  6
Continuous
 62
     7
370
    18
100
AcDbLine
 10
1279.2709579822
 20
166.6165131781
 30
0.0
 11
1281.7709579822
 21
166.6165131781
 31
0.0
  0
ARC
  5
22E
330
1F
100
AcDbEntity
  8
0
  6
Continuous
 62
     7
370
    18
100
AcDbCircle
 10
1515.4709579822
 20
163.6165131781
 30
0.0
 40
3.0
100
AcDbArc
 50
90.0
 51
180.0
  0
LINE
  5
22F
330
1F
100
AcDbEntity
  8
0
  6
Continuous
 62
     7
370
    18
100
AcDbLine
 10
1515.4709579822
 20
166.6165131781
 30
0.0
 11
1529.7709579822
 21
166.6165131781
 31
0.0
  0
LINE
  5
230
330
1F
100
AcDbEntity
  8
0
  6
Continuous
 62
     7
370
    18
100
AcDbLine
 10
1529.7709579822
 20
129.4105183151
 30
0.0
 11
1529.7709579822
 21
166.6165131781
 31
0.0
  0
LINE
  5
231
330
1F
100
AcDbEntity
  8
0
  6
Continuous
 62
     7
370
    18
100
AcDbLine
 10
1529.0709579822
 20
129.4105183151
 30
0.0
 11
1529.7709579822
 21
129.4105183151
 31
0.0
  0
LINE
  5
232
330
1F
100
AcDbEntity
  8
0
  6
Continuous
 62
     7
370
    18
100
AcDbLine
 10
1529.0709579822
 20
129.4105183151
 30
0.0
 11
1529.0709579822
 21
124.3390991742
 31
0.0
  0
LINE
  5
233
330
1F
100
AcDbEntity
  8
0
  6
Continuous
 62
     7
370
    18
100
AcDbLine
 10
1529.0709579822
 20
124.3390991742
 30
0.0
 11
1529.0709579822
 21
112.3390991742
 31
0.0
  0
ARC
  5
234
330
1F
100
AcDbEntity
  8
0
  6
Continuous
 62
     7
370
    18
100
AcDbCircle
 10
1526.0709579822
 20
112.3390991742
 30
0.0
 40
3.000000000000014
100
AcDbArc
 50
270.0
 51
0.0
  0
LINE
  5
235
330
1F
100
AcDbEntity
  8
0
  6
Continuous
 62
     7
370
    18
100
AcDbLine
 10
1526.0709579822
 20
109.3390991742
 30
0.0
 11
1515.4709579822
 21
109.3390991742
 31
0.0
  0
ARC
  5
236
330
1F
100
AcDbEntity
  8
0
  6
Continuous
 62
     7
370
    18
100
AcDbCircle
 10
1515.4709579822
 20
112.3390991742
 30
0.0
 40
3.000000000000014
100
AcDbArc
 50
180.0
 51
270.0
  0
LINE
  5
237
330
1F
100
AcDbEntity
  8
0
  6
Continuous
 62
     7
370
    18
100
AcDbLine
 10
1512.4709579822
 20
112.3390991742
 30
0.0
 11
1512.4709579822
 21
163.6165131781
 31
0.0
  0
LINE
  5
238
330
1F
100
AcDbEntity
  8
0
  6
Continuous
 62
     7
370
    18
100
AcDbLine
 10
1523.3709579822
 20
114.9390991742
 30
0.0
 11
1523.3709579822
 21
120.4792604672
 31
0.0
  0
ARC
  5
239
330
1F
100
AcDbEntity
  8
0
  6
Continuous
 62
     7
370
    18
100
AcDbCircle
 10
1520.7709579822
 20
125.4390991742
 30
0.0
 40
5.600000000000001
100
AcDbArc
 50
297.6640044962
 51
242.3359955038
  0
LINE
  5
23A
330
1F
100
AcDbEntity
  8
0
  6
Continuous
 62
     7
370
    18
100
AcDbLine
 10
1518.1709579822
 20
120.4792604672
 30
0.0
 11
1518.1709579822
 21
114.9390991742
 31
0.0
  0
ARC
  5
23B
330
1F
100
AcDbEntity
  8
0
  6
Continuous
 62
     7
370
    18
100
AcDbCircle
 10
1520.7709579822
 20
114.9390991742
 30
0.0
 40
2.600000000000136
100
AcDbArc
 50
180.0
 51
0.0
  0
LINE
  5
23C
330
1F
100
AcDbEntity
  8
0
  6
Continuous
 62
     7
370
    18
100
AcDbLine
 10
1530.7709579822
 20
128.2447491697
 30
0.0
 11
1532.2709579822
 21
128.2447491697
 31
0.0
  0
ELLIPSE
  5
23D
330
1F
100
AcDbEntity
  8
0
  6
Continuous
 62
     7
370
    18
100
AcDbEllipse
 10
1529.7709579822
 20
128.2447491697
 30
0.0
 11
0.0
 21
1.165769145387515
 31
0.0
210
0.0
220
0.0
230
1.0
 40
0.8578027682
 41
4.712388980384726
 42
6.283185307179586
  0
ELLIPSE
  5
23E
330
1F
100
AcDbEntity
  8
0
  6
Continuous
 62
     7
370
    18
100
AcDbEllipse
 10
1529.7709579822
 20
128.2447491697
 30
0.0
 11
2.500000000000227
 21
2.842170943040401E-14
 31
0.0
210
0.0
220
0.0
230
1.0
 40
0.4663076582
 41
0.0
 42
1.570796326794891
  0
LINE
  5
23F
330
1F
100
AcDbEntity
  8
0
  6
Continuous
 62
     7
370
    18
100
AcDbLine
 10
1532.2709579822
 20
166.6165131781
 30
0.0
 11
1529.7709579822
 21
166.6165131781
 31
0.0
  0
LINE
  5
240
330
1F
100
AcDbEntity
  8
0
  6
Continuous
 62
     7
370
    18
100
AcDbLine
 10
1532.2709579822
 20
128.2447491697
 30
0.0
 11
1532.2709579822
 21
166.6165131781
 31
0.0
  0
LINE
  5
241
330
1F
100
AcDbEntity
  8
0
  6
Continuous
 62
     7
370
    18
100
AcDbLine
 10
1280.7709579822
 20
125.1560161299
 30
0.0
 11
1280.7709579822
 21
128.2447491697
 31
0.0
  0
LINE
  5
242
330
1F
100
AcDbEntity
  8
0
  6
Continuous
 62
     7
370
    18
100
AcDbLine
 10
1279.2709579822
 20
125.1560161299
 30
0.0
 11
1280.7709579822
 21
125.1560161299
 31
0.0
  0
LINE
  5
243
330
1F
100
AcDbEntity
  8
0
  6
Continuous
 62
     7
370
    18
100
AcDbLine
 10
1279.2709579822
 20
125.1560161299
 30
0.0
 11
1279.2709579822
 21
128.2447491697
 31
0.0
  0
LINE
  5
244
330
1F
100
AcDbEntity
  8
0
  6
Continuous
 62
     7
370
    18
100
AcDbLine
 10
1532.2709579822
 20
125.1560161299
 30
0.0
 11
1530.7709579822
 21
125.1560161299
 31
0.0
  0
LINE
  5
245
330
1F
100
AcDbEntity
  8
0
  6
Continuous
 62
     7
370
    18
100
AcDbLine
 10
1530.7709579822
 20
125.1560161299
 30
0.0
 11
1530.7709579822
 21
128.2447491697
 31
0.0
  0
LINE
  5
246
330
1F
100
AcDbEntity
  8
0
  6
Continuous
 62
     7
370
    18
100
AcDbLine
 10
1532.2709579822
 20
125.1560161299
 30
0.0
 11
1532.2709579822
 21
128.2447491697
 31
0.0
  0
LINE
  5
247
330
1F
100
AcDbEntity
  8
0
  6
Continuous
 62
     7
370
    18
100
AcDbLine
 10
1280.7709579822
 20
125.1560161299
 30
0.0
 11
1280.7709579822
 21
124.874939491
 31
0.0
  0
LINE
  5
248
330
1F
100
AcDbEntity
  8
0
  6
Continuous
 62
     7
370
    18
100
AcDbLine
 10
1279.2709579822
 20
124.874939491
 30
0.0
 11
1279.2709579822
 21
125.1560161299
 31
0.0
  0
LINE
  5
249
330
1F
100
AcDbEntity
  8
0
  6
Continuous
 62
     7
370
    18
100
AcDbLine
 10
1532.2709579822
 20
124.874939491
 30
0.0
 11
1532.2709579822
 21
125.1560161299
 31
0.0
  0
LINE
  5
24A
330
1F
100
AcDbEntity
  8
0
  6
Continuous
 62
     7
370
    18
100
AcDbLine
 10
1530.7709579822
 20
125.1560161299
 30
0.0
 11
1530.7709579822
 21
124.874939491
 31
0.0
  0
LINE
  5
24B
330
1F
100
AcDbEntity
  8
0
  6
Continuous
 62
     7
370
    18
100
AcDbLine
 10
1280.7709579822
 20
167.0696670716
 30
0.0
 11
1279.2709579822
 21
167.0696670716
 31
0.0
  0
LINE
  5
24C
330
1F
100
AcDbEntity
  8
0
  6
Continuous
 62
     7
370
    18
100
AcDbLine
 10
1280.7709579822
 20
166.6165131781
 30
0.0
 11
1280.7709579822
 21
167.0696670716
 31
0.0
  0
LINE
  5
24D
330
1F
100
AcDbEntity
  8
0
  6
Continuous
 62
     7
370
    18
100
AcDbLine
 10
1279.2709579822
 20
166.6165131781
 30
0.0
 11
1279.2709579822
 21
167.0696670716
 31
0.0
  0
LINE
  5
24E
330
1F
100
AcDbEntity
  8
0
  6
Continuous
 62
     7
370
    18
100
AcDbLine
 10
1530.7709579822
 20
167.0696670716
 30
0.0
 11
1532.2709579822
 21
167.0696670716
 31
0.0
  0
LINE
  5
24F
330
1F
100
AcDbEntity
  8
0
  6
Continuous
 62
     7
370
    18
100
AcDbLine
 10
1532.2709579822
 20
166.6165131781
 30
0.0
 11
1532.2709579822
 21
167.0696670716
 31
0.0
  0
LINE
  5
250
330
1F
100
AcDbEntity
  8
0
  6
Continuous
 62
     7
370
    18
100
AcDbLine
 10
1530.7709579822
 20
166.6165131781
 30
0.0
 11
1530.7709579822
 21
167.0696670716
 31
0.0
  0
ARC
  5
251
330
1F
100
AcDbEntity
  8
0
  6
Continuous
 62
     7
370
    18
100
AcDbCircle
 10
1281.6593291102
 20
166.9464982391
 30
0.0
 40
2.391544941346355
100
AcDbArc
 50
87.3246632995
 51
177.0478590626
  0
LINE
  5
252
330
1F
100
AcDbEntity
  8
0
  6
Continuous
 62
     7
370
    18
100
AcDbLine
 10
1281.7709579822
 20
167.9759748586
 30
0.0
 11
1281.7709579822
 21
169.3354365392
 31
0.0
  0
ARC
  5
253
330
1F
100
AcDbEntity
  8
0
  6
Continuous
 62
     7
370
    18
100
AcDbCircle
 10
1281.7263064334
 20
167.0203995386
 30
0.0
 40
0.956617976539083
100
AcDbArc
 50
87.3246632995
 51
177.0478590626
  0
LINE
  5
254
330
1F
100
AcDbEntity
  8
0
  6
Continuous
 62
     7
370
    18
100
AcDbLine
 10
1281.7709579822
 20
167.9759748586
 30
0.0
 11
1281.7709579822
 21
166.6165131781
 31
0.0
  0
ARC
  5
255
330
1F
100
AcDbEntity
  8
0
  6
Continuous
 62
     7
370
    18
100
AcDbCircle
 10
1529.8825868541
 20
166.9464982391
 30
0.0
 40
2.391544941346992
100
AcDbArc
 50
2.9521409374
 51
92.6753367005
  0
ARC
  5
256
330
1F
100
AcDbEntity
  8
0
  6
Continuous
 62
     7
370
    18
100
AcDbCircle
 10
1529.815609531
 20
167.0203995386
 30
0.0
 40
0.9566179765385129
100
AcDbArc
 50
2.9521409374
 51
92.6753367005
  0
LINE
  5
257
330
1F
100
AcDbEntity
  8
0
  6
Continuous
 62
     7
370
    18
100
AcDbLine
 10
1529.7709579822
 20
167.9759748586
 30
0.0
 11
1529.7709579822
 21
169.3354365392
 31
0.0
  0
LINE
  5
258
330
1F
100
AcDbEntity
  8
0
  6
Continuous
 62
     7
370
    18
100
AcDbLine
 10
1529.7709579822
 20
167.9759748586
 30
0.0
 11
1529.7709579822
 21
166.6165131781
 31
0.0
  0
LINE
  5
259
330
1F
100
AcDbEntity
  8
0
  6
Continuous
 62
     7
370
    18
100
AcDbLine
 10
1497.2709579822
 20
164.0972678368
 30
0.0
 11
1497.2709579822
 21
155.8139499067
 31
0.0
  0
LINE
  5
25A
330
1F
100
AcDbEntity
  8
0
  6
Continuous
 62
     7
370
    18
100
AcDbLine
 10
1497.2709579822
 20
155.8139499067
 30
0.0
 11
1512.2709579822
 21
155.8139499067
 31
0.0
  0
LINE
  5
25B
330
1F
100
AcDbEntity
  8
0
  6
Continuous
 62
     7
370
    18
100
AcDbLine
 10
1512.2709579822
 20
155.8139499067
 30
0.0
 11
1512.2709579822
 21
164.0972678368
 31
0.0
  0
LINE
  5
25C
330
1F
100
AcDbEntity
  8
0
  6
Continuous
 62
     7
370
    18
100
AcDbLine
 10
1512.2709579822
 20
164.0972678368
 30
0.0
 11
1497.2709579822
 21
164.0972678368
 31
0.0
  0
LINE
  5
25D
330
1F
100
AcDbEntity
  8
0
  6
Continuous
 62
     7
370
    18
100
AcDbLine
 10
1479.2709579822
 20
164.0972678368
 30
0.0
 11
1479.2709579822
 21
155.8139499067
 31
0.0
  0
LINE
  5
25E
330
1F
100
AcDbEntity
  8
0
  6
Continuous
 62
     7
370
    18
100
AcDbLine
 10
1479.2709579822
 20
155.8139499067
 30
0.0
 11
1494.2709579822
 21
155.8139499067
 31
0.0
  0
LINE
  5
25F
330
1F
100
AcDbEntity
  8
0
  6
Continuous
 62
     7
370
    18
100
AcDbLine
 10
1494.2709579822
 20
155.8139499067
 30
0.0
 11
1494.2709579822
 21
164.0972678368
 31
0.0
  0
LINE
  5
260
330
1F
100
AcDbEntity
  8
0
  6
Continuous
 62
     7
370
    18
100
AcDbLine
 10
1494.2709579822
 20
164.0972678368
 30
0.0
 11
1479.2709579822
 21
164.0972678368
 31
0.0
  0
LINE
  5
261
330
1F
100
AcDbEntity
  8
0
  6
Continuous
 62
     7
370
    18
100
AcDbLine
 10
1461.2709579822
 20
164.0972678368
 30
0.0
 11
1461.2709579822
 21
155.8139499067
 31
0.0
  0
LINE
  5
262
330
1F
100
AcDbEntity
  8
0
  6
Continuous
 62
     7
370
    18
100
AcDbLine
 10
1461.2709579822
 20
155.8139499067
 30
0.0
 11
1476.2709579822
 21
155.8139499067
 31
0.0
  0
LINE
  5
263
330
1F
100
AcDbEntity
  8
0
  6
Continuous
 62
     7
370
    18
100
AcDbLine
 10
1476.2709579822
 20
155.8139499067
 30
0.0
 11
1476.2709579822
 21
164.0972678368
 31
0.0
  0
LINE
  5
264
330
1F
100
AcDbEntity
  8
0
  6
Continuous
 62
     7
370
    18
100
AcDbLine
 10
1476.2709579822
 20
164.0972678368
 30
0.0
 11
1461.2709579822
 21
164.0972678368
 31
0.0
  0
LINE
  5
265
330
1F
100
AcDbEntity
  8
0
  6
Continuous
 62
     7
370
    18
100
AcDbLine
 10
1443.2709579822
 20
164.0972678368
 30
0.0
 11
1443.2709579822
 21
155.8139499067
 31
0.0
  0
LINE
  5
266
330
1F
100
AcDbEntity
  8
0
  6
Continuous
 62
     7
370
    18
100
AcDbLine
 10
1443.2709579822
 20
155.8139499067
 30
0.0
 11
1458.2709579822
 21
155.8139499067
 31
0.0
  0
LINE
  5
267
330
1F
100
AcDbEntity
  8
0
  6
Continuous
 62
     7
370
    18
100
AcDbLine
 10
1458.2709579822
 20
155.8139499067
 30
0.0
 11
1458.2709579822
 21
164.0972678368
 31
0.0
  0
LINE
  5
268
330
1F
100
AcDbEntity
  8
0
  6
Continuous
 62
     7
370
    18
100
AcDbLine
 10
1458.2709579822
 20
164.0972678368
 30
0.0
 11
1443.2709579822
 21
164.0972678368
 31
0.0
  0
LINE
  5
269
330
1F
100
AcDbEntity
  8
0
  6
Continuous
 62
     7
370
    18
100
AcDbLine
 10
1407.2709579822
 20
155.8139499067
 30
0.0
 11
1422.2709579822
 21
155.8139499067
 31
0.0
  0
LINE
  5
26A
330
1F
100
AcDbEntity
  8
0
  6
Continuous
 62
     7
370
    18
100
AcDbLine
 10
1422.2709579822
 20
155.8139499067
 30
0.0
 11
1422.2709579822
 21
164.0972678368
 31
0.0
  0
LINE
  5
26B
330
1F
100
AcDbEntity
  8
0
  6
Continuous
 62
     7
370
    18
100
AcDbLine
 10
1422.2709579822
 20
164.0972678368
 30
0.0
 11
1407.2709579822
 21
164.0972678368
 31
0.0
  0
LINE
  5
26C
330
1F
100
AcDbEntity
  8
0
  6
Continuous
 62
     7
370
    18
100
AcDbLine
 10
1407.2709579822
 20
164.0972678368
 30
0.0
 11
1407.2709579822
 21
155.8139499067
 31
0.0
  0
LINE
  5
26D
330
1F
100
AcDbEntity
  8
0
  6
Continuous
 62
     7
370
    18
100
AcDbLine
 10
1425.2709579822
 20
155.8139499067
 30
0.0
 11
1440.2709579822
 21
155.8139499067
 31
0.0
  0
LINE
  5
26E
330
1F
100
AcDbEntity
  8
0
  6
Continuous
 62
     7
370
    18
100
AcDbLine
 10
1440.2709579822
 20
155.8139499067
 30
0.0
 11
1440.2709579822
 21
164.0972678368
 31
0.0
  0
LINE
  5
26F
330
1F
100
AcDbEntity
  8
0
  6
Continuous
 62
     7
370
    18
100
AcDbLine
 10
1440.2709579822
 20
164.0972678368
 30
0.0
 11
1425.2709579822
 21
164.0972678368
 31
0.0
  0
LINE
  5
270
330
1F
100
AcDbEntity
  8
0
  6
Continuous
 62
     7
370
    18
100
AcDbLine
 10
1425.2709579822
 20
164.0972678368
 30
0.0
 11
1425.2709579822
 21
155.8139499067
 31
0.0
  0
LINE
  5
271
330
1F
100
AcDbEntity
  8
0
  6
Continuous
 62
     7
370
    18
100
AcDbLine
 10
1299.2709579822
 20
155.8139499067
 30
0.0
 11
1299.2709579822
 21
164.0972678368
 31
0.0
  0
LINE
  5
272
330
1F
100
AcDbEntity
  8
0
  6
Continuous
 62
     7
370
    18
100
AcDbLine
 10
1314.2709579822
 20
155.8139499067
 30
0.0
 11
1299.2709579822
 21
155.8139499067
 31
0.0
  0
LINE
  5
273
330
1F
100
AcDbEntity
  8
0
  6
Continuous
 62
     7
370
    18
100
AcDbLine
 10
1314.2709579822
 20
164.0972678368
 30
0.0
 11
1314.2709579822
 21
155.8139499067
 31
0.0
  0
LINE
  5
274
330
1F
100
AcDbEntity
  8
0
  6
Continuous
 62
     7
370
    18
100
AcDbLine
 10
1299.2709579822
 20
164.0972678368
 30
0.0
 11
1314.2709579822
 21
164.0972678368
 31
0.0
  0
LINE
  5
275
330
1F
100
AcDbEntity
  8
0
  6
Continuous
 62
     7
370
    18
100
AcDbLine
 10
1317.2709579822
 20
155.8139499067
 30
0.0
 11
1317.2709579822
 21
164.0972678368
 31
0.0
  0
LINE
  5
276
330
1F
100
AcDbEntity
  8
0
  6
Continuous
 62
     7
370
    18
100
AcDbLine
 10
1332.2709579822
 20
155.8139499067
 30
0.0
 11
1317.2709579822
 21
155.8139499067
 31
0.0
  0
LINE
  5
277
330
1F
100
AcDbEntity
  8
0
  6
Continuous
 62
     7
370
    18
100
AcDbLine
 10
1332.2709579822
 20
164.0972678368
 30
0.0
 11
1332.2709579822
 21
155.8139499067
 31
0.0
  0
LINE
  5
278
330
1F
100
AcDbEntity
  8
0
  6
Continuous
 62
     7
370
    18
100
AcDbLine
 10
1317.2709579822
 20
164.0972678368
 30
0.0
 11
1332.2709579822
 21
164.0972678368
 31
0.0
  0
LINE
  5
279
330
1F
100
AcDbEntity
  8
0
  6
Continuous
 62
     7
370
    18
100
AcDbLine
 10
1335.2709579822
 20
155.8139499067
 30
0.0
 11
1335.2709579822
 21
164.0972678368
 31
0.0
  0
LINE
  5
27A
330
1F
100
AcDbEntity
  8
0
  6
Continuous
 62
     7
370
    18
100
AcDbLine
 10
1350.2709579822
 20
155.8139499067
 30
0.0
 11
1335.2709579822
 21
155.8139499067
 31
0.0
  0
LINE
  5
27B
330
1F
100
AcDbEntity
  8
0
  6
Continuous
 62
     7
370
    18
100
AcDbLine
 10
1350.2709579822
 20
164.0972678368
 30
0.0
 11
1350.2709579822
 21
155.8139499067
 31
0.0
  0
LINE
  5
27C
330
1F
100
AcDbEntity
  8
0
  6
Continuous
 62
     7
370
    18
100
AcDbLine
 10
1335.2709579822
 20
164.0972678368
 30
0.0
 11
1350.2709579822
 21
164.0972678368
 31
0.0
  0
LINE
  5
27D
330
1F
100
AcDbEntity
  8
0
  6
Continuous
 62
     7
370
    18
100
AcDbLine
 10
1353.2709579822
 20
155.8139499067
 30
0.0
 11
1353.2709579822
 21
164.0972678368
 31
0.0
  0
LINE
  5
27E
330
1F
100
AcDbEntity
  8
0
  6
Continuous
 62
     7
370
    18
100
AcDbLine
 10
1368.2709579822
 20
155.8139499067
 30
0.0
 11
1353.2709579822
 21
155.8139499067
 31
0.0
  0
LINE
  5
27F
330
1F
100
AcDbEntity
  8
0
  6
Continuous
 62
     7
370
    18
100
AcDbLine
 10
1368.2709579822
 20
164.0972678368
 30
0.0
 11
1368.2709579822
 21
155.8139499067
 31
0.0
  0
LINE
  5
280
330
1F
100
AcDbEntity
  8
0
  6
Continuous
 62
     7
370
    18
100
AcDbLine
 10
1353.2709579822
 20
164.0972678368
 30
0.0
 11
1368.2709579822
 21
164.0972678368
 31
0.0
  0
LINE
  5
281
330
1F
100
AcDbEntity
  8
0
  6
Continuous
 62
     7
370
    18
100
AcDbLine
 10
1281.7709579822
 20
167.9759748586
 30
0.0
 11
1529.7709579822
 21
167.9759748586
 31
0.0
  0
LINE
  5
282
330
1F
100
AcDbEntity
  8
0
  6
Continuous
 62
     7
370
    18
100
AcDbLine
 10
1512.4709579822
 20
152.6083367004
 30
0.0
 11
1299.0709579822
 21
152.6083367004
 31
0.0
  0
LINE
  5
283
330
1F
100
AcDbEntity
  8
0
  6
Continuous
 62
     7
370
    18
100
AcDbLine
 10
1389.2709579822
 20
164.0972678368
 30
0.0
 11
1404.2709579822
 21
164.0972678368
 31
0.0
  0
LINE
  5
284
330
1F
100
AcDbEntity
  8
0
  6
Continuous
 62
     7
370
    18
100
AcDbLine
 10
1389.2709579822
 20
155.8139499067
 30
0.0
 11
1389.2709579822
 21
164.0972678368
 31
0.0
  0
LINE
  5
285
330
1F
100
AcDbEntity
  8
0
  6
Continuous
 62
     7
370
    18
100
AcDbLine
 10
1404.2709579822
 20
155.8139499067
 30
0.0
 11
1389.2709579822
 21
155.8139499067
 31
0.0
  0
LINE
  5
286
330
1F
100
AcDbEntity
  8
0
  6
Continuous
 62
     7
370
    18
100
AcDbLine
 10
1404.2709579822
 20
164.0972678368
 30
0.0
 11
1404.2709579822
 21
155.8139499067
 31
0.0
  0
LINE
  5
287
330
1F
100
AcDbEntity
  8
0
  6
Continuous
 62
     7
370
    18
100
AcDbLine
 10
1371.2709579822
 20
164.0972678368
 30
0.0
 11
1386.2709579822
 21
164.0972678368
 31
0.0
  0
LINE
  5
288
330
1F
100
AcDbEntity
  8
0
  6
Continuous
 62
     7
370
    18
100
AcDbLine
 10
1371.2709579822
 20
155.8139499067
 30
0.0
 11
1371.2709579822
 21
164.0972678368
 31
0.0
  0
LINE
  5
289
330
1F
100
AcDbEntity
  8
0
  6
Continuous
 62
     7
370
    18
100
AcDbLine
 10
1386.2709579822
 20
155.8139499067
 30
0.0
 11
1371.2709579822
 21
155.8139499067
 31
0.0
  0
LINE
  5
28A
330
1F
100
AcDbEntity
  8
0
  6
Continuous
 62
     7
370
    18
100
AcDbLine
 10
1386.2709579822
 20
164.0972678368
 30
0.0
 11
1386.2709579822
 21
155.8139499067
 31
0.0
  0
LINE
  5
28B
330
1F
100
AcDbEntity
  8
0
  6
Continuous
 62
     7
370
    18
100
AcDbLine
 10
1281.7709579822
 20
169.3354365392
 30
0.0
 11
1529.7709579822
 21
169.3354365392
 31
0.0
  0
LINE
  5
28C
330
1F
100
AcDbEntity
  8
0
  6
Continuous
 62
     7
370
    18
100
AcDbLine
 10
1314.2709579822
 20
157.1734115872
 30
0.0
 11
1299.2709579822
 21
157.1734115872
 31
0.0
  0
LINE
  5
28D
330
1F
100
AcDbEntity
  8
0
  6
Continuous
 62
     7
370
    18
100
AcDbLine
 10
1332.2709579822
 20
157.1734115872
 30
0.0
 11
1317.2709579822
 21
157.1734115872
 31
0.0
  0
LINE
  5
28E
330
1F
100
AcDbEntity
  8
0
  6
Continuous
 62
     7
370
    18
100
AcDbLine
 10
1350.2709579822
 20
157.1734115872
 30
0.0
 11
1335.2709579822
 21
157.1734115872
 31
0.0
  0
LINE
  5
28F
330
1F
100
AcDbEntity
  8
0
  6
Continuous
 62
     7
370
    18
100
AcDbLine
 10
1368.2709579822
 20
157.1734115872
 30
0.0
 11
1353.2709579822
 21
157.1734115872
 31
0.0
  0
LINE
  5
290
330
1F
100
AcDbEntity
  8
0
  6
Continuous
 62
     7
370
    18
100
AcDbLine
 10
1386.2709579822
 20
157.1734115872
 30
0.0
 11
1371.2709579822
 21
157.1734115872
 31
0.0
  0
LINE
  5
291
330
1F
100
AcDbEntity
  8
0
  6
Continuous
 62
     7
370
    18
100
AcDbLine
 10
1404.2709579822
 20
157.1734115872
 30
0.0
 11
1389.2709579822
 21
157.1734115872
 31
0.0
  0
LINE
  5
292
330
1F
100
AcDbEntity
  8
0
  6
Continuous
 62
     7
370
    18
100
AcDbLine
 10
1407.2709579822
 20
157.1734115872
 30
0.0
 11
1422.2709579822
 21
157.1734115872
 31
0.0
  0
LINE
  5
293
330
1F
100
AcDbEntity
  8
0
  6
Continuous
 62
     7
370
    18
100
AcDbLine
 10
1425.2709579822
 20
157.1734115872
 30
0.0
 11
1440.2709579822
 21
157.1734115872
 31
0.0
  0
LINE
  5
294
330
1F
100
AcDbEntity
  8
0
  6
Continuous
 62
     7
370
    18
100
AcDbLine
 10
1443.2709579822
 20
157.1734115872
 30
0.0
 11
1458.2709579822
 21
157.1734115872
 31
0.0
  0
LINE
  5
295
330
1F
100
AcDbEntity
  8
0
  6
Continuous
 62
     7
370
    18
100
AcDbLine
 10
1461.2709579822
 20
157.1734115872
 30
0.0
 11
1476.2709579822
 21
157.1734115872
 31
0.0
  0
LINE
  5
296
330
1F
100
AcDbEntity
  8
0
  6
Continuous
 62
     7
370
    18
100
AcDbLine
 10
1479.2709579822
 20
157.1734115872
 30
0.0
 11
1494.2709579822
 21
157.1734115872
 31
0.0
  0
LINE
  5
297
330
1F
100
AcDbEntity
  8
0
  6
Continuous
 62
     7
370
    18
100
AcDbLine
 10
1497.2709579822
 20
157.1734115872
 30
0.0
 11
1512.2709579822
 21
157.1734115872
 31
0.0
  0
LINE
  5
298
330
1F
100
AcDbEntity
  8
0
  6
Continuous
 62
     7
370
    18
100
AcDbLine
 10
1299.0709579822
 20
151.7020289134
 30
0.0
 11
1512.4709579822
 21
151.7020289134
 31
0.0
  0
LINE
  5
299
330
1F
100
AcDbEntity
  8
0
  6
Continuous
 62
     7
370
    18
100
AcDbLine
 10
1529.7709579822
 20
129.4105183151
 30
0.0
 11
1529.7709579822
 21
127.3390991742
 31
0.0
  0
ARC
  5
29A
330
1F
100
AcDbEntity
  8
0
  6
Continuous
 62
     7
370
    18
100
AcDbCircle
 10
1526.7709579822
 20
127.3390991742
 30
0.0
 40
3.000000000000119
100
AcDbArc
 50
320.0554948102
 51
0.0
  0
LINE
  5
29B
330
1F
100
AcDbEntity
  8
0
  6
Continuous
 62
     7
370
    18
100
AcDbLine
 10
1285.2800564169
 20
124.3390991742
 30
0.0
 11
1296.2618595475
 21
124.3390991742
 31
0.0
  0
LINE
  5
29C
330
1F
100
AcDbEntity
  8
0
  6
Continuous
 62
     7
370
    18
100
AcDbLine
 10
1299.0709579822
 20
124.3390991742
 30
0.0
 11
1512.4709579822
 21
124.3390991742
 31
0.0
  0
LINE
  5
29D
330
1F
100
AcDbEntity
  8
0
  6
Continuous
 62
     7
370
    18
100
AcDbLine
 10
1515.2800564169
 20
124.3390991742
 30
0.0
 11
1526.2618595475
 21
124.3390991742
 31
0.0
  0
ARC
  5
29E
330
1F
100
AcDbEntity
  8
0
  6
Continuous
 62
     7
370
    18
100
AcDbCircle
 10
1284.7709579822
 20
127.3390991742
 30
0.0
 40
3.0
100
AcDbArc
 50
180.0
 51
219.9445051898
  0
LINE
  5
29F
330
1F
100
AcDbEntity
  8
0
  6
Continuous
 62
     7
370
    18
100
AcDbLine
 10
1281.7709579822
 20
129.4105183151
 30
0.0
 11
1281.7709579822
 21
127.3390991742
 31
0.0
  0
ENDSEC
  0
SECTION
  2
OBJECTS
  0
DICTIONARY
  5
C
330
0
100
AcDbDictionary
281
     1
  3
ACAD_GROUP
350
D
  3
ACAD_LAYOUT
350
1A
  3
ACAD_MLINESTYLE
350
17
  3
ACAD_PLOTSETTINGS
350
19
  3
ACAD_PLOTSTYLENAME
350
E
  3
ACAD_SCALELIST
350
47
  3
DWGPROPS
350
2A0
  0
DICTIONARY
  5
D
102
{ACAD_REACTORS
330
C
102
}
330
C
100
AcDbDictionary
281
     1
  0
DICTIONARY
  5
1A
102
{ACAD_REACTORS
330
C
102
}
330
C
100
AcDbDictionary
281
     1
  3
Layout1
350
1E
  3
Layout2
350
26
  3
Model
350
22
  0
DICTIONARY
  5
17
102
{ACAD_REACTORS
330
C
102
}
330
C
100
AcDbDictionary
281
     1
  3
Standard
350
18
  0
DICTIONARY
  5
19
102
{ACAD_REACTORS
330
C
102
}
330
C
100
AcDbDictionary
281
     1
  0
ACDBDICTIONARYWDFLT
  5
E
102
{ACAD_REACTORS
330
C
102
}
330
C
100
AcDbDictionary
281
     1
  3
Normal
350
F
100
AcDbDictionaryWithDefault
340
F
  0
DICTIONARY
  5
47
102
{ACAD_REACTORS
330
C
102
}
330
C
100
AcDbDictionary
281
     1
  3
A0
350
48
  3
A1
350
49
  3
A2
350
4A
  3
A3
350
4B
  3
A4
350
4C
  3
A5
350
4D
  3
A6
350
4E
  3
A7
350
4F
  3
A8
350
50
  3
A9
350
51
  3
B0
350
52
  3
B1
350
53
  3
B2
350
54
  3
B3
350
55
  3
B4
350
56
  3
B5
350
57
  3
B6
350
58
  0
XRECORD
  5
2A0
102
{ACAD_REACTORS
330
C
102
}
330
C
100
AcDbXrecord
280
     1
  1
DWGPROPS COOKIE
  2

  3

  4

  6

  7

  8
masolbasovso
  9

300
=
301
=
302
=
303
=
304
=
305
=
306
=
307
=
308
=
309
=
 40
0.0
 41
2460654.521614826
 42
2460654.521615289
  1

 90
        0
  0
LAYOUT
  5
1E
102
{ACAD_REACTORS
330
1A
102
}
330
1A
100
AcDbPlotSettings
  1

  2
none_device
  4

  6

 40
0.0
 41
0.0
 42
0.0
 43
0.0
 44
0.0
 45
0.0
 46
0.0
 47
0.0
 48
0.0
 49
0.0
140
0.0
141
0.0
142
1.0
143
1.0
 70
   688
 72
     1
 73
     0
 74
     5
  7

 75
    16
147
1.0
148
0.0
149
0.0
100
AcDbLayout
  1
Layout1
 70
     1
 71
     1
 10
0.0
 20
0.0
 11
420.0
 21
297.0
 12
0.0
 22
0.0
 32
0.0
 14
1.0000000000E+20
 24
1.0000000000E+20
 34
1.0000000000E+20
 15
-1.0000000000E+20
 25
-1.0000000000E+20
 35
-1.0000000000E+20
146
0.0
 13
0.0
 23
0.0
 33
0.0
 16
1.0
 26
0.0
 36
0.0
 17
0.0
 27
1.0
 37
0.0
 76
     0
330
1B
  0
LAYOUT
  5
26
102
{ACAD_REACTORS
330
1A
102
}
330
1A
100
AcDbPlotSettings
  1

  2
none_device
  4

  6

 40
0.0
 41
0.0
 42
0.0
 43
0.0
 44
0.0
 45
0.0
 46
0.0
 47
0.0
 48
0.0
 49
0.0
140
0.0
141
0.0
142
1.0
143
1.0
 70
   688
 72
     1
 73
     0
 74
     5
  7

 75
    16
147
1.0
148
0.0
149
0.0
100
AcDbLayout
  1
Layout2
 70
     1
 71
     2
 10
0.0
 20
0.0
 11
0.0
 21
0.0
 12
0.0
 22
0.0
 32
0.0
 14
0.0
 24
0.0
 34
0.0
 15
0.0
 25
0.0
 35
0.0
146
0.0
 13
0.0
 23
0.0
 33
0.0
 16
1.0
 26
0.0
 36
0.0
 17
0.0
 27
1.0
 37
0.0
 76
     0
330
23
  0
LAYOUT
  5
22
102
{ACAD_REACTORS
330
1A
102
}
330
1A
100
AcDbPlotSettings
  1

  2
none_device
  4
Letter_(8.50_x_11.00_Inches)
  6

 40
6.35
 41
6.35
 42
6.35000508
 43
6.35000508
 44
215.9
 45
279.4
 46
0.0
 47
0.0
 48
0.0
 49
0.0
140
0.0
141
0.0
142
1.0
143
1.0
 70
  1712
 72
     1
 73
     0
 74
     0
  7

 75
     0
147
1.0
148
0.0
149
0.0
100
AcDbLayout
  1
Model
 70
     1
 71
     0
 10
0.0
 20
0.0
 11
431.8
 21
279.4
 12
0.0
 22
0.0
 32
0.0
 14
0.0
 24
0.0
 34
0.0
 15
431.8
 25
279.4
 35
0.0
146
0.0
 13
0.0
 23
0.0
 33
0.0
 16
1.0
 26
0.0
 36
0.0
 17
0.0
 27
1.0
 37
0.0
 76
     0
330
1F
331
29
  0
MLINESTYLE
  5
18
102
{ACAD_REACTORS
330
17
102
}
330
17
100
AcDbMlineStyle
  2
Standard
 70
     0
  3

 62
   256
 51
90.0
 52
90.0
 71
     2
 49
0.5
 62
   256
  6
BYLAYER
 49
-0.5
 62
   256
  6
BYLAYER
  0
ACDBPLACEHOLDER
  5
F
102
{ACAD_REACTORS
330
E
102
}
330
E
  0
SCALE
  5
48
102
{ACAD_REACTORS
330
47
102
}
330
47
100
AcDbScale
 70
     0
300
1:1
140
1.0
141
1.0
290
     1
  0
SCALE
  5
49
102
{ACAD_REACTORS
330
47
102
}
330
47
100
AcDbScale
 70
     0
300
1:2
140
1.0
141
2.0
290
     0
  0
SCALE
  5
4A
102
{ACAD_REACTORS
330
47
102
}
330
47
100
AcDbScale
 70
     0
300
1:4
140
1.0
141
4.0
290
     0
  0
SCALE
  5
4B
102
{ACAD_REACTORS
330
47
102
}
330
47
100
AcDbScale
 70
     0
300
1:5
140
1.0
141
5.0
290
     0
  0
SCALE
  5
4C
102
{ACAD_REACTORS
330
47
102
}
330
47
100
AcDbScale
 70
     0
300
1:8
140
1.0
141
8.0
290
     0
  0
SCALE
  5
4D
102
{ACAD_REACTORS
330
47
102
}
330
47
100
AcDbScale
 70
     0
300
1:10
140
1.0
141
10.0
290
     0
  0
SCALE
  5
4E
102
{ACAD_REACTORS
330
47
102
}
330
47
100
AcDbScale
 70
     0
300
1:16
140
1.0
141
16.0
290
     0
  0
SCALE
  5
4F
102
{ACAD_REACTORS
330
47
102
}
330
47
100
AcDbScale
 70
     0
300
1:20
140
1.0
141
20.0
290
     0
  0
SCALE
  5
50
102
{ACAD_REACTORS
330
47
102
}
330
47
100
AcDbScale
 70
     0
300
1:30
140
1.0
141
30.0
290
     0
  0
SCALE
  5
51
102
{ACAD_REACTORS
330
47
102
}
330
47
100
AcDbScale
 70
     0
300
1:40
140
1.0
141
40.0
290
     0
  0
SCALE
  5
52
102
{ACAD_REACTORS
330
47
102
}
330
47
100
AcDbScale
 70
     0
300
1:50
140
1.0
141
50.0
290
     0
  0
SCALE
  5
53
102
{ACAD_REACTORS
330
47
102
}
330
47
100
AcDbScale
 70
     0
300
1:100
140
1.0
141
100.0
290
     0
  0
SCALE
  5
54
102
{ACAD_REACTORS
330
47
102
}
330
47
100
AcDbScale
 70
     0
300
2:1
140
2.0
141
1.0
290
     0
  0
SCALE
  5
55
102
{ACAD_REACTORS
330
47
102
}
330
47
100
AcDbScale
 70
     0
300
4:1
140
4.0
141
1.0
290
     0
  0
SCALE
  5
56
102
{ACAD_REACTORS
330
47
102
}
330
47
100
AcDbScale
 70
     0
300
8:1
140
8.0
141
1.0
290
     0
  0
SCALE
  5
57
102
{ACAD_REACTORS
330
47
102
}
330
47
100
AcDbScale
 70
     0
300
10:1
140
10.0
141
1.0
290
     0
  0
SCALE
  5
58
102
{ACAD_REACTORS
330
47
102
}
330
47
100
AcDbScale
 70
     0
300
100:1
140
100.0
141
1.0
290
     0
  0
ENDSEC
  0
EOF
