ISO-10303-21;
HEADER;
FILE_DESCRIPTION (( 'STEP AP203' ),
    '1' );
FILE_NAME ('CLP1K-100-3-M-HDZ Êðûøêà íà ëîòîê îñí. 100 IEK HDZ.STEP',
    '2016-02-05T12:06:38',
    ( '' ),
    ( '' ),
    'SwSTEP 2.0',
    'SolidWorks 2014',
    '' );
FILE_SCHEMA (( 'CONFIG_CONTROL_DESIGN' ));
ENDSEC;

DATA;
#1 = APPROVAL_STATUS ( 'not_yet_approved' ) ;
#2 = ORIENTED_EDGE ( 'NONE', *, *, #191, .T. ) ;
#3 = CC_DESIGN_PERSON_AND_ORGANIZATION_ASSIGNMENT ( #206, #343, ( #352 ) ) ;
#4 = DIRECTION ( 'NONE',  ( -0.0000000000000000000, 1.000000000000000000, 3.491481338843133700E-015 ) ) ;
#5 = ADVANCED_FACE ( 'NONE', ( #214 ), #278, .T. ) ;
#6 = VERTEX_POINT ( 'NONE', #43 ) ;
#7 = FACE_OUTER_BOUND ( 'NONE', #172, .T. ) ;
#8 = EDGE_CURVE ( 'NONE', #97, #75, #300, .T. ) ;
#9 = AXIS2_PLACEMENT_3D ( 'NONE', #205, #298, #119 ) ;
#10 = DIRECTION ( 'NONE',  ( 0.0000000000000000000, 0.0000000000000000000, -1.000000000000000000 ) ) ;
#11 = ORIENTED_EDGE ( 'NONE', *, *, #114, .F. ) ;
#12 = CARTESIAN_POINT ( 'NONE',  ( -1492.500000000000000, 0.0000000000000000000, -1.000000000000000000 ) ) ;
#13 = DIRECTION ( 'NONE',  ( 0.0000000000000000000, -3.491481338843133400E-015, -1.000000000000000000 ) ) ;
#14 = ORIENTED_EDGE ( 'NONE', *, *, #324, .T. ) ;
#15 = DIRECTION ( 'NONE',  ( 0.0000000000000000000, -1.000000000000000000, 0.0000000000000000000 ) ) ;
#16 = CARTESIAN_POINT ( 'NONE',  ( 1492.500000000000000, -3.851859888774471700E-031, -1.000000000000000000 ) ) ;
#17 = APPLICATION_CONTEXT ( 'configuration controlled 3d designs of mechanical parts and assemblies' ) ;
#18 = DIRECTION ( 'NONE',  ( -1.000000000000000000, -0.0000000000000000000, -0.0000000000000000000 ) ) ;
#19 = LINE ( 'NONE', #314, #33 ) ;
#20 = EDGE_LOOP ( 'NONE', ( #65, #152, #319, #48 ) ) ;
#21 = ORIENTED_EDGE ( 'NONE', *, *, #290, .T. ) ;
#22 = CC_DESIGN_DATE_AND_TIME_ASSIGNMENT ( #276, #173, ( #352 ) ) ;
#23 = ORIENTED_EDGE ( 'NONE', *, *, #233, .T. ) ;
#24 = DIRECTION ( 'NONE',  ( 0.0000000000000000000, -3.491481338843133400E-015, -1.000000000000000000 ) ) ;
#25 = FACE_OUTER_BOUND ( 'NONE', #56, .T. ) ;
#26 = DIRECTION ( 'NONE',  ( 0.0000000000000000000, -1.000000000000000000, -3.491481338843133400E-015 ) ) ;
#27 = VERTEX_POINT ( 'NONE', #219 ) ;
#28 = EDGE_CURVE ( 'NONE', #209, #107, #81, .T. ) ;
#29 = ORIENTED_EDGE ( 'NONE', *, *, #290, .F. ) ;
#30 =( GEOMETRIC_REPRESENTATION_CONTEXT ( 3 ) GLOBAL_UNCERTAINTY_ASSIGNED_CONTEXT ( ( #165 ) ) GLOBAL_UNIT_ASSIGNED_CONTEXT ( ( #41, #247, #77 ) ) REPRESENTATION_CONTEXT ( 'NONE', 'WORKASPACE' ) );
#31 = CARTESIAN_POINT ( 'NONE',  ( 0.0000000000000000000, -16.15000000000000200, 99.00000000000005700 ) ) ;
#32 = VECTOR ( 'NONE', #13, 1000.000000000000000 ) ;
#33 = VECTOR ( 'NONE', #286, 1000.000000000000000 ) ;
#34 = EDGE_CURVE ( 'NONE', #27, #115, #222, .T. ) ;
#35 = VERTEX_POINT ( 'NONE', #47 ) ;
#36 = CARTESIAN_POINT ( 'NONE',  ( -1492.500000000000000, -16.14999999999999900, -1.700000000000056600 ) ) ;
#37 = CARTESIAN_POINT ( 'NONE',  ( 1492.500000000000000, -16.14999999999999900, -1.700000000000056600 ) ) ;
#38 = FACE_OUTER_BOUND ( 'NONE', #236, .T. ) ;
#39 = APPROVAL ( #1, 'UNSPECIFIED' ) ;
#40 = CARTESIAN_POINT ( 'NONE',  ( -1492.500000000000000, 0.0000000000000000000, 98.00000000000000000 ) ) ;
#41 =( LENGTH_UNIT ( ) NAMED_UNIT ( * ) SI_UNIT ( .MILLI., .METRE. ) );
#42 = COORDINATED_UNIVERSAL_TIME_OFFSET ( 3, 0, .AHEAD. ) ;
#43 = CARTESIAN_POINT ( 'NONE',  ( -1492.500000000000000, 5.127050073817025300E-016, 99.00000000000000000 ) ) ;
#44 = DIRECTION ( 'NONE',  ( 0.0000000000000000000, -3.491481338843133400E-015, -1.000000000000000000 ) ) ;
#45 = VECTOR ( 'NONE', #272, 1000.000000000000000 ) ;
#46 = APPROVAL_STATUS ( 'not_yet_approved' ) ;
#47 = CARTESIAN_POINT ( 'NONE',  ( -1492.500000000000000, 0.7000000000000001800, -1.700000000000000200 ) ) ;
#48 = ORIENTED_EDGE ( 'NONE', *, *, #89, .F. ) ;
#49 = EDGE_CURVE ( 'NONE', #97, #35, #137, .T. ) ;
#50 = AXIS2_PLACEMENT_3D ( 'NONE', #67, #93, #299 ) ;
#51 = ORIENTED_EDGE ( 'NONE', *, *, #80, .T. ) ;
#52 = FACE_OUTER_BOUND ( 'NONE', #246, .T. ) ;
#53 = DIRECTION ( 'NONE',  ( 0.0000000000000000000, -3.437222986455592900E-015, -1.000000000000000000 ) ) ;
#54 = LOCAL_TIME ( 15, 6, 38.00000000000000000, #129 ) ;
#55 = VECTOR ( 'NONE', #217, 1000.000000000000000 ) ;
#56 = EDGE_LOOP ( 'NONE', ( #268, #227, #273, #108 ) ) ;
#57 = CARTESIAN_POINT ( 'NONE',  ( 1492.500000000000000, 0.0000000000000000000, -1.000000000000000000 ) ) ;
#58 = EDGE_CURVE ( 'NONE', #35, #68, #212, .T. ) ;
#59 = VECTOR ( 'NONE', #106, 1000.000000000000000 ) ;
#60 = PRODUCT_DEFINITION_SHAPE ( 'NONE', 'NONE',  #164 ) ;
#61 = PERSON_AND_ORGANIZATION_ROLE ( 'creator' ) ;
#62 = ORIENTED_EDGE ( 'NONE', *, *, #310, .F. ) ;
#63 = APPROVAL_DATE_TIME ( #140, #283 ) ;
#64 = CC_DESIGN_APPROVAL ( #39, ( #352 ) ) ;
#65 = ORIENTED_EDGE ( 'NONE', *, *, #58, .F. ) ;
#66 = DIRECTION ( 'NONE',  ( -1.000000000000000000, 0.0000000000000000000, 0.0000000000000000000 ) ) ;
#67 = CARTESIAN_POINT ( 'NONE',  ( -1492.500000000000000, 0.0000000000000000000, 98.00000000000000000 ) ) ;
#68 = VERTEX_POINT ( 'NONE', #36 ) ;
#69 = ADVANCED_FACE ( 'NONE', ( #281 ), #242, .F. ) ;
#70 = VECTOR ( 'NONE', #18, 1000.000000000000000 ) ;
#71 = EDGE_CURVE ( 'NONE', #85, #261, #207, .T. ) ;
#72 = APPROVAL_DATE_TIME ( #146, #180 ) ;
#73 = CARTESIAN_POINT ( 'NONE',  ( -1492.500000000000000, 0.6999999999999999600, 98.00000000000000000 ) ) ;
#74 = APPROVAL_PERSON_ORGANIZATION ( #149, #283, #295 ) ;
#75 = VERTEX_POINT ( 'NONE', #125 ) ;
#76 = CARTESIAN_POINT ( 'NONE',  ( -1492.500000000000000, -16.14999999999999900, 99.70000000000006000 ) ) ;
#77 =( NAMED_UNIT ( * ) SI_UNIT ( $, .STERADIAN. ) SOLID_ANGLE_UNIT ( ) );
#78 = ORIENTED_EDGE ( 'NONE', *, *, #211, .F. ) ;
#79 = DIRECTION ( 'NONE',  ( 0.0000000000000000000, -1.000000000000000000, -3.491481338843133700E-015 ) ) ;
#80 = EDGE_CURVE ( 'NONE', #68, #85, #277, .T. ) ;
#81 = LINE ( 'NONE', #184, #360 ) ;
#82 = LINE ( 'NONE', #168, #231 ) ;
#83 = AXIS2_PLACEMENT_3D ( 'NONE', #248, #15, #130 ) ;
#84 = APPROVAL_PERSON_ORGANIZATION ( #156, #180, #249 ) ;
#85 = VERTEX_POINT ( 'NONE', #181 ) ;
#86 = CC_DESIGN_SECURITY_CLASSIFICATION ( #352, ( #263 ) ) ;
#87 = DIRECTION ( 'NONE',  ( 1.000000000000000000, 0.0000000000000000000, 0.0000000000000000000 ) ) ;
#88 = VECTOR ( 'NONE', #335, 1000.000000000000000 ) ;
#89 = EDGE_CURVE ( 'NONE', #68, #159, #347, .T. ) ;
#90 = APPROVAL_STATUS ( 'not_yet_approved' ) ;
#91 = ORIENTED_EDGE ( 'NONE', *, *, #269, .T. ) ;
#92 = ORIENTED_EDGE ( 'NONE', *, *, #191, .F. ) ;
#93 = DIRECTION ( 'NONE',  ( -1.000000000000000000, 0.0000000000000000000, 0.0000000000000000000 ) ) ;
#94 = ADVANCED_FACE ( 'NONE', ( #337 ), #350, .T. ) ;
#95 = VECTOR ( 'NONE', #285, 1000.000000000000000 ) ;
#96 = EDGE_CURVE ( 'NONE', #351, #85, #188, .T. ) ;
#97 = VERTEX_POINT ( 'NONE', #353 ) ;
#98 = DIRECTION ( 'NONE',  ( 0.0000000000000000000, -1.000000000000000000, 0.0000000000000000000 ) ) ;
#99 = CARTESIAN_POINT ( 'NONE',  ( -1492.500000000000000, -16.15000000000000200, 99.00000000000005700 ) ) ;
#100 = MANIFOLD_SOLID_BREP ( 'Áîáûøêà-Âûòÿíóòü1', #282 ) ;
#101 = PRODUCT_RELATED_PRODUCT_CATEGORY ( 'detail', '', ( #257 ) ) ;
#102 = DIRECTION ( 'NONE',  ( 0.0000000000000000000, 1.000000000000000000, -3.437222986455592900E-015 ) ) ;
#103 = APPLICATION_PROTOCOL_DEFINITION ( 'international standard', 'config_control_design', 1994, #133 ) ;
#104 = CARTESIAN_POINT ( 'NONE',  ( 1492.500000000000000, -16.14999999999999900, -1.700000000000056600 ) ) ;
#105 = VECTOR ( 'NONE', #102, 1000.000000000000000 ) ;
#106 = DIRECTION ( 'NONE',  ( -0.0000000000000000000, -0.0000000000000000000, -1.000000000000000000 ) ) ;
#107 = VERTEX_POINT ( 'NONE', #182 ) ;
#108 = ORIENTED_EDGE ( 'NONE', *, *, #252, .T. ) ;
#109 = ORGANIZATION ( 'UNSPECIFIED', 'UNSPECIFIED', '' ) ;
#110 = CARTESIAN_POINT ( 'NONE',  ( 1492.500000000000000, -16.14999999999999900, 99.70000000000006000 ) ) ;
#111 = APPROVAL_DATE_TIME ( #186, #39 ) ;
#112 = LINE ( 'NONE', #357, #105 ) ;
#113 = DIRECTION ( 'NONE',  ( -0.0000000000000000000, -0.0000000000000000000, -1.000000000000000000 ) ) ;
#114 = EDGE_CURVE ( 'NONE', #6, #351, #266, .T. ) ;
#115 = VERTEX_POINT ( 'NONE', #76 ) ;
#116 = AXIS2_PLACEMENT_3D ( 'NONE', #73, #98, #10 ) ;
#117 = ORIENTED_EDGE ( 'NONE', *, *, #71, .T. ) ;
#118 = PERSON_AND_ORGANIZATION_ROLE ( 'creator' ) ;
#119 = DIRECTION ( 'NONE',  ( -0.0000000000000000000, 0.0000000000000000000, -1.000000000000000000 ) ) ;
#120 = APPROVAL_PERSON_ORGANIZATION ( #195, #39, #204 ) ;
#121 = VECTOR ( 'NONE', #44, 1000.000000000000000 ) ;
#122 = ADVANCED_FACE ( 'NONE', ( #256 ), #131, .F. ) ;
#123 = VERTEX_POINT ( 'NONE', #99 ) ;
#124 = AXIS2_PLACEMENT_3D ( 'NONE', #271, #329, #161 ) ;
#125 = CARTESIAN_POINT ( 'NONE',  ( 1492.500000000000000, 0.7000000000000086200, 99.70000000000001700 ) ) ;
#126 = ORIENTED_EDGE ( 'NONE', *, *, #136, .F. ) ;
#127 = VECTOR ( 'NONE', #66, 1000.000000000000000 ) ;
#128 = DIRECTION ( 'NONE',  ( 0.0000000000000000000, 3.491481338843133700E-015, -1.000000000000000000 ) ) ;
#129 = COORDINATED_UNIVERSAL_TIME_OFFSET ( 3, 0, .AHEAD. ) ;
#130 = DIRECTION ( 'NONE',  ( 0.0000000000000000000, -0.0000000000000000000, -1.000000000000000000 ) ) ;
#131 = PLANE ( 'NONE',  #193 ) ;
#132 = VECTOR ( 'NONE', #158, 1000.000000000000000 ) ;
#133 = APPLICATION_CONTEXT ( 'configuration controlled 3d designs of mechanical parts and assemblies' ) ;
#134 = DIRECTION ( 'NONE',  ( 1.000000000000000000, 0.0000000000000000000, 0.0000000000000000000 ) ) ;
#135 = PLANE ( 'NONE',  #235 ) ;
#136 = EDGE_CURVE ( 'NONE', #123, #6, #112, .T. ) ;
#137 = LINE ( 'NONE', #221, #59 ) ;
#138 = CALENDAR_DATE ( 2016, 5, 2 ) ;
#139 = VERTEX_POINT ( 'NONE', #16 ) ;
#140 = DATE_AND_TIME ( #216, #296 ) ;
#141 = ORIENTED_EDGE ( 'NONE', *, *, #252, .F. ) ;
#142 = PLANE ( 'NONE',  #309 ) ;
#143 = ORIENTED_EDGE ( 'NONE', *, *, #341, .F. ) ;
#144 = VECTOR ( 'NONE', #134, 1000.000000000000000 ) ;
#145 = LINE ( 'NONE', #367, #307 ) ;
#146 = DATE_AND_TIME ( #223, #302 ) ;
#147 = CC_DESIGN_PERSON_AND_ORGANIZATION_ASSIGNMENT ( #234, #187, ( #257 ) ) ;
#148 = SECURITY_CLASSIFICATION_LEVEL ( 'unclassified' ) ;
#149 = PERSON_AND_ORGANIZATION ( #287, #109 ) ;
#150 = ORIENTED_EDGE ( 'NONE', *, *, #308, .F. ) ;
#151 = DIRECTION ( 'NONE',  ( -0.0000000000000000000, -1.000000000000000000, 3.437222986455592900E-015 ) ) ;
#152 = ORIENTED_EDGE ( 'NONE', *, *, #211, .T. ) ;
#153 = EDGE_CURVE ( 'NONE', #115, #123, #176, .T. ) ;
#154 = ORIENTED_EDGE ( 'NONE', *, *, #80, .F. ) ;
#155 = LINE ( 'NONE', #258, #163 ) ;
#156 = PERSON_AND_ORGANIZATION ( #287, #109 ) ;
#157 = AXIS2_PLACEMENT_3D ( 'NONE', #244, #128, #326 ) ;
#158 = DIRECTION ( 'NONE',  ( 1.000000000000000000, -0.0000000000000000000, -0.0000000000000000000 ) ) ;
#159 = VERTEX_POINT ( 'NONE', #104 ) ;
#160 = DIRECTION ( 'NONE',  ( 0.0000000000000000000, 1.000000000000000000, 3.491481338843133700E-015 ) ) ;
#161 = DIRECTION ( 'NONE',  ( 1.000000000000000000, 0.0000000000000000000, 0.0000000000000000000 ) ) ;
#162 = DIRECTION ( 'NONE',  ( -0.0000000000000000000, 1.000000000000000000, -3.437222986455592900E-015 ) ) ;
#163 = VECTOR ( 'NONE', #87, 1000.000000000000000 ) ;
#164 = PRODUCT_DEFINITION ( 'UNKNOWN', '', #263, #224 ) ;
#165 = UNCERTAINTY_MEASURE_WITH_UNIT (LENGTH_MEASURE( 1.000000000000000100E-005 ), #41, 'distance_accuracy_value', 'NONE');
#166 = ORIENTED_EDGE ( 'NONE', *, *, #34, .F. ) ;
#167 = CARTESIAN_POINT ( 'NONE',  ( 1492.500000000000000, 0.0000000000000000000, 99.00000000000000000 ) ) ;
#168 = CARTESIAN_POINT ( 'NONE',  ( 1492.500000000000000, 0.6999999999999999600, 98.00000000000000000 ) ) ;
#169 = VECTOR ( 'NONE', #162, 1000.000000000000000 ) ;
#170 = EDGE_CURVE ( 'NONE', #115, #97, #251, .T. ) ;
#171 = ORIENTED_EDGE ( 'NONE', *, *, #71, .F. ) ;
#172 = EDGE_LOOP ( 'NONE', ( #143, #332, #218, #166 ) ) ;
#173 = DATE_TIME_ROLE ( 'classification_date' ) ;
#174 = ORIENTED_EDGE ( 'NONE', *, *, #8, .T. ) ;
#175 = CARTESIAN_POINT ( 'NONE',  ( -1492.500000000000000, 0.0000000000000000000, -1.000000000000000000 ) ) ;
#176 = LINE ( 'NONE', #279, #121 ) ;
#177 = ADVANCED_FACE ( 'NONE', ( #25 ), #135, .T. ) ;
#178 = ORIENTED_EDGE ( 'NONE', *, *, #308, .T. ) ;
#179 = ORIENTED_EDGE ( 'NONE', *, *, #96, .F. ) ;
#180 = APPROVAL ( #46, 'UNSPECIFIED' ) ;
#181 = CARTESIAN_POINT ( 'NONE',  ( -1492.500000000000000, -16.15000000000000200, -1.000000000000056400 ) ) ;
#182 = CARTESIAN_POINT ( 'NONE',  ( 1492.500000000000000, -16.15000000000000200, 99.00000000000005700 ) ) ;
#183 = LINE ( 'NONE', #267, #32 ) ;
#184 = CARTESIAN_POINT ( 'NONE',  ( 1492.500000000000000, 3.368478526726481200E-013, 99.00000000000000000 ) ) ;
#185 = CARTESIAN_POINT ( 'NONE',  ( -1492.500000000000000, -16.14999999999999900, 99.70000000000006000 ) ) ;
#186 = DATE_AND_TIME ( #265, #336 ) ;
#187 = PERSON_AND_ORGANIZATION_ROLE ( 'design_owner' ) ;
#188 = LINE ( 'NONE', #12, #55 ) ;
#189 = DIRECTION ( 'NONE',  ( 0.0000000000000000000, -1.000000000000000000, 3.437222986455592900E-015 ) ) ;
#190 = ORIENTED_EDGE ( 'NONE', *, *, #269, .F. ) ;
#191 = EDGE_CURVE ( 'NONE', #139, #351, #322, .T. ) ;
#192 = VERTEX_POINT ( 'NONE', #313 ) ;
#193 = AXIS2_PLACEMENT_3D ( 'NONE', #245, #328, #160 ) ;
#194 = LINE ( 'NONE', #320, #345 ) ;
#195 = PERSON_AND_ORGANIZATION ( #287, #109 ) ;
#196 = VECTOR ( 'NONE', #215, 1000.000000000000000 ) ;
#197 = DIRECTION ( 'NONE',  ( 0.0000000000000000000, -1.000000000000000000, 3.491481338843133400E-015 ) ) ;
#198 = DIRECTION ( 'NONE',  ( 0.0000000000000000000, 1.000000000000000000, -3.437222986455592900E-015 ) ) ;
#199 = CARTESIAN_POINT ( 'NONE',  ( 1492.500000000000000, -16.14999999999999900, -1.700000000000056600 ) ) ;
#200 = ORIENTED_EDGE ( 'NONE', *, *, #153, .F. ) ;
#201 = CC_DESIGN_APPROVAL ( #180, ( #164 ) ) ;
#202 = ORIENTED_EDGE ( 'NONE', *, *, #96, .T. ) ;
#203 = LINE ( 'NONE', #31, #127 ) ;
#204 = APPROVAL_ROLE ( '' ) ;
#205 = CARTESIAN_POINT ( 'NONE',  ( 1492.500000000000000, 0.6999999999999999600, 98.00000000000000000 ) ) ;
#206 = PERSON_AND_ORGANIZATION ( #287, #109 ) ;
#207 = LINE ( 'NONE', #325, #132 ) ;
#208 = ADVANCED_FACE ( 'NONE', ( #315 ), #365, .T. ) ;
#209 = VERTEX_POINT ( 'NONE', #167 ) ;
#210 = ORIENTED_EDGE ( 'NONE', *, *, #28, .F. ) ;
#211 = EDGE_CURVE ( 'NONE', #35, #192, #241, .T. ) ;
#212 = LINE ( 'NONE', #280, #291 ) ;
#213 = LOCAL_TIME ( 15, 6, 38.00000000000000000, #293 ) ;
#214 = FACE_OUTER_BOUND ( 'NONE', #294, .T. ) ;
#215 = DIRECTION ( 'NONE',  ( 0.0000000000000000000, -3.491481338843133400E-015, 1.000000000000000000 ) ) ;
#216 = CALENDAR_DATE ( 2016, 5, 2 ) ;
#217 = DIRECTION ( 'NONE',  ( -0.0000000000000000000, -1.000000000000000000, -3.491481338843133700E-015 ) ) ;
#218 = ORIENTED_EDGE ( 'NONE', *, *, #170, .F. ) ;
#219 = CARTESIAN_POINT ( 'NONE',  ( 1492.500000000000000, -16.14999999999999900, 99.70000000000006000 ) ) ;
#220 = APPLICATION_PROTOCOL_DEFINITION ( 'international standard', 'config_control_design', 1994, #17 ) ;
#221 = CARTESIAN_POINT ( 'NONE',  ( -1492.500000000000000, 0.6999999999999999600, 98.00000000000000000 ) ) ;
#222 = LINE ( 'NONE', #359, #70 ) ;
#223 = CALENDAR_DATE ( 2016, 5, 2 ) ;
#224 = DESIGN_CONTEXT ( 'detailed design', #17, 'design' ) ;
#225 = CC_DESIGN_PERSON_AND_ORGANIZATION_ASSIGNMENT ( #362, #61, ( #164 ) ) ;
#226 = DATE_AND_TIME ( #138, #213 ) ;
#227 = ORIENTED_EDGE ( 'NONE', *, *, #310, .T. ) ;
#228 = CARTESIAN_POINT ( 'NONE',  ( 0.0000000000000000000, 3.368478526726481200E-013, 99.00000000000000000 ) ) ;
#229 = CARTESIAN_POINT ( 'NONE',  ( -1493.489949493661000, 0.7000000000000001800, -1.700000000000000200 ) ) ;
#230 = ORIENTED_EDGE ( 'NONE', *, *, #114, .T. ) ;
#231 = VECTOR ( 'NONE', #113, 1000.000000000000000 ) ;
#232 = DIRECTION ( 'NONE',  ( 0.0000000000000000000, 3.491481338843133400E-015, -1.000000000000000000 ) ) ;
#233 = EDGE_CURVE ( 'NONE', #209, #139, #19, .T. ) ;
#234 = PERSON_AND_ORGANIZATION ( #287, #109 ) ;
#235 = AXIS2_PLACEMENT_3D ( 'NONE', #228, #53, #255 ) ;
#236 = EDGE_LOOP ( 'NONE', ( #339, #304, #51, #179, #11, #126, #200, #253 ) ) ;
#237 = ADVANCED_BREP_SHAPE_REPRESENTATION ( 'CLP1K-100-3-M-HDZ ¦¨v°úð ýð ûþªþú þ¸ý. 100 IEK HDZ', ( #100, #124 ), #30 ) ;
#238 = CARTESIAN_POINT ( 'NONE',  ( 1492.500000000000000, 2.444036937190193300E-015, 99.70000000000001700 ) ) ;
#239 = PLANE ( 'NONE',  #50 ) ;
#240 = ADVANCED_FACE ( 'NONE', ( #7 ), #142, .F. ) ;
#241 = LINE ( 'NONE', #229, #88 ) ;
#242 = PLANE ( 'NONE',  #116 ) ;
#243 = CC_DESIGN_DATE_AND_TIME_ASSIGNMENT ( #226, #262, ( #164 ) ) ;
#244 = CARTESIAN_POINT ( 'NONE',  ( 0.0000000000000000000, 2.444036937190193300E-015, -1.700000000000000200 ) ) ;
#245 = CARTESIAN_POINT ( 'NONE',  ( 0.0000000000000000000, 0.0000000000000000000, -1.000000000000000000 ) ) ;
#246 = EDGE_LOOP ( 'NONE', ( #23, #190, #150, #14, #29, #311, #344, #210 ) ) ;
#247 =( NAMED_UNIT ( * ) PLANE_ANGLE_UNIT ( ) SI_UNIT ( $, .RADIAN. ) );
#248 = CARTESIAN_POINT ( 'NONE',  ( -1492.500000000000000, 0.0000000000000000000, 98.00000000000000000 ) ) ;
#249 = APPROVAL_ROLE ( '' ) ;
#250 = CARTESIAN_POINT ( 'NONE',  ( -1492.500000000000000, -16.14999999999999900, -1.700000000000056600 ) ) ;
#251 = LINE ( 'NONE', #185, #169 ) ;
#252 = EDGE_CURVE ( 'NONE', #6, #209, #155, .T. ) ;
#253 = ORIENTED_EDGE ( 'NONE', *, *, #170, .T. ) ;
#254 = EDGE_LOOP ( 'NONE', ( #21, #78, #297, #174 ) ) ;
#255 = DIRECTION ( 'NONE',  ( 0.0000000000000000000, 1.000000000000000000, -3.437222986455592900E-015 ) ) ;
#256 = FACE_OUTER_BOUND ( 'NONE', #355, .T. ) ;
#257 = PRODUCT ( 'CLP1K-100-3-M-HDZ Êðûøêà íà ëîòîê îñí. 100 IEK HDZ', 'CLP1K-100-3-M-HDZ Êðûøêà íà ëîòîê îñí. 100 IEK HDZ', '', ( #358 ) ) ;
#258 = CARTESIAN_POINT ( 'NONE',  ( 0.0000000000000000000, 0.0000000000000000000, 99.00000000000000000 ) ) ;
#259 = ORIENTED_EDGE ( 'NONE', *, *, #233, .F. ) ;
#260 = DIRECTION ( 'NONE',  ( 0.0000000000000000000, -3.491481338843133400E-015, 1.000000000000000000 ) ) ;
#261 = VERTEX_POINT ( 'NONE', #288 ) ;
#262 = DATE_TIME_ROLE ( 'creation_date' ) ;
#263 = PRODUCT_DEFINITION_FORMATION_WITH_SPECIFIED_SOURCE ( 'ANY', '', #257, .NOT_KNOWN. ) ;
#264 = PLANE ( 'NONE',  #9 ) ;
#265 = CALENDAR_DATE ( 2016, 5, 2 ) ;
#266 = LINE ( 'NONE', #40, #331 ) ;
#267 = CARTESIAN_POINT ( 'NONE',  ( 1492.500000000000000, -16.14999999999999900, 99.70000000000006000 ) ) ;
#268 = ORIENTED_EDGE ( 'NONE', *, *, #28, .T. ) ;
#269 = EDGE_CURVE ( 'NONE', #261, #139, #368, .T. ) ;
#270 = AXIS2_PLACEMENT_3D ( 'NONE', #110, #197, #24 ) ;
#271 = CARTESIAN_POINT ( 'NONE',  ( 0.0000000000000000000, 0.0000000000000000000, 0.0000000000000000000 ) ) ;
#272 = DIRECTION ( 'NONE',  ( 1.000000000000000000, 0.0000000000000000000, 0.0000000000000000000 ) ) ;
#273 = ORIENTED_EDGE ( 'NONE', *, *, #136, .T. ) ;
#274 = LINE ( 'NONE', #238, #334 ) ;
#275 = DIRECTION ( 'NONE',  ( -0.0000000000000000000, -0.0000000000000000000, -1.000000000000000000 ) ) ;
#276 = DATE_AND_TIME ( #346, #54 ) ;
#277 = LINE ( 'NONE', #250, #196 ) ;
#278 = PLANE ( 'NONE',  #83 ) ;
#279 = CARTESIAN_POINT ( 'NONE',  ( -1492.500000000000000, -16.14999999999999900, 99.70000000000006000 ) ) ;
#280 = CARTESIAN_POINT ( 'NONE',  ( -1492.500000000000000, -16.14999999999999900, -1.700000000000056600 ) ) ;
#281 = FACE_OUTER_BOUND ( 'NONE', #254, .T. ) ;
#282 = CLOSED_SHELL ( 'NONE', ( #69, #348, #5, #321, #292, #94, #122, #208, #240, #177 ) ) ;
#283 = APPROVAL ( #90, 'UNSPECIFIED' ) ;
#284 = PERSON_AND_ORGANIZATION ( #287, #109 ) ;
#285 = DIRECTION ( 'NONE',  ( -1.000000000000000000, -0.0000000000000000000, -0.0000000000000000000 ) ) ;
#286 = DIRECTION ( 'NONE',  ( -0.0000000000000000000, -0.0000000000000000000, -1.000000000000000000 ) ) ;
#287 = PERSON ( 'UNSPECIFIED', 'UNSPECIFIED', 'UNSPECIFIED', ('UNSPECIFIED'), ('UNSPECIFIED'), ('UNSPECIFIED') ) ;
#288 = CARTESIAN_POINT ( 'NONE',  ( 1492.500000000000000, -16.15000000000000200, -1.000000000000056400 ) ) ;
#289 = ORIENTED_EDGE ( 'NONE', *, *, #361, .F. ) ;
#290 = EDGE_CURVE ( 'NONE', #75, #192, #82, .T. ) ;
#291 = VECTOR ( 'NONE', #79, 1000.000000000000000 ) ;
#292 = ADVANCED_FACE ( 'NONE', ( #349 ), #340, .T. ) ;
#293 = COORDINATED_UNIVERSAL_TIME_OFFSET ( 3, 0, .AHEAD. ) ;
#294 = EDGE_LOOP ( 'NONE', ( #230, #92, #259, #141 ) ) ;
#295 = APPROVAL_ROLE ( '' ) ;
#296 = LOCAL_TIME ( 15, 6, 38.00000000000000000, #363 ) ;
#297 = ORIENTED_EDGE ( 'NONE', *, *, #49, .F. ) ;
#298 = DIRECTION ( 'NONE',  ( 1.000000000000000000, 0.0000000000000000000, -0.0000000000000000000 ) ) ;
#299 = DIRECTION ( 'NONE',  ( 0.0000000000000000000, 0.0000000000000000000, 1.000000000000000000 ) ) ;
#300 = LINE ( 'NONE', #356, #144 ) ;
#301 = VECTOR ( 'NONE', #316, 1000.000000000000000 ) ;
#302 = LOCAL_TIME ( 15, 6, 38.00000000000000000, #369 ) ;
#303 = CC_DESIGN_APPROVAL ( #283, ( #263 ) ) ;
#304 = ORIENTED_EDGE ( 'NONE', *, *, #58, .T. ) ;
#305 = EDGE_LOOP ( 'NONE', ( #62, #289, #323, #306 ) ) ;
#306 = ORIENTED_EDGE ( 'NONE', *, *, #153, .T. ) ;
#307 = VECTOR ( 'NONE', #260, 1000.000000000000000 ) ;
#308 = EDGE_CURVE ( 'NONE', #159, #261, #145, .T. ) ;
#309 = AXIS2_PLACEMENT_3D ( 'NONE', #338, #366, #198 ) ;
#310 = EDGE_CURVE ( 'NONE', #107, #123, #203, .T. ) ;
#311 = ORIENTED_EDGE ( 'NONE', *, *, #341, .T. ) ;
#312 = ORIENTED_EDGE ( 'NONE', *, *, #89, .T. ) ;
#313 = CARTESIAN_POINT ( 'NONE',  ( 1492.500000000000000, 0.7000000000000001800, -1.700000000000000200 ) ) ;
#314 = CARTESIAN_POINT ( 'NONE',  ( 1492.500000000000000, 0.0000000000000000000, 98.00000000000000000 ) ) ;
#315 = FACE_OUTER_BOUND ( 'NONE', #305, .T. ) ;
#316 = DIRECTION ( 'NONE',  ( -0.0000000000000000000, 1.000000000000000000, 3.491481338843133700E-015 ) ) ;
#317 = PERSON_AND_ORGANIZATION_ROLE ( 'design_supplier' ) ;
#318 = CC_DESIGN_PERSON_AND_ORGANIZATION_ASSIGNMENT ( #354, #118, ( #263 ) ) ;
#319 = ORIENTED_EDGE ( 'NONE', *, *, #324, .F. ) ;
#320 = CARTESIAN_POINT ( 'NONE',  ( 1492.500000000000000, 2.444036937190193300E-015, -1.700000000000000200 ) ) ;
#321 = ADVANCED_FACE ( 'NONE', ( #52 ), #264, .T. ) ;
#322 = LINE ( 'NONE', #330, #95 ) ;
#323 = ORIENTED_EDGE ( 'NONE', *, *, #34, .T. ) ;
#324 = EDGE_CURVE ( 'NONE', #159, #192, #194, .T. ) ;
#325 = CARTESIAN_POINT ( 'NONE',  ( 0.0000000000000000000, -16.15000000000000200, -1.000000000000056400 ) ) ;
#326 = DIRECTION ( 'NONE',  ( 0.0000000000000000000, 1.000000000000000000, 3.491481338843133700E-015 ) ) ;
#327 = SHAPE_DEFINITION_REPRESENTATION ( #60, #237 ) ;
#328 = DIRECTION ( 'NONE',  ( 0.0000000000000000000, 3.491481338843133700E-015, -1.000000000000000000 ) ) ;
#329 = DIRECTION ( 'NONE',  ( 0.0000000000000000000, 0.0000000000000000000, 1.000000000000000000 ) ) ;
#330 = CARTESIAN_POINT ( 'NONE',  ( 0.0000000000000000000, -3.851859888774471700E-031, -1.000000000000000000 ) ) ;
#331 = VECTOR ( 'NONE', #275, 1000.000000000000000 ) ;
#332 = ORIENTED_EDGE ( 'NONE', *, *, #8, .F. ) ;
#333 = CC_DESIGN_PERSON_AND_ORGANIZATION_ASSIGNMENT ( #284, #317, ( #263 ) ) ;
#334 = VECTOR ( 'NONE', #151, 1000.000000000000000 ) ;
#335 = DIRECTION ( 'NONE',  ( 1.000000000000000000, 0.0000000000000000000, 0.0000000000000000000 ) ) ;
#336 = LOCAL_TIME ( 15, 6, 38.00000000000000000, #42 ) ;
#337 = FACE_OUTER_BOUND ( 'NONE', #20, .T. ) ;
#338 = CARTESIAN_POINT ( 'NONE',  ( 0.0000000000000000000, 3.392918896098382900E-013, 99.70000000000001700 ) ) ;
#339 = ORIENTED_EDGE ( 'NONE', *, *, #49, .T. ) ;
#340 = PLANE ( 'NONE',  #342 ) ;
#341 = EDGE_CURVE ( 'NONE', #75, #27, #274, .T. ) ;
#342 = AXIS2_PLACEMENT_3D ( 'NONE', #199, #26, #232 ) ;
#343 = PERSON_AND_ORGANIZATION_ROLE ( 'classification_officer' ) ;
#344 = ORIENTED_EDGE ( 'NONE', *, *, #361, .T. ) ;
#345 = VECTOR ( 'NONE', #4, 1000.000000000000000 ) ;
#346 = CALENDAR_DATE ( 2016, 5, 2 ) ;
#347 = LINE ( 'NONE', #37, #45 ) ;
#348 = ADVANCED_FACE ( 'NONE', ( #38 ), #239, .T. ) ;
#349 = FACE_OUTER_BOUND ( 'NONE', #364, .T. ) ;
#350 = PLANE ( 'NONE',  #157 ) ;
#351 = VERTEX_POINT ( 'NONE', #175 ) ;
#352 = SECURITY_CLASSIFICATION ( '', '', #148 ) ;
#353 = CARTESIAN_POINT ( 'NONE',  ( -1492.500000000000000, 0.7000000000000086200, 99.70000000000001700 ) ) ;
#354 = PERSON_AND_ORGANIZATION ( #287, #109 ) ;
#355 = EDGE_LOOP ( 'NONE', ( #2, #202, #117, #91 ) ) ;
#356 = CARTESIAN_POINT ( 'NONE',  ( -1493.489949493661000, 0.7000000000000086200, 99.70000000000001700 ) ) ;
#357 = CARTESIAN_POINT ( 'NONE',  ( -1492.500000000000000, 3.368478526726481200E-013, 99.00000000000000000 ) ) ;
#358 = MECHANICAL_CONTEXT ( 'NONE', #133, 'mechanical' ) ;
#359 = CARTESIAN_POINT ( 'NONE',  ( 1492.500000000000000, -16.14999999999999900, 99.70000000000006000 ) ) ;
#360 = VECTOR ( 'NONE', #189, 1000.000000000000000 ) ;
#361 = EDGE_CURVE ( 'NONE', #27, #107, #183, .T. ) ;
#362 = PERSON_AND_ORGANIZATION ( #287, #109 ) ;
#363 = COORDINATED_UNIVERSAL_TIME_OFFSET ( 3, 0, .AHEAD. ) ;
#364 = EDGE_LOOP ( 'NONE', ( #171, #154, #312, #178 ) ) ;
#365 = PLANE ( 'NONE',  #270 ) ;
#366 = DIRECTION ( 'NONE',  ( 0.0000000000000000000, -3.437222986455592900E-015, -1.000000000000000000 ) ) ;
#367 = CARTESIAN_POINT ( 'NONE',  ( 1492.500000000000000, -16.14999999999999900, -1.700000000000056600 ) ) ;
#368 = LINE ( 'NONE', #57, #301 ) ;
#369 = COORDINATED_UNIVERSAL_TIME_OFFSET ( 3, 0, .AHEAD. ) ;
ENDSEC;
END-ISO-10303-21;
