  0
SECTION
  2
HEADER
  9
$ACADVER
  1
AC1015
  9
$ACADMAINTVER
 70
     6
  9
$DWGCODEPAGE
  3
ANSI_1251
  9
$INSBASE
 10
0.0
 20
0.0
 30
0.0
  9
$EXTMIN
 10
0.0
 20
0.0
 30
0.0
  9
$EXTMAX
 10
841.0
 20
594.0
 30
0.0
  9
$LIMMIN
 10
0.0
 20
0.0
  9
$LIMMAX
 10
841.0
 20
594.0
  9
$ORTHOMODE
 70
     0
  9
$REGENMODE
 70
     1
  9
$FILLMODE
 70
     1
  9
$QTEXTMODE
 70
     0
  9
$MIRRTEXT
 70
     1
  9
$LTSCALE
 40
1.0
  9
$ATTMODE
 70
     1
  9
$TEXTSIZE
 40
3.5
  9
$TRACEWID
 40
1.0
  9
$TEXTSTYLE
  7
Standard
  9
$CLAYER
  8
0
  9
$CELTYPE
  6
ByLayer
  9
$CECOLOR
 62
   256
  9
$CELTSCALE
 40
1.0
  9
$DISPSILH
 70
     0
  9
$DIMSCALE
 40
1.0
  9
$DIMASZ
 40
3.5
  9
$DIMEXO
 40
0.01
  9
$DIMDLI
 40
3.75
  9
$DIMRND
 40
0.0
  9
$DIMDLE
 40
0.0
  9
$DIMEXE
 40
1.0
  9
$DIMTP
 40
0.0
  9
$DIMTM
 40
0.0
  9
$DIMTXT
 40
3.5
  9
$DIMCEN
 40
2.5
  9
$DIMTSZ
 40
0.0
  9
$DIMTOL
 70
     0
  9
$DIMLIM
 70
     0
  9
$DIMTIH
 70
     1
  9
$DIMTOH
 70
     1
  9
$DIMSE1
 70
     0
  9
$DIMSE2
 70
     0
  9
$DIMTAD
 70
     1
  9
$DIMZIN
 70
     0
  9
$DIMBLK
  1

  9
$DIMASO
 70
     1
  9
$DIMSHO
 70
     1
  9
$DIMPOST
  1

  9
$DIMAPOST
  1

  9
$DIMALT
 70
     0
  9
$DIMALTD
 70
     3
  9
$DIMALTF
 40
0.0393700787
  9
$DIMLFAC
 40
1.0
  9
$DIMTOFL
 70
     1
  9
$DIMTVP
 40
0.0
  9
$DIMTIX
 70
     0
  9
$DIMSOXD
 70
     0
  9
$DIMSAH
 70
     0
  9
$DIMBLK1
  1

  9
$DIMBLK2
  1

  9
$DIMSTYLE
  2
ISO-25
  9
$DIMCLRD
 70
     0
  9
$DIMCLRE
 70
     0
  9
$DIMCLRT
 70
     0
  9
$DIMTFAC
 40
1.0
  9
$DIMGAP
 40
3.0
  9
$DIMJUST
 70
     0
  9
$DIMSD1
 70
     0
  9
$DIMSD2
 70
     0
  9
$DIMTOLJ
 70
     0
  9
$DIMTZIN
 70
     0
  9
$DIMALTZ
 70
     0
  9
$DIMALTTZ
 70
     0
  9
$DIMUPT
 70
     0
  9
$DIMDEC
 70
     2
  9
$DIMTDEC
 70
     3
  9
$DIMALTU
 70
     2
  9
$DIMALTTD
 70
     3
  9
$DIMTXSTY
  7
Standard
  9
$DIMAUNIT
 70
     0
  9
$DIMADEC
 70
     2
  9
$DIMALTRND
 40
0.0
  9
$DIMAZIN
 70
     0
  9
$DIMDSEP
 70
    44
  9
$DIMATFIT
 70
     3
  9
$DIMFRAC
 70
     0
  9
$DIMLDRBLK
  1

  9
$DIMLUNIT
 70
     2
  9
$DIMLWD
 70
    -2
  9
$DIMLWE
 70
    -2
  9
$DIMTMOVE
 70
     0
  9
$LUNITS
 70
     2
  9
$LUPREC
 70
     2
  9
$SKETCHINC
 40
1.0
  9
$FILLETRAD
 40
10.0
  9
$AUNITS
 70
     0
  9
$AUPREC
 70
     2
  9
$MENU
  1
.
  9
$ELEVATION
 40
0.0
  9
$PELEVATION
 40
0.0
  9
$THICKNESS
 40
0.0
  9
$LIMCHECK
 70
     0
  9
$CHAMFERA
 40
0.0
  9
$CHAMFERB
 40
0.0
  9
$CHAMFERC
 40
0.0
  9
$CHAMFERD
 40
0.0
  9
$SKPOLY
 70
     0
  9
$TDCREATE
 40
2459732.668708403
  9
$TDUCREATE
 40
2459732.543708403
  9
$TDUPDATE
 40
2459732.66870875
  9
$TDUUPDATE
 40
2459732.54370875
  9
$TDINDWG
 40
0.0000000116
  9
$TDUSRTIMER
 40
0.0000000116
  9
$USRTIMER
 70
     1
  9
$ANGBASE
 50
0.0
  9
$ANGDIR
 70
     0
  9
$PDMODE
 70
     0
  9
$PDSIZE
 40
-1.0
  9
$PLINEWID
 40
0.0
  9
$SPLFRAME
 70
     0
  9
$SPLINETYPE
 70
     6
  9
$SPLINESEGS
 70
     8
  9
$HANDSEED
  5
FF
  9
$SURFTAB1
 70
     6
  9
$SURFTAB2
 70
     6
  9
$SURFTYPE
 70
     6
  9
$SURFU
 70
     6
  9
$SURFV
 70
     6
  9
$UCSBASE
  2

  9
$UCSNAME
  2

  9
$UCSORG
 10
0.0
 20
0.0
 30
0.0
  9
$UCSXDIR
 10
1.0
 20
0.0
 30
0.0
  9
$UCSYDIR
 10
0.0
 20
1.0
 30
0.0
  9
$UCSORTHOREF
  2

  9
$UCSORTHOVIEW
 70
     0
  9
$UCSORGTOP
 10
0.0
 20
0.0
 30
0.0
  9
$UCSORGBOTTOM
 10
0.0
 20
0.0
 30
0.0
  9
$UCSORGLEFT
 10
0.0
 20
0.0
 30
0.0
  9
$UCSORGRIGHT
 10
0.0
 20
0.0
 30
0.0
  9
$UCSORGFRONT
 10
0.0
 20
0.0
 30
0.0
  9
$UCSORGBACK
 10
0.0
 20
0.0
 30
0.0
  9
$PUCSBASE
  2

  9
$PUCSNAME
  2

  9
$PUCSORG
 10
0.0
 20
0.0
 30
0.0
  9
$PUCSXDIR
 10
1.0
 20
0.0
 30
0.0
  9
$PUCSYDIR
 10
0.0
 20
1.0
 30
0.0
  9
$PUCSORTHOREF
  2

  9
$PUCSORTHOVIEW
 70
     0
  9
$PUCSORGTOP
 10
0.0
 20
0.0
 30
0.0
  9
$PUCSORGBOTTOM
 10
0.0
 20
0.0
 30
0.0
  9
$PUCSORGLEFT
 10
0.0
 20
0.0
 30
0.0
  9
$PUCSORGRIGHT
 10
0.0
 20
0.0
 30
0.0
  9
$PUCSORGFRONT
 10
0.0
 20
0.0
 30
0.0
  9
$PUCSORGBACK
 10
0.0
 20
0.0
 30
0.0
  9
$USERI1
 70
     0
  9
$USERI2
 70
     0
  9
$USERI3
 70
     0
  9
$USERI4
 70
     0
  9
$USERI5
 70
     0
  9
$USERR1
 40
0.0
  9
$USERR2
 40
0.0
  9
$USERR3
 40
0.0
  9
$USERR4
 40
0.0
  9
$USERR5
 40
0.0
  9
$WORLDVIEW
 70
     1
  9
$SHADEDGE
 70
     3
  9
$SHADEDIF
 70
    70
  9
$TILEMODE
 70
     1
  9
$MAXACTVP
 70
    64
  9
$PINSBASE
 10
0.0
 20
0.0
 30
0.0
  9
$PLIMCHECK
 70
     0
  9
$PEXTMIN
 10
1.0000000000E+20
 20
1.0000000000E+20
 30
1.0000000000E+20
  9
$PEXTMAX
 10
-1.0000000000E+20
 20
-1.0000000000E+20
 30
-1.0000000000E+20
  9
$PLIMMIN
 10
0.0
 20
0.0
  9
$PLIMMAX
 10
420.0
 20
297.0
  9
$UNITMODE
 70
     0
  9
$VISRETAIN
 70
     1
  9
$PLINEGEN
 70
     0
  9
$PSLTSCALE
 70
     1
  9
$TREEDEPTH
 70
  3020
  9
$CMLSTYLE
  2
Standard
  9
$CMLJUST
 70
     0
  9
$CMLSCALE
 40
20.0
  9
$PROXYGRAPHICS
 70
     1
  9
$MEASUREMENT
 70
     1
  9
$CELWEIGHT
370
    -1
  9
$ENDCAPS
280
     0
  9
$JOINSTYLE
280
     0
  9
$LWDISPLAY
290
     1
  9
$INSUNITS
 70
     4
  9
$HYPERLINKBASE
  1

  9
$STYLESHEET
  1

  9
$XEDIT
290
     1
  9
$CEPSNTYPE
380
     0
  9
$PSTYLEMODE
290
     1
  9
$FINGERPRINTGUID
  2
{966C7C3C-89A4-4542-BEBB-3A71C42C4017}
  9
$VERSIONGUID
  2
{FAEB1C32-E019-11D5-929B-00C0DF256EC4}
  9
$EXTNAMES
290
     1
  9
$PSVPSCALE
 40
0.0
  9
$OLESTARTUP
290
     0
  0
ENDSEC
  0
SECTION
  2
CLASSES
  0
CLASS
  1
ACDBDICTIONARYWDFLT
  2
AcDbDictionaryWithDefault
  3
ObjectDBX Classes
 90
        0
280
     0
281
     0
  0
CLASS
  1
VISUALSTYLE
  2
AcDbVisualStyle
  3
ObjectDBX Classes
 90
     4095
280
     0
281
     0
  0
CLASS
  1
MATERIAL
  2
AcDbMaterial
  3
ObjectDBX Classes
 90
     1153
280
     0
281
     0
  0
CLASS
  1
SCALE
  2
AcDbScale
  3
ObjectDBX Classes
 90
     1153
280
     0
281
     0
  0
CLASS
  1
TABLESTYLE
  2
AcDbTableStyle
  3
ObjectDBX Classes
 90
     4095
280
     0
281
     0
  0
CLASS
  1
MLEADERSTYLE
  2
AcDbMLeaderStyle
  3
ACDB_MLEADERSTYLE_CLASS
 90
     4095
280
     0
281
     0
  0
CLASS
  1
SUN
  2
AcDbSun
  3
SCENEOE
 90
     1153
280
     0
281
     0
  0
CLASS
  1
ACDBPLACEHOLDER
  2
AcDbPlaceHolder
  3
ObjectDBX Classes
 90
        0
280
     0
281
     0
  0
CLASS
  1
LAYOUT
  2
AcDbLayout
  3
ObjectDBX Classes
 90
        0
280
     0
281
     0
  0
ENDSEC
  0
SECTION
  2
TABLES
  0
TABLE
  2
VPORT
  5
8
330
0
100
AcDbSymbolTable
 70
     1
  0
VPORT
  5
29
330
8
100
AcDbSymbolTableRecord
100
AcDbViewportTableRecord
  2
*Active
 70
     0
 10
0.0
 20
0.0
 11
1.0
 21
1.0
 12
420.5
 22
297.0
 13
0.0
 23
0.0
 14
10.0
 24
10.0
 15
10.0
 25
10.0
 16
0.0
 26
0.0
 36
1.0
 17
0.0
 27
0.0
 37
0.0
 40
594.0
 41
1.4158249158
 42
50.0
 43
0.0
 44
0.0
 50
0.0
 51
0.0
 71
     0
 72
  2000
 73
     1
 74
     3
 75
     0
 76
     0
 77
     0
 78
     0
281
     0
 65
     1
110
0.0
120
0.0
130
0.0
111
1.0
121
0.0
131
0.0
112
0.0
122
1.0
132
0.0
 79
     0
146
0.0
  0
ENDTAB
  0
TABLE
  2
LTYPE
  5
5
330
0
100
AcDbSymbolTable
 70
     6
  0
LTYPE
  5
14
330
5
100
AcDbSymbolTableRecord
100
AcDbLinetypeTableRecord
  2
ByBlock
 70
     0
  3

 72
    65
 73
     0
 40
0.0
  0
LTYPE
  5
15
330
5
100
AcDbSymbolTableRecord
100
AcDbLinetypeTableRecord
  2
ByLayer
 70
     0
  3

 72
    65
 73
     0
 40
0.0
  0
LTYPE
  5
16
330
5
100
AcDbSymbolTableRecord
100
AcDbLinetypeTableRecord
  2
Continuous
 70
     0
  3
Solid line
 72
    65
 73
     0
 40
0.0
  0
LTYPE
  5
6E
330
5
100
AcDbSymbolTableRecord
100
AcDbLinetypeTableRecord
  2
HIDDEN
 70
     0
  3
Hidden __ __ __ __ __ __ __ __ __ __ __ __ __ __
 72
    65
 73
     2
 40
1.905
 49
1.27
 74
     0
 49
-0.635
 74
     0
  0
LTYPE
  5
6F
330
5
100
AcDbSymbolTableRecord
100
AcDbLinetypeTableRecord
  2
PHANTOM
 70
     0
  3
Phantom ______  __  __  ______  __  __  ______
 72
    65
 73
     6
 40
12.7
 49
6.35
 74
     0
 49
-1.27
 74
     0
 49
1.27
 74
     0
 49
-1.27
 74
     0
 49
1.27
 74
     0
 49
-1.27
 74
     0
  0
LTYPE
  5
70
330
5
100
AcDbSymbolTableRecord
100
AcDbLinetypeTableRecord
  2
CENTER
 70
     0
  3
Center ____ _ ____ _ ____ _ ____ _ ____ _ ____
 72
    65
 73
     4
 40
10.16
 49
6.35
 74
     0
 49
-1.27
 74
     0
 49
1.27
 74
     0
 49
-1.27
 74
     0
  0
LTYPE
  5
71
330
5
100
AcDbSymbolTableRecord
100
AcDbLinetypeTableRecord
  2
CENTERX2
 70
     0
  3
Center (2x) ________  __  ________  __  _____
 72
    65
 73
     4
 40
20.32
 49
12.7
 74
     0
 49
-2.54
 74
     0
 49
2.54
 74
     0
 49
-2.54
 74
     0
  0
LTYPE
  5
72
330
5
100
AcDbSymbolTableRecord
100
AcDbLinetypeTableRecord
  2
DOT2
 70
     0
  3
Dot (.5x) ........................................
 72
    65
 73
     2
 40
0.635
 49
0.0
 74
     0
 49
-0.635
 74
     0
  0
ENDTAB
  0
TABLE
  2
LAYER
  5
2
330
0
100
AcDbSymbolTable
 70
     1
  0
LAYER
  5
10
330
2
100
AcDbSymbolTableRecord
100
AcDbLayerTableRecord
  2
0
 70
     0
 62
     7
  6
Continuous
370
    -3
390
F
  0
ENDTAB
  0
TABLE
  2
STYLE
  5
3
330
0
100
AcDbSymbolTable
 70
     1
  0
STYLE
  5
11
330
3
100
AcDbSymbolTableRecord
100
AcDbTextStyleTableRecord
  2
Standard
 70
     0
 40
0.0
 41
1.0
 50
0.0
 71
     0
 42
3.5
  3
txt
  4

  0
ENDTAB
  0
TABLE
  2
VIEW
  5
6
330
0
100
AcDbSymbolTable
 70
     0
  0
ENDTAB
  0
TABLE
  2
UCS
  5
7
330
0
100
AcDbSymbolTable
 70
     0
  0
ENDTAB
  0
TABLE
  2
APPID
  5
9
330
0
100
AcDbSymbolTable
 70
     1
  0
APPID
  5
12
330
9
100
AcDbSymbolTableRecord
100
AcDbRegAppTableRecord
  2
ACAD
 70
     0
  0
ENDTAB
  0
TABLE
  2
DIMSTYLE
  5
A
330
0
100
AcDbSymbolTable
 70
     1
100
AcDbDimStyleTable
  0
DIMSTYLE
105
27
330
A
100
AcDbSymbolTableRecord
100
AcDbDimStyleTableRecord
  2
ISO-25
 70
     0
 41
2.5
 42
0.625
 43
3.75
 44
1.25
 73
     0
 74
     0
 77
     1
 78
     8
140
2.5
141
2.5
143
0.0393700787
147
0.625
171
     3
172
     1
178
     0
271
     2
272
     2
274
     3
278
    44
283
     0
284
     8
340
11
  0
ENDTAB
  0
TABLE
  2
BLOCK_RECORD
  5
1
330
0
100
AcDbSymbolTable
 70
     1
  0
BLOCK_RECORD
  5
1F
330
1
100
AcDbSymbolTableRecord
100
AcDbBlockTableRecord
  2
*Model_Space
340
22
  0
BLOCK_RECORD
  5
1B
330
1
100
AcDbSymbolTableRecord
100
AcDbBlockTableRecord
  2
*Paper_Space
340
1E
  0
BLOCK_RECORD
  5
23
330
1
100
AcDbSymbolTableRecord
100
AcDbBlockTableRecord
  2
*Paper_Space0
340
26
  0
ENDTAB
  0
ENDSEC
  0
SECTION
  2
BLOCKS
  0
BLOCK
  5
20
330
1F
100
AcDbEntity
  8
0
100
AcDbBlockBegin
  2
*Model_Space
 70
     0
 10
0.0
 20
0.0
 30
0.0
  3
*Model_Space
  1

  0
ENDBLK
  5
21
330
1F
100
AcDbEntity
  8
0
100
AcDbBlockEnd
  0
BLOCK
  5
1C
330
1B
100
AcDbEntity
 67
     1
  8
0
100
AcDbBlockBegin
  2
*Paper_Space
 70
     0
 10
0.0
 20
0.0
 30
0.0
  3
*Paper_Space
  1

  0
ENDBLK
  5
1D
330
1B
100
AcDbEntity
 67
     1
  8
0
100
AcDbBlockEnd
  0
BLOCK
  5
24
330
23
100
AcDbEntity
  8
0
100
AcDbBlockBegin
  2
*Paper_Space0
 70
     0
 10
0.0
 20
0.0
 30
0.0
  3
*Paper_Space0
  1

  0
ENDBLK
  5
25
330
23
100
AcDbEntity
  8
0
100
AcDbBlockEnd
  0
ENDSEC
  0
SECTION
  2
ENTITIES
  0
SPLINE
  5
73
330
1F
100
AcDbEntity
  8
0
  6
Continuous
 62
     7
370
    25
100
AcDbSpline
210
0.0
220
0.0
230
1.0
 70
     8
 71
     3
 72
    14
 73
    10
 74
     0
 42
0.000000001
 43
0.00000001
 40
0.0
 40
0.0
 40
0.0
 40
0.0
 40
0.25
 40
0.25
 40
0.5
 40
0.5
 40
0.75
 40
0.75
 40
1.0
 40
1.0
 40
1.0
 40
1.0
 10
302.0617475248758
 20
390.9444102286391
 30
0.0
 10
302.0373397566414
 20
391.2323895552182
 30
0.0
 10
302.0129319884068
 20
391.5202555742296
 30
0.0
 10
301.964116451938
 20
392.0523719854552
 30
0.0
 10
301.9397086837035
 20
392.296413012584
 30
0.0
 10
301.8908931472346
 20
392.7036772819151
 30
0.0
 10
301.8664853790002
 20
392.8667402830185
 30
0.0
 10
301.8176698425312
 20
393.0871501173094
 30
0.0
 10
301.7932620742968
 20
393.1444102286392
 30
0.0
 10
301.7688543060623
 20
393.1444102286392
 30
0.0
  0
LINE
  5
74
330
1F
100
AcDbEntity
  8
0
  6
Continuous
 62
     7
370
    25
100
AcDbLine
 10
603.9546407437
 20
393.1444102286
 30
0.0
 11
301.7688543061
 21
393.1444102286
 31
0.0
  0
SPLINE
  5
75
330
1F
100
AcDbEntity
  8
0
  6
Continuous
 62
     7
370
    25
100
AcDbSpline
210
0.0
220
0.0
230
1.0
 70
     8
 71
     3
 72
    14
 73
    10
 74
     0
 42
0.000000001
 43
0.00000001
 40
0.0
 40
0.0
 40
0.0
 40
0.0
 40
0.25
 40
0.25
 40
0.5
 40
0.5
 40
0.75
 40
0.75
 40
1.0
 40
1.0
 40
1.0
 40
1.0
 10
603.9546407436892
 20
393.1444102286392
 30
0.0
 10
603.9302329754548
 20
393.1444102286392
 30
0.0
 10
603.9058252072203
 20
393.0871501173094
 30
0.0
 10
603.8570096707514
 20
392.8667402830185
 30
0.0
 10
603.832601902517
 20
392.7036772819151
 30
0.0
 10
603.783786366048
 20
392.296413012584
 30
0.0
 10
603.7593785978136
 20
392.0523719854551
 30
0.0
 10
603.7105630613446
 20
391.5202555742296
 30
0.0
 10
603.6861552931102
 20
391.2323895552182
 30
0.0
 10
603.6617475248758
 20
390.9444102286391
 30
0.0
  0
LINE
  5
76
330
1F
100
AcDbEntity
  8
0
  6
Continuous
 62
     7
370
    25
100
AcDbLine
 10
603.9546407437
 20
391.9444102286
 30
0.0
 11
603.9546407437
 21
393.1444102286
 31
0.0
  0
LINE
  5
77
330
1F
100
AcDbEntity
  8
0
  6
Continuous
 62
     7
370
    25
100
AcDbLine
 10
301.7688543061
 20
391.9444102286
 30
0.0
 11
301.7688543061
 21
393.1444102286
 31
0.0
  0
SPLINE
  5
78
330
1F
100
AcDbEntity
  8
0
  6
Continuous
 62
     7
370
    25
100
AcDbSpline
210
0.0
220
0.0
230
1.0
 70
     8
 71
     3
 72
    14
 73
    10
 74
     0
 42
0.000000001
 43
0.00000001
 40
0.0
 40
0.0
 40
0.0
 40
0.0
 40
0.25
 40
0.25
 40
0.5
 40
0.5
 40
0.75
 40
0.75
 40
1.0
 40
1.0
 40
1.0
 40
1.0
 10
301.7688543060624
 20
264.1444102286392
 30
0.0
 10
301.7932620742968
 20
264.1444102286392
 30
0.0
 10
301.8176698425312
 20
264.2016703399689
 30
0.0
 10
301.8664853790002
 20
264.4220801742598
 30
0.0
 10
301.8908931472346
 20
264.5851431753632
 30
0.0
 10
301.9397086837035
 20
264.9924074446943
 30
0.0
 10
301.964116451938
 20
265.2364484718232
 30
0.0
 10
302.0129319884068
 20
265.7685648830487
 30
0.0
 10
302.0373397566412
 20
266.0564309020601
 30
0.0
 10
302.0617475248758
 20
266.3444102286392
 30
0.0
  0
LINE
  5
79
330
1F
100
AcDbEntity
  8
0
  6
Continuous
 62
     7
370
    25
100
AcDbLine
 10
301.7688543061
 20
265.3444102286
 30
0.0
 11
301.7688543061
 21
264.1444102286
 31
0.0
  0
SPLINE
  5
7A
330
1F
100
AcDbEntity
  8
0
  6
Continuous
 62
     7
370
    25
100
AcDbSpline
210
0.0
220
0.0
230
1.0
 70
     8
 71
     3
 72
    14
 73
    10
 74
     0
 42
0.000000001
 43
0.00000001
 40
0.0
 40
0.0
 40
0.0
 40
0.0
 40
0.25
 40
0.25
 40
0.5
 40
0.5
 40
0.75
 40
0.75
 40
1.0
 40
1.0
 40
1.0
 40
1.0
 10
603.6617475248758
 20
266.3444102286392
 30
0.0
 10
603.6861552931102
 20
266.0564309020601
 30
0.0
 10
603.7105630613447
 20
265.7685648830487
 30
0.0
 10
603.7593785978135
 20
265.2364484718232
 30
0.0
 10
603.783786366048
 20
264.9924074446944
 30
0.0
 10
603.8326019025169
 20
264.5851431753632
 30
0.0
 10
603.8570096707514
 20
264.4220801742598
 30
0.0
 10
603.9058252072202
 20
264.2016703399689
 30
0.0
 10
603.9302329754548
 20
264.1444102286392
 30
0.0
 10
603.9546407436892
 20
264.1444102286392
 30
0.0
  0
LINE
  5
7B
330
1F
100
AcDbEntity
  8
0
  6
Continuous
 62
     7
370
    25
100
AcDbLine
 10
301.7688543061
 20
264.1444102286
 30
0.0
 11
603.9546407437
 21
264.1444102286
 31
0.0
  0
LINE
  5
7C
330
1F
100
AcDbEntity
  8
0
  6
Continuous
 62
     7
370
    25
100
AcDbLine
 10
603.9546407437
 20
265.3444102286
 30
0.0
 11
603.9546407437
 21
264.1444102286
 31
0.0
  0
SPLINE
  5
7D
330
1F
100
AcDbEntity
  8
0
  6
Continuous
 62
     7
370
    25
100
AcDbSpline
210
0.0
220
0.0
230
1.0
 70
     8
 71
     3
 72
    14
 73
    10
 74
     0
 42
0.000000001
 43
0.00000001
 40
0.0
 40
0.0
 40
0.0
 40
0.0
 40
0.25
 40
0.25
 40
0.5
 40
0.5
 40
0.75
 40
0.75
 40
1.0
 40
1.0
 40
1.0
 40
1.0
 10
603.6617475248758
 20
390.9444102286391
 30
0.0
 10
603.9497268514549
 20
390.9688179968736
 30
0.0
 10
604.2375928704662
 20
390.9932257651081
 30
0.0
 10
604.7697092816917
 20
391.0420413015769
 30
0.0
 10
605.0137503088206
 20
391.0664490698115
 30
0.0
 10
605.4210145781518
 20
391.1152646062803
 30
0.0
 10
605.5840775792551
 20
391.1396723745148
 30
0.0
 10
605.8044874135461
 20
391.1884879109837
 30
0.0
 10
605.8617475248758
 20
391.2128956792181
 30
0.0
 10
605.8617475248758
 20
391.2373034474526
 30
0.0
  0
LINE
  5
7E
330
1F
100
AcDbEntity
  8
0
  6
Continuous
 62
     7
370
    25
100
AcDbLine
 10
605.8617475249
 20
266.0515170098
 30
0.0
 11
605.8617475249
 21
391.2373034475
 31
0.0
  0
SPLINE
  5
7F
330
1F
100
AcDbEntity
  8
0
  6
Continuous
 62
     7
370
    25
100
AcDbSpline
210
0.0
220
0.0
230
1.0
 70
     8
 71
     3
 72
    14
 73
    10
 74
     0
 42
0.000000001
 43
0.00000001
 40
0.0
 40
0.0
 40
0.0
 40
0.0
 40
0.25
 40
0.25
 40
0.5
 40
0.5
 40
0.75
 40
0.75
 40
1.0
 40
1.0
 40
1.0
 40
1.0
 10
605.8617475248758
 20
266.0515170098257
 30
0.0
 10
605.8617475248758
 20
266.0759247780602
 30
0.0
 10
605.8044874135461
 20
266.1003325462946
 30
0.0
 10
605.584077579255
 20
266.1491480827635
 30
0.0
 10
605.4210145781518
 20
266.173555850998
 30
0.0
 10
605.0137503088206
 20
266.2223713874669
 30
0.0
 10
604.7697092816917
 20
266.2467791557013
 30
0.0
 10
604.2375928704662
 20
266.2955946921703
 30
0.0
 10
603.9497268514549
 20
266.3200024604047
 30
0.0
 10
603.6617475248758
 20
266.3444102286392
 30
0.0
  0
SPLINE
  5
80
330
1F
100
AcDbEntity
  8
0
  6
Continuous
 62
     7
370
    25
100
AcDbSpline
210
0.0
220
0.0
230
1.0
 70
     8
 71
     3
 72
    14
 73
    10
 74
     0
 42
0.000000001
 43
0.00000001
 40
0.0
 40
0.0
 40
0.0
 40
0.0
 40
0.25
 40
0.25
 40
0.5
 40
0.5
 40
0.75
 40
0.75
 40
1.0
 40
1.0
 40
1.0
 40
1.0
 10
302.0617475248758
 20
266.3444102286392
 30
0.0
 10
301.7737681982967
 20
266.3200024604047
 30
0.0
 10
301.4859021792853
 20
266.2955946921703
 30
0.0
 10
300.9537857680597
 20
266.2467791557014
 30
0.0
 10
300.709744740931
 20
266.2223713874669
 30
0.0
 10
300.3024804715998
 20
266.173555850998
 30
0.0
 10
300.1394174704964
 20
266.1491480827635
 30
0.0
 10
299.9190076362055
 20
266.1003325462946
 30
0.0
 10
299.8617475248757
 20
266.0759247780602
 30
0.0
 10
299.8617475248757
 20
266.0515170098257
 30
0.0
  0
LINE
  5
81
330
1F
100
AcDbEntity
  8
0
  6
Continuous
 62
     7
370
    25
100
AcDbLine
 10
299.8617475249
 20
391.2373034475
 30
0.0
 11
299.8617475249
 21
266.0515170098
 31
0.0
  0
SPLINE
  5
82
330
1F
100
AcDbEntity
  8
0
  6
Continuous
 62
     7
370
    25
100
AcDbSpline
210
0.0
220
0.0
230
1.0
 70
     8
 71
     3
 72
    14
 73
    10
 74
     0
 42
0.000000001
 43
0.00000001
 40
0.0
 40
0.0
 40
0.0
 40
0.0
 40
0.25
 40
0.25
 40
0.5
 40
0.5
 40
0.75
 40
0.75
 40
1.0
 40
1.0
 40
1.0
 40
1.0
 10
299.8617475248757
 20
391.2373034474526
 30
0.0
 10
299.8617475248757
 20
391.2128956792181
 30
0.0
 10
299.9190076362055
 20
391.1884879109837
 30
0.0
 10
300.1394174704964
 20
391.1396723745148
 30
0.0
 10
300.3024804715997
 20
391.1152646062803
 30
0.0
 10
300.709744740931
 20
391.0664490698115
 30
0.0
 10
300.9537857680597
 20
391.042041301577
 30
0.0
 10
301.4859021792853
 20
390.9932257651081
 30
0.0
 10
301.7737681982967
 20
390.9688179968736
 30
0.0
 10
302.0617475248758
 20
390.9444102286392
 30
0.0
  0
LINE
  5
83
330
1F
100
AcDbEntity
  8
0
  6
Continuous
 62
     7
370
    25
100
AcDbLine
 10
604.6617475249
 20
391.2373034475
 30
0.0
 11
605.8617475249
 21
391.2373034475
 31
0.0
  0
LINE
  5
84
330
1F
100
AcDbEntity
  8
0
  6
Continuous
 62
     7
370
    25
100
AcDbLine
 10
301.0617475249
 20
266.0515170098
 30
0.0
 11
299.8617475249
 21
266.0515170098
 31
0.0
  0
LINE
  5
85
330
1F
100
AcDbEntity
  8
0
  6
Continuous
 62
     7
370
    25
100
AcDbLine
 10
301.0617475249
 20
391.2373034475
 30
0.0
 11
299.8617475249
 21
391.2373034475
 31
0.0
  0
LINE
  5
86
330
1F
100
AcDbEntity
  8
0
  6
Continuous
 62
     7
370
    25
100
AcDbLine
 10
604.6617475249
 20
266.0515170098
 30
0.0
 11
605.8617475249
 21
266.0515170098
 31
0.0
  0
LINE
  5
87
330
1F
100
AcDbEntity
  8
0
  6
Continuous
 62
     7
370
    25
100
AcDbLine
 10
667.7627335462
 20
373.1444102286
 30
0.0
 11
680.7627335462
 21
373.1444102286
 31
0.0
  0
LINE
  5
88
330
1F
100
AcDbEntity
  8
0
  6
Continuous
 62
     7
370
    25
100
AcDbLine
 10
680.7627335462
 20
373.1444102286
 30
0.0
 11
680.7627335462
 21
391.2373034475
 31
0.0
  0
LINE
  5
89
330
1F
100
AcDbEntity
  8
0
  6
Continuous
 62
     7
370
    25
100
AcDbLine
 10
693.5627335462
 20
391.2373034475
 30
0.0
 11
680.7627335462
 21
391.2373034475
 31
0.0
  0
LINE
  5
8A
330
1F
100
AcDbEntity
  8
0
  6
Continuous
 62
     7
370
    25
100
AcDbLine
 10
680.7627335462
 20
266.0515170098
 30
0.0
 11
693.5627335462
 21
266.0515170098
 31
0.0
  0
LINE
  5
8B
330
1F
100
AcDbEntity
  8
0
  6
Continuous
 62
     7
370
    25
100
AcDbLine
 10
680.7627335462
 20
266.0515170098
 30
0.0
 11
680.7627335462
 21
284.1444102286
 31
0.0
  0
LINE
  5
8C
330
1F
100
AcDbEntity
  8
0
  6
Continuous
 62
     7
370
    25
100
AcDbLine
 10
680.7627335462
 20
284.1444102286
 30
0.0
 11
667.7627335462
 21
284.1444102286
 31
0.0
  0
LINE
  5
8D
330
1F
100
AcDbEntity
  8
0
  6
Continuous
 62
     7
370
    25
100
AcDbLine
 10
663.7627335462
 20
369.1444102286
 30
0.0
 11
663.7627335462
 21
288.1444102286
 31
0.0
  0
ARC
  5
8E
330
1F
100
AcDbEntity
  8
0
  6
Continuous
 62
     7
370
    25
100
AcDbCircle
 10
678.7627335462
 20
291.1444102286
 30
0.0
 40
3.5
100
AcDbArc
 50
270.0
 51
90.0
  0
LINE
  5
8F
330
1F
100
AcDbEntity
  8
0
  6
Continuous
 62
     7
370
    25
100
AcDbLine
 10
678.7627335462
 20
294.6444102286
 30
0.0
 11
670.7627335462
 21
294.6444102286
 31
0.0
  0
ARC
  5
90
330
1F
100
AcDbEntity
  8
0
  6
Continuous
 62
     7
370
    25
100
AcDbCircle
 10
670.7627335462
 20
291.1444102286
 30
0.0
 40
3.5
100
AcDbArc
 50
90.0
 51
270.0
  0
LINE
  5
91
330
1F
100
AcDbEntity
  8
0
  6
Continuous
 62
     7
370
    25
100
AcDbLine
 10
670.7627335462
 20
287.6444102286
 30
0.0
 11
678.7627335462
 21
287.6444102286
 31
0.0
  0
ARC
  5
92
330
1F
100
AcDbEntity
  8
0
  6
Continuous
 62
     7
370
    25
100
AcDbCircle
 10
678.7627335462
 20
366.1444102286
 30
0.0
 40
3.500000000000057
100
AcDbArc
 50
270.0
 51
90.0
  0
LINE
  5
93
330
1F
100
AcDbEntity
  8
0
  6
Continuous
 62
     7
370
    25
100
AcDbLine
 10
678.7627335462
 20
369.6444102286
 30
0.0
 11
670.7627335462
 21
369.6444102286
 31
0.0
  0
ARC
  5
94
330
1F
100
AcDbEntity
  8
0
  6
Continuous
 62
     7
370
    25
100
AcDbCircle
 10
670.7627335462
 20
366.1444102286
 30
0.0
 40
3.500000000000057
100
AcDbArc
 50
90.0
 51
270.0
  0
LINE
  5
95
330
1F
100
AcDbEntity
  8
0
  6
Continuous
 62
     7
370
    25
100
AcDbLine
 10
670.7627335462
 20
362.6444102286
 30
0.0
 11
678.7627335462
 21
362.6444102286
 31
0.0
  0
ARC
  5
96
330
1F
100
AcDbEntity
  8
0
  6
Continuous
 62
     7
370
    25
100
AcDbCircle
 10
667.7627335462
 20
288.1444102286
 30
0.0
 40
4.0
100
AcDbArc
 50
180.0
 51
270.0
  0
ARC
  5
97
330
1F
100
AcDbEntity
  8
0
  6
Continuous
 62
     7
370
    25
100
AcDbCircle
 10
667.7627335462
 20
369.1444102286
 30
0.0
 40
4.0
100
AcDbArc
 50
90.0
 51
180.0
  0
LINE
  5
98
330
1F
100
AcDbEntity
  8
0
  6
Continuous
 62
     7
370
    25
100
AcDbLine
 10
695.7627335462
 20
390.9444102286
 30
0.0
 11
695.7627335462
 21
266.3444102286
 31
0.0
  0
SPLINE
  5
99
330
1F
100
AcDbEntity
  8
0
  6
Continuous
 62
     7
370
    25
100
AcDbSpline
210
0.0
220
0.0
230
1.0
 70
     8
 71
     3
 72
    14
 73
    10
 74
     0
 42
0.000000001
 43
0.00000001
 40
0.0
 40
0.0
 40
0.0
 40
0.0
 40
0.25
 40
0.25
 40
0.5
 40
0.5
 40
0.75
 40
0.75
 40
1.0
 40
1.0
 40
1.0
 40
1.0
 10
693.5627335462342
 20
391.2373034474526
 30
0.0
 10
693.8507128728132
 20
391.2128956792181
 30
0.0
 10
694.1385788918246
 20
391.1884879109837
 30
0.0
 10
694.6706953030501
 20
391.1396723745148
 30
0.0
 10
694.9147363301789
 20
391.1152646062803
 30
0.0
 10
695.3220005995103
 20
391.0664490698115
 30
0.0
 10
695.4850636006136
 20
391.042041301577
 30
0.0
 10
695.7054734349044
 20
390.9932257651081
 30
0.0
 10
695.7627335462342
 20
390.9688179968736
 30
0.0
 10
695.7627335462342
 20
390.9444102286392
 30
0.0
  0
SPLINE
  5
9A
330
1F
100
AcDbEntity
  8
0
  6
Continuous
 62
     7
370
    25
100
AcDbSpline
210
0.0
220
0.0
230
1.0
 70
     8
 71
     3
 72
    14
 73
    10
 74
     0
 42
0.000000001
 43
0.00000001
 40
0.0
 40
0.0
 40
0.0
 40
0.0
 40
0.25
 40
0.25
 40
0.5
 40
0.5
 40
0.75
 40
0.75
 40
1.0
 40
1.0
 40
1.0
 40
1.0
 10
695.7627335462342
 20
266.3444102286392
 30
0.0
 10
695.7627335462342
 20
266.3200024604047
 30
0.0
 10
695.7054734349044
 20
266.2955946921703
 30
0.0
 10
695.4850636006136
 20
266.2467791557014
 30
0.0
 10
695.3220005995103
 20
266.2223713874669
 30
0.0
 10
694.9147363301789
 20
266.173555850998
 30
0.0
 10
694.6706953030501
 20
266.1491480827635
 30
0.0
 10
694.1385788918246
 20
266.1003325462946
 30
0.0
 10
693.8507128728132
 20
266.0759247780602
 30
0.0
 10
693.5627335462342
 20
266.0515170098257
 30
0.0
  0
LINE
  5
9B
330
1F
100
AcDbEntity
  8
0
  6
Continuous
 62
     7
370
    25
100
AcDbLine
 10
693.5627335462
 20
391.9444102286
 30
0.0
 11
693.5627335462
 21
393.1444102286
 31
0.0
  0
SPLINE
  5
9C
330
1F
100
AcDbEntity
  8
0
  6
Continuous
 62
     7
370
    25
100
AcDbSpline
210
0.0
220
0.0
230
1.0
 70
     8
 71
     3
 72
    14
 73
    10
 74
     0
 42
0.000000001
 43
0.00000001
 40
0.0
 40
0.0
 40
0.0
 40
0.0
 40
0.25
 40
0.25
 40
0.5
 40
0.5
 40
0.75
 40
0.75
 40
1.0
 40
1.0
 40
1.0
 40
1.0
 10
695.7627335462342
 20
390.9444102286391
 30
0.0
 10
695.7627335462342
 20
391.2323895552182
 30
0.0
 10
695.7054734349045
 20
391.5202555742296
 30
0.0
 10
695.4850636006136
 20
392.0523719854552
 30
0.0
 10
695.3220005995103
 20
392.296413012584
 30
0.0
 10
694.9147363301789
 20
392.7036772819151
 30
0.0
 10
694.6706953030501
 20
392.8667402830185
 30
0.0
 10
694.1385788918246
 20
393.0871501173094
 30
0.0
 10
693.8507128728132
 20
393.1444102286392
 30
0.0
 10
693.5627335462342
 20
393.1444102286392
 30
0.0
  0
SPLINE
  5
9D
330
1F
100
AcDbEntity
  8
0
  6
Continuous
 62
     7
370
    25
100
AcDbSpline
210
0.0
220
0.0
230
1.0
 70
     8
 71
     3
 72
    11
 73
     7
 74
     0
 42
0.000000001
 43
0.00000001
 40
0.0
 40
0.0
 40
0.0
 40
0.0
 40
0.1322666356161211
 40
0.4215110904107439
 40
0.7107555452053727
 40
1.0
 40
1.0
 40
1.0
 40
1.0
 10
694.5214216912162
 20
391.1520989488639
 30
0.0
 10
694.5128678860582
 20
391.21145530512
 30
0.0
 10
694.4856083755811
 20
391.4006138357787
 30
0.0
 10
694.2829981077974
 20
391.6669264177052
 30
0.0
 10
693.956692554391
 20
391.8996004801396
 30
0.0
 10
693.6940532156198
 20
391.929473645806
 30
0.0
 10
693.5627335462342
 20
391.9444102286391
 30
0.0
  0
LINE
  5
9E
330
1F
100
AcDbEntity
  8
0
  6
Continuous
 62
     7
370
    25
100
AcDbLine
 10
680.7627335462
 20
393.1444102286
 30
0.0
 11
680.7627335462
 21
391.9444102286
 31
0.0
  0
LINE
  5
9F
330
1F
100
AcDbEntity
  8
0
  6
Continuous
 62
     7
370
    25
100
AcDbLine
 10
680.7627335462
 20
391.9444102286
 30
0.0
 11
693.5627335462
 21
391.9444102286
 31
0.0
  0
LINE
  5
A0
330
1F
100
AcDbEntity
  8
0
  6
Continuous
 62
     7
370
    25
100
AcDbLine
 10
680.7627335462
 20
393.1444102286
 30
0.0
 11
693.5627335462
 21
393.1444102286
 31
0.0
  0
SPLINE
  5
A1
330
1F
100
AcDbEntity
  8
0
  6
Continuous
 62
     7
370
    25
100
AcDbSpline
210
0.0
220
0.0
230
1.0
 70
     8
 71
     3
 72
    14
 73
    10
 74
     0
 42
0.000000001
 43
0.00000001
 40
0.0
 40
0.0
 40
0.0
 40
0.0
 40
0.25
 40
0.25
 40
0.5
 40
0.5
 40
0.75
 40
0.75
 40
1.0
 40
1.0
 40
1.0
 40
1.0
 10
693.5627335462342
 20
264.1444102286392
 30
0.0
 10
693.8507128728132
 20
264.1444102286392
 30
0.0
 10
694.1385788918246
 20
264.2016703399689
 30
0.0
 10
694.6706953030501
 20
264.4220801742598
 30
0.0
 10
694.9147363301789
 20
264.5851431753632
 30
0.0
 10
695.3220005995103
 20
264.9924074446943
 30
0.0
 10
695.4850636006136
 20
265.2364484718232
 30
0.0
 10
695.7054734349045
 20
265.7685648830487
 30
0.0
 10
695.7627335462342
 20
266.0564309020601
 30
0.0
 10
695.7627335462342
 20
266.3444102286392
 30
0.0
  0
LINE
  5
A2
330
1F
100
AcDbEntity
  8
0
  6
Continuous
 62
     7
370
    25
100
AcDbLine
 10
693.5627335462
 20
265.3444102286
 30
0.0
 11
693.5627335462
 21
264.1444102286
 31
0.0
  0
SPLINE
  5
A3
330
1F
100
AcDbEntity
  8
0
  6
Continuous
 62
     7
370
    25
100
AcDbSpline
210
0.0
220
0.0
230
1.0
 70
     8
 71
     3
 72
    11
 73
     7
 74
     0
 42
0.000000001
 43
0.00000001
 40
0.0
 40
0.0
 40
0.0
 40
0.0
 40
0.2892444547946237
 40
0.5784889095892487
 40
0.8677333643838753
 40
1.0
 40
1.0
 40
1.0
 40
1.0
 10
693.5627335462342
 20
265.3444102286392
 30
0.0
 10
693.6940532156198
 20
265.3593468114723
 30
0.0
 10
693.956692554391
 20
265.3892199771388
 30
0.0
 10
694.2829981077974
 20
265.621894039573
 30
0.0
 10
694.4856083755811
 20
265.8882066214997
 30
0.0
 10
694.5128678860582
 20
266.0773651521583
 30
0.0
 10
694.5214216912162
 20
266.1367215084144
 30
0.0
  0
LINE
  5
A4
330
1F
100
AcDbEntity
  8
0
  6
Continuous
 62
     7
370
    25
100
AcDbLine
 10
693.5627335462
 20
264.1444102286
 30
0.0
 11
680.7627335462
 21
264.1444102286
 31
0.0
  0
LINE
  5
A5
330
1F
100
AcDbEntity
  8
0
  6
Continuous
 62
     7
370
    25
100
AcDbLine
 10
680.7627335462
 20
265.3444102286
 30
0.0
 11
680.7627335462
 21
264.1444102286
 31
0.0
  0
LINE
  5
A6
330
1F
100
AcDbEntity
  8
0
  6
Continuous
 62
     7
370
    25
100
AcDbLine
 10
693.5627335462
 20
265.3444102286
 30
0.0
 11
680.7627335462
 21
265.3444102286
 31
0.0
  0
LINE
  5
A7
330
1F
100
AcDbEntity
  8
0
  6
Continuous
 62
     7
370
    25
100
AcDbLine
 10
603.9546407437
 20
435.4295113427
 30
0.0
 11
301.7688543061
 21
435.4295113427
 31
0.0
  0
LINE
  5
A8
330
1F
100
AcDbEntity
  8
0
  6
Continuous
 62
     7
370
    25
100
AcDbLine
 10
603.9546407437
 20
435.4295113427
 30
0.0
 11
603.9546407437
 21
448.2295113427
 31
0.0
  0
LINE
  5
A9
330
1F
100
AcDbEntity
  8
0
  6
Continuous
 62
     7
370
    25
100
AcDbLine
 10
301.7688543061
 20
448.2295113427
 30
0.0
 11
301.7688543061
 21
435.4295113427
 31
0.0
  0
SPLINE
  5
AA
330
1F
100
AcDbEntity
  8
0
  6
Continuous
 62
     7
370
    25
100
AcDbSpline
210
0.0
220
0.0
230
1.0
 70
     8
 71
     3
 72
    14
 73
    10
 74
     0
 42
0.000000001
 43
0.00000001
 40
0.0
 40
0.0
 40
0.0
 40
0.0
 40
0.25
 40
0.25
 40
0.5
 40
0.5
 40
0.75
 40
0.75
 40
1.0
 40
1.0
 40
1.0
 40
1.0
 10
603.6617475248758
 20
450.4295113426737
 30
0.0
 10
603.6861552931102
 20
450.4295113426737
 30
0.0
 10
603.7105630613447
 20
450.372251231344
 30
0.0
 10
603.7593785978135
 20
450.151841397053
 30
0.0
 10
603.783786366048
 20
449.9887783959496
 30
0.0
 10
603.8326019025169
 20
449.5815141266185
 30
0.0
 10
603.8570096707514
 20
449.3374730994896
 30
0.0
 10
603.9058252072202
 20
448.8053566882641
 30
0.0
 10
603.9302329754548
 20
448.5174906692527
 30
0.0
 10
603.9546407436892
 20
448.2295113426736
 30
0.0
  0
SPLINE
  5
AB
330
1F
100
AcDbEntity
  8
0
  6
Continuous
 62
     7
370
    25
100
AcDbSpline
210
0.0
220
0.0
230
1.0
 70
     8
 71
     3
 72
    14
 73
    10
 74
     0
 42
0.000000001
 43
0.00000001
 40
0.0
 40
0.0
 40
0.0
 40
0.0
 40
0.25
 40
0.25
 40
0.5
 40
0.5
 40
0.75
 40
0.75
 40
1.0
 40
1.0
 40
1.0
 40
1.0
 10
301.7688543060624
 20
448.2295113426736
 30
0.0
 10
301.7932620742968
 20
448.5174906692527
 30
0.0
 10
301.8176698425312
 20
448.8053566882641
 30
0.0
 10
301.8664853790002
 20
449.3374730994896
 30
0.0
 10
301.8908931472346
 20
449.5815141266185
 30
0.0
 10
301.9397086837035
 20
449.9887783959496
 30
0.0
 10
301.964116451938
 20
450.151841397053
 30
0.0
 10
302.0129319884068
 20
450.372251231344
 30
0.0
 10
302.0373397566412
 20
450.4295113426737
 30
0.0
 10
302.0617475248758
 20
450.4295113426737
 30
0.0
  0
LINE
  5
AC
330
1F
100
AcDbEntity
  8
0
  6
Continuous
 62
     7
370
    25
100
AcDbLine
 10
302.0617475249
 20
450.4295113427
 30
0.0
 11
603.6617475249
 21
450.4295113427
 31
0.0
  0
LINE
  5
AD
330
1F
100
AcDbEntity
  8
0
  6
Continuous
 62
     7
370
    25
100
AcDbLine
 10
604.6617475249
 20
448.2295113427
 30
0.0
 11
605.8617475249
 21
448.2295113427
 31
0.0
  0
LINE
  5
AE
330
1F
100
AcDbEntity
  8
0
  6
Continuous
 62
     7
370
    25
100
AcDbLine
 10
604.6617475249
 20
435.4295113427
 30
0.0
 11
605.8617475249
 21
435.4295113427
 31
0.0
  0
LINE
  5
AF
330
1F
100
AcDbEntity
  8
0
  6
Continuous
 62
     7
370
    25
100
AcDbLine
 10
604.6617475249
 20
448.2295113427
 30
0.0
 11
604.6617475249
 21
435.4295113427
 31
0.0
  0
LINE
  5
B0
330
1F
100
AcDbEntity
  8
0
  6
Continuous
 62
     7
370
    25
100
AcDbLine
 10
605.8617475249
 20
448.2295113427
 30
0.0
 11
605.8617475249
 21
435.4295113427
 31
0.0
  0
LINE
  5
B1
330
1F
100
AcDbEntity
  8
0
  6
Continuous
 62
     7
370
    25
100
AcDbLine
 10
301.0617475249
 20
448.2295113427
 30
0.0
 11
299.8617475249
 21
448.2295113427
 31
0.0
  0
LINE
  5
B2
330
1F
100
AcDbEntity
  8
0
  6
Continuous
 62
     7
370
    25
100
AcDbLine
 10
299.8617475249
 20
435.4295113427
 30
0.0
 11
301.0617475249
 21
435.4295113427
 31
0.0
  0
LINE
  5
B3
330
1F
100
AcDbEntity
  8
0
  6
Continuous
 62
     7
370
    25
100
AcDbLine
 10
299.8617475249
 20
435.4295113427
 30
0.0
 11
299.8617475249
 21
448.2295113427
 31
0.0
  0
LINE
  5
B4
330
1F
100
AcDbEntity
  8
0
  6
Continuous
 62
     7
370
    25
100
AcDbLine
 10
301.0617475249
 20
435.4295113427
 30
0.0
 11
301.0617475249
 21
448.2295113427
 31
0.0
  0
SPLINE
  5
B5
330
1F
100
AcDbEntity
  8
0
  6
Continuous
 62
     7
370
    25
100
AcDbSpline
210
0.0
220
0.0
230
1.0
 70
     8
 71
     3
 72
    11
 73
     7
 74
     0
 42
0.000000001
 43
0.00000001
 40
0.0
 40
0.0
 40
0.0
 40
0.0
 40
0.1322666356161485
 40
0.421511090410769
 40
0.71075554520539
 40
1.0
 40
1.0
 40
1.0
 40
1.0
 10
301.854058804651
 20
449.1881994876557
 30
0.0
 10
301.794702448395
 20
449.1796456824976
 30
0.0
 10
301.6055439177363
 20
449.1523861720206
 30
0.0
 10
301.3392313358097
 20
448.949775904237
 30
0.0
 10
301.1065572733754
 20
448.6234703508304
 30
0.0
 10
301.076684107709
 20
448.3608310120592
 30
0.0
 10
301.0617475248758
 20
448.2295113426736
 30
0.0
  0
SPLINE
  5
B6
330
1F
100
AcDbEntity
  8
0
  6
Continuous
 62
     7
370
    25
100
AcDbSpline
210
0.0
220
0.0
230
1.0
 70
     8
 71
     3
 72
    14
 73
    10
 74
     0
 42
0.000000001
 43
0.00000001
 40
0.0
 40
0.0
 40
0.0
 40
0.0
 40
0.25
 40
0.25
 40
0.5
 40
0.5
 40
0.75
 40
0.75
 40
1.0
 40
1.0
 40
1.0
 40
1.0
 10
302.0617475248758
 20
450.4295113426736
 30
0.0
 10
301.7737681982967
 20
450.4295113426736
 30
0.0
 10
301.4859021792853
 20
450.372251231344
 30
0.0
 10
300.9537857680597
 20
450.151841397053
 30
0.0
 10
300.709744740931
 20
449.9887783959496
 30
0.0
 10
300.3024804715998
 20
449.5815141266185
 30
0.0
 10
300.1394174704964
 20
449.3374730994896
 30
0.0
 10
299.9190076362055
 20
448.8053566882641
 30
0.0
 10
299.8617475248757
 20
448.5174906692527
 30
0.0
 10
299.8617475248757
 20
448.2295113426736
 30
0.0
  0
SPLINE
  5
B7
330
1F
100
AcDbEntity
  8
0
  6
Continuous
 62
     7
370
    25
100
AcDbSpline
210
0.0
220
0.0
230
1.0
 70
     8
 71
     3
 72
    14
 73
    10
 74
     0
 42
0.000000001
 43
0.00000001
 40
0.0
 40
0.0
 40
0.0
 40
0.0
 40
0.25
 40
0.25
 40
0.5
 40
0.5
 40
0.75
 40
0.75
 40
1.0
 40
1.0
 40
1.0
 40
1.0
 10
605.8617475248758
 20
448.2295113426736
 30
0.0
 10
605.8617475248758
 20
448.5174906692527
 30
0.0
 10
605.8044874135461
 20
448.8053566882641
 30
0.0
 10
605.584077579255
 20
449.3374730994896
 30
0.0
 10
605.4210145781518
 20
449.5815141266185
 30
0.0
 10
605.0137503088206
 20
449.9887783959496
 30
0.0
 10
604.7697092816917
 20
450.151841397053
 30
0.0
 10
604.2375928704662
 20
450.372251231344
 30
0.0
 10
603.9497268514549
 20
450.4295113426736
 30
0.0
 10
603.6617475248758
 20
450.4295113426736
 30
0.0
  0
SPLINE
  5
B8
330
1F
100
AcDbEntity
  8
0
  6
Continuous
 62
     7
370
    25
100
AcDbSpline
210
0.0
220
0.0
230
1.0
 70
     8
 71
     3
 72
    11
 73
     7
 74
     0
 42
0.000000001
 43
0.00000001
 40
0.0
 40
0.0
 40
0.0
 40
0.0
 40
0.2892444547946103
 40
0.5784889095892335
 40
0.8677333643838506
 40
1.0
 40
1.0
 40
1.0
 40
1.0
 10
604.6617475248758
 20
448.2295113426736
 30
0.0
 10
604.6468109420425
 20
448.3608310120592
 30
0.0
 10
604.6169377763763
 20
448.6234703508304
 30
0.0
 10
604.3842637139418
 20
448.949775904237
 30
0.0
 10
604.1179511320152
 20
449.1523861720206
 30
0.0
 10
603.9287926013566
 20
449.1796456824976
 30
0.0
 10
603.8694362451005
 20
449.1881994876557
 30
0.0
  0
LINE
  5
B9
330
1F
100
AcDbEntity
  8
0
  6
Continuous
 62
     7
370
    25
100
AcDbLine
 10
301.0617475249
 20
418.4295113427
 30
0.0
 11
299.8617475249
 21
418.4295113427
 31
0.0
  0
LINE
  5
BA
330
1F
100
AcDbEntity
  8
0
  6
Continuous
 62
     7
370
    25
100
AcDbLine
 10
299.8617475249
 20
418.4295113427
 30
0.0
 11
299.8617475249
 21
422.4295113427
 31
0.0
  0
LINE
  5
BB
330
1F
100
AcDbEntity
  8
0
  6
Continuous
 62
     7
370
    25
100
AcDbLine
 10
301.0617475249
 20
422.4295113427
 30
0.0
 11
301.0617475249
 21
418.4295113427
 31
0.0
  0
LINE
  5
BC
330
1F
100
AcDbEntity
  8
0
  6
Continuous
 62
     7
370
    25
100
AcDbLine
 10
605.8617475249
 20
418.4295113427
 30
0.0
 11
604.6617475249
 21
418.4295113427
 31
0.0
  0
LINE
  5
BD
330
1F
100
AcDbEntity
  8
0
  6
Continuous
 62
     7
370
    25
100
AcDbLine
 10
604.6617475249
 20
418.4295113427
 30
0.0
 11
604.6617475249
 21
422.4295113427
 31
0.0
  0
LINE
  5
BE
330
1F
100
AcDbEntity
  8
0
  6
Continuous
 62
     7
370
    25
100
AcDbLine
 10
605.8617475249
 20
422.4295113427
 30
0.0
 11
605.8617475249
 21
418.4295113427
 31
0.0
  0
LINE
  5
BF
330
1F
100
AcDbEntity
  8
0
  6
Continuous
 62
     7
370
    25
100
AcDbLine
 10
299.8617475249
 20
435.4295113427
 30
0.0
 11
299.8617475249
 21
422.4295113427
 31
0.0
  0
LINE
  5
C0
330
1F
100
AcDbEntity
  8
0
  6
Continuous
 62
     7
370
    25
100
AcDbLine
 10
301.0617475249
 20
422.4295113427
 30
0.0
 11
301.0617475249
 21
435.4295113427
 31
0.0
  0
LINE
  5
C1
330
1F
100
AcDbEntity
  8
0
  6
Continuous
 62
     7
370
    25
100
AcDbLine
 10
604.6617475249
 20
435.4295113427
 30
0.0
 11
604.6617475249
 21
422.4295113427
 31
0.0
  0
LINE
  5
C2
330
1F
100
AcDbEntity
  8
0
  6
Continuous
 62
     7
370
    25
100
AcDbLine
 10
605.8617475249
 20
435.4295113427
 30
0.0
 11
605.8617475249
 21
422.4295113427
 31
0.0
  0
LINE
  5
C3
330
1F
100
AcDbEntity
  8
0
  6
Continuous
 62
     7
370
    25
100
AcDbLine
 10
603.9546407437
 20
201.58943935
 30
0.0
 11
301.7688543061
 21
201.58943935
 31
0.0
  0
LINE
  5
C4
330
1F
100
AcDbEntity
  8
0
  6
Continuous
 62
     7
370
    25
100
AcDbLine
 10
301.7688543061
 20
201.58943935
 30
0.0
 11
301.7688543061
 21
188.78943935
 31
0.0
  0
LINE
  5
C5
330
1F
100
AcDbEntity
  8
0
  6
Continuous
 62
     7
370
    25
100
AcDbLine
 10
603.9546407437
 20
188.78943935
 30
0.0
 11
603.9546407437
 21
201.58943935
 31
0.0
  0
LINE
  5
C6
330
1F
100
AcDbEntity
  8
0
  6
Continuous
 62
     7
370
    25
100
AcDbLine
 10
603.6617475249
 20
186.58943935
 30
0.0
 11
302.0617475249
 21
186.58943935
 31
0.0
  0
SPLINE
  5
C7
330
1F
100
AcDbEntity
  8
0
  6
Continuous
 62
     7
370
    25
100
AcDbSpline
210
0.0
220
0.0
230
1.0
 70
     8
 71
     3
 72
    14
 73
    10
 74
     0
 42
0.000000001
 43
0.00000001
 40
0.0
 40
0.0
 40
0.0
 40
0.0
 40
0.25
 40
0.25
 40
0.5
 40
0.5
 40
0.75
 40
0.75
 40
1.0
 40
1.0
 40
1.0
 40
1.0
 10
302.0617475248758
 20
186.5894393499767
 30
0.0
 10
302.0373397566414
 20
186.5894393499767
 30
0.0
 10
302.0129319884068
 20
186.6466994613064
 30
0.0
 10
301.964116451938
 20
186.8671092955973
 30
0.0
 10
301.9397086837035
 20
187.0301722967007
 30
0.0
 10
301.8908931472346
 20
187.4374365660318
 30
0.0
 10
301.8664853790002
 20
187.6814775931607
 30
0.0
 10
301.8176698425312
 20
188.2135940043862
 30
0.0
 10
301.7932620742968
 20
188.5014600233976
 30
0.0
 10
301.7688543060623
 20
188.7894393499766
 30
0.0
  0
SPLINE
  5
C8
330
1F
100
AcDbEntity
  8
0
  6
Continuous
 62
     7
370
    25
100
AcDbSpline
210
0.0
220
0.0
230
1.0
 70
     8
 71
     3
 72
    14
 73
    10
 74
     0
 42
0.000000001
 43
0.00000001
 40
0.0
 40
0.0
 40
0.0
 40
0.0
 40
0.25
 40
0.25
 40
0.5
 40
0.5
 40
0.75
 40
0.75
 40
1.0
 40
1.0
 40
1.0
 40
1.0
 10
603.9546407436892
 20
188.7894393499766
 30
0.0
 10
603.9302329754548
 20
188.5014600233976
 30
0.0
 10
603.9058252072203
 20
188.2135940043862
 30
0.0
 10
603.8570096707514
 20
187.6814775931607
 30
0.0
 10
603.832601902517
 20
187.4374365660318
 30
0.0
 10
603.783786366048
 20
187.0301722967007
 30
0.0
 10
603.7593785978136
 20
186.8671092955973
 30
0.0
 10
603.7105630613446
 20
186.6466994613064
 30
0.0
 10
603.6861552931102
 20
186.5894393499767
 30
0.0
 10
603.6617475248758
 20
186.5894393499767
 30
0.0
  0
LINE
  5
C9
330
1F
100
AcDbEntity
  8
0
  6
Continuous
 62
     7
370
    25
100
AcDbLine
 10
301.0617475249
 20
188.78943935
 30
0.0
 11
299.8617475249
 21
188.78943935
 31
0.0
  0
LINE
  5
CA
330
1F
100
AcDbEntity
  8
0
  6
Continuous
 62
     7
370
    25
100
AcDbLine
 10
301.0617475249
 20
201.58943935
 30
0.0
 11
299.8617475249
 21
201.58943935
 31
0.0
  0
LINE
  5
CB
330
1F
100
AcDbEntity
  8
0
  6
Continuous
 62
     7
370
    25
100
AcDbLine
 10
301.0617475249
 20
188.78943935
 30
0.0
 11
301.0617475249
 21
201.58943935
 31
0.0
  0
LINE
  5
CC
330
1F
100
AcDbEntity
  8
0
  6
Continuous
 62
     7
370
    25
100
AcDbLine
 10
299.8617475249
 20
188.78943935
 30
0.0
 11
299.8617475249
 21
201.58943935
 31
0.0
  0
LINE
  5
CD
330
1F
100
AcDbEntity
  8
0
  6
Continuous
 62
     7
370
    25
100
AcDbLine
 10
604.6617475249
 20
188.78943935
 30
0.0
 11
605.8617475249
 21
188.78943935
 31
0.0
  0
LINE
  5
CE
330
1F
100
AcDbEntity
  8
0
  6
Continuous
 62
     7
370
    25
100
AcDbLine
 10
605.8617475249
 20
201.58943935
 30
0.0
 11
604.6617475249
 21
201.58943935
 31
0.0
  0
LINE
  5
CF
330
1F
100
AcDbEntity
  8
0
  6
Continuous
 62
     7
370
    25
100
AcDbLine
 10
604.6617475249
 20
201.58943935
 30
0.0
 11
604.6617475249
 21
188.78943935
 31
0.0
  0
LINE
  5
D0
330
1F
100
AcDbEntity
  8
0
  6
Continuous
 62
     7
370
    25
100
AcDbLine
 10
605.8617475249
 20
201.58943935
 30
0.0
 11
605.8617475249
 21
188.78943935
 31
0.0
  0
SPLINE
  5
D1
330
1F
100
AcDbEntity
  8
0
  6
Continuous
 62
     7
370
    25
100
AcDbSpline
210
0.0
220
0.0
230
1.0
 70
     8
 71
     3
 72
    11
 73
     7
 74
     0
 42
0.000000001
 43
0.00000001
 40
0.0
 40
0.0
 40
0.0
 40
0.0
 40
0.1322666356161843
 40
0.4215110904107929
 40
0.710755545205402
 40
1.0
 40
1.0
 40
1.0
 40
1.0
 10
603.8694362451005
 20
187.8307512049946
 30
0.0
 10
603.9287926013566
 20
187.8393050101527
 30
0.0
 10
604.1179511320152
 20
187.8665645206297
 30
0.0
 10
604.3842637139418
 20
188.0691747884133
 30
0.0
 10
604.6169377763762
 20
188.3954803418198
 30
0.0
 10
604.6468109420425
 20
188.658119680591
 30
0.0
 10
604.6617475248758
 20
188.7894393499767
 30
0.0
  0
SPLINE
  5
D2
330
1F
100
AcDbEntity
  8
0
  6
Continuous
 62
     7
370
    25
100
AcDbSpline
210
0.0
220
0.0
230
1.0
 70
     8
 71
     3
 72
    14
 73
    10
 74
     0
 42
0.000000001
 43
0.00000001
 40
0.0
 40
0.0
 40
0.0
 40
0.0
 40
0.25
 40
0.25
 40
0.5
 40
0.5
 40
0.75
 40
0.75
 40
1.0
 40
1.0
 40
1.0
 40
1.0
 10
603.6617475248758
 20
186.5894393499767
 30
0.0
 10
603.9497268514549
 20
186.5894393499767
 30
0.0
 10
604.2375928704662
 20
186.6466994613064
 30
0.0
 10
604.7697092816917
 20
186.8671092955973
 30
0.0
 10
605.0137503088206
 20
187.0301722967007
 30
0.0
 10
605.4210145781518
 20
187.4374365660318
 30
0.0
 10
605.5840775792551
 20
187.6814775931607
 30
0.0
 10
605.8044874135461
 20
188.2135940043863
 30
0.0
 10
605.8617475248758
 20
188.5014600233976
 30
0.0
 10
605.8617475248758
 20
188.7894393499767
 30
0.0
  0
SPLINE
  5
D3
330
1F
100
AcDbEntity
  8
0
  6
Continuous
 62
     7
370
    25
100
AcDbSpline
210
0.0
220
0.0
230
1.0
 70
     8
 71
     3
 72
    14
 73
    10
 74
     0
 42
0.000000001
 43
0.00000001
 40
0.0
 40
0.0
 40
0.0
 40
0.0
 40
0.25
 40
0.25
 40
0.5
 40
0.5
 40
0.75
 40
0.75
 40
1.0
 40
1.0
 40
1.0
 40
1.0
 10
299.8617475248757
 20
188.7894393499767
 30
0.0
 10
299.8617475248757
 20
188.5014600233976
 30
0.0
 10
299.9190076362055
 20
188.2135940043863
 30
0.0
 10
300.1394174704964
 20
187.6814775931607
 30
0.0
 10
300.3024804715997
 20
187.4374365660318
 30
0.0
 10
300.709744740931
 20
187.0301722967007
 30
0.0
 10
300.9537857680597
 20
186.8671092955973
 30
0.0
 10
301.4859021792853
 20
186.6466994613064
 30
0.0
 10
301.7737681982967
 20
186.5894393499767
 30
0.0
 10
302.0617475248758
 20
186.5894393499767
 30
0.0
  0
SPLINE
  5
D4
330
1F
100
AcDbEntity
  8
0
  6
Continuous
 62
     7
370
    25
100
AcDbSpline
210
0.0
220
0.0
230
1.0
 70
     8
 71
     3
 72
    11
 73
     7
 74
     0
 42
0.000000001
 43
0.00000001
 40
0.0
 40
0.0
 40
0.0
 40
0.0
 40
0.2892444547946044
 40
0.5784889095892217
 40
0.867733364383833
 40
1.0
 40
1.0
 40
1.0
 40
1.0
 10
301.0617475248758
 20
188.7894393499767
 30
0.0
 10
301.076684107709
 20
188.658119680591
 30
0.0
 10
301.1065572733753
 20
188.3954803418198
 30
0.0
 10
301.3392313358098
 20
188.0691747884133
 30
0.0
 10
301.6055439177363
 20
187.8665645206297
 30
0.0
 10
301.794702448395
 20
187.8393050101527
 30
0.0
 10
301.8540588046511
 20
187.8307512049946
 30
0.0
  0
LINE
  5
D5
330
1F
100
AcDbEntity
  8
0
  6
Continuous
 62
     7
370
    25
100
AcDbLine
 10
299.8617475249
 20
218.58943935
 30
0.0
 11
301.0617475249
 21
218.58943935
 31
0.0
  0
LINE
  5
D6
330
1F
100
AcDbEntity
  8
0
  6
Continuous
 62
     7
370
    25
100
AcDbLine
 10
301.0617475249
 20
218.58943935
 30
0.0
 11
301.0617475249
 21
214.58943935
 31
0.0
  0
LINE
  5
D7
330
1F
100
AcDbEntity
  8
0
  6
Continuous
 62
     7
370
    25
100
AcDbLine
 10
299.8617475249
 20
214.58943935
 30
0.0
 11
299.8617475249
 21
218.58943935
 31
0.0
  0
LINE
  5
D8
330
1F
100
AcDbEntity
  8
0
  6
Continuous
 62
     7
370
    25
100
AcDbLine
 10
604.6617475249
 20
218.58943935
 30
0.0
 11
605.8617475249
 21
218.58943935
 31
0.0
  0
LINE
  5
D9
330
1F
100
AcDbEntity
  8
0
  6
Continuous
 62
     7
370
    25
100
AcDbLine
 10
604.6617475249
 20
214.58943935
 30
0.0
 11
604.6617475249
 21
218.58943935
 31
0.0
  0
LINE
  5
DA
330
1F
100
AcDbEntity
  8
0
  6
Continuous
 62
     7
370
    25
100
AcDbLine
 10
605.8617475249
 20
218.58943935
 30
0.0
 11
605.8617475249
 21
214.58943935
 31
0.0
  0
LINE
  5
DB
330
1F
100
AcDbEntity
  8
0
  6
Continuous
 62
     7
370
    25
100
AcDbLine
 10
301.0617475249
 20
201.58943935
 30
0.0
 11
301.0617475249
 21
214.58943935
 31
0.0
  0
LINE
  5
DC
330
1F
100
AcDbEntity
  8
0
  6
Continuous
 62
     7
370
    25
100
AcDbLine
 10
299.8617475249
 20
214.58943935
 30
0.0
 11
299.8617475249
 21
201.58943935
 31
0.0
  0
LINE
  5
DD
330
1F
100
AcDbEntity
  8
0
  6
Continuous
 62
     7
370
    25
100
AcDbLine
 10
604.6617475249
 20
214.58943935
 30
0.0
 11
604.6617475249
 21
201.58943935
 31
0.0
  0
LINE
  5
DE
330
1F
100
AcDbEntity
  8
0
  6
Continuous
 62
     7
370
    25
100
AcDbLine
 10
605.8617475249
 20
214.58943935
 30
0.0
 11
605.8617475249
 21
201.58943935
 31
0.0
  0
LINE
  5
DF
330
1F
100
AcDbEntity
  8
0
  6
Continuous
 62
     7
370
    25
100
AcDbLine
 10
219.9365695536
 20
266.0515170098
 30
0.0
 11
219.9365695536
 21
284.1444102286
 31
0.0
  0
LINE
  5
E0
330
1F
100
AcDbEntity
  8
0
  6
Continuous
 62
     7
370
    25
100
AcDbLine
 10
207.1365695536
 20
266.0515170098
 30
0.0
 11
219.9365695536
 21
266.0515170098
 31
0.0
  0
LINE
  5
E1
330
1F
100
AcDbEntity
  8
0
  6
Continuous
 62
     7
370
    25
100
AcDbLine
 10
219.9365695536
 20
391.2373034475
 30
0.0
 11
207.1365695536
 21
391.2373034475
 31
0.0
  0
LINE
  5
E2
330
1F
100
AcDbEntity
  8
0
  6
Continuous
 62
     7
370
    25
100
AcDbLine
 10
219.9365695536
 20
373.1444102286
 30
0.0
 11
219.9365695536
 21
391.2373034475
 31
0.0
  0
LINE
  5
E3
330
1F
100
AcDbEntity
  8
0
  6
Continuous
 62
     7
370
    25
100
AcDbLine
 10
232.9365695536
 20
373.1444102286
 30
0.0
 11
219.9365695536
 21
373.1444102286
 31
0.0
  0
ARC
  5
E4
330
1F
100
AcDbEntity
  8
0
  6
Continuous
 62
     7
370
    25
100
AcDbCircle
 10
232.9365695536
 20
369.1444102286
 30
0.0
 40
4.0
100
AcDbArc
 50
0.0
 51
90.0
  0
ARC
  5
E5
330
1F
100
AcDbEntity
  8
0
  6
Continuous
 62
     7
370
    25
100
AcDbCircle
 10
221.9365695536
 20
291.1444102286
 30
0.0
 40
3.5
100
AcDbArc
 50
90.0
 51
270.0
  0
LINE
  5
E6
330
1F
100
AcDbEntity
  8
0
  6
Continuous
 62
     7
370
    25
100
AcDbLine
 10
229.9365695536
 20
287.6444102286
 30
0.0
 11
221.9365695536
 21
287.6444102286
 31
0.0
  0
ARC
  5
E7
330
1F
100
AcDbEntity
  8
0
  6
Continuous
 62
     7
370
    25
100
AcDbCircle
 10
229.9365695536
 20
291.1444102286
 30
0.0
 40
3.5
100
AcDbArc
 50
270.0
 51
90.0
  0
LINE
  5
E8
330
1F
100
AcDbEntity
  8
0
  6
Continuous
 62
     7
370
    25
100
AcDbLine
 10
221.9365695536
 20
294.6444102286
 30
0.0
 11
229.9365695536
 21
294.6444102286
 31
0.0
  0
ARC
  5
E9
330
1F
100
AcDbEntity
  8
0
  6
Continuous
 62
     7
370
    25
100
AcDbCircle
 10
221.9365695536
 20
366.1444102286
 30
0.0
 40
3.500000000000057
100
AcDbArc
 50
90.0
 51
270.0
  0
LINE
  5
EA
330
1F
100
AcDbEntity
  8
0
  6
Continuous
 62
     7
370
    25
100
AcDbLine
 10
229.9365695536
 20
362.6444102286
 30
0.0
 11
221.9365695536
 21
362.6444102286
 31
0.0
  0
ARC
  5
EB
330
1F
100
AcDbEntity
  8
0
  6
Continuous
 62
     7
370
    25
100
AcDbCircle
 10
229.9365695536
 20
366.1444102286
 30
0.0
 40
3.500000000000057
100
AcDbArc
 50
270.0
 51
90.0
  0
LINE
  5
EC
330
1F
100
AcDbEntity
  8
0
  6
Continuous
 62
     7
370
    25
100
AcDbLine
 10
221.9365695536
 20
369.6444102286
 30
0.0
 11
229.9365695536
 21
369.6444102286
 31
0.0
  0
LINE
  5
ED
330
1F
100
AcDbEntity
  8
0
  6
Continuous
 62
     7
370
    25
100
AcDbLine
 10
219.9365695536
 20
284.1444102286
 30
0.0
 11
232.9365695536
 21
284.1444102286
 31
0.0
  0
ARC
  5
EE
330
1F
100
AcDbEntity
  8
0
  6
Continuous
 62
     7
370
    25
100
AcDbCircle
 10
232.9365695536
 20
288.1444102286
 30
0.0
 40
4.0
100
AcDbArc
 50
270.0
 51
0.0
  0
LINE
  5
EF
330
1F
100
AcDbEntity
  8
0
  6
Continuous
 62
     7
370
    25
100
AcDbLine
 10
236.9365695536
 20
288.1444102286
 30
0.0
 11
236.9365695536
 21
369.1444102286
 31
0.0
  0
LINE
  5
F0
330
1F
100
AcDbEntity
  8
0
  6
Continuous
 62
     7
370
    25
100
AcDbLine
 10
204.9365695536
 20
266.3444102286
 30
0.0
 11
204.9365695536
 21
390.9444102286
 31
0.0
  0
SPLINE
  5
F1
330
1F
100
AcDbEntity
  8
0
  6
Continuous
 62
     7
370
    25
100
AcDbSpline
210
0.0
220
0.0
230
1.0
 70
     8
 71
     3
 72
    14
 73
    10
 74
     0
 42
0.000000001
 43
0.00000001
 40
0.0
 40
0.0
 40
0.0
 40
0.0
 40
0.25
 40
0.25
 40
0.5
 40
0.5
 40
0.75
 40
0.75
 40
1.0
 40
1.0
 40
1.0
 40
1.0
 10
204.9365695535672
 20
390.9444102286391
 30
0.0
 10
204.9365695535672
 20
390.9688179968736
 30
0.0
 10
204.9938296648969
 20
390.9932257651081
 30
0.0
 10
205.2142394991879
 20
391.0420413015769
 30
0.0
 10
205.3773025002913
 20
391.0664490698115
 30
0.0
 10
205.7845667696224
 20
391.1152646062803
 30
0.0
 10
206.0286077967513
 20
391.1396723745148
 30
0.0
 10
206.5607242079768
 20
391.1884879109837
 30
0.0
 10
206.8485902269882
 20
391.2128956792181
 30
0.0
 10
207.1365695535672
 20
391.2373034474526
 30
0.0
  0
SPLINE
  5
F2
330
1F
100
AcDbEntity
  8
0
  6
Continuous
 62
     7
370
    25
100
AcDbSpline
210
0.0
220
0.0
230
1.0
 70
     8
 71
     3
 72
    14
 73
    10
 74
     0
 42
0.000000001
 43
0.00000001
 40
0.0
 40
0.0
 40
0.0
 40
0.0
 40
0.25
 40
0.25
 40
0.5
 40
0.5
 40
0.75
 40
0.75
 40
1.0
 40
1.0
 40
1.0
 40
1.0
 10
207.1365695535672
 20
266.0515170098257
 30
0.0
 10
206.8485902269882
 20
266.0759247780602
 30
0.0
 10
206.5607242079768
 20
266.1003325462946
 30
0.0
 10
206.0286077967513
 20
266.1491480827635
 30
0.0
 10
205.7845667696224
 20
266.173555850998
 30
0.0
 10
205.3773025002913
 20
266.2223713874669
 30
0.0
 10
205.2142394991879
 20
266.2467791557013
 30
0.0
 10
204.9938296648969
 20
266.2955946921703
 30
0.0
 10
204.9365695535672
 20
266.3200024604047
 30
0.0
 10
204.9365695535672
 20
266.3444102286392
 30
0.0
  0
LINE
  5
F3
330
1F
100
AcDbEntity
  8
0
  6
Continuous
 62
     7
370
    25
100
AcDbLine
 10
207.1365695536
 20
391.9444102286
 30
0.0
 11
207.1365695536
 21
393.1444102286
 31
0.0
  0
LINE
  5
F4
330
1F
100
AcDbEntity
  8
0
  6
Continuous
 62
     7
370
    25
100
AcDbLine
 10
207.1365695536
 20
393.1444102286
 30
0.0
 11
219.9365695536
 21
393.1444102286
 31
0.0
  0
LINE
  5
F5
330
1F
100
AcDbEntity
  8
0
  6
Continuous
 62
     7
370
    25
100
AcDbLine
 10
219.9365695536
 20
391.9444102286
 30
0.0
 11
219.9365695536
 21
393.1444102286
 31
0.0
  0
LINE
  5
F6
330
1F
100
AcDbEntity
  8
0
  6
Continuous
 62
     7
370
    25
100
AcDbLine
 10
207.1365695536
 20
391.9444102286
 30
0.0
 11
219.9365695536
 21
391.9444102286
 31
0.0
  0
LINE
  5
F7
330
1F
100
AcDbEntity
  8
0
  6
Continuous
 62
     7
370
    25
100
AcDbLine
 10
207.1365695536
 20
265.3444102286
 30
0.0
 11
207.1365695536
 21
264.1444102286
 31
0.0
  0
LINE
  5
F8
330
1F
100
AcDbEntity
  8
0
  6
Continuous
 62
     7
370
    25
100
AcDbLine
 10
219.9365695536
 20
265.3444102286
 30
0.0
 11
207.1365695536
 21
265.3444102286
 31
0.0
  0
LINE
  5
F9
330
1F
100
AcDbEntity
  8
0
  6
Continuous
 62
     7
370
    25
100
AcDbLine
 10
219.9365695536
 20
264.1444102286
 30
0.0
 11
207.1365695536
 21
264.1444102286
 31
0.0
  0
LINE
  5
FA
330
1F
100
AcDbEntity
  8
0
  6
Continuous
 62
     7
370
    25
100
AcDbLine
 10
219.9365695536
 20
264.1444102286
 30
0.0
 11
219.9365695536
 21
265.3444102286
 31
0.0
  0
SPLINE
  5
FB
330
1F
100
AcDbEntity
  8
0
  6
Continuous
 62
     7
370
    25
100
AcDbSpline
210
0.0
220
0.0
230
1.0
 70
     8
 71
     3
 72
    11
 73
     7
 74
     0
 42
0.000000001
 43
0.00000001
 40
0.0
 40
0.0
 40
0.0
 40
0.0
 40
0.2892444547946047
 40
0.5784889095892068
 40
0.8677333643838107
 40
1.0
 40
1.0
 40
1.0
 40
1.0
 10
207.1365695535672
 20
391.9444102286391
 30
0.0
 10
207.0052498841816
 20
391.929473645806
 30
0.0
 10
206.7426105454104
 20
391.8996004801396
 30
0.0
 10
206.4163049920039
 20
391.6669264177052
 30
0.0
 10
206.2136947242203
 20
391.4006138357786
 30
0.0
 10
206.1864352137432
 20
391.21145530512
 30
0.0
 10
206.1778814085852
 20
391.1520989488639
 30
0.0
  0
SPLINE
  5
FC
330
1F
100
AcDbEntity
  8
0
  6
Continuous
 62
     7
370
    25
100
AcDbSpline
210
0.0
220
0.0
230
1.0
 70
     8
 71
     3
 72
    14
 73
    10
 74
     0
 42
0.000000001
 43
0.00000001
 40
0.0
 40
0.0
 40
0.0
 40
0.0
 40
0.25
 40
0.25
 40
0.5
 40
0.5
 40
0.75
 40
0.75
 40
1.0
 40
1.0
 40
1.0
 40
1.0
 10
207.1365695535672
 20
393.1444102286392
 30
0.0
 10
206.8485902269881
 20
393.1444102286392
 30
0.0
 10
206.5607242079768
 20
393.0871501173094
 30
0.0
 10
206.0286077967513
 20
392.8667402830185
 30
0.0
 10
205.7845667696224
 20
392.7036772819151
 30
0.0
 10
205.3773025002913
 20
392.296413012584
 30
0.0
 10
205.2142394991878
 20
392.0523719854551
 30
0.0
 10
204.9938296648969
 20
391.5202555742296
 30
0.0
 10
204.9365695535672
 20
391.2323895552182
 30
0.0
 10
204.9365695535672
 20
390.9444102286391
 30
0.0
  0
SPLINE
  5
FD
330
1F
100
AcDbEntity
  8
0
  6
Continuous
 62
     7
370
    25
100
AcDbSpline
210
0.0
220
0.0
230
1.0
 70
     8
 71
     3
 72
    11
 73
     7
 74
     0
 42
0.000000001
 43
0.00000001
 40
0.0
 40
0.0
 40
0.0
 40
0.0
 40
0.1322666356161903
 40
0.4215110904107925
 40
0.7107555452053931
 40
1.0
 40
1.0
 40
1.0
 40
1.0
 10
206.1778814085852
 20
266.1367215084145
 30
0.0
 10
206.1864352137432
 20
266.0773651521583
 30
0.0
 10
206.2136947242203
 20
265.8882066214997
 30
0.0
 10
206.4163049920039
 20
265.6218940395731
 30
0.0
 10
206.7426105454104
 20
265.3892199771388
 30
0.0
 10
207.0052498841816
 20
265.3593468114724
 30
0.0
 10
207.1365695535672
 20
265.3444102286392
 30
0.0
  0
SPLINE
  5
FE
330
1F
100
AcDbEntity
  8
0
  6
Continuous
 62
     7
370
    25
100
AcDbSpline
210
0.0
220
0.0
230
1.0
 70
     8
 71
     3
 72
    14
 73
    10
 74
     0
 42
0.000000001
 43
0.00000001
 40
0.0
 40
0.0
 40
0.0
 40
0.0
 40
0.25
 40
0.25
 40
0.5
 40
0.5
 40
0.75
 40
0.75
 40
1.0
 40
1.0
 40
1.0
 40
1.0
 10
204.9365695535672
 20
266.3444102286392
 30
0.0
 10
204.9365695535672
 20
266.0564309020601
 30
0.0
 10
204.9938296648969
 20
265.7685648830487
 30
0.0
 10
205.2142394991878
 20
265.2364484718232
 30
0.0
 10
205.3773025002913
 20
264.9924074446944
 30
0.0
 10
205.7845667696224
 20
264.5851431753632
 30
0.0
 10
206.0286077967513
 20
264.4220801742598
 30
0.0
 10
206.5607242079768
 20
264.2016703399689
 30
0.0
 10
206.8485902269881
 20
264.1444102286392
 30
0.0
 10
207.1365695535672
 20
264.1444102286392
 30
0.0
  0
ENDSEC
  0
SECTION
  2
OBJECTS
  0
DICTIONARY
  5
C
330
0
100
AcDbDictionary
281
     1
  3
ACAD_GROUP
350
D
  3
ACAD_LAYOUT
350
1A
  3
ACAD_MLINESTYLE
350
17
  3
ACAD_PLOTSETTINGS
350
19
  3
ACAD_PLOTSTYLENAME
350
E
  3
ACAD_SCALELIST
350
47
  0
DICTIONARY
  5
D
102
{ACAD_REACTORS
330
C
102
}
330
C
100
AcDbDictionary
281
     1
  0
DICTIONARY
  5
1A
102
{ACAD_REACTORS
330
C
102
}
330
C
100
AcDbDictionary
281
     1
  3
Layout1
350
1E
  3
Layout2
350
26
  3
Model
350
22
  0
DICTIONARY
  5
17
102
{ACAD_REACTORS
330
C
102
}
330
C
100
AcDbDictionary
281
     1
  3
Standard
350
18
  0
DICTIONARY
  5
19
102
{ACAD_REACTORS
330
C
102
}
330
C
100
AcDbDictionary
281
     1
  0
ACDBDICTIONARYWDFLT
  5
E
102
{ACAD_REACTORS
330
C
102
}
330
C
100
AcDbDictionary
281
     1
  3
Normal
350
F
100
AcDbDictionaryWithDefault
340
F
  0
DICTIONARY
  5
47
102
{ACAD_REACTORS
330
C
102
}
330
C
100
AcDbDictionary
281
     1
  3
A0
350
48
  3
A1
350
49
  3
A2
350
4A
  3
A3
350
4B
  3
A4
350
4C
  3
A5
350
4D
  3
A6
350
4E
  3
A7
350
4F
  3
A8
350
50
  3
A9
350
51
  3
B0
350
52
  3
B1
350
53
  3
B2
350
54
  3
B3
350
55
  3
B4
350
56
  3
B5
350
57
  3
B6
350
58
  3
B7
350
59
  3
B8
350
5A
  3
B9
350
5B
  3
C0
350
5C
  3
C1
350
5D
  3
C2
350
5E
  3
C3
350
5F
  3
C4
350
60
  3
C5
350
61
  3
C6
350
62
  3
C7
350
63
  3
C8
350
64
  3
C9
350
65
  3
D0
350
66
  3
D1
350
67
  3
D2
350
68
  0
LAYOUT
  5
1E
102
{ACAD_REACTORS
330
1A
102
}
330
1A
100
AcDbPlotSettings
  1

  2
none_device
  4

  6

 40
0.0
 41
0.0
 42
0.0
 43
0.0
 44
0.0
 45
0.0
 46
0.0
 47
0.0
 48
0.0
 49
0.0
140
0.0
141
0.0
142
1.0
143
1.0
 70
   688
 72
     1
 73
     0
 74
     5
  7

 75
    16
147
1.0
148
0.0
149
0.0
100
AcDbLayout
  1
Layout1
 70
     1
 71
     1
 10
0.0
 20
0.0
 11
420.0
 21
297.0
 12
0.0
 22
0.0
 32
0.0
 14
1.0000000000E+20
 24
1.0000000000E+20
 34
1.0000000000E+20
 15
-1.0000000000E+20
 25
-1.0000000000E+20
 35
-1.0000000000E+20
146
0.0
 13
0.0
 23
0.0
 33
0.0
 16
1.0
 26
0.0
 36
0.0
 17
0.0
 27
1.0
 37
0.0
 76
     0
330
1B
  0
LAYOUT
  5
26
102
{ACAD_REACTORS
330
1A
102
}
330
1A
100
AcDbPlotSettings
  1

  2
none_device
  4

  6

 40
0.0
 41
0.0
 42
0.0
 43
0.0
 44
0.0
 45
0.0
 46
0.0
 47
0.0
 48
0.0
 49
0.0
140
0.0
141
0.0
142
1.0
143
1.0
 70
   688
 72
     1
 73
     0
 74
     5
  7

 75
    16
147
1.0
148
0.0
149
0.0
100
AcDbLayout
  1
Layout2
 70
     1
 71
     2
 10
0.0
 20
0.0
 11
0.0
 21
0.0
 12
0.0
 22
0.0
 32
0.0
 14
0.0
 24
0.0
 34
0.0
 15
0.0
 25
0.0
 35
0.0
146
0.0
 13
0.0
 23
0.0
 33
0.0
 16
1.0
 26
0.0
 36
0.0
 17
0.0
 27
1.0
 37
0.0
 76
     0
330
23
  0
LAYOUT
  5
22
102
{ACAD_REACTORS
330
1A
102
}
330
1A
100
AcDbPlotSettings
  1

  2
none_device
  4
Letter_(8.50_x_11.00_Inches)
  6

 40
6.35
 41
6.35
 42
6.35000508
 43
6.35000508
 44
215.9
 45
279.4
 46
0.0
 47
0.0
 48
0.0
 49
0.0
140
0.0
141
0.0
142
1.0
143
1.0
 70
  1712
 72
     1
 73
     0
 74
     0
  7

 75
     0
147
1.0
148
0.0
149
0.0
100
AcDbLayout
  1
Model
 70
     1
 71
     0
 10
0.0
 20
0.0
 11
841.0
 21
594.0
 12
0.0
 22
0.0
 32
0.0
 14
0.0
 24
0.0
 34
0.0
 15
841.0
 25
594.0
 35
0.0
146
0.0
 13
0.0
 23
0.0
 33
0.0
 16
1.0
 26
0.0
 36
0.0
 17
0.0
 27
1.0
 37
0.0
 76
     0
330
1F
331
29
  0
MLINESTYLE
  5
18
102
{ACAD_REACTORS
330
17
102
}
330
17
100
AcDbMlineStyle
  2
Standard
 70
     0
  3

 62
   256
 51
90.0
 52
90.0
 71
     2
 49
0.5
 62
   256
  6
BYLAYER
 49
-0.5
 62
   256
  6
BYLAYER
  0
ACDBPLACEHOLDER
  5
F
102
{ACAD_REACTORS
330
E
102
}
330
E
  0
SCALE
  5
48
102
{ACAD_REACTORS
330
47
102
}
330
47
100
AcDbScale
 70
     0
300
1:1
140
1.0
141
1.0
290
     1
  0
SCALE
  5
49
102
{ACAD_REACTORS
330
47
102
}
330
47
100
AcDbScale
 70
     0
300
1:2
140
1.0
141
2.0
290
     0
  0
SCALE
  5
4A
102
{ACAD_REACTORS
330
47
102
}
330
47
100
AcDbScale
 70
     0
300
1:4
140
1.0
141
4.0
290
     0
  0
SCALE
  5
4B
102
{ACAD_REACTORS
330
47
102
}
330
47
100
AcDbScale
 70
     0
300
1:5
140
1.0
141
5.0
290
     0
  0
SCALE
  5
4C
102
{ACAD_REACTORS
330
47
102
}
330
47
100
AcDbScale
 70
     0
300
1:8
140
1.0
141
8.0
290
     0
  0
SCALE
  5
4D
102
{ACAD_REACTORS
330
47
102
}
330
47
100
AcDbScale
 70
     0
300
1:10
140
1.0
141
10.0
290
     0
  0
SCALE
  5
4E
102
{ACAD_REACTORS
330
47
102
}
330
47
100
AcDbScale
 70
     0
300
1:16
140
1.0
141
16.0
290
     0
  0
SCALE
  5
4F
102
{ACAD_REACTORS
330
47
102
}
330
47
100
AcDbScale
 70
     0
300
1:20
140
1.0
141
20.0
290
     0
  0
SCALE
  5
50
102
{ACAD_REACTORS
330
47
102
}
330
47
100
AcDbScale
 70
     0
300
1:30
140
1.0
141
30.0
290
     0
  0
SCALE
  5
51
102
{ACAD_REACTORS
330
47
102
}
330
47
100
AcDbScale
 70
     0
300
1:40
140
1.0
141
40.0
290
     0
  0
SCALE
  5
52
102
{ACAD_REACTORS
330
47
102
}
330
47
100
AcDbScale
 70
     0
300
1:50
140
1.0
141
50.0
290
     0
  0
SCALE
  5
53
102
{ACAD_REACTORS
330
47
102
}
330
47
100
AcDbScale
 70
     0
300
1:100
140
1.0
141
100.0
290
     0
  0
SCALE
  5
54
102
{ACAD_REACTORS
330
47
102
}
330
47
100
AcDbScale
 70
     0
300
2:1
140
2.0
141
1.0
290
     0
  0
SCALE
  5
55
102
{ACAD_REACTORS
330
47
102
}
330
47
100
AcDbScale
 70
     0
300
4:1
140
4.0
141
1.0
290
     0
  0
SCALE
  5
56
102
{ACAD_REACTORS
330
47
102
}
330
47
100
AcDbScale
 70
     0
300
8:1
140
8.0
141
1.0
290
     0
  0
SCALE
  5
57
102
{ACAD_REACTORS
330
47
102
}
330
47
100
AcDbScale
 70
     0
300
10:1
140
10.0
141
1.0
290
     0
  0
SCALE
  5
58
102
{ACAD_REACTORS
330
47
102
}
330
47
100
AcDbScale
 70
     0
300
100:1
140
100.0
141
1.0
290
     0
  0
SCALE
  5
59
102
{ACAD_REACTORS
330
47
102
}
330
47
100
AcDbScale
 70
     0
300
1/128" = 1'-0"
140
0.0078125
141
12.0
290
     0
  0
SCALE
  5
5A
102
{ACAD_REACTORS
330
47
102
}
330
47
100
AcDbScale
 70
     0
300
1/64" = 1'-0"
140
0.015625
141
12.0
290
     0
  0
SCALE
  5
5B
102
{ACAD_REACTORS
330
47
102
}
330
47
100
AcDbScale
 70
     0
300
1/32" = 1'-0"
140
0.03125
141
12.0
290
     0
  0
SCALE
  5
5C
102
{ACAD_REACTORS
330
47
102
}
330
47
100
AcDbScale
 70
     0
300
1/16" = 1'-0"
140
0.0625
141
12.0
290
     0
  0
SCALE
  5
5D
102
{ACAD_REACTORS
330
47
102
}
330
47
100
AcDbScale
 70
     0
300
3/32" = 1'-0"
140
0.09375
141
12.0
290
     0
  0
SCALE
  5
5E
102
{ACAD_REACTORS
330
47
102
}
330
47
100
AcDbScale
 70
     0
300
1/8" = 1'-0"
140
0.125
141
12.0
290
     0
  0
SCALE
  5
5F
102
{ACAD_REACTORS
330
47
102
}
330
47
100
AcDbScale
 70
     0
300
3/16" = 1'-0"
140
0.1875
141
12.0
290
     0
  0
SCALE
  5
60
102
{ACAD_REACTORS
330
47
102
}
330
47
100
AcDbScale
 70
     0
300
1/4" = 1'-0"
140
0.25
141
12.0
290
     0
  0
SCALE
  5
61
102
{ACAD_REACTORS
330
47
102
}
330
47
100
AcDbScale
 70
     0
300
3/8" = 1'-0"
140
0.375
141
12.0
290
     0
  0
SCALE
  5
62
102
{ACAD_REACTORS
330
47
102
}
330
47
100
AcDbScale
 70
     0
300
1/2" = 1'-0"
140
0.5
141
12.0
290
     0
  0
SCALE
  5
63
102
{ACAD_REACTORS
330
47
102
}
330
47
100
AcDbScale
 70
     0
300
3/4" = 1'-0"
140
0.75
141
12.0
290
     0
  0
SCALE
  5
64
102
{ACAD_REACTORS
330
47
102
}
330
47
100
AcDbScale
 70
     0
300
1" = 1'-0"
140
1.0
141
12.0
290
     0
  0
SCALE
  5
65
102
{ACAD_REACTORS
330
47
102
}
330
47
100
AcDbScale
 70
     0
300
1-1/2" = 1'-0"
140
1.5
141
12.0
290
     0
  0
SCALE
  5
66
102
{ACAD_REACTORS
330
47
102
}
330
47
100
AcDbScale
 70
     0
300
3" = 1'-0"
140
3.0
141
12.0
290
     0
  0
SCALE
  5
67
102
{ACAD_REACTORS
330
47
102
}
330
47
100
AcDbScale
 70
     0
300
6" = 1'-0"
140
6.0
141
12.0
290
     0
  0
SCALE
  5
68
102
{ACAD_REACTORS
330
47
102
}
330
47
100
AcDbScale
 70
     0
300
1'-0" = 1'-0"
140
12.0
141
12.0
290
     0
  0
ENDSEC
  0
EOF
