  0
SECTION
  2
HEADER
  9
$ACADVER
  1
AC1015
  9
$ACADMAINTVER
 70
     6
  9
$DWGCODEPAGE
  3
ANSI_1251
  9
$INSBASE
 10
0.0
 20
0.0
 30
0.0
  9
$EXTMIN
 10
0.0
 20
0.0
 30
0.0
  9
$EXTMAX
 10
841.0
 20
594.0
 30
0.0
  9
$LIMMIN
 10
0.0
 20
0.0
  9
$LIMMAX
 10
841.0
 20
594.0
  9
$ORTHOMODE
 70
     0
  9
$REGENMODE
 70
     1
  9
$FILLMODE
 70
     1
  9
$QTEXTMODE
 70
     0
  9
$MIRRTEXT
 70
     1
  9
$LTSCALE
 40
1.0
  9
$ATTMODE
 70
     1
  9
$TEXTSIZE
 40
3.5
  9
$TRACEWID
 40
1.0
  9
$TEXTSTYLE
  7
Standard
  9
$CLAYER
  8
0
  9
$CELTYPE
  6
ByLayer
  9
$CECOLOR
 62
   256
  9
$CELTSCALE
 40
1.0
  9
$DISPSILH
 70
     0
  9
$DIMSCALE
 40
1.0
  9
$DIMASZ
 40
3.5
  9
$DIMEXO
 40
0.01
  9
$DIMDLI
 40
3.75
  9
$DIMRND
 40
0.0
  9
$DIMDLE
 40
0.0
  9
$DIMEXE
 40
1.0
  9
$DIMTP
 40
0.0
  9
$DIMTM
 40
0.0
  9
$DIMTXT
 40
3.5
  9
$DIMCEN
 40
2.5
  9
$DIMTSZ
 40
0.0
  9
$DIMTOL
 70
     0
  9
$DIMLIM
 70
     0
  9
$DIMTIH
 70
     1
  9
$DIMTOH
 70
     1
  9
$DIMSE1
 70
     0
  9
$DIMSE2
 70
     0
  9
$DIMTAD
 70
     1
  9
$DIMZIN
 70
     0
  9
$DIMBLK
  1

  9
$DIMASO
 70
     1
  9
$DIMSHO
 70
     1
  9
$DIMPOST
  1

  9
$DIMAPOST
  1

  9
$DIMALT
 70
     0
  9
$DIMALTD
 70
     3
  9
$DIMALTF
 40
0.0393700787
  9
$DIMLFAC
 40
1.0
  9
$DIMTOFL
 70
     1
  9
$DIMTVP
 40
0.0
  9
$DIMTIX
 70
     0
  9
$DIMSOXD
 70
     0
  9
$DIMSAH
 70
     0
  9
$DIMBLK1
  1

  9
$DIMBLK2
  1

  9
$DIMSTYLE
  2
ISO-25
  9
$DIMCLRD
 70
     0
  9
$DIMCLRE
 70
     0
  9
$DIMCLRT
 70
     0
  9
$DIMTFAC
 40
1.0
  9
$DIMGAP
 40
3.0
  9
$DIMJUST
 70
     0
  9
$DIMSD1
 70
     0
  9
$DIMSD2
 70
     0
  9
$DIMTOLJ
 70
     0
  9
$DIMTZIN
 70
     0
  9
$DIMALTZ
 70
     0
  9
$DIMALTTZ
 70
     0
  9
$DIMUPT
 70
     0
  9
$DIMDEC
 70
     2
  9
$DIMTDEC
 70
     3
  9
$DIMALTU
 70
     2
  9
$DIMALTTD
 70
     3
  9
$DIMTXSTY
  7
Standard
  9
$DIMAUNIT
 70
     0
  9
$DIMADEC
 70
     2
  9
$DIMALTRND
 40
0.0
  9
$DIMAZIN
 70
     0
  9
$DIMDSEP
 70
    44
  9
$DIMATFIT
 70
     3
  9
$DIMFRAC
 70
     0
  9
$DIMLDRBLK
  1

  9
$DIMLUNIT
 70
     2
  9
$DIMLWD
 70
    -2
  9
$DIMLWE
 70
    -2
  9
$DIMTMOVE
 70
     0
  9
$LUNITS
 70
     2
  9
$LUPREC
 70
     2
  9
$SKETCHINC
 40
1.0
  9
$FILLETRAD
 40
10.0
  9
$AUNITS
 70
     0
  9
$AUPREC
 70
     2
  9
$MENU
  1
.
  9
$ELEVATION
 40
0.0
  9
$PELEVATION
 40
0.0
  9
$THICKNESS
 40
0.0
  9
$LIMCHECK
 70
     0
  9
$CHAMFERA
 40
0.0
  9
$CHAMFERB
 40
0.0
  9
$CHAMFERC
 40
0.0
  9
$CHAMFERD
 40
0.0
  9
$SKPOLY
 70
     0
  9
$TDCREATE
 40
2459732.592128623
  9
$TDUCREATE
 40
2459732.467128623
  9
$TDUPDATE
 40
2459732.592130232
  9
$TDUUPDATE
 40
2459732.467130232
  9
$TDINDWG
 40
0.0000000116
  9
$TDUSRTIMER
 40
0.0000000116
  9
$USRTIMER
 70
     1
  9
$ANGBASE
 50
0.0
  9
$ANGDIR
 70
     0
  9
$PDMODE
 70
     0
  9
$PDSIZE
 40
-1.0
  9
$PLINEWID
 40
0.0
  9
$SPLFRAME
 70
     0
  9
$SPLINETYPE
 70
     6
  9
$SPLINESEGS
 70
     8
  9
$HANDSEED
  5
4CD
  9
$SURFTAB1
 70
     6
  9
$SURFTAB2
 70
     6
  9
$SURFTYPE
 70
     6
  9
$SURFU
 70
     6
  9
$SURFV
 70
     6
  9
$UCSBASE
  2

  9
$UCSNAME
  2

  9
$UCSORG
 10
0.0
 20
0.0
 30
0.0
  9
$UCSXDIR
 10
1.0
 20
0.0
 30
0.0
  9
$UCSYDIR
 10
0.0
 20
1.0
 30
0.0
  9
$UCSORTHOREF
  2

  9
$UCSORTHOVIEW
 70
     0
  9
$UCSORGTOP
 10
0.0
 20
0.0
 30
0.0
  9
$UCSORGBOTTOM
 10
0.0
 20
0.0
 30
0.0
  9
$UCSORGLEFT
 10
0.0
 20
0.0
 30
0.0
  9
$UCSORGRIGHT
 10
0.0
 20
0.0
 30
0.0
  9
$UCSORGFRONT
 10
0.0
 20
0.0
 30
0.0
  9
$UCSORGBACK
 10
0.0
 20
0.0
 30
0.0
  9
$PUCSBASE
  2

  9
$PUCSNAME
  2

  9
$PUCSORG
 10
0.0
 20
0.0
 30
0.0
  9
$PUCSXDIR
 10
1.0
 20
0.0
 30
0.0
  9
$PUCSYDIR
 10
0.0
 20
1.0
 30
0.0
  9
$PUCSORTHOREF
  2

  9
$PUCSORTHOVIEW
 70
     0
  9
$PUCSORGTOP
 10
0.0
 20
0.0
 30
0.0
  9
$PUCSORGBOTTOM
 10
0.0
 20
0.0
 30
0.0
  9
$PUCSORGLEFT
 10
0.0
 20
0.0
 30
0.0
  9
$PUCSORGRIGHT
 10
0.0
 20
0.0
 30
0.0
  9
$PUCSORGFRONT
 10
0.0
 20
0.0
 30
0.0
  9
$PUCSORGBACK
 10
0.0
 20
0.0
 30
0.0
  9
$USERI1
 70
     0
  9
$USERI2
 70
     0
  9
$USERI3
 70
     0
  9
$USERI4
 70
     0
  9
$USERI5
 70
     0
  9
$USERR1
 40
0.0
  9
$USERR2
 40
0.0
  9
$USERR3
 40
0.0
  9
$USERR4
 40
0.0
  9
$USERR5
 40
0.0
  9
$WORLDVIEW
 70
     1
  9
$SHADEDGE
 70
     3
  9
$SHADEDIF
 70
    70
  9
$TILEMODE
 70
     1
  9
$MAXACTVP
 70
    64
  9
$PINSBASE
 10
0.0
 20
0.0
 30
0.0
  9
$PLIMCHECK
 70
     0
  9
$PEXTMIN
 10
1.0000000000E+20
 20
1.0000000000E+20
 30
1.0000000000E+20
  9
$PEXTMAX
 10
-1.0000000000E+20
 20
-1.0000000000E+20
 30
-1.0000000000E+20
  9
$PLIMMIN
 10
0.0
 20
0.0
  9
$PLIMMAX
 10
420.0
 20
297.0
  9
$UNITMODE
 70
     0
  9
$VISRETAIN
 70
     1
  9
$PLINEGEN
 70
     0
  9
$PSLTSCALE
 70
     1
  9
$TREEDEPTH
 70
  3020
  9
$CMLSTYLE
  2
Standard
  9
$CMLJUST
 70
     0
  9
$CMLSCALE
 40
20.0
  9
$PROXYGRAPHICS
 70
     1
  9
$MEASUREMENT
 70
     1
  9
$CELWEIGHT
370
    -1
  9
$ENDCAPS
280
     0
  9
$JOINSTYLE
280
     0
  9
$LWDISPLAY
290
     1
  9
$INSUNITS
 70
     4
  9
$HYPERLINKBASE
  1

  9
$STYLESHEET
  1

  9
$XEDIT
290
     1
  9
$CEPSNTYPE
380
     0
  9
$PSTYLEMODE
290
     1
  9
$FINGERPRINTGUID
  2
{524737F8-F2E9-42C5-857A-53C561312F2C}
  9
$VERSIONGUID
  2
{FAEB1C32-E019-11D5-929B-00C0DF256EC4}
  9
$EXTNAMES
290
     1
  9
$PSVPSCALE
 40
0.0
  9
$OLESTARTUP
290
     0
  0
ENDSEC
  0
SECTION
  2
CLASSES
  0
CLASS
  1
ACDBDICTIONARYWDFLT
  2
AcDbDictionaryWithDefault
  3
ObjectDBX Classes
 90
        0
280
     0
281
     0
  0
CLASS
  1
VISUALSTYLE
  2
AcDbVisualStyle
  3
ObjectDBX Classes
 90
     4095
280
     0
281
     0
  0
CLASS
  1
MATERIAL
  2
AcDbMaterial
  3
ObjectDBX Classes
 90
     1153
280
     0
281
     0
  0
CLASS
  1
SCALE
  2
AcDbScale
  3
ObjectDBX Classes
 90
     1153
280
     0
281
     0
  0
CLASS
  1
TABLESTYLE
  2
AcDbTableStyle
  3
ObjectDBX Classes
 90
     4095
280
     0
281
     0
  0
CLASS
  1
MLEADERSTYLE
  2
AcDbMLeaderStyle
  3
ACDB_MLEADERSTYLE_CLASS
 90
     4095
280
     0
281
     0
  0
CLASS
  1
SUN
  2
AcDbSun
  3
SCENEOE
 90
     1153
280
     0
281
     0
  0
CLASS
  1
ACDBPLACEHOLDER
  2
AcDbPlaceHolder
  3
ObjectDBX Classes
 90
        0
280
     0
281
     0
  0
CLASS
  1
LAYOUT
  2
AcDbLayout
  3
ObjectDBX Classes
 90
        0
280
     0
281
     0
  0
ENDSEC
  0
SECTION
  2
TABLES
  0
TABLE
  2
VPORT
  5
8
330
0
100
AcDbSymbolTable
 70
     1
  0
VPORT
  5
29
330
8
100
AcDbSymbolTableRecord
100
AcDbViewportTableRecord
  2
*Active
 70
     0
 10
0.0
 20
0.0
 11
1.0
 21
1.0
 12
420.5
 22
297.0
 13
0.0
 23
0.0
 14
10.0
 24
10.0
 15
10.0
 25
10.0
 16
0.0
 26
0.0
 36
1.0
 17
0.0
 27
0.0
 37
0.0
 40
594.0
 41
1.4158249158
 42
50.0
 43
0.0
 44
0.0
 50
0.0
 51
0.0
 71
     0
 72
  2000
 73
     1
 74
     3
 75
     0
 76
     0
 77
     0
 78
     0
281
     0
 65
     1
110
0.0
120
0.0
130
0.0
111
1.0
121
0.0
131
0.0
112
0.0
122
1.0
132
0.0
 79
     0
146
0.0
  0
ENDTAB
  0
TABLE
  2
LTYPE
  5
5
330
0
100
AcDbSymbolTable
 70
     6
  0
LTYPE
  5
14
330
5
100
AcDbSymbolTableRecord
100
AcDbLinetypeTableRecord
  2
ByBlock
 70
     0
  3

 72
    65
 73
     0
 40
0.0
  0
LTYPE
  5
15
330
5
100
AcDbSymbolTableRecord
100
AcDbLinetypeTableRecord
  2
ByLayer
 70
     0
  3

 72
    65
 73
     0
 40
0.0
  0
LTYPE
  5
16
330
5
100
AcDbSymbolTableRecord
100
AcDbLinetypeTableRecord
  2
Continuous
 70
     0
  3
Solid line
 72
    65
 73
     0
 40
0.0
  0
LTYPE
  5
6E
330
5
100
AcDbSymbolTableRecord
100
AcDbLinetypeTableRecord
  2
HIDDEN
 70
     0
  3
Hidden __ __ __ __ __ __ __ __ __ __ __ __ __ __
 72
    65
 73
     2
 40
1.905
 49
1.27
 74
     0
 49
-0.635
 74
     0
  0
LTYPE
  5
6F
330
5
100
AcDbSymbolTableRecord
100
AcDbLinetypeTableRecord
  2
PHANTOM
 70
     0
  3
Phantom ______  __  __  ______  __  __  ______
 72
    65
 73
     6
 40
12.7
 49
6.35
 74
     0
 49
-1.27
 74
     0
 49
1.27
 74
     0
 49
-1.27
 74
     0
 49
1.27
 74
     0
 49
-1.27
 74
     0
  0
LTYPE
  5
70
330
5
100
AcDbSymbolTableRecord
100
AcDbLinetypeTableRecord
  2
CENTER
 70
     0
  3
Center ____ _ ____ _ ____ _ ____ _ ____ _ ____
 72
    65
 73
     4
 40
10.16
 49
6.35
 74
     0
 49
-1.27
 74
     0
 49
1.27
 74
     0
 49
-1.27
 74
     0
  0
LTYPE
  5
71
330
5
100
AcDbSymbolTableRecord
100
AcDbLinetypeTableRecord
  2
CENTERX2
 70
     0
  3
Center (2x) ________  __  ________  __  _____
 72
    65
 73
     4
 40
20.32
 49
12.7
 74
     0
 49
-2.54
 74
     0
 49
2.54
 74
     0
 49
-2.54
 74
     0
  0
LTYPE
  5
72
330
5
100
AcDbSymbolTableRecord
100
AcDbLinetypeTableRecord
  2
DOT2
 70
     0
  3
Dot (.5x) ........................................
 72
    65
 73
     2
 40
0.635
 49
0.0
 74
     0
 49
-0.635
 74
     0
  0
ENDTAB
  0
TABLE
  2
LAYER
  5
2
330
0
100
AcDbSymbolTable
 70
     1
  0
LAYER
  5
10
330
2
100
AcDbSymbolTableRecord
100
AcDbLayerTableRecord
  2
0
 70
     0
 62
     7
  6
Continuous
370
    -3
390
F
  0
ENDTAB
  0
TABLE
  2
STYLE
  5
3
330
0
100
AcDbSymbolTable
 70
     1
  0
STYLE
  5
11
330
3
100
AcDbSymbolTableRecord
100
AcDbTextStyleTableRecord
  2
Standard
 70
     0
 40
0.0
 41
1.0
 50
0.0
 71
     0
 42
3.5
  3
txt
  4

  0
ENDTAB
  0
TABLE
  2
VIEW
  5
6
330
0
100
AcDbSymbolTable
 70
     0
  0
ENDTAB
  0
TABLE
  2
UCS
  5
7
330
0
100
AcDbSymbolTable
 70
     0
  0
ENDTAB
  0
TABLE
  2
APPID
  5
9
330
0
100
AcDbSymbolTable
 70
     1
  0
APPID
  5
12
330
9
100
AcDbSymbolTableRecord
100
AcDbRegAppTableRecord
  2
ACAD
 70
     0
  0
ENDTAB
  0
TABLE
  2
DIMSTYLE
  5
A
330
0
100
AcDbSymbolTable
 70
     1
100
AcDbDimStyleTable
  0
DIMSTYLE
105
27
330
A
100
AcDbSymbolTableRecord
100
AcDbDimStyleTableRecord
  2
ISO-25
 70
     0
 41
2.5
 42
0.625
 43
3.75
 44
1.25
 73
     0
 74
     0
 77
     1
 78
     8
140
2.5
141
2.5
143
0.0393700787
147
0.625
171
     3
172
     1
178
     0
271
     2
272
     2
274
     3
278
    44
283
     0
284
     8
340
11
  0
ENDTAB
  0
TABLE
  2
BLOCK_RECORD
  5
1
330
0
100
AcDbSymbolTable
 70
     1
  0
BLOCK_RECORD
  5
1F
330
1
100
AcDbSymbolTableRecord
100
AcDbBlockTableRecord
  2
*Model_Space
340
22
  0
BLOCK_RECORD
  5
1B
330
1
100
AcDbSymbolTableRecord
100
AcDbBlockTableRecord
  2
*Paper_Space
340
1E
  0
BLOCK_RECORD
  5
23
330
1
100
AcDbSymbolTableRecord
100
AcDbBlockTableRecord
  2
*Paper_Space0
340
26
  0
ENDTAB
  0
ENDSEC
  0
SECTION
  2
BLOCKS
  0
BLOCK
  5
20
330
1F
100
AcDbEntity
  8
0
100
AcDbBlockBegin
  2
*Model_Space
 70
     0
 10
0.0
 20
0.0
 30
0.0
  3
*Model_Space
  1

  0
ENDBLK
  5
21
330
1F
100
AcDbEntity
  8
0
100
AcDbBlockEnd
  0
BLOCK
  5
1C
330
1B
100
AcDbEntity
 67
     1
  8
0
100
AcDbBlockBegin
  2
*Paper_Space
 70
     0
 10
0.0
 20
0.0
 30
0.0
  3
*Paper_Space
  1

  0
ENDBLK
  5
1D
330
1B
100
AcDbEntity
 67
     1
  8
0
100
AcDbBlockEnd
  0
BLOCK
  5
24
330
23
100
AcDbEntity
  8
0
100
AcDbBlockBegin
  2
*Paper_Space0
 70
     0
 10
0.0
 20
0.0
 30
0.0
  3
*Paper_Space0
  1

  0
ENDBLK
  5
25
330
23
100
AcDbEntity
  8
0
100
AcDbBlockEnd
  0
ENDSEC
  0
SECTION
  2
ENTITIES
  0
ARC
  5
73
330
1F
100
AcDbEntity
  8
0
  6
Continuous
 62
     7
370
    25
100
AcDbCircle
 10
764.4433501725
 20
413.028893827
 30
0.0
 40
0.5
100
AcDbArc
 50
180.0
 51
0.0
  0
ARC
  5
74
330
1F
100
AcDbEntity
  8
0
  6
Continuous
 62
     7
370
    25
100
AcDbCircle
 10
764.4433501725
 20
424.6288938272
 30
0.0
 40
0.5000000000001137
100
AcDbArc
 50
360.0
 51
180.0
  0
LINE
  5
75
330
1F
100
AcDbEntity
  8
0
  6
Continuous
 62
     7
370
    25
100
AcDbLine
 10
759.9433501725
 20
413.8288938271
 30
0.0
 11
760.1539292275
 21
413.4641602049
 31
0.0
  0
LINE
  5
76
330
1F
100
AcDbEntity
  8
0
  6
Continuous
 62
     7
370
    25
100
AcDbLine
 10
774.4021001725
 20
421.8288938271
 30
0.0
 11
765.7433501725
 21
421.8288938271
 31
0.0
  0
LINE
  5
77
330
1F
100
AcDbEntity
  8
0
  6
Continuous
 62
     7
370
    25
100
AcDbLine
 10
765.7433501725
 20
415.8288938271
 30
0.0
 11
774.4021001725
 21
415.8288938271
 31
0.0
  0
LINE
  5
78
330
1F
100
AcDbEntity
  8
0
  6
Continuous
 62
     7
370
    25
100
AcDbLine
 10
774.4021001725
 20
415.8288938271
 30
0.0
 11
774.9433501725
 21
416.3701438271
 31
0.0
  0
LINE
  5
79
330
1F
100
AcDbEntity
  8
0
  6
Continuous
 62
     7
370
    25
100
AcDbLine
 10
774.9433501725
 20
421.2876438271
 30
0.0
 11
774.4021001725
 21
421.8288938271
 31
0.0
  0
LINE
  5
7A
330
1F
100
AcDbEntity
  8
0
  6
Continuous
 62
     7
370
    25
100
AcDbLine
 10
760.1539292275
 20
424.1936274493
 30
0.0
 11
759.9433501725
 21
423.8288938271
 31
0.0
  0
ARC
  5
7B
330
1F
100
AcDbEntity
  8
0
  6
Continuous
 62
     7
370
    25
100
AcDbCircle
 10
764.4433501725
 20
399.6288938272
 30
0.0
 40
0.5000000000000793
100
AcDbArc
 50
360.0
 51
113.5781784782
  0
LINE
  5
7C
330
1F
100
AcDbEntity
  8
0
  6
Continuous
 62
     7
370
    25
100
AcDbLine
 10
774.4021001725
 20
396.8288938271
 30
0.0
 11
765.7433501725
 21
396.8288938271
 31
0.0
  0
LINE
  5
7D
330
1F
100
AcDbEntity
  8
0
  6
Continuous
 62
     7
370
    25
100
AcDbLine
 10
774.4021001725
 20
390.8288938271
 30
0.0
 11
774.9433501725
 21
391.3701438271
 31
0.0
  0
LINE
  5
7E
330
1F
100
AcDbEntity
  8
0
  6
Continuous
 62
     7
370
    25
100
AcDbLine
 10
774.9433501725
 20
396.2876438271
 30
0.0
 11
774.4021001725
 21
396.8288938271
 31
0.0
  0
ARC
  5
7F
330
1F
100
AcDbEntity
  8
0
  6
Continuous
 62
     7
370
    25
100
AcDbCircle
 10
61.0433501725
 20
399.6288938272
 30
0.0
 40
0.5000000000000537
100
AcDbArc
 50
66.4218215218
 51
180.0
  0
LINE
  5
80
330
1F
100
AcDbEntity
  8
0
  6
Continuous
 62
     7
370
    25
100
AcDbLine
 10
51.0846001725
 20
396.8288938271
 30
0.0
 11
50.5433501725
 21
396.2876438271
 31
0.0
  0
LINE
  5
81
330
1F
100
AcDbEntity
  8
0
  6
Continuous
 62
     7
370
    25
100
AcDbLine
 10
50.5433501725
 20
391.3701438271
 30
0.0
 11
51.0846001725
 21
390.8288938271
 31
0.0
  0
LINE
  5
82
330
1F
100
AcDbEntity
  8
0
  6
Continuous
 62
     7
370
    25
100
AcDbLine
 10
59.7433501725
 20
396.8288938271
 30
0.0
 11
51.0846001725
 21
396.8288938271
 31
0.0
  0
ARC
  5
83
330
1F
100
AcDbEntity
  8
0
  6
Continuous
 62
     7
370
    25
100
AcDbCircle
 10
61.0433501725
 20
424.6288938272
 30
0.0
 40
0.5
100
AcDbArc
 50
0.0
 51
180.0
  0
ARC
  5
84
330
1F
100
AcDbEntity
  8
0
  6
Continuous
 62
     7
370
    25
100
AcDbCircle
 10
61.0433501725
 20
413.028893827
 30
0.0
 40
0.5000000000000071
100
AcDbArc
 50
180.0
 51
0.0
  0
LINE
  5
85
330
1F
100
AcDbEntity
  8
0
  6
Continuous
 62
     7
370
    25
100
AcDbLine
 10
51.0846001725
 20
415.8288938271
 30
0.0
 11
59.7433501725
 21
415.8288938271
 31
0.0
  0
LINE
  5
86
330
1F
100
AcDbEntity
  8
0
  6
Continuous
 62
     7
370
    25
100
AcDbLine
 10
59.7433501725
 20
421.8288938271
 30
0.0
 11
51.0846001725
 21
421.8288938271
 31
0.0
  0
LINE
  5
87
330
1F
100
AcDbEntity
  8
0
  6
Continuous
 62
     7
370
    25
100
AcDbLine
 10
51.0846001725
 20
421.8288938271
 30
0.0
 11
50.5433501725
 21
421.2876438271
 31
0.0
  0
LINE
  5
88
330
1F
100
AcDbEntity
  8
0
  6
Continuous
 62
     7
370
    25
100
AcDbLine
 10
50.5433501725
 20
416.3701438271
 30
0.0
 11
51.0846001725
 21
415.8288938271
 31
0.0
  0
SPLINE
  5
89
330
1F
100
AcDbEntity
  8
0
  6
Continuous
 62
     7
370
    25
100
AcDbSpline
210
0.0
220
0.0
230
1.0
 70
    24
 71
     3
 72
    16
 73
    12
 74
     0
 42
0.000000001
 43
0.00000001
 40
0.0
 40
0.0
 40
0.0
 40
0.0
 40
0.1658292928977489
 40
0.2550981074401226
 40
0.3462613343064169
 40
0.4374245611727097
 40
0.5266933757150837
 40
0.692522668612833
 40
0.8583519615105835
 40
0.9476207760529559
 40
0.9999999999999999
 40
0.9999999999999999
 40
0.9999999999999999
 40
0.9999999999999999
 10
763.943350172477
 20
422.5545834517303
 30
0.0
 10
763.943350172477
 20
421.9456756540553
 30
0.0
 10
763.943350172477
 20
421.0089821177198
 30
0.0
 10
763.9433501724768
 20
419.5091834264837
 30
0.0
 10
763.943350172477
 20
418.3172263466687
 30
0.0
 10
763.9433501724769
 20
417.1427980724624
 30
0.0
 10
763.9433501724769
 20
415.739184779175
 30
0.0
 10
763.9433501724768
 20
414.2718416983929
 30
0.0
 10
763.9433501724768
 20
413.3726543475722
 30
0.0
 10
763.9433501724768
 20
413.0448230204578
 30
0.0
 10
763.9433501724769
 20
413.0552134358982
 30
0.0
 10
763.9433501724769
 20
413.0590556486323
 30
0.0
  0
SPLINE
  5
8A
330
1F
100
AcDbEntity
  8
0
  6
Continuous
 62
     7
370
    25
100
AcDbSpline
210
0.0
220
0.0
230
1.0
 70
     8
 71
     3
 72
     8
 73
     4
 74
     0
 42
0.000000001
 43
0.00000001
 40
0.0
 40
0.0
 40
0.0
 40
0.0
 40
1.0
 40
1.0
 40
1.0
 40
1.0
 10
759.9433501724842
 20
419.6943883977137
 30
0.0
 10
759.9433501724842
 20
418.7239824618235
 30
0.0
 10
760.1176654728636
 20
417.7801361198923
 30
0.0
 10
760.3899321598755
 20
416.8512141652657
 30
0.0
  0
SPLINE
  5
8B
330
1F
100
AcDbEntity
  8
0
  6
Continuous
 62
     7
370
    25
100
AcDbSpline
210
0.0
220
0.0
230
1.0
 70
     8
 71
     3
 72
     8
 73
     4
 74
     0
 42
0.000000001
 43
0.00000001
 40
0.0
 40
0.0
 40
0.0
 40
0.0
 40
1.0
 40
1.0
 40
1.0
 40
1.0
 10
760.3899321598753
 20
422.5375626301616
 30
0.0
 10
760.117665472864
 20
421.6086406755367
 30
0.0
 10
759.9433501724842
 20
420.6647943336021
 30
0.0
 10
759.9433501724842
 20
419.6943883977137
 30
0.0
  0
LINE
  5
8C
330
1F
100
AcDbEntity
  8
0
  6
Continuous
 62
     7
370
    25
100
AcDbLine
 10
763.9433501725
 20
422.5375626302
 30
0.0
 11
760.3899321599
 21
422.5375626302
 31
0.0
  0
LINE
  5
8D
330
1F
100
AcDbEntity
  8
0
  6
Continuous
 62
     7
370
    25
100
AcDbLine
 10
763.9433501725
 20
416.8512141653
 30
0.0
 11
760.3899321599
 21
416.8512141653
 31
0.0
  0
LINE
  5
8E
330
1F
100
AcDbEntity
  8
0
  6
Continuous
 62
     7
370
    25
100
AcDbLine
 10
759.9433501725
 20
419.6943883977
 30
0.0
 11
759.9433501725
 21
414.9968797637
 31
0.0
  0
SPLINE
  5
8F
330
1F
100
AcDbEntity
  8
0
  6
Continuous
 62
     7
370
    25
100
AcDbSpline
210
0.0
220
0.0
230
1.0
 70
     8
 71
     3
 72
     8
 73
     4
 74
     0
 42
0.000000001
 43
0.00000001
 40
0.0
 40
0.0
 40
0.0
 40
0.0
 40
1.0
 40
1.0
 40
1.0
 40
1.0
 10
760.3899321598755
 20
416.8512141652594
 30
0.0
 10
760.1176654728641
 20
416.2453659843283
 30
0.0
 10
759.9433501724842
 20
415.6297840331293
 30
0.0
 10
759.9433501724842
 20
414.9968797637279
 30
0.0
  0
SPLINE
  5
90
330
1F
100
AcDbEntity
  8
0
  6
Continuous
 62
     7
370
    25
100
AcDbSpline
210
0.0
220
0.0
230
1.0
 70
     8
 71
     3
 72
     8
 73
     4
 74
     0
 42
0.000000001
 43
0.00000001
 40
0.0
 40
0.0
 40
0.0
 40
0.0
 40
1.0
 40
1.0
 40
1.0
 40
1.0
 10
759.9433501724842
 20
414.9968797637279
 30
0.0
 10
759.9433501724842
 20
414.3639754943255
 30
0.0
 10
760.1176654728637
 20
413.7483935431288
 30
0.0
 10
760.3899321598755
 20
413.1425453621966
 30
0.0
  0
LINE
  5
91
330
1F
100
AcDbEntity
  8
0
  6
Continuous
 62
     7
370
    25
100
AcDbLine
 10
763.9433501725
 20
413.1425453622
 30
0.0
 11
760.3899321599
 21
413.1425453622
 31
0.0
  0
LINE
  5
92
330
1F
100
AcDbEntity
  8
0
  6
Continuous
 62
     7
370
    25
100
AcDbLine
 10
759.9433501725
 20
423.5264024611
 30
0.0
 11
759.9433501725
 21
419.6943883977
 31
0.0
  0
SPLINE
  5
93
330
1F
100
AcDbEntity
  8
0
  6
Continuous
 62
     7
370
    25
100
AcDbSpline
210
0.0
220
0.0
230
1.0
 70
     8
 71
     3
 72
     8
 73
     4
 74
     0
 42
0.000000001
 43
0.00000001
 40
0.0
 40
0.0
 40
0.0
 40
0.0
 40
1.0
 40
1.0
 40
1.0
 40
1.0
 10
759.943350172484
 20
423.5264024610831
 30
0.0
 10
759.943350172484
 20
423.1889007945955
 30
0.0
 10
760.1176654728635
 20
422.8606364038611
 30
0.0
 10
760.3899321598752
 20
422.5375626301667
 30
0.0
  0
SPLINE
  5
94
330
1F
100
AcDbEntity
  8
0
  6
Continuous
 62
     7
370
    25
100
AcDbSpline
210
0.0
220
0.0
230
1.0
 70
     8
 71
     3
 72
     8
 73
     4
 74
     0
 42
0.000000001
 43
0.00000001
 40
0.0
 40
0.0
 40
0.0
 40
0.0
 40
1.0
 40
1.0
 40
1.0
 40
1.0
 10
760.3899321598752
 20
424.5152422919995
 30
0.0
 10
760.1176654728639
 20
424.1921685183058
 30
0.0
 10
759.943350172484
 20
423.8639041275702
 30
0.0
 10
759.943350172484
 20
423.5264024610831
 30
0.0
  0
LINE
  5
95
330
1F
100
AcDbEntity
  8
0
  6
Continuous
 62
     7
370
    25
100
AcDbLine
 10
763.9433501725
 20
424.515242292
 30
0.0
 11
760.3899321599
 21
424.515242292
 31
0.0
  0
LINE
  5
96
330
1F
100
AcDbEntity
  8
0
  6
Continuous
 62
     7
370
    25
100
AcDbLine
 10
760.3899321599
 20
413.1425453622
 30
0.0
 11
760.2259141247
 21
413.5057207047
 31
0.0
  0
LINE
  5
97
330
1F
100
AcDbEntity
  8
0
  6
Continuous
 62
     7
370
    25
100
AcDbLine
 10
759.9433501725
 20
414.9968797637
 30
0.0
 11
759.9433501725
 21
413.8288938271
 31
0.0
  0
LINE
  5
98
330
1F
100
AcDbEntity
  8
0
  6
Continuous
 62
     7
370
    25
100
AcDbLine
 10
774.4021001725
 20
415.8288938271
 30
0.0
 11
774.4021001725
 21
421.8288938271
 31
0.0
  0
LINE
  5
99
330
1F
100
AcDbEntity
  8
0
  6
Continuous
 62
     7
370
    25
100
AcDbLine
 10
774.9433501725
 20
416.9445009114
 30
0.0
 11
774.9433501725
 21
421.2876438271
 31
0.0
  0
LINE
  5
9A
330
1F
100
AcDbEntity
  8
0
  6
Continuous
 62
     7
370
    25
100
AcDbLine
 10
774.9433501725
 20
416.3701438271
 30
0.0
 11
774.9433501725
 21
416.9445009114
 31
0.0
  0
LINE
  5
9B
330
1F
100
AcDbEntity
  8
0
  6
Continuous
 62
     7
370
    25
100
AcDbLine
 10
759.9433501725
 20
423.8288938271
 30
0.0
 11
759.9433501725
 21
423.5264024611
 31
0.0
  0
CIRCLE
  5
9C
330
1F
100
AcDbEntity
  8
0
  6
Continuous
 62
     7
370
    25
100
AcDbCircle
 10
115.2433501725
 20
365.8288938271
 30
0.0
 40
0.5
  0
SPLINE
  5
9D
330
1F
100
AcDbEntity
  8
0
  6
Continuous
 62
     7
370
    25
100
AcDbSpline
210
0.0
220
0.0
230
1.0
 70
     8
 71
     3
 72
    20
 73
    16
 74
     0
 42
0.000000001
 43
0.00000001
 40
0.0
 40
0.0
 40
0.0
 40
0.0
 40
0.1250000000000097
 40
0.1250000000000097
 40
0.2500000000000194
 40
0.2500000000000194
 40
0.3750000000000291
 40
0.3750000000000291
 40
0.5000000000000387
 40
0.5000000000000387
 40
0.7500000000000285
 40
0.7500000000000285
 40
0.8750000000000143
 40
0.8750000000000143
 40
1.0
 40
1.0
 40
1.0
 40
1.0
 10
807.8433501724776
 20
388.4288938270932
 30
0.0
 10
808.0017293601283
 20
388.4679345579477
 30
0.0
 10
808.1579750848199
 20
388.5064532621475
 30
0.0
 10
808.4659669342365
 20
388.5838600134554
 30
0.0
 10
808.6186110417075
 20
388.623004431442
 30
0.0
 10
808.9076953308949
 20
388.7001551853573
 30
0.0
 10
809.0454998690788
 20
388.7384827670983
 30
0.0
 10
809.3071185447176
 20
388.8160290875749
 30
0.0
 10
809.4298648514005
 20
388.8550052952436
 30
0.0
 10
809.761189228348
 20
388.9705001516886
 30
0.0
 10
809.9402003523765
 20
389.0484125953587
 30
0.0
 10
810.1198154517573
 20
389.1638925207595
 30
0.0
 10
810.1660598006247
 20
389.2027583166246
 30
0.0
 10
810.2278131066361
 20
389.2805326502931
 30
0.0
 10
810.2433501724777
 20
389.3191424172479
 30
0.0
 10
810.2433501724774
 20
389.3581831489745
 30
0.0
  0
LINE
  5
9E
330
1F
100
AcDbEntity
  8
0
  6
Continuous
 62
     7
370
    25
100
AcDbLine
 10
810.2433501725
 20
146.2996045052
 30
0.0
 11
810.2433501725
 21
389.358183149
 31
0.0
  0
SPLINE
  5
9F
330
1F
100
AcDbEntity
  8
0
  6
Continuous
 62
     7
370
    25
100
AcDbSpline
210
0.0
220
0.0
230
1.0
 70
     8
 71
     3
 72
    20
 73
    16
 74
     0
 42
0.000000001
 43
0.00000001
 40
0.0
 40
0.0
 40
0.0
 40
0.0
 40
0.1249999999999993
 40
0.1249999999999993
 40
0.2499999999999987
 40
0.2499999999999987
 40
0.374999999999998
 40
0.374999999999998
 40
0.4999999999999973
 40
0.4999999999999973
 40
0.7499999999999987
 40
0.7499999999999987
 40
0.8749999999999993
 40
0.8749999999999993
 40
1.0
 40
1.0
 40
1.0
 40
1.0
 10
810.2433501724774
 20
146.2996045052119
 30
0.0
 10
810.2433501724774
 20
146.3386452360664
 30
0.0
 10
810.2278136120027
 20
146.3771639402662
 30
0.0
 10
810.166495260042
 20
146.4545706915741
 30
0.0
 10
810.1200715144553
 20
146.4937151095608
 30
0.0
 10
810.0001206443011
 20
146.570865863476
 30
0.0
 10
809.9265160000177
 20
146.609193445217
 30
0.0
 10
809.7517856339222
 20
146.6867397656936
 30
0.0
 10
809.6509350050205
 20
146.7257159733623
 30
0.0
 10
809.3196497250366
 20
146.8412108298073
 30
0.0
 10
809.0519695636528
 20
146.9191232734774
 30
0.0
 10
808.6192955375975
 20
147.0346031988782
 30
0.0
 10
808.4677774507462
 20
147.0734689947433
 30
0.0
 10
808.1583516933601
 20
147.1512433284118
 30
0.0
 10
808.0017293636663
 20
147.1898530953666
 30
0.0
 10
807.8433501724776
 20
147.2288938270933
 30
0.0
  0
SPLINE
  5
A0
330
1F
100
AcDbEntity
  8
0
  6
Continuous
 62
     7
370
    25
100
AcDbSpline
210
0.0
220
0.0
230
1.0
 70
     8
 71
     3
 72
    20
 73
    16
 74
     0
 42
0.000000001
 43
0.00000001
 40
0.0
 40
0.0
 40
0.0
 40
0.0
 40
0.1249999999999981
 40
0.1249999999999981
 40
0.2499999999999963
 40
0.2499999999999963
 40
0.3749999999999944
 40
0.3749999999999944
 40
0.4999999999999926
 40
0.4999999999999926
 40
0.7499999999999962
 40
0.7499999999999962
 40
0.8749999999999981
 40
0.8749999999999981
 40
1.0
 40
1.0
 40
1.0
 40
1.0
 10
807.8433501724775
 20
147.2288938270933
 30
0.0
 10
807.8823909033321
 20
147.0705146394426
 30
0.0
 10
807.9209096075317
 20
146.9142689147509
 30
0.0
 10
807.9983163588396
 20
146.6062770653343
 30
0.0
 10
808.0374607768264
 20
146.4536329578631
 30
0.0
 10
808.1146115307416
 20
146.1645486686761
 30
0.0
 10
808.1529391124825
 20
146.026744130492
 30
0.0
 10
808.2304854329591
 20
145.7651254548531
 30
0.0
 10
808.2694616406278
 20
145.6423791481705
 30
0.0
 10
808.3849564970727
 20
145.3110547712228
 30
0.0
 10
808.462868940743
 20
145.1320436471945
 30
0.0
 10
808.5783488661439
 20
144.9524285478136
 30
0.0
 10
808.617214662009
 20
144.9061841989458
 30
0.0
 10
808.6949889956774
 20
144.8444308929346
 30
0.0
 10
808.733598762632
 20
144.8288938270933
 30
0.0
 10
808.7726394943587
 20
144.8288938270933
 30
0.0
  0
LINE
  5
A1
330
1F
100
AcDbEntity
  8
0
  6
Continuous
 62
     7
370
    25
100
AcDbLine
 10
16.7140608506
 20
144.8288938271
 30
0.0
 11
808.7726394944
 21
144.8288938271
 31
0.0
  0
SPLINE
  5
A2
330
1F
100
AcDbEntity
  8
0
  6
Continuous
 62
     7
370
    25
100
AcDbSpline
210
0.0
220
0.0
230
1.0
 70
     8
 71
     3
 72
    20
 73
    16
 74
     0
 42
0.000000001
 43
0.00000001
 40
0.0
 40
0.0
 40
0.0
 40
0.0
 40
0.1250000000000005
 40
0.1250000000000005
 40
0.250000000000001
 40
0.250000000000001
 40
0.3750000000000015
 40
0.3750000000000015
 40
0.500000000000002
 40
0.500000000000002
 40
0.7500000000000059
 40
0.7500000000000059
 40
0.8750000000000029
 40
0.8750000000000029
 40
1.0
 40
1.0
 40
1.0
 40
1.0
 10
16.71406085059612
 20
144.8288938270933
 30
0.0
 10
16.75310158145071
 20
144.8288938270932
 30
0.0
 10
16.79162028565051
 20
144.8444303875681
 30
0.0
 10
16.86902703695847
 20
144.9057487395287
 30
0.0
 10
16.908171454945
 20
144.9521724851154
 30
0.0
 10
16.98532220886018
 20
145.0721233552695
 30
0.0
 10
17.02364979060123
 20
145.145727999553
 30
0.0
 10
17.10119611107785
 20
145.3204583656486
 30
0.0
 10
17.14017231874659
 20
145.4213089945501
 30
0.0
 10
17.25566717519167
 20
145.752594274534
 30
0.0
 10
17.33357961886167
 20
146.0202744359179
 30
0.0
 10
17.44905954426246
 20
146.4529484619733
 30
0.0
 10
17.48792534012744
 20
146.6044665488244
 30
0.0
 10
17.56569967379601
 20
146.9138923062105
 30
0.0
 10
17.60430944075103
 20
147.0705146359043
 30
0.0
 10
17.64335017247742
 20
147.2288938270929
 30
0.0
  0
SPLINE
  5
A3
330
1F
100
AcDbEntity
  8
0
  6
Continuous
 62
     7
370
    25
100
AcDbSpline
210
0.0
220
0.0
230
1.0
 70
     8
 71
     3
 72
    14
 73
    10
 74
     0
 42
0.000000001
 43
0.00000001
 40
0.0
 40
0.0
 40
0.0
 40
0.0
 40
0.25
 40
0.25
 40
0.5
 40
0.5
 40
0.75
 40
0.75
 40
1.0
 40
1.0
 40
1.0
 40
1.0
 10
807.8433501724775
 20
147.2288938270932
 30
0.0
 10
807.9215515874992
 20
147.0967084112343
 30
0.0
 10
807.9972615347962
 20
146.9687263927007
 30
0.0
 10
808.1525419464431
 20
146.7261023677534
 30
0.0
 10
808.229551796026
 20
146.6156601033433
 30
0.0
 10
808.3849752820536
 20
146.4296632061501
 30
0.0
 10
808.461924998972
 20
146.3558622273118
 30
0.0
 10
808.617354978221
 20
146.2550436429167
 30
0.0
 10
808.6944380867938
 20
146.2288938270932
 30
0.0
 10
808.7726394943587
 20
146.2288938270932
 30
0.0
  0
LINE
  5
A4
330
1F
100
AcDbEntity
  8
0
  6
Continuous
 62
     7
370
    25
100
AcDbLine
 10
808.7726394944
 20
144.8288938271
 30
0.0
 11
808.7726394944
 21
146.2288938271
 31
0.0
  0
SPLINE
  5
A5
330
1F
100
AcDbEntity
  8
0
  6
Continuous
 62
     7
370
    25
100
AcDbSpline
210
0.0
220
0.0
230
1.0
 70
     8
 71
     3
 72
    14
 73
    10
 74
     0
 42
0.000000001
 43
0.00000001
 40
0.0
 40
0.0
 40
0.0
 40
0.0
 40
0.2499999999999999
 40
0.2499999999999999
 40
0.4999999999999999
 40
0.4999999999999999
 40
0.7499999999999998
 40
0.7499999999999998
 40
1.0
 40
1.0
 40
1.0
 40
1.0
 10
807.8433501724776
 20
388.4288938270932
 30
0.0
 10
807.9755355883367
 20
388.5070952421149
 30
0.0
 10
808.1035176068698
 20
388.5828051894117
 30
0.0
 10
808.3461416318174
 20
388.7380856010587
 30
0.0
 10
808.4565838962275
 20
388.8150954506418
 30
0.0
 10
808.6425807934206
 20
388.9705189366694
 30
0.0
 10
808.716381772259
 20
389.0474686535875
 30
0.0
 10
808.8172003566541
 20
389.2028986328368
 30
0.0
 10
808.8433501724775
 20
389.2799817414094
 30
0.0
 10
808.8433501724776
 20
389.3581831489745
 30
0.0
  0
LINE
  5
A6
330
1F
100
AcDbEntity
  8
0
  6
Continuous
 62
     7
370
    25
100
AcDbLine
 10
810.2433501725
 20
389.358183149
 30
0.0
 11
808.8433501725
 21
389.358183149
 31
0.0
  0
LINE
  5
A7
330
1F
100
AcDbEntity
  8
0
  6
Continuous
 62
     7
370
    25
100
AcDbLine
 10
810.2433501725
 20
146.2996045052
 30
0.0
 11
808.8433501725
 21
146.2996045052
 31
0.0
  0
SPLINE
  5
A8
330
1F
100
AcDbEntity
  8
0
  6
Continuous
 62
     7
370
    25
100
AcDbSpline
210
0.0
220
0.0
230
1.0
 70
     8
 71
     3
 72
    14
 73
    10
 74
     0
 42
0.000000001
 43
0.00000001
 40
0.0
 40
0.0
 40
0.0
 40
0.0
 40
0.25
 40
0.25
 40
0.5
 40
0.5
 40
0.75
 40
0.75
 40
1.0
 40
1.0
 40
1.0
 40
1.0
 10
808.8433501724776
 20
146.2996045052119
 30
0.0
 10
808.8433501724775
 20
146.3778059202336
 30
0.0
 10
808.8177915077973
 20
146.4535158675305
 30
0.0
 10
808.7176634792004
 20
146.6087962791775
 30
0.0
 10
808.6440992998962
 20
146.6858061287605
 30
0.0
 10
808.4585616642044
 20
146.8412296147879
 30
0.0
 10
808.3483967432448
 20
146.9181793317063
 30
0.0
 10
808.1057849865554
 20
147.0736093109555
 30
0.0
 10
807.9755355757325
 20
147.1506924195282
 30
0.0
 10
807.8433501724776
 20
147.2288938270933
 30
0.0
  0
SPLINE
  5
A9
330
1F
100
AcDbEntity
  8
0
  6
Continuous
 62
     7
370
    25
100
AcDbSpline
210
0.0
220
0.0
230
1.0
 70
     8
 71
     3
 72
    20
 73
    16
 74
     0
 42
0.000000001
 43
0.00000001
 40
0.0
 40
0.0
 40
0.0
 40
0.0
 40
0.1250000000000006
 40
0.1250000000000006
 40
0.2500000000000011
 40
0.2500000000000011
 40
0.3750000000000017
 40
0.3750000000000017
 40
0.5000000000000022
 40
0.5000000000000022
 40
0.7500000000000062
 40
0.7500000000000062
 40
0.8750000000000031
 40
0.8750000000000031
 40
1.0
 40
1.0
 40
1.0
 40
1.0
 10
17.64335017247753
 20
388.428893827093
 30
0.0
 10
17.604309441623
 20
388.5872730147437
 30
0.0
 10
17.5657907374232
 20
388.7435187394354
 30
0.0
 10
17.48838398611524
 20
389.0515105888521
 30
0.0
 10
17.44923956812866
 20
389.2041546963232
 30
0.0
 10
17.37208881421343
 20
389.4932389855102
 30
0.0
 10
17.33376123247227
 20
389.6310435236943
 30
0.0
 10
17.25621491199575
 20
389.8926621993332
 30
0.0
 10
17.21723870432701
 20
390.0154085060159
 30
0.0
 10
17.10174384788193
 20
390.3467328829636
 30
0.0
 10
17.02383140421188
 20
390.5257440069918
 30
0.0
 10
16.90835147881103
 20
390.7053591063728
 30
0.0
 10
16.86948568294605
 20
390.7516034552405
 30
0.0
 10
16.79171134927754
 20
390.8133567612517
 30
0.0
 10
16.75310158232285
 20
390.8288938270931
 30
0.0
 10
16.71406085059612
 20
390.8288938270931
 30
0.0
  0
SPLINE
  5
AA
330
1F
100
AcDbEntity
  8
0
  6
Continuous
 62
     7
370
    25
100
AcDbSpline
210
0.0
220
0.0
230
1.0
 70
     8
 71
     3
 72
    14
 73
    10
 74
     0
 42
0.000000001
 43
0.00000001
 40
0.0
 40
0.0
 40
0.0
 40
0.0
 40
0.25
 40
0.25
 40
0.5
 40
0.5
 40
0.75
 40
0.75
 40
1.0
 40
1.0
 40
1.0
 40
1.0
 10
17.64335017247753
 20
388.4288938270931
 30
0.0
 10
17.5651487574559
 20
388.561079242952
 30
0.0
 10
17.48943881015897
 20
388.6890612614856
 30
0.0
 10
17.33415839851188
 20
388.931685286433
 30
0.0
 10
17.25714854892901
 20
389.0421275508429
 30
0.0
 10
17.10172506290147
 20
389.2281244480362
 30
0.0
 10
17.02477534598301
 20
389.3019254268746
 30
0.0
 10
16.86934536673385
 20
389.4027440112696
 30
0.0
 10
16.79226225816122
 20
389.4288938270931
 30
0.0
 10
16.71406085059612
 20
389.4288938270931
 30
0.0
  0
LINE
  5
AB
330
1F
100
AcDbEntity
  8
0
  6
Continuous
 62
     7
370
    25
100
AcDbLine
 10
16.7140608506
 20
390.8288938271
 30
0.0
 11
16.7140608506
 21
389.4288938271
 31
0.0
  0
LINE
  5
AC
330
1F
100
AcDbEntity
  8
0
  6
Continuous
 62
     7
370
    25
100
AcDbLine
 10
808.7726394944
 20
390.8288938271
 30
0.0
 11
16.7140608506
 21
390.8288938271
 31
0.0
  0
SPLINE
  5
AD
330
1F
100
AcDbEntity
  8
0
  6
Continuous
 62
     7
370
    25
100
AcDbSpline
210
0.0
220
0.0
230
1.0
 70
     8
 71
     3
 72
    20
 73
    16
 74
     0
 42
0.000000001
 43
0.00000001
 40
0.0
 40
0.0
 40
0.0
 40
0.0
 40
0.1249999999999988
 40
0.1249999999999988
 40
0.2499999999999977
 40
0.2499999999999977
 40
0.3749999999999965
 40
0.3749999999999965
 40
0.4999999999999953
 40
0.4999999999999953
 40
0.7499999999999928
 40
0.7499999999999928
 40
0.8749999999999963
 40
0.8749999999999963
 40
1.0
 40
1.0
 40
1.0
 40
1.0
 10
808.7726394943588
 20
390.8288938270931
 30
0.0
 10
808.7335987635043
 20
390.8288938270931
 30
0.0
 10
808.6950800593044
 20
390.8133572666182
 30
0.0
 10
808.6176733079965
 20
390.7520389146575
 30
0.0
 10
808.5785288900099
 20
390.7056151690708
 30
0.0
 10
808.5013781360948
 20
390.5856642989167
 30
0.0
 10
808.4630505543537
 20
390.5120596546333
 30
0.0
 10
808.3855042338772
 20
390.3373292885377
 30
0.0
 10
808.3465280262085
 20
390.2364786596361
 30
0.0
 10
808.2310331697637
 20
389.9051933796522
 30
0.0
 10
808.1531207260932
 20
389.6375132182683
 30
0.0
 10
808.0376408006925
 20
389.204839192213
 30
0.0
 10
807.9987750048276
 20
389.0533211053618
 30
0.0
 10
807.9210006711588
 20
388.7438953479758
 30
0.0
 10
807.8823909042042
 20
388.587273018282
 30
0.0
 10
807.8433501724776
 20
388.4288938270933
 30
0.0
  0
SPLINE
  5
AE
330
1F
100
AcDbEntity
  8
0
  6
Continuous
 62
     7
370
    25
100
AcDbSpline
210
0.0
220
0.0
230
1.0
 70
     8
 71
     3
 72
    20
 73
    16
 74
     0
 42
0.000000001
 43
0.00000001
 40
0.0
 40
0.0
 40
0.0
 40
0.0
 40
0.1250000000000095
 40
0.1250000000000095
 40
0.2500000000000189
 40
0.2500000000000189
 40
0.3750000000000284
 40
0.3750000000000284
 40
0.5000000000000379
 40
0.5000000000000379
 40
0.7500000000000271
 40
0.7500000000000271
 40
0.8750000000000137
 40
0.8750000000000137
 40
1.0
 40
1.0
 40
1.0
 40
1.0
 10
17.64335017247748
 20
147.2288938270931
 30
0.0
 10
17.48497098482688
 20
147.1898530962386
 30
0.0
 10
17.32872526013496
 20
147.1513343920387
 30
0.0
 10
17.02073341071836
 20
147.0739276407308
 30
0.0
 10
16.86808930324729
 20
147.0347832227441
 30
0.0
 10
16.57900501406018
 20
146.957632468829
 30
0.0
 10
16.44120047587611
 20
146.9193048870879
 30
0.0
 10
16.17958180023738
 20
146.8417585666114
 30
0.0
 10
16.05683549355469
 20
146.8027823589427
 30
0.0
 10
15.72551111660703
 20
146.6872875024977
 30
0.0
 10
15.54649999257862
 20
146.6093750588275
 30
0.0
 10
15.36688489319782
 20
146.4938951334266
 30
0.0
 10
15.32064054433013
 20
146.4550293375616
 30
0.0
 10
15.25888723831903
 20
146.3772550038931
 30
0.0
 10
15.24335017247747
 20
146.3386452369384
 30
0.0
 10
15.24335017247747
 20
146.2996045052117
 30
0.0
  0
SPLINE
  5
AF
330
1F
100
AcDbEntity
  8
0
  6
Continuous
 62
     7
370
    25
100
AcDbSpline
210
0.0
220
0.0
230
1.0
 70
     8
 71
     3
 72
    14
 73
    10
 74
     0
 42
0.000000001
 43
0.00000001
 40
0.0
 40
0.0
 40
0.0
 40
0.0
 40
0.25
 40
0.25
 40
0.5
 40
0.5
 40
0.75
 40
0.75
 40
1.0
 40
1.0
 40
1.0
 40
1.0
 10
17.64335017247748
 20
147.2288938270931
 30
0.0
 10
17.51116475661857
 20
147.1506924120714
 30
0.0
 10
17.38318273808492
 20
147.0749824647745
 30
0.0
 10
17.14055871313774
 20
146.9197020531275
 30
0.0
 10
17.03011644872759
 20
146.8426922035445
 30
0.0
 10
16.84411955153437
 20
146.687268717517
 30
0.0
 10
16.7703185726959
 20
146.6103190005986
 30
0.0
 10
16.66949998830086
 20
146.4548890213494
 30
0.0
 10
16.64335017247748
 20
146.3778059127768
 30
0.0
 10
16.64335017247748
 20
146.2996045052117
 30
0.0
  0
LINE
  5
B0
330
1F
100
AcDbEntity
  8
0
  6
Continuous
 62
     7
370
    25
100
AcDbLine
 10
15.2433501725
 20
146.2996045052
 30
0.0
 11
16.6433501725
 21
146.2996045052
 31
0.0
  0
SPLINE
  5
B1
330
1F
100
AcDbEntity
  8
0
  6
Continuous
 62
     7
370
    25
100
AcDbSpline
210
0.0
220
0.0
230
1.0
 70
     8
 71
     3
 72
    20
 73
    16
 74
     0
 42
0.000000001
 43
0.00000001
 40
0.0
 40
0.0
 40
0.0
 40
0.0
 40
0.1249999999999998
 40
0.1249999999999998
 40
0.2499999999999995
 40
0.2499999999999995
 40
0.3749999999999992
 40
0.3749999999999992
 40
0.4999999999999988
 40
0.4999999999999988
 40
0.7500000000000007
 40
0.7500000000000007
 40
0.8750000000000002
 40
0.8750000000000002
 40
1.0
 40
1.0
 40
1.0
 40
1.0
 10
15.24335017247747
 20
389.3581831489744
 30
0.0
 10
15.24335017247741
 20
389.31914241812
 30
0.0
 10
15.25888673295228
 20
389.2806237139201
 30
0.0
 10
15.32020508491294
 20
389.2032169626122
 30
0.0
 10
15.36662883049966
 20
389.1640725446255
 30
0.0
 10
15.48657970065387
 20
389.0869217907103
 30
0.0
 10
15.56018434493733
 20
389.0485942089692
 30
0.0
 10
15.73491471103289
 20
388.9710478884928
 30
0.0
 10
15.83576533993447
 20
388.932071680824
 30
0.0
 10
16.16705061991852
 20
388.816576824379
 30
0.0
 10
16.43473078130225
 20
388.7386643807089
 30
0.0
 10
16.8674048073576
 20
388.6231844553081
 30
0.0
 10
17.01892289420864
 20
388.5843186594431
 30
0.0
 10
17.32834865159499
 20
388.5065443257745
 30
0.0
 10
17.48497098128865
 20
388.4679345588197
 30
0.0
 10
17.64335017247748
 20
388.4288938270931
 30
0.0
  0
LINE
  5
B2
330
1F
100
AcDbEntity
  8
0
  6
Continuous
 62
     7
370
    25
100
AcDbLine
 10
15.2433501725
 20
389.358183149
 30
0.0
 11
16.6433501725
 21
389.358183149
 31
0.0
  0
SPLINE
  5
B3
330
1F
100
AcDbEntity
  8
0
  6
Continuous
 62
     7
370
    25
100
AcDbSpline
210
0.0
220
0.0
230
1.0
 70
     8
 71
     3
 72
    14
 73
    10
 74
     0
 42
0.000000001
 43
0.00000001
 40
0.0
 40
0.0
 40
0.0
 40
0.0
 40
0.25
 40
0.25
 40
0.5
 40
0.5
 40
0.75
 40
0.75
 40
1.0
 40
1.0
 40
1.0
 40
1.0
 10
16.64335017247748
 20
389.3581831489744
 30
0.0
 10
16.64335017247748
 20
389.2799817339528
 30
0.0
 10
16.66890883715783
 20
389.2042717866559
 30
0.0
 10
16.76903686575465
 20
389.0489913750089
 30
0.0
 10
16.84260104505858
 20
388.9719815254259
 30
0.0
 10
17.02813868075054
 20
388.8165580393983
 30
0.0
 10
17.13830360171015
 20
388.73960832248
 30
0.0
 10
17.38091535839964
 20
388.5841783432308
 30
0.0
 10
17.5111647692226
 20
388.5070952346581
 30
0.0
 10
17.64335017247748
 20
388.4288938270931
 30
0.0
  0
LINE
  5
B4
330
1F
100
AcDbEntity
  8
0
  6
Continuous
 62
     7
370
    25
100
AcDbLine
 10
15.2433501725
 20
389.358183149
 30
0.0
 11
15.2433501725
 21
146.2996045052
 31
0.0
  0
LINE
  5
B5
330
1F
100
AcDbEntity
  8
0
  6
Continuous
 62
     7
370
    25
100
AcDbLine
 10
808.7726394944
 20
390.8288938271
 30
0.0
 11
808.7726394944
 21
389.4288938271
 31
0.0
  0
SPLINE
  5
B6
330
1F
100
AcDbEntity
  8
0
  6
Continuous
 62
     7
370
    25
100
AcDbSpline
210
0.0
220
0.0
230
1.0
 70
     8
 71
     3
 72
    14
 73
    10
 74
     0
 42
0.000000001
 43
0.00000001
 40
0.0
 40
0.0
 40
0.0
 40
0.0
 40
0.25
 40
0.25
 40
0.5
 40
0.5
 40
0.75
 40
0.75
 40
1.0
 40
1.0
 40
1.0
 40
1.0
 10
808.7726394943588
 20
389.4288938270931
 30
0.0
 10
808.6944380793371
 20
389.4288938270931
 30
0.0
 10
808.6187281320402
 20
389.4033351624128
 30
0.0
 10
808.4634477203931
 20
389.3032071338161
 30
0.0
 10
808.3864378708104
 20
389.2296429545119
 30
0.0
 10
808.2310143847828
 20
389.04410531882
 30
0.0
 10
808.1540646678644
 20
388.9339403978605
 30
0.0
 10
807.9986346886152
 20
388.6913286411711
 30
0.0
 10
807.9215515800427
 20
388.5610792303481
 30
0.0
 10
807.8433501724776
 20
388.4288938270932
 30
0.0
  0
LINE
  5
B7
330
1F
100
AcDbEntity
  8
0
  6
Continuous
 62
     7
370
    25
100
AcDbLine
 10
16.7140608506
 20
144.8288938271
 30
0.0
 11
16.7140608506
 21
146.2288938271
 31
0.0
  0
SPLINE
  5
B8
330
1F
100
AcDbEntity
  8
0
  6
Continuous
 62
     7
370
    25
100
AcDbSpline
210
0.0
220
0.0
230
1.0
 70
     8
 71
     3
 72
    14
 73
    10
 74
     0
 42
0.000000001
 43
0.00000001
 40
0.0
 40
0.0
 40
0.0
 40
0.0
 40
0.2500000000000002
 40
0.2500000000000002
 40
0.5000000000000001
 40
0.5000000000000001
 40
0.7500000000000001
 40
0.7500000000000001
 40
1.0
 40
1.0
 40
1.0
 40
1.0
 10
16.71406085059612
 20
146.2288938270932
 30
0.0
 10
16.79226226561759
 20
146.2288938270932
 30
0.0
 10
16.86797221291469
 20
146.2544524917735
 30
0.0
 10
17.02325262456167
 20
146.3545805203702
 30
0.0
 10
17.1002624741447
 20
146.4281446996744
 30
0.0
 10
17.25568596017207
 20
146.6136823353662
 30
0.0
 10
17.33263567709048
 20
146.7238472563258
 30
0.0
 10
17.48806565633981
 20
146.9664590130152
 30
0.0
 10
17.56514876491244
 20
147.0967084238382
 30
0.0
 10
17.64335017247742
 20
147.2288938270931
 30
0.0
  0
CIRCLE
  5
B9
330
1F
100
AcDbEntity
  8
0
  6
Continuous
 62
     7
370
    25
100
AcDbCircle
 10
71.2433501725
 20
342.8288938271
 30
0.0
 40
5.500000000000111
  0
ARC
  5
BA
330
1F
100
AcDbEntity
  8
0
  6
Continuous
 62
     7
370
    25
100
AcDbCircle
 10
73.4233600741
 20
343.8858299419
 30
0.0
 40
0.5050994627334905
100
AcDbArc
 50
298.8005827702
 51
112.9304972368
  0
ARC
  5
BB
330
1F
100
AcDbEntity
  8
0
  6
Continuous
 62
     7
370
    25
100
AcDbCircle
 10
71.2433501725
 20
342.8288938271
 30
0.0
 40
2.499999999999889
100
AcDbArc
 50
37.506301084
 51
74.2247789229
  0
ARC
  5
BC
330
1F
100
AcDbEntity
  8
0
  6
Continuous
 62
     7
370
    25
100
AcDbCircle
 10
71.4180215977
 20
345.2453058398
 30
0.0
 40
0.5050994627349494
100
AcDbArc
 50
358.800582771
 51
172.930497236
  0
ARC
  5
BD
330
1F
100
AcDbEntity
  8
0
  6
Continuous
 62
     7
370
    25
100
AcDbCircle
 10
71.2433501725
 20
342.8288938271
 30
0.0
 40
2.499999999999938
100
AcDbArc
 50
97.5063010841
 51
134.2247789229
  0
ARC
  5
BE
330
1F
100
AcDbEntity
  8
0
  6
Continuous
 62
     7
370
    25
100
AcDbCircle
 10
69.2380116961
 20
344.188369725
 30
0.0
 40
0.5050994627351981
100
AcDbArc
 50
58.8005827697
 51
232.9304972372
  0
ARC
  5
BF
330
1F
100
AcDbEntity
  8
0
  6
Continuous
 62
     7
370
    25
100
AcDbCircle
 10
71.2433501725
 20
342.8288938271
 30
0.0
 40
2.499999999999955
100
AcDbArc
 50
157.5063010841
 51
194.2247789229
  0
ARC
  5
C0
330
1F
100
AcDbEntity
  8
0
  6
Continuous
 62
     7
370
    25
100
AcDbCircle
 10
69.0633402709
 20
341.7719577123
 30
0.0
 40
0.5050994627332872
100
AcDbArc
 50
118.8005827707
 51
292.9304972361
  0
ARC
  5
C1
330
1F
100
AcDbEntity
  8
0
  6
Continuous
 62
     7
370
    25
100
AcDbCircle
 10
71.2433501725
 20
342.8288938271
 30
0.0
 40
2.500000000000009
100
AcDbArc
 50
217.506301084
 51
254.2247789229
  0
ARC
  5
C2
330
1F
100
AcDbEntity
  8
0
  6
Continuous
 62
     7
370
    25
100
AcDbCircle
 10
71.0686787473
 20
340.4124818144
 30
0.0
 40
0.5050994627366219
100
AcDbArc
 50
178.8005827716
 51
352.9304972354
  0
ARC
  5
C3
330
1F
100
AcDbEntity
  8
0
  6
Continuous
 62
     7
370
    25
100
AcDbCircle
 10
71.2433501725
 20
342.8288938271
 30
0.0
 40
2.499999999999997
100
AcDbArc
 50
277.5063010841
 51
314.2247789229
  0
ARC
  5
C4
330
1F
100
AcDbEntity
  8
0
  6
Continuous
 62
     7
370
    25
100
AcDbCircle
 10
73.2486886489
 20
341.4694179292
 30
0.0
 40
0.5050994627355113
100
AcDbArc
 50
238.8005827701
 51
52.9304972368
  0
ARC
  5
C5
330
1F
100
AcDbEntity
  8
0
  6
Continuous
 62
     7
370
    25
100
AcDbCircle
 10
71.2433501725
 20
342.8288938271
 30
0.0
 40
2.499999999999955
100
AcDbArc
 50
337.5063010841
 51
14.2247789229
  0
CIRCLE
  5
C6
330
1F
100
AcDbEntity
  8
0
  6
Continuous
 62
     7
370
    25
100
AcDbCircle
 10
754.2433501725
 20
342.8288938271
 30
0.0
 40
5.500000000000139
  0
ARC
  5
C7
330
1F
100
AcDbEntity
  8
0
  6
Continuous
 62
     7
370
    25
100
AcDbCircle
 10
754.2433501725
 20
342.8288938271
 30
0.0
 40
2.500000000000011
100
AcDbArc
 50
100.8681863767
 51
137.5866642156
  0
ARC
  5
C8
330
1F
100
AcDbEntity
  8
0
  6
Continuous
 62
     7
370
    25
100
AcDbCircle
 10
752.1617399655
 20
344.0684324784
 30
0.0
 40
0.5050994627349845
100
AcDbArc
 50
62.1624680637
 51
236.2923825287
  0
ARC
  5
C9
330
1F
100
AcDbEntity
  8
0
  6
Continuous
 62
     7
370
    25
100
AcDbCircle
 10
752.129073108
 20
341.6459358327
 30
0.0
 40
0.5050994627352886
100
AcDbArc
 50
122.1624680624
 51
296.2923825299
  0
ARC
  5
CA
330
1F
100
AcDbEntity
  8
0
  6
Continuous
 62
     7
370
    25
100
AcDbCircle
 10
754.2433501725
 20
342.8288938271
 30
0.0
 40
2.499999999999998
100
AcDbArc
 50
220.8681863768
 51
257.5866642156
  0
ARC
  5
CB
330
1F
100
AcDbEntity
  8
0
  6
Continuous
 62
     7
370
    25
100
AcDbCircle
 10
754.210683315
 20
340.4063971814
 30
0.0
 40
0.5050994627333365
100
AcDbArc
 50
182.1624680634
 51
356.2923825288
  0
ARC
  5
CC
330
1F
100
AcDbEntity
  8
0
  6
Continuous
 62
     7
370
    25
100
AcDbCircle
 10
754.2433501725
 20
342.8288938271
 30
0.0
 40
2.499999999999967
100
AcDbArc
 50
280.8681863767
 51
317.5866642156
  0
ARC
  5
CD
330
1F
100
AcDbEntity
  8
0
  6
Continuous
 62
     7
370
    25
100
AcDbCircle
 10
756.3249603795
 20
341.5893551758
 30
0.0
 40
0.5050994627365859
100
AcDbArc
 50
242.1624680643
 51
56.2923825281
  0
ARC
  5
CE
330
1F
100
AcDbEntity
  8
0
  6
Continuous
 62
     7
370
    25
100
AcDbCircle
 10
754.2433501725
 20
342.8288938271
 30
0.0
 40
2.499999999999961
100
AcDbArc
 50
40.8681863768
 51
77.5866642156
  0
ARC
  5
CF
330
1F
100
AcDbEntity
  8
0
  6
Continuous
 62
     7
370
    25
100
AcDbCircle
 10
754.2433501725
 20
342.8288938271
 30
0.0
 40
2.500000000000029
100
AcDbArc
 50
160.8681863768
 51
197.5866642156
  0
ARC
  5
D0
330
1F
100
AcDbEntity
  8
0
  6
Continuous
 62
     7
370
    25
100
AcDbCircle
 10
754.2433501725
 20
342.8288938271
 30
0.0
 40
2.499999999999982
100
AcDbArc
 50
340.8681863768
 51
17.5866642156
  0
ARC
  5
D1
330
1F
100
AcDbEntity
  8
0
  6
Continuous
 62
     7
370
    25
100
AcDbCircle
 10
756.357627237
 20
344.0118518215
 30
0.0
 40
0.5050994627355753
100
AcDbArc
 50
302.1624680628
 51
116.2923825295
  0
ARC
  5
D2
330
1F
100
AcDbEntity
  8
0
  6
Continuous
 62
     7
370
    25
100
AcDbCircle
 10
754.27601703
 20
345.2513904728
 30
0.0
 40
0.5050994627334864
100
AcDbArc
 50
2.1624680629
 51
176.2923825295
  0
CIRCLE
  5
D3
330
1F
100
AcDbEntity
  8
0
  6
Continuous
 62
     7
370
    25
100
AcDbCircle
 10
754.2433501725
 20
192.8288938271
 30
0.0
 40
5.500000000000113
  0
ARC
  5
D4
330
1F
100
AcDbEntity
  8
0
  6
Continuous
 62
     7
370
    25
100
AcDbCircle
 10
752.0173920234
 20
191.872511351
 30
0.0
 40
0.5050994627334733
100
AcDbArc
 50
116.1858115767
 51
290.3157260434
  0
ARC
  5
D5
330
1F
100
AcDbEntity
  8
0
  6
Continuous
 62
     7
370
    25
100
AcDbCircle
 10
756.184580767
 20
191.3793487603
 30
0.0
 40
0.5050994627352036
100
AcDbArc
 50
236.1858115763
 51
50.3157260438
  0
ARC
  5
D6
330
1F
100
AcDbEntity
  8
0
  6
Continuous
 62
     7
370
    25
100
AcDbCircle
 10
754.2433501725
 20
192.8288938271
 30
0.0
 40
2.499999999999993
100
AcDbArc
 50
334.8915298906
 51
11.6100077295
  0
ARC
  5
D7
330
1F
100
AcDbEntity
  8
0
  6
Continuous
 62
     7
370
    25
100
AcDbCircle
 10
756.4693083215
 20
193.7852763032
 30
0.0
 40
0.5050994627332568
100
AcDbArc
 50
296.1858115773
 51
110.3157260427
  0
ARC
  5
D8
330
1F
100
AcDbEntity
  8
0
  6
Continuous
 62
     7
370
    25
100
AcDbCircle
 10
754.2433501725
 20
192.8288938271
 30
0.0
 40
2.500000000000019
100
AcDbArc
 50
34.8915298906
 51
71.6100077295
  0
ARC
  5
D9
330
1F
100
AcDbEntity
  8
0
  6
Continuous
 62
     7
370
    25
100
AcDbCircle
 10
752.3021195779
 20
194.2784388939
 30
0.0
 40
0.5050994627355311
100
AcDbArc
 50
56.1858115767
 51
230.3157260434
  0
ARC
  5
DA
330
1F
100
AcDbEntity
  8
0
  6
Continuous
 62
     7
370
    25
100
AcDbCircle
 10
754.2433501725
 20
192.8288938271
 30
0.0
 40
2.499999999999921
100
AcDbArc
 50
154.8915298906
 51
191.6100077295
  0
ARC
  5
DB
330
1F
100
AcDbEntity
  8
0
  6
Continuous
 62
     7
370
    25
100
AcDbCircle
 10
754.2433501725
 20
192.8288938271
 30
0.0
 40
2.499999999999952
100
AcDbArc
 50
94.8915298907
 51
131.6100077294
  0
ARC
  5
DC
330
1F
100
AcDbEntity
  8
0
  6
Continuous
 62
     7
370
    25
100
AcDbCircle
 10
754.2433501725
 20
192.8288938271
 30
0.0
 40
2.499999999999912
100
AcDbArc
 50
214.8915298906
 51
251.6100077295
  0
ARC
  5
DD
330
1F
100
AcDbEntity
  8
0
  6
Continuous
 62
     7
370
    25
100
AcDbCircle
 10
753.958622618
 20
190.4229662842
 30
0.0
 40
0.5050994627350468
100
AcDbArc
 50
176.1858115776
 51
350.3157260426
  0
ARC
  5
DE
330
1F
100
AcDbEntity
  8
0
  6
Continuous
 62
     7
370
    25
100
AcDbCircle
 10
754.2433501725
 20
192.8288938271
 30
0.0
 40
2.499999999999937
100
AcDbArc
 50
274.8915298907
 51
311.6100077294
  0
ARC
  5
DF
330
1F
100
AcDbEntity
  8
0
  6
Continuous
 62
     7
370
    25
100
AcDbCircle
 10
754.528077727
 20
195.23482137
 30
0.0
 40
0.5050994627367397
100
AcDbArc
 50
356.1858115782
 51
170.315726042
  0
CIRCLE
  5
E0
330
1F
100
AcDbEntity
  8
0
  6
Continuous
 62
     7
370
    25
100
AcDbCircle
 10
71.2433501725
 20
192.8288938271
 30
0.0
 40
5.500000000000111
  0
ARC
  5
E1
330
1F
100
AcDbEntity
  8
0
  6
Continuous
 62
     7
370
    25
100
AcDbCircle
 10
73.4233600741
 20
193.8858299419
 30
0.0
 40
0.5050994627334836
100
AcDbArc
 50
298.8005827702
 51
112.9304972368
  0
ARC
  5
E2
330
1F
100
AcDbEntity
  8
0
  6
Continuous
 62
     7
370
    25
100
AcDbCircle
 10
71.2433501725
 20
192.8288938271
 30
0.0
 40
2.499999999999943
100
AcDbArc
 50
37.506301084
 51
74.2247789229
  0
ARC
  5
E3
330
1F
100
AcDbEntity
  8
0
  6
Continuous
 62
     7
370
    25
100
AcDbCircle
 10
71.4180215977
 20
195.2453058398
 30
0.0
 40
0.5050994627349494
100
AcDbArc
 50
358.800582771
 51
172.930497236
  0
ARC
  5
E4
330
1F
100
AcDbEntity
  8
0
  6
Continuous
 62
     7
370
    25
100
AcDbCircle
 10
71.2433501725
 20
192.8288938271
 30
0.0
 40
2.499999999999959
100
AcDbArc
 50
97.5063010841
 51
134.2247789229
  0
ARC
  5
E5
330
1F
100
AcDbEntity
  8
0
  6
Continuous
 62
     7
370
    25
100
AcDbCircle
 10
69.2380116961
 20
194.188369725
 30
0.0
 40
0.5050994627351754
100
AcDbArc
 50
58.8005827697
 51
232.9304972372
  0
ARC
  5
E6
330
1F
100
AcDbEntity
  8
0
  6
Continuous
 62
     7
370
    25
100
AcDbCircle
 10
71.2433501725
 20
192.8288938271
 30
0.0
 40
2.49999999999997
100
AcDbArc
 50
157.5063010841
 51
194.2247789229
  0
ARC
  5
E7
330
1F
100
AcDbEntity
  8
0
  6
Continuous
 62
     7
370
    25
100
AcDbCircle
 10
69.0633402709
 20
191.7719577123
 30
0.0
 40
0.5050994627332623
100
AcDbArc
 50
118.8005827707
 51
292.9304972361
  0
ARC
  5
E8
330
1F
100
AcDbEntity
  8
0
  6
Continuous
 62
     7
370
    25
100
AcDbCircle
 10
71.2433501725
 20
192.8288938271
 30
0.0
 40
2.499999999999944
100
AcDbArc
 50
217.506301084
 51
254.2247789229
  0
ARC
  5
E9
330
1F
100
AcDbEntity
  8
0
  6
Continuous
 62
     7
370
    25
100
AcDbCircle
 10
71.0686787473
 20
190.4124818144
 30
0.0
 40
0.5050994627366224
100
AcDbArc
 50
178.8005827716
 51
352.9304972354
  0
ARC
  5
EA
330
1F
100
AcDbEntity
  8
0
  6
Continuous
 62
     7
370
    25
100
AcDbCircle
 10
71.2433501725
 20
192.8288938271
 30
0.0
 40
2.49999999999994
100
AcDbArc
 50
277.5063010841
 51
314.2247789229
  0
ARC
  5
EB
330
1F
100
AcDbEntity
  8
0
  6
Continuous
 62
     7
370
    25
100
AcDbCircle
 10
73.2486886489
 20
191.4694179292
 30
0.0
 40
0.5050994627355113
100
AcDbArc
 50
238.8005827701
 51
52.9304972368
  0
ARC
  5
EC
330
1F
100
AcDbEntity
  8
0
  6
Continuous
 62
     7
370
    25
100
AcDbCircle
 10
71.2433501725
 20
192.8288938271
 30
0.0
 40
2.499999999999964
100
AcDbArc
 50
337.5063010841
 51
14.2247789229
  0
LINE
  5
ED
330
1F
100
AcDbEntity
  8
0
  6
Continuous
 62
     7
370
    25
100
AcDbLine
 10
59.7433501725
 20
405.3288938271
 30
0.0
 11
60.5433501725
 21
405.3288938271
 31
0.0
  0
LINE
  5
EE
330
1F
100
AcDbEntity
  8
0
  6
Continuous
 62
     7
370
    25
100
AcDbLine
 10
59.7433501725
 20
405.3288938271
 30
0.0
 11
59.7433501725
 21
422.3288938271
 31
0.0
  0
LINE
  5
EF
330
1F
100
AcDbEntity
  8
0
  6
Continuous
 62
     7
370
    25
100
AcDbLine
 10
60.5433501725
 20
405.3288938271
 30
0.0
 11
60.5433501725
 21
422.3288938271
 31
0.0
  0
LINE
  5
F0
330
1F
100
AcDbEntity
  8
0
  6
Continuous
 62
     7
370
    25
100
AcDbLine
 10
59.7433501725
 20
425.3288938271
 30
0.0
 11
60.5433501725
 21
425.3288938271
 31
0.0
  0
LINE
  5
F1
330
1F
100
AcDbEntity
  8
0
  6
Continuous
 62
     7
370
    25
100
AcDbLine
 10
60.5433501725
 20
425.3288938271
 30
0.0
 11
60.5433501725
 21
422.3288938271
 31
0.0
  0
LINE
  5
F2
330
1F
100
AcDbEntity
  8
0
  6
Continuous
 62
     7
370
    25
100
AcDbLine
 10
59.7433501725
 20
422.3288938271
 30
0.0
 11
59.7433501725
 21
425.3288938271
 31
0.0
  0
LINE
  5
F3
330
1F
100
AcDbEntity
  8
0
  6
Continuous
 62
     7
370
    25
100
AcDbLine
 10
764.9433501725
 20
422.3288938271
 30
0.0
 11
764.9433501725
 21
425.3288938271
 31
0.0
  0
LINE
  5
F4
330
1F
100
AcDbEntity
  8
0
  6
Continuous
 62
     7
370
    25
100
AcDbLine
 10
764.9433501725
 20
425.3288938271
 30
0.0
 11
765.7433501725
 21
425.3288938271
 31
0.0
  0
LINE
  5
F5
330
1F
100
AcDbEntity
  8
0
  6
Continuous
 62
     7
370
    25
100
AcDbLine
 10
765.7433501725
 20
425.3288938271
 30
0.0
 11
765.7433501725
 21
422.3288938271
 31
0.0
  0
LINE
  5
F6
330
1F
100
AcDbEntity
  8
0
  6
Continuous
 62
     7
370
    25
100
AcDbLine
 10
765.7433501725
 20
405.3288938271
 30
0.0
 11
764.9433501725
 21
405.3288938271
 31
0.0
  0
LINE
  5
F7
330
1F
100
AcDbEntity
  8
0
  6
Continuous
 62
     7
370
    25
100
AcDbLine
 10
765.7433501725
 20
422.3288938271
 30
0.0
 11
765.7433501725
 21
405.3288938271
 31
0.0
  0
LINE
  5
F8
330
1F
100
AcDbEntity
  8
0
  6
Continuous
 62
     7
370
    25
100
AcDbLine
 10
764.9433501725
 20
422.3288938271
 30
0.0
 11
764.9433501725
 21
405.3288938271
 31
0.0
  0
LINE
  5
F9
330
1F
100
AcDbEntity
  8
0
  6
Continuous
 62
     7
370
    25
100
AcDbLine
 10
60.5433501725
 20
390.8288938271
 30
0.0
 11
60.5433501725
 21
402.1288938271
 31
0.0
  0
LINE
  5
FA
330
1F
100
AcDbEntity
  8
0
  6
Continuous
 62
     7
370
    25
100
AcDbLine
 10
60.5433501725
 20
403.8288938271
 30
0.0
 11
60.5433501725
 21
405.3288938271
 31
0.0
  0
LINE
  5
FB
330
1F
100
AcDbEntity
  8
0
  6
Continuous
 62
     7
370
    25
100
AcDbLine
 10
59.7433501725
 20
390.8288938271
 30
0.0
 11
59.7433501725
 21
405.3288938271
 31
0.0
  0
LINE
  5
FC
330
1F
100
AcDbEntity
  8
0
  6
Continuous
 62
     7
370
    25
100
AcDbLine
 10
765.7433501725
 20
405.3288938271
 30
0.0
 11
765.7433501725
 21
390.8288938271
 31
0.0
  0
LINE
  5
FD
330
1F
100
AcDbEntity
  8
0
  6
Continuous
 62
     7
370
    25
100
AcDbLine
 10
764.9433501725
 20
405.3288938271
 30
0.0
 11
764.9433501725
 21
403.8288938271
 31
0.0
  0
LINE
  5
FE
330
1F
100
AcDbEntity
  8
0
  6
Continuous
 62
     7
370
    25
100
AcDbLine
 10
764.9433501725
 20
402.1288938271
 30
0.0
 11
764.9433501725
 21
390.8288938271
 31
0.0
  0
LINE
  5
FF
330
1F
100
AcDbEntity
  8
0
  6
Continuous
 62
     7
370
    25
100
AcDbLine
 10
774.4021001725
 20
390.8288938271
 30
0.0
 11
774.4021001725
 21
396.8288938271
 31
0.0
  0
LINE
  5
100
330
1F
100
AcDbEntity
  8
0
  6
Continuous
 62
     7
370
    25
100
AcDbLine
 10
774.9433501725
 20
391.9445009114
 30
0.0
 11
774.9433501725
 21
396.2876438271
 31
0.0
  0
LINE
  5
101
330
1F
100
AcDbEntity
  8
0
  6
Continuous
 62
     7
370
    25
100
AcDbLine
 10
774.9433501725
 20
391.3701438271
 30
0.0
 11
774.9433501725
 21
391.9445009114
 31
0.0
  0
LINE
  5
102
330
1F
100
AcDbEntity
  8
0
  6
Continuous
 62
     7
370
    25
100
AcDbLine
 10
60.3224199399
 20
403.8288938271
 30
0.0
 11
765.164280405
 21
403.8288938271
 31
0.0
  0
LINE
  5
103
330
1F
100
AcDbEntity
  8
0
  6
Continuous
 62
     7
370
    25
100
AcDbLine
 10
60.3224199399
 20
402.1288938271
 30
0.0
 11
765.164280405
 21
402.1288938271
 31
0.0
  0
ELLIPSE
  5
104
330
1F
100
AcDbEntity
  8
0
  6
Continuous
 62
     7
370
    25
100
AcDbEllipse
 10
60.3224199399
 20
402.9788938271
 30
0.0
 11
0.0
 21
0.8499999999999658
 31
0.0
210
0.0
220
0.0
230
1.0
 40
0.0930232558
 41
0.0
 42
3.141592653589792
  0
ELLIPSE
  5
105
330
1F
100
AcDbEntity
  8
0
  6
Continuous
 62
     7
370
    25
100
AcDbEllipse
 10
765.164280405
 20
402.9788938271
 30
0.0
 11
0.0
 21
0.8499999999999091
 31
0.0
210
0.0
220
0.0
230
1.0
 40
0.0930232558
 41
3.141592653586918
 42
6.283185307179586
  0
LINE
  5
106
330
1F
100
AcDbEntity
  8
0
  6
Continuous
 62
     7
370
    25
100
AcDbLine
 10
764.2433501725
 20
402.0288938271
 30
0.0
 11
764.2433501725
 21
402.1288938271
 31
0.0
  0
LINE
  5
107
330
1F
100
AcDbEntity
  8
0
  6
Continuous
 62
     7
370
    25
100
AcDbLine
 10
61.2433501725
 20
402.1288938271
 30
0.0
 11
61.2433501725
 21
402.0288938271
 31
0.0
  0
LINE
  5
108
330
1F
100
AcDbEntity
  8
0
  6
Continuous
 62
     7
370
    25
100
AcDbLine
 10
764.2433501725
 20
390.8288938271
 30
0.0
 11
764.2433501725
 21
402.0288938271
 31
0.0
  0
LINE
  5
109
330
1F
100
AcDbEntity
  8
0
  6
Continuous
 62
     7
370
    25
100
AcDbLine
 10
61.2433501725
 20
402.0288938271
 30
0.0
 11
61.2433501725
 21
390.8288938271
 31
0.0
  0
LINE
  5
10A
330
1F
100
AcDbEntity
  8
0
  6
Continuous
 62
     7
370
    25
100
AcDbLine
 10
50.5433501725
 20
396.2876438271
 30
0.0
 11
50.5433501725
 21
391.3701438271
 31
0.0
  0
LINE
  5
10B
330
1F
100
AcDbEntity
  8
0
  6
Continuous
 62
     7
370
    25
100
AcDbLine
 10
51.0846001725
 20
395.1252596734
 30
0.0
 11
51.0846001725
 21
390.8288938271
 31
0.0
  0
LINE
  5
10C
330
1F
100
AcDbEntity
  8
0
  6
Continuous
 62
     7
370
    25
100
AcDbLine
 10
51.0846001725
 20
396.8288938271
 30
0.0
 11
51.0846001725
 21
395.1252596734
 31
0.0
  0
LINE
  5
10D
330
1F
100
AcDbEntity
  8
0
  6
Continuous
 62
     7
370
    25
100
AcDbLine
 10
742.1038114087
 20
394.0933377069
 30
0.0
 11
743.5558871326
 21
394.326281572
 31
0.0
  0
ARC
  5
10E
330
1F
100
AcDbEntity
  8
0
  6
Continuous
 62
     7
370
    25
100
AcDbCircle
 10
754.0688164875
 20
395.4051078377
 30
0.0
 40
12.03669752931489
100
AcDbArc
 50
186.2565722693
 51
191.9710500657
  0
LINE
  5
10F
330
1F
100
AcDbEntity
  8
0
  6
Continuous
 62
     7
370
    25
100
AcDbLine
 10
742.2938867036
 20
392.9084869221
 30
0.0
 11
743.7459624275
 21
393.1414307872
 31
0.0
  0
LINE
  5
110
330
1F
100
AcDbEntity
  8
0
  6
Continuous
 62
     7
370
    25
100
AcDbLine
 10
743.7459624275
 20
393.1414307872
 30
0.0
 11
743.9789062927
 21
391.6893550633
 31
0.0
  0
ARC
  5
111
330
1F
100
AcDbEntity
  8
0
  6
Continuous
 62
     7
370
    25
100
AcDbCircle
 10
742.6671361618
 20
403.6543601421
 30
0.0
 40
12.03669752932802
100
AcDbArc
 50
276.2565722693
 51
281.9710500657
  0
LINE
  5
112
330
1F
100
AcDbEntity
  8
0
  6
Continuous
 62
     7
370
    25
100
AcDbLine
 10
744.9308132123
 20
393.3315060821
 30
0.0
 11
745.1637570775
 21
391.8794303582
 31
0.0
  0
ARC
  5
113
330
1F
100
AcDbEntity
  8
0
  6
Continuous
 62
     7
370
    25
100
AcDbCircle
 10
734.4178838575
 20
392.2526798165
 30
0.0
 40
12.03669752930881
100
AcDbArc
 50
6.2565722693
 51
11.9710500657
  0
LINE
  5
114
330
1F
100
AcDbEntity
  8
0
  6
Continuous
 62
     7
370
    25
100
AcDbLine
 10
744.7407379174
 20
394.516356867
 30
0.0
 11
746.1928136414
 21
394.7493007321
 31
0.0
  0
ARC
  5
115
330
1F
100
AcDbEntity
  8
0
  6
Continuous
 62
     7
370
    25
100
AcDbCircle
 10
745.8195641831
 20
384.0034275121
 30
0.0
 40
12.03669752932084
100
AcDbArc
 50
96.2565722693
 51
101.9710500657
  0
ARC
  5
116
330
1F
100
AcDbEntity
  8
0
  6
Continuous
 62
     7
370
    25
100
AcDbCircle
 10
744.2433501725
 20
393.8288938271
 30
0.0
 40
4.000000000000006
100
AcDbArc
 50
311.4096221093
 51
99.1138111675
  0
ARC
  5
117
330
1F
100
AcDbEntity
  8
0
  6
Continuous
 62
     7
370
    25
100
AcDbCircle
 10
744.2433501725
 20
393.8288938271
 30
0.0
 40
4.000000000000006
100
AcDbArc
 50
99.1138111675
 51
228.5903778907
  0
LINE
  5
118
330
1F
100
AcDbEntity
  8
0
  6
Continuous
 62
     7
370
    25
100
AcDbLine
 10
744.9308132123
 20
393.3315060821
 30
0.0
 11
746.3828889363
 21
393.5644499473
 31
0.0
  0
LINE
  5
119
330
1F
100
AcDbEntity
  8
0
  6
Continuous
 62
     7
370
    25
100
AcDbLine
 10
743.3229432674
 20
395.778357296
 30
0.0
 11
743.5558871326
 21
394.326281572
 31
0.0
  0
LINE
  5
11A
330
1F
100
AcDbEntity
  8
0
  6
Continuous
 62
     7
370
    25
100
AcDbLine
 10
744.5077940522
 20
395.9684325909
 30
0.0
 11
744.7407379174
 21
394.516356867
 31
0.0
  0
LINE
  5
11B
330
1F
100
AcDbEntity
  8
0
  6
Continuous
 62
     7
370
    25
100
AcDbLine
 10
744.8888442655
 20
394.5401162788
 30
0.0
 11
745.0789195604
 21
393.355265494
 31
0.0
  0
LINE
  5
11C
330
1F
100
AcDbEntity
  8
0
  6
Continuous
 62
     7
370
    25
100
AcDbLine
 10
744.9545726242
 20
393.183399734
 30
0.0
 11
743.7697218394
 21
392.9933244391
 31
0.0
  0
LINE
  5
11D
330
1F
100
AcDbEntity
  8
0
  6
Continuous
 62
     7
370
    25
100
AcDbLine
 10
744.7169785056
 20
394.6644632151
 30
0.0
 11
743.5321277207
 21
394.4743879201
 31
0.0
  0
LINE
  5
11E
330
1F
100
AcDbEntity
  8
0
  6
Continuous
 62
     7
370
    25
100
AcDbLine
 10
743.4077807845
 20
394.3025221602
 30
0.0
 11
743.5978560794
 21
393.1176713754
 31
0.0
  0
LINE
  5
11F
330
1F
100
AcDbEntity
  8
0
  6
Continuous
 62
     7
370
    25
100
AcDbLine
 10
299.1038114087
 20
394.0933377069
 30
0.0
 11
300.5558871326
 21
394.326281572
 31
0.0
  0
ARC
  5
120
330
1F
100
AcDbEntity
  8
0
  6
Continuous
 62
     7
370
    25
100
AcDbCircle
 10
311.0688164875
 20
395.4051078377
 30
0.0
 40
12.03669752933479
100
AcDbArc
 50
186.2565722694
 51
191.9710500657
  0
LINE
  5
121
330
1F
100
AcDbEntity
  8
0
  6
Continuous
 62
     7
370
    25
100
AcDbLine
 10
299.2938867036
 20
392.9084869221
 30
0.0
 11
300.7459624275
 21
393.1414307872
 31
0.0
  0
LINE
  5
122
330
1F
100
AcDbEntity
  8
0
  6
Continuous
 62
     7
370
    25
100
AcDbLine
 10
300.7459624275
 20
393.1414307872
 30
0.0
 11
300.9789062927
 21
391.6893550633
 31
0.0
  0
ARC
  5
123
330
1F
100
AcDbEntity
  8
0
  6
Continuous
 62
     7
370
    25
100
AcDbCircle
 10
299.6671361618
 20
403.6543601421
 30
0.0
 40
12.03669752932293
100
AcDbArc
 50
276.2565722693
 51
281.9710500657
  0
LINE
  5
124
330
1F
100
AcDbEntity
  8
0
  6
Continuous
 62
     7
370
    25
100
AcDbLine
 10
301.9308132123
 20
393.3315060821
 30
0.0
 11
302.1637570775
 21
391.8794303582
 31
0.0
  0
ARC
  5
125
330
1F
100
AcDbEntity
  8
0
  6
Continuous
 62
     7
370
    25
100
AcDbCircle
 10
291.4178838574
 20
392.2526798165
 30
0.0
 40
12.03669752933111
100
AcDbArc
 50
6.2565722693
 51
11.9710500657
  0
LINE
  5
126
330
1F
100
AcDbEntity
  8
0
  6
Continuous
 62
     7
370
    25
100
AcDbLine
 10
301.7407379174
 20
394.516356867
 30
0.0
 11
303.1928136414
 21
394.7493007321
 31
0.0
  0
ARC
  5
127
330
1F
100
AcDbEntity
  8
0
  6
Continuous
 62
     7
370
    25
100
AcDbCircle
 10
302.8195641831
 20
384.0034275121
 30
0.0
 40
12.03669752931881
100
AcDbArc
 50
96.2565722693
 51
101.9710500657
  0
ARC
  5
128
330
1F
100
AcDbEntity
  8
0
  6
Continuous
 62
     7
370
    25
100
AcDbCircle
 10
301.2433501725
 20
393.8288938271
 30
0.0
 40
4.000000000000012
100
AcDbArc
 50
311.4096221093
 51
99.1138111675
  0
ARC
  5
129
330
1F
100
AcDbEntity
  8
0
  6
Continuous
 62
     7
370
    25
100
AcDbCircle
 10
301.2433501725
 20
393.8288938271
 30
0.0
 40
4.000000000000012
100
AcDbArc
 50
99.1138111675
 51
228.5903778907
  0
LINE
  5
12A
330
1F
100
AcDbEntity
  8
0
  6
Continuous
 62
     7
370
    25
100
AcDbLine
 10
300.3229432674
 20
395.778357296
 30
0.0
 11
300.5558871326
 21
394.326281572
 31
0.0
  0
LINE
  5
12B
330
1F
100
AcDbEntity
  8
0
  6
Continuous
 62
     7
370
    25
100
AcDbLine
 10
301.5077940522
 20
395.9684325909
 30
0.0
 11
301.7407379174
 21
394.516356867
 31
0.0
  0
LINE
  5
12C
330
1F
100
AcDbEntity
  8
0
  6
Continuous
 62
     7
370
    25
100
AcDbLine
 10
301.9308132123
 20
393.3315060821
 30
0.0
 11
303.3828889363
 21
393.5644499473
 31
0.0
  0
LINE
  5
12D
330
1F
100
AcDbEntity
  8
0
  6
Continuous
 62
     7
370
    25
100
AcDbLine
 10
301.8888442655
 20
394.5401162788
 30
0.0
 11
302.0789195604
 21
393.355265494
 31
0.0
  0
LINE
  5
12E
330
1F
100
AcDbEntity
  8
0
  6
Continuous
 62
     7
370
    25
100
AcDbLine
 10
301.9545726242
 20
393.183399734
 30
0.0
 11
300.7697218394
 21
392.9933244391
 31
0.0
  0
LINE
  5
12F
330
1F
100
AcDbEntity
  8
0
  6
Continuous
 62
     7
370
    25
100
AcDbLine
 10
301.7169785056
 20
394.6644632151
 30
0.0
 11
300.5321277207
 21
394.4743879201
 31
0.0
  0
LINE
  5
130
330
1F
100
AcDbEntity
  8
0
  6
Continuous
 62
     7
370
    25
100
AcDbLine
 10
300.4077807845
 20
394.3025221602
 30
0.0
 11
300.5978560794
 21
393.1176713754
 31
0.0
  0
LINE
  5
131
330
1F
100
AcDbEntity
  8
0
  6
Continuous
 62
     7
370
    25
100
AcDbLine
 10
522.1038114087
 20
394.0933377069
 30
0.0
 11
523.5558871326
 21
394.326281572
 31
0.0
  0
ARC
  5
132
330
1F
100
AcDbEntity
  8
0
  6
Continuous
 62
     7
370
    25
100
AcDbCircle
 10
534.0688164875
 20
395.4051078377
 30
0.0
 40
12.03669752934479
100
AcDbArc
 50
186.2565722694
 51
191.9710500657
  0
LINE
  5
133
330
1F
100
AcDbEntity
  8
0
  6
Continuous
 62
     7
370
    25
100
AcDbLine
 10
522.2938867036
 20
392.9084869221
 30
0.0
 11
523.7459624275
 21
393.1414307872
 31
0.0
  0
ARC
  5
134
330
1F
100
AcDbEntity
  8
0
  6
Continuous
 62
     7
370
    25
100
AcDbCircle
 10
522.6671361618
 20
403.6543601421
 30
0.0
 40
12.03669752931992
100
AcDbArc
 50
276.2565722693
 51
281.9710500657
  0
ARC
  5
135
330
1F
100
AcDbEntity
  8
0
  6
Continuous
 62
     7
370
    25
100
AcDbCircle
 10
514.4178838575
 20
392.2526798165
 30
0.0
 40
12.03669752932353
100
AcDbArc
 50
6.2565722693
 51
11.9710500657
  0
ARC
  5
136
330
1F
100
AcDbEntity
  8
0
  6
Continuous
 62
     7
370
    25
100
AcDbCircle
 10
525.8195641831
 20
384.0034275121
 30
0.0
 40
12.03669752932295
100
AcDbArc
 50
96.2565722693
 51
101.9710500657
  0
ARC
  5
137
330
1F
100
AcDbEntity
  8
0
  6
Continuous
 62
     7
370
    25
100
AcDbCircle
 10
524.2433501725
 20
393.8288938271
 30
0.0
 40
4.000000000000006
100
AcDbArc
 50
311.4096221093
 51
99.1138111675
  0
ARC
  5
138
330
1F
100
AcDbEntity
  8
0
  6
Continuous
 62
     7
370
    25
100
AcDbCircle
 10
524.2433501725
 20
393.8288938271
 30
0.0
 40
4.000000000000006
100
AcDbArc
 50
99.1138111675
 51
228.5903778907
  0
LINE
  5
139
330
1F
100
AcDbEntity
  8
0
  6
Continuous
 62
     7
370
    25
100
AcDbLine
 10
524.7407379174
 20
394.516356867
 30
0.0
 11
526.1928136414
 21
394.7493007321
 31
0.0
  0
LINE
  5
13A
330
1F
100
AcDbEntity
  8
0
  6
Continuous
 62
     7
370
    25
100
AcDbLine
 10
524.9308132123
 20
393.3315060821
 30
0.0
 11
525.1637570775
 21
391.8794303582
 31
0.0
  0
LINE
  5
13B
330
1F
100
AcDbEntity
  8
0
  6
Continuous
 62
     7
370
    25
100
AcDbLine
 10
524.5077940522
 20
395.9684325909
 30
0.0
 11
524.7407379174
 21
394.516356867
 31
0.0
  0
LINE
  5
13C
330
1F
100
AcDbEntity
  8
0
  6
Continuous
 62
     7
370
    25
100
AcDbLine
 10
523.3229432674
 20
395.778357296
 30
0.0
 11
523.5558871326
 21
394.326281572
 31
0.0
  0
LINE
  5
13D
330
1F
100
AcDbEntity
  8
0
  6
Continuous
 62
     7
370
    25
100
AcDbLine
 10
523.7459624275
 20
393.1414307872
 30
0.0
 11
523.9789062927
 21
391.6893550633
 31
0.0
  0
LINE
  5
13E
330
1F
100
AcDbEntity
  8
0
  6
Continuous
 62
     7
370
    25
100
AcDbLine
 10
524.9308132123
 20
393.3315060821
 30
0.0
 11
526.3828889363
 21
393.5644499473
 31
0.0
  0
LINE
  5
13F
330
1F
100
AcDbEntity
  8
0
  6
Continuous
 62
     7
370
    25
100
AcDbLine
 10
524.8888442655
 20
394.5401162788
 30
0.0
 11
525.0789195604
 21
393.355265494
 31
0.0
  0
LINE
  5
140
330
1F
100
AcDbEntity
  8
0
  6
Continuous
 62
     7
370
    25
100
AcDbLine
 10
524.7169785056
 20
394.6644632151
 30
0.0
 11
523.5321277207
 21
394.4743879201
 31
0.0
  0
LINE
  5
141
330
1F
100
AcDbEntity
  8
0
  6
Continuous
 62
     7
370
    25
100
AcDbLine
 10
524.9545726242
 20
393.183399734
 30
0.0
 11
523.7697218394
 21
392.9933244391
 31
0.0
  0
LINE
  5
142
330
1F
100
AcDbEntity
  8
0
  6
Continuous
 62
     7
370
    25
100
AcDbLine
 10
523.4077807845
 20
394.3025221602
 30
0.0
 11
523.5978560794
 21
393.1176713754
 31
0.0
  0
LINE
  5
143
330
1F
100
AcDbEntity
  8
0
  6
Continuous
 62
     7
370
    25
100
AcDbLine
 10
80.3229432674
 20
395.778357296
 30
0.0
 11
80.5558871326
 21
394.326281572
 31
0.0
  0
ARC
  5
144
330
1F
100
AcDbEntity
  8
0
  6
Continuous
 62
     7
370
    25
100
AcDbCircle
 10
91.0688164875
 20
395.4051078377
 30
0.0
 40
12.03669752935954
100
AcDbArc
 50
186.2565722694
 51
191.9710500657
  0
LINE
  5
145
330
1F
100
AcDbEntity
  8
0
  6
Continuous
 62
     7
370
    25
100
AcDbLine
 10
80.7459624275
 20
393.1414307872
 30
0.0
 11
80.9789062927
 21
391.6893550633
 31
0.0
  0
ARC
  5
146
330
1F
100
AcDbEntity
  8
0
  6
Continuous
 62
     7
370
    25
100
AcDbCircle
 10
79.6671361618
 20
403.6543601421
 30
0.0
 40
12.03669752932668
100
AcDbArc
 50
276.2565722693
 51
281.9710500657
  0
LINE
  5
147
330
1F
100
AcDbEntity
  8
0
  6
Continuous
 62
     7
370
    25
100
AcDbLine
 10
81.9308132123
 20
393.3315060821
 30
0.0
 11
82.1637570775
 21
391.8794303582
 31
0.0
  0
LINE
  5
148
330
1F
100
AcDbEntity
  8
0
  6
Continuous
 62
     7
370
    25
100
AcDbLine
 10
81.9308132123
 20
393.3315060821
 30
0.0
 11
83.3828889363
 21
393.5644499473
 31
0.0
  0
ARC
  5
149
330
1F
100
AcDbEntity
  8
0
  6
Continuous
 62
     7
370
    25
100
AcDbCircle
 10
71.4178838574
 20
392.2526798165
 30
0.0
 40
12.0366975293518
100
AcDbArc
 50
6.2565722694
 51
11.9710500657
  0
LINE
  5
14A
330
1F
100
AcDbEntity
  8
0
  6
Continuous
 62
     7
370
    25
100
AcDbLine
 10
81.7407379174
 20
394.516356867
 30
0.0
 11
83.1928136414
 21
394.7493007321
 31
0.0
  0
LINE
  5
14B
330
1F
100
AcDbEntity
  8
0
  6
Continuous
 62
     7
370
    25
100
AcDbLine
 10
81.5077940522
 20
395.9684325909
 30
0.0
 11
81.7407379174
 21
394.516356867
 31
0.0
  0
ARC
  5
14C
330
1F
100
AcDbEntity
  8
0
  6
Continuous
 62
     7
370
    25
100
AcDbCircle
 10
82.8195641831
 20
384.0034275121
 30
0.0
 40
12.0366975293195
100
AcDbArc
 50
96.2565722693
 51
101.9710500657
  0
ARC
  5
14D
330
1F
100
AcDbEntity
  8
0
  6
Continuous
 62
     7
370
    25
100
AcDbCircle
 10
81.2433501725
 20
393.8288938271
 30
0.0
 40
4.000000000000012
100
AcDbArc
 50
311.4096221093
 51
99.1138111675
  0
ARC
  5
14E
330
1F
100
AcDbEntity
  8
0
  6
Continuous
 62
     7
370
    25
100
AcDbCircle
 10
81.2433501725
 20
393.8288938271
 30
0.0
 40
4.000000000000002
100
AcDbArc
 50
99.1138111675
 51
228.5903778907
  0
LINE
  5
14F
330
1F
100
AcDbEntity
  8
0
  6
Continuous
 62
     7
370
    25
100
AcDbLine
 10
79.2938867036
 20
392.9084869221
 30
0.0
 11
80.7459624275
 21
393.1414307872
 31
0.0
  0
LINE
  5
150
330
1F
100
AcDbEntity
  8
0
  6
Continuous
 62
     7
370
    25
100
AcDbLine
 10
79.1038114087
 20
394.0933377069
 30
0.0
 11
80.5558871326
 21
394.326281572
 31
0.0
  0
LINE
  5
151
330
1F
100
AcDbEntity
  8
0
  6
Continuous
 62
     7
370
    25
100
AcDbLine
 10
81.8888442655
 20
394.5401162788
 30
0.0
 11
82.0789195604
 21
393.355265494
 31
0.0
  0
LINE
  5
152
330
1F
100
AcDbEntity
  8
0
  6
Continuous
 62
     7
370
    25
100
AcDbLine
 10
81.7169785056
 20
394.6644632151
 30
0.0
 11
80.5321277207
 21
394.4743879201
 31
0.0
  0
LINE
  5
153
330
1F
100
AcDbEntity
  8
0
  6
Continuous
 62
     7
370
    25
100
AcDbLine
 10
81.9545726242
 20
393.183399734
 30
0.0
 11
80.7697218394
 21
392.9933244391
 31
0.0
  0
LINE
  5
154
330
1F
100
AcDbEntity
  8
0
  6
Continuous
 62
     7
370
    25
100
AcDbLine
 10
80.4077807845
 20
394.3025221602
 30
0.0
 11
80.5978560794
 21
393.1176713754
 31
0.0
  0
SPLINE
  5
155
330
1F
100
AcDbEntity
  8
0
  6
Continuous
 62
     7
370
    25
100
AcDbSpline
210
0.0
220
0.0
230
1.0
 70
    24
 71
     3
 72
    18
 73
    14
 74
     0
 42
0.000000001
 43
0.00000001
 40
0.0
 40
0.0
 40
0.0
 40
0.0
 40
0.1395442450004755
 40
0.2146633576115607
 40
0.2913766055701594
 40
0.3680898535287578
 40
0.4432089661398433
 40
0.582753211140318
 40
0.7222974561407931
 40
0.7974165687518794
 40
0.874129816710477
 40
0.9508430646690749
 40
1.0
 40
1.0
 40
1.0
 40
1.0
 10
61.54335017247753
 20
413.598365770327
 30
0.0
 10
61.54335017247747
 20
413.9834966622525
 30
0.0
 10
61.54335017247742
 20
414.5759502627606
 30
0.0
 10
61.54335017247764
 20
415.8118644441456
 30
0.0
 10
61.54335017247747
 20
416.8878940565004
 30
0.0
 10
61.54335017247759
 20
418.0514221770493
 30
0.0
 10
61.54335017247753
 20
419.5718693680674
 30
0.0
 10
61.54335017247753
 20
421.3960593660742
 30
0.0
 10
61.54335017247753
 20
422.9112943206666
 30
0.0
 10
61.54335017247747
 20
423.8290416190965
 30
0.0
 10
61.54335017247753
 20
424.3326584374502
 30
0.0
 10
61.54335017247753
 20
424.6047955621901
 30
0.0
 10
61.54335017247759
 20
424.6028877193041
 30
0.0
 10
61.54335017247753
 20
424.6021426364981
 30
0.0
  0
SPLINE
  5
156
330
1F
100
AcDbEntity
  8
0
  6
Continuous
 62
     7
370
    25
100
AcDbSpline
210
0.0
220
0.0
230
1.0
 70
     8
 71
     3
 72
     8
 73
     4
 74
     0
 42
0.000000001
 43
0.00000001
 40
0.0
 40
0.0
 40
0.0
 40
0.0
 40
1.0
 40
1.0
 40
1.0
 40
1.0
 10
65.54335017247043
 20
416.0042244159609
 30
0.0
 10
65.54335017247043
 20
416.8172139876662
 30
0.0
 10
65.36903487209116
 20
417.607952383734
 30
0.0
 10
65.09676818507909
 20
418.3861873822107
 30
0.0
  0
SPLINE
  5
157
330
1F
100
AcDbEntity
  8
0
  6
Continuous
 62
     7
370
    25
100
AcDbSpline
210
0.0
220
0.0
230
1.0
 70
     8
 71
     3
 72
     8
 73
     4
 74
     0
 42
0.000000001
 43
0.00000001
 40
0.0
 40
0.0
 40
0.0
 40
0.0
 40
1.0
 40
1.0
 40
1.0
 40
1.0
 10
65.09676818507909
 20
413.6222614497112
 30
0.0
 10
65.36903487209051
 20
414.4004964481861
 30
0.0
 10
65.54335017247043
 20
415.1912348442578
 30
0.0
 10
65.54335017247043
 20
416.0042244159609
 30
0.0
  0
LINE
  5
158
330
1F
100
AcDbEntity
  8
0
  6
Continuous
 62
     7
370
    25
100
AcDbLine
 10
61.5433501725
 20
413.6222614497
 30
0.0
 11
65.0967681851
 21
413.6222614497
 31
0.0
  0
LINE
  5
159
330
1F
100
AcDbEntity
  8
0
  6
Continuous
 62
     7
370
    25
100
AcDbLine
 10
65.0967681851
 20
418.3861873822
 30
0.0
 11
61.5433501725
 21
418.3861873822
 31
0.0
  0
SPLINE
  5
15A
330
1F
100
AcDbEntity
  8
0
  6
Continuous
 62
     7
370
    25
100
AcDbSpline
210
0.0
220
0.0
230
1.0
 70
     8
 71
     3
 72
     8
 73
     4
 74
     0
 42
0.000000001
 43
0.00000001
 40
0.0
 40
0.0
 40
0.0
 40
0.0
 40
1.0
 40
1.0
 40
1.0
 40
1.0
 10
65.54335017247037
 20
420.9895035709075
 30
0.0
 10
65.54335017247037
 20
421.8780433774633
 30
0.0
 10
65.36903487209095
 20
422.7422642308823
 30
0.0
 10
65.09676818507909
 20
423.5928197595974
 30
0.0
  0
SPLINE
  5
15B
330
1F
100
AcDbEntity
  8
0
  6
Continuous
 62
     7
370
    25
100
AcDbSpline
210
0.0
220
0.0
230
1.0
 70
     8
 71
     3
 72
     8
 73
     4
 74
     0
 42
0.000000001
 43
0.00000001
 40
0.0
 40
0.0
 40
0.0
 40
0.0
 40
1.0
 40
1.0
 40
1.0
 40
1.0
 10
65.09676818507909
 20
418.3861873822174
 30
0.0
 10
65.36903487209057
 20
419.2367429109313
 30
0.0
 10
65.54335017247037
 20
420.100963764353
 30
0.0
 10
65.54335017247037
 20
420.9895035709075
 30
0.0
  0
LINE
  5
15C
330
1F
100
AcDbEntity
  8
0
  6
Continuous
 62
     7
370
    25
100
AcDbLine
 10
61.5433501725
 20
423.5928197596
 30
0.0
 11
65.0967681851
 21
423.5928197596
 31
0.0
  0
LINE
  5
15D
330
1F
100
AcDbEntity
  8
0
  6
Continuous
 62
     7
370
    25
100
AcDbLine
 10
65.5433501725
 20
416.004224416
 30
0.0
 11
65.5433501725
 21
420.9895035709
 31
0.0
  0
SPLINE
  5
15E
330
1F
100
AcDbEntity
  8
0
  6
Continuous
 62
     7
370
    25
100
AcDbSpline
210
0.0
220
0.0
230
1.0
 70
     8
 71
     3
 72
     8
 73
     4
 74
     0
 42
0.000000001
 43
0.00000001
 40
0.0
 40
0.0
 40
0.0
 40
0.0
 40
1.0
 40
1.0
 40
1.0
 40
1.0
 10
65.0967681850792
 20
423.5928197596011
 30
0.0
 10
65.36903487209061
 20
423.6651402898399
 30
0.0
 10
65.54335017247054
 20
423.7386227471904
 30
0.0
 10
65.54335017247054
 20
423.8141729820416
 30
0.0
  0
LINE
  5
15F
330
1F
100
AcDbEntity
  8
0
  6
Continuous
 62
     7
370
    25
100
AcDbLine
 10
65.5433501725
 20
420.9895035709
 30
0.0
 11
65.5433501725
 21
423.814172982
 31
0.0
  0
SPLINE
  5
160
330
1F
100
AcDbEntity
  8
0
  6
Continuous
 62
     7
370
    25
100
AcDbSpline
210
0.0
220
0.0
230
1.0
 70
     8
 71
     3
 72
     8
 73
     4
 74
     0
 42
0.000000001
 43
0.00000001
 40
0.0
 40
0.0
 40
0.0
 40
0.0
 40
1.0
 40
1.0
 40
1.0
 40
1.0
 10
65.54335017247054
 20
413.8436146721489
 30
0.0
 10
65.54335017247054
 20
413.7680644372976
 30
0.0
 10
65.36903487209112
 20
413.6945819799474
 30
0.0
 10
65.09676818507914
 20
413.6222614497084
 30
0.0
  0
LINE
  5
161
330
1F
100
AcDbEntity
  8
0
  6
Continuous
 62
     7
370
    25
100
AcDbLine
 10
65.5433501725
 20
416.004224416
 30
0.0
 11
65.5433501725
 21
413.8362213333
 31
0.0
  0
SPLINE
  5
162
330
1F
100
AcDbEntity
  8
0
  6
Continuous
 62
     7
370
    25
100
AcDbSpline
210
0.0
220
0.0
230
1.0
 70
     8
 71
     3
 72
     8
 73
     4
 74
     0
 42
0.000000001
 43
0.00000001
 40
0.0
 40
0.0
 40
0.0
 40
0.0
 40
1.0
 40
1.0
 40
1.0
 40
1.0
 10
65.54335017247054
 20
423.8141729820416
 30
0.0
 10
65.54335017247054
 20
423.8897232168929
 30
0.0
 10
65.36903487209112
 20
423.9632056742431
 30
0.0
 10
65.09676818507914
 20
424.035526204482
 30
0.0
  0
LINE
  5
163
330
1F
100
AcDbEntity
  8
0
  6
Continuous
 62
     7
370
    25
100
AcDbLine
 10
61.5433501725
 20
424.0355262045
 30
0.0
 11
65.0967681851
 21
424.0355262045
 31
0.0
  0
LINE
  5
164
330
1F
100
AcDbEntity
  8
0
  6
Continuous
 62
     7
370
    25
100
AcDbLine
 10
51.0846001725
 20
420.1252596734
 30
0.0
 11
51.0846001725
 21
415.8288938271
 31
0.0
  0
LINE
  5
165
330
1F
100
AcDbEntity
  8
0
  6
Continuous
 62
     7
370
    25
100
AcDbLine
 10
51.0846001725
 20
421.8288938271
 30
0.0
 11
51.0846001725
 21
420.1252596734
 31
0.0
  0
LINE
  5
166
330
1F
100
AcDbEntity
  8
0
  6
Continuous
 62
     7
370
    25
100
AcDbLine
 10
50.5433501725
 20
421.2876438271
 30
0.0
 11
50.5433501725
 21
416.3701438271
 31
0.0
  0
LINE
  5
167
330
1F
100
AcDbEntity
  8
0
  6
Continuous
 62
     7
370
    25
100
AcDbLine
 10
906.0362615433
 20
390.050267155
 30
0.0
 11
906.3991993217
 21
390.6788938271
 31
0.0
  0
LINE
  5
168
330
1F
100
AcDbEntity
  8
0
  6
Continuous
 62
     7
370
    25
100
AcDbLine
 10
906.3991993217
 20
396.9788938271
 30
0.0
 11
906.0362615433
 21
397.6075204992
 31
0.0
  0
ARC
  5
169
330
1F
100
AcDbEntity
  8
0
  6
Continuous
 62
     7
370
    25
100
AcDbCircle
 10
903.1709960914
 20
393.8288938271
 30
0.0
 40
8.000000000000066
100
AcDbArc
 50
330.0
 51
344.7252520003
  0
ARC
  5
16A
330
1F
100
AcDbEntity
  8
0
  6
Continuous
 62
     7
370
    25
100
AcDbCircle
 10
903.1709960914
 20
393.8288938271
 30
0.0
 40
8.000000000000066
100
AcDbArc
 50
15.2747479997
 51
30.0
  0
LINE
  5
16B
330
1F
100
AcDbEntity
  8
0
  6
Continuous
 62
     7
370
    25
100
AcDbLine
 10
908.0991993217
 20
389.8288938271
 30
0.0
 11
910.0991993217
 21
389.8288938271
 31
0.0
  0
LINE
  5
16C
330
1F
100
AcDbEntity
  8
0
  6
Continuous
 62
     7
370
    25
100
AcDbLine
 10
910.0991993217
 20
397.8288938271
 30
0.0
 11
908.0991993217
 21
397.8288938271
 31
0.0
  0
LINE
  5
16D
330
1F
100
AcDbEntity
  8
0
  6
Continuous
 62
     7
370
    25
100
AcDbLine
 10
906.3991993217
 20
391.8288938271
 30
0.0
 11
906.4991993217
 21
391.8288938271
 31
0.0
  0
LINE
  5
16E
330
1F
100
AcDbEntity
  8
0
  6
Continuous
 62
     7
370
    25
100
AcDbLine
 10
906.4991993217
 20
395.8288938271
 30
0.0
 11
906.3991993217
 21
395.8288938271
 31
0.0
  0
LINE
  5
16F
330
1F
100
AcDbEntity
  8
0
  6
Continuous
 62
     7
370
    25
100
AcDbLine
 10
913.3991993217
 20
389.358183149
 30
0.0
 11
913.3991993217
 21
146.2996045052
 31
0.0
  0
LINE
  5
170
330
1F
100
AcDbEntity
  8
0
  6
Continuous
 62
     7
370
    25
100
AcDbLine
 10
922.9991993217
 20
389.358183149
 30
0.0
 11
913.3991993217
 21
389.358183149
 31
0.0
  0
LINE
  5
171
330
1F
100
AcDbEntity
  8
0
  6
Continuous
 62
     7
370
    25
100
AcDbLine
 10
922.9991993217
 20
146.2996045052
 30
0.0
 11
913.3991993217
 21
146.2996045052
 31
0.0
  0
SPLINE
  5
172
330
1F
100
AcDbEntity
  8
0
  6
Continuous
 62
     7
370
    25
100
AcDbSpline
210
0.0
220
0.0
230
1.0
 70
     8
 71
     3
 72
    20
 73
    16
 74
     0
 42
0.000000001
 43
0.00000001
 40
0.0
 40
0.0
 40
0.0
 40
0.0
 40
0.1249999999999998
 40
0.1249999999999998
 40
0.2499999999999995
 40
0.2499999999999995
 40
0.3749999999999992
 40
0.3749999999999992
 40
0.4999999999999988
 40
0.4999999999999988
 40
0.7500000000000007
 40
0.7500000000000007
 40
0.8750000000000002
 40
0.8750000000000002
 40
1.0
 40
1.0
 40
1.0
 40
1.0
 10
922.9991993216562
 20
389.3581831489744
 30
0.0
 10
923.1575785093069
 20
389.31914241812
 30
0.0
 10
923.3138242339985
 20
389.2806237139201
 30
0.0
 10
923.6218160834152
 20
389.2032169626122
 30
0.0
 10
923.7744601908863
 20
389.1640725446255
 30
0.0
 10
924.0635444800735
 20
389.0869217907103
 30
0.0
 10
924.2013490182575
 20
389.0485942089692
 30
0.0
 10
924.4629676938963
 20
388.9710478884928
 30
0.0
 10
924.585714000579
 20
388.932071680824
 30
0.0
 10
924.9170383775268
 20
388.816576824379
 30
0.0
 10
925.0960495015548
 20
388.7386643807089
 30
0.0
 10
925.2756646009358
 20
388.6231844553081
 30
0.0
 10
925.3219089498035
 20
388.5843186594431
 30
0.0
 10
925.3836622558148
 20
388.5065443257745
 30
0.0
 10
925.3991993216562
 20
388.4679345588197
 30
0.0
 10
925.3991993216562
 20
388.4288938270931
 30
0.0
  0
LINE
  5
173
330
1F
100
AcDbEntity
  8
0
  6
Continuous
 62
     7
370
    25
100
AcDbLine
 10
925.3991993217
 20
388.4288938271
 30
0.0
 11
925.3991993217
 21
147.2288938271
 31
0.0
  0
SPLINE
  5
174
330
1F
100
AcDbEntity
  8
0
  6
Continuous
 62
     7
370
    25
100
AcDbSpline
210
0.0
220
0.0
230
1.0
 70
     8
 71
     3
 72
    20
 73
    16
 74
     0
 42
0.000000001
 43
0.00000001
 40
0.0
 40
0.0
 40
0.0
 40
0.0
 40
0.1250000000000095
 40
0.1250000000000095
 40
0.2500000000000189
 40
0.2500000000000189
 40
0.3750000000000284
 40
0.3750000000000284
 40
0.5000000000000379
 40
0.5000000000000379
 40
0.7500000000000271
 40
0.7500000000000271
 40
0.8750000000000137
 40
0.8750000000000137
 40
1.0
 40
1.0
 40
1.0
 40
1.0
 10
925.3991993216562
 20
147.2288938270931
 30
0.0
 10
925.3991993216562
 20
147.1898530962386
 30
0.0
 10
925.3836627611813
 20
147.1513343920387
 30
0.0
 10
925.3223444092207
 20
147.0739276407308
 30
0.0
 10
925.2759206636339
 20
147.0347832227441
 30
0.0
 10
925.1559697934798
 20
146.957632468829
 30
0.0
 10
925.0823651491964
 20
146.9193048870879
 30
0.0
 10
924.9076347831007
 20
146.8417585666114
 30
0.0
 10
924.8067841541991
 20
146.8027823589427
 30
0.0
 10
924.4754988742152
 20
146.6872875024977
 30
0.0
 10
924.2078187128313
 20
146.6093750588275
 30
0.0
 10
923.7751446867759
 20
146.4938951334266
 30
0.0
 10
923.6236265999248
 20
146.4550293375616
 30
0.0
 10
923.3142008425386
 20
146.3772550038931
 30
0.0
 10
923.157578512845
 20
146.3386452369384
 30
0.0
 10
922.9991993216562
 20
146.2996045052117
 30
0.0
  0
SPLINE
  5
175
330
1F
100
AcDbEntity
  8
0
  6
Continuous
 62
     7
370
    25
100
AcDbSpline
210
0.0
220
0.0
230
1.0
 70
     8
 71
     3
 72
    20
 73
    16
 74
     0
 42
0.000000001
 43
0.00000001
 40
0.0
 40
0.0
 40
0.0
 40
0.0
 40
0.1250000000000006
 40
0.1250000000000006
 40
0.2500000000000011
 40
0.2500000000000011
 40
0.3750000000000017
 40
0.3750000000000017
 40
0.5000000000000022
 40
0.5000000000000022
 40
0.7500000000000062
 40
0.7500000000000062
 40
0.8750000000000031
 40
0.8750000000000031
 40
1.0
 40
1.0
 40
1.0
 40
1.0
 10
925.3991993216562
 20
388.428893827093
 30
0.0
 10
925.3991993216562
 20
388.5872730147437
 30
0.0
 10
925.3836627611813
 20
388.7435187394354
 30
0.0
 10
925.3223444092208
 20
389.0515105888521
 30
0.0
 10
925.275920663634
 20
389.2041546963232
 30
0.0
 10
925.1559697934798
 20
389.4932389855102
 30
0.0
 10
925.0823651491964
 20
389.6310435236943
 30
0.0
 10
924.9076347831008
 20
389.8926621993332
 30
0.0
 10
924.8067841541992
 20
390.0154085060159
 30
0.0
 10
924.4754988742153
 20
390.3467328829636
 30
0.0
 10
924.2078187128315
 20
390.5257440069918
 30
0.0
 10
923.775144686776
 20
390.7053591063728
 30
0.0
 10
923.6236265999249
 20
390.7516034552405
 30
0.0
 10
923.3142008425388
 20
390.8133567612517
 30
0.0
 10
923.157578512845
 20
390.8288938270931
 30
0.0
 10
922.9991993216562
 20
390.8288938270931
 30
0.0
  0
SPLINE
  5
176
330
1F
100
AcDbEntity
  8
0
  6
Continuous
 62
     7
370
    25
100
AcDbSpline
210
0.0
220
0.0
230
1.0
 70
     8
 71
     3
 72
     9
 73
     5
 74
     0
 42
0.000000001
 43
0.00000001
 40
0.0
 40
0.0
 40
0.0
 40
0.0
 40
0.4825784287291867
 40
1.0
 40
1.0
 40
1.0
 40
1.0
 10
923.6117390608342
 20
389.2050640590396
 30
0.0
 10
923.5236047195178
 20
389.2688722521009
 30
0.0
 10
923.340972558465
 20
389.40109571934
 30
0.0
 10
923.1157396744204
 20
389.4194150237965
 30
0.0
 10
922.9991993216562
 20
389.4288938270931
 30
0.0
  0
LINE
  5
177
330
1F
100
AcDbEntity
  8
0
  6
Continuous
 62
     7
370
    25
100
AcDbLine
 10
922.9991993217
 20
390.8288938271
 30
0.0
 11
922.9991993217
 21
389.4288938271
 31
0.0
  0
LINE
  5
178
330
1F
100
AcDbEntity
  8
0
  6
Continuous
 62
     7
370
    25
100
AcDbLine
 10
922.9991993217
 20
144.8288938271
 30
0.0
 11
922.9991993217
 21
146.2288938271
 31
0.0
  0
SPLINE
  5
179
330
1F
100
AcDbEntity
  8
0
  6
Continuous
 62
     7
370
    25
100
AcDbSpline
210
0.0
220
0.0
230
1.0
 70
     8
 71
     3
 72
     9
 73
     5
 74
     0
 42
0.000000001
 43
0.00000001
 40
0.0
 40
0.0
 40
0.0
 40
0.0
 40
0.7329379507265
 40
1.0
 40
1.0
 40
1.0
 40
1.0
 10
922.9991993216562
 20
146.2288938270932
 30
0.0
 10
923.150587963312
 20
146.240648476611
 30
0.0
 10
923.3571383834475
 20
146.2566861909988
 30
0.0
 10
923.5124987255662
 20
146.3850234974928
 30
0.0
 10
923.5539895769083
 20
146.4192975215633
 30
0.0
  0
SPLINE
  5
17A
330
1F
100
AcDbEntity
  8
0
  6
Continuous
 62
     7
370
    25
100
AcDbSpline
210
0.0
220
0.0
230
1.0
 70
     8
 71
     3
 72
    20
 73
    16
 74
     0
 42
0.000000001
 43
0.00000001
 40
0.0
 40
0.0
 40
0.0
 40
0.0
 40
0.1250000000000005
 40
0.1250000000000005
 40
0.250000000000001
 40
0.250000000000001
 40
0.3750000000000015
 40
0.3750000000000015
 40
0.500000000000002
 40
0.500000000000002
 40
0.7500000000000059
 40
0.7500000000000059
 40
0.8750000000000029
 40
0.8750000000000029
 40
1.0
 40
1.0
 40
1.0
 40
1.0
 10
922.9991993216562
 20
144.8288938270933
 30
0.0
 10
923.1575785093067
 20
144.8288938270932
 30
0.0
 10
923.3138242339985
 20
144.8444303875681
 30
0.0
 10
923.6218160834151
 20
144.9057487395287
 30
0.0
 10
923.7744601908862
 20
144.9521724851154
 30
0.0
 10
924.0635444800733
 20
145.0721233552695
 30
0.0
 10
924.2013490182574
 20
145.145727999553
 30
0.0
 10
924.4629676938962
 20
145.3204583656486
 30
0.0
 10
924.5857140005788
 20
145.4213089945501
 30
0.0
 10
924.9170383775265
 20
145.752594274534
 30
0.0
 10
925.0960495015547
 20
146.0202744359179
 30
0.0
 10
925.2756646009357
 20
146.4529484619733
 30
0.0
 10
925.3219089498034
 20
146.6044665488244
 30
0.0
 10
925.3836622558146
 20
146.9138923062105
 30
0.0
 10
925.399199321656
 20
147.0705146359043
 30
0.0
 10
925.3991993216562
 20
147.2288938270929
 30
0.0
  0
LINE
  5
17B
330
1F
100
AcDbEntity
  8
0
  6
Continuous
 62
     7
370
    25
100
AcDbLine
 10
922.9991993217
 20
146.2288938271
 30
0.0
 11
913.3991993217
 21
146.2288938271
 31
0.0
  0
LINE
  5
17C
330
1F
100
AcDbEntity
  8
0
  6
Continuous
 62
     7
370
    25
100
AcDbLine
 10
922.9991993217
 20
144.8288938271
 30
0.0
 11
913.3991993217
 21
144.8288938271
 31
0.0
  0
LINE
  5
17D
330
1F
100
AcDbEntity
  8
0
  6
Continuous
 62
     7
370
    25
100
AcDbLine
 10
913.3991993217
 20
144.8288938271
 30
0.0
 11
913.3991993217
 21
146.2288938271
 31
0.0
  0
LINE
  5
17E
330
1F
100
AcDbEntity
  8
0
  6
Continuous
 62
     7
370
    25
100
AcDbLine
 10
922.9991993217
 20
390.8288938271
 30
0.0
 11
913.3991993217
 21
390.8288938271
 31
0.0
  0
LINE
  5
17F
330
1F
100
AcDbEntity
  8
0
  6
Continuous
 62
     7
370
    25
100
AcDbLine
 10
922.9991993217
 20
389.4288938271
 30
0.0
 11
913.3991993217
 21
389.4288938271
 31
0.0
  0
LINE
  5
180
330
1F
100
AcDbEntity
  8
0
  6
Continuous
 62
     7
370
    25
100
AcDbLine
 10
913.3991993217
 20
390.8288938271
 30
0.0
 11
913.3991993217
 21
389.4288938271
 31
0.0
  0
LINE
  5
181
330
1F
100
AcDbEntity
  8
0
  6
Continuous
 62
     7
370
    25
100
AcDbLine
 10
905.2991993217
 20
405.3288938271
 30
0.0
 11
909.2991993217
 21
405.3288938271
 31
0.0
  0
LINE
  5
182
330
1F
100
AcDbEntity
  8
0
  6
Continuous
 62
     7
370
    25
100
AcDbLine
 10
905.2991993217
 20
388.1288938271
 30
0.0
 11
905.2991993217
 21
405.3288938271
 31
0.0
  0
LINE
  5
183
330
1F
100
AcDbEntity
  8
0
  6
Continuous
 62
     7
370
    25
100
AcDbLine
 10
886.2991993217
 20
422.3288938271
 30
0.0
 11
886.2991993217
 21
388.1288938271
 31
0.0
  0
ARC
  5
184
330
1F
100
AcDbEntity
  8
0
  6
Continuous
 62
     7
370
    25
100
AcDbCircle
 10
889.2991993217
 20
422.3288938271
 30
0.0
 40
3.0
100
AcDbArc
 50
90.0
 51
180.0
  0
LINE
  5
185
330
1F
100
AcDbEntity
  8
0
  6
Continuous
 62
     7
370
    25
100
AcDbLine
 10
906.2991993217
 20
425.3288938271
 30
0.0
 11
889.2991993217
 21
425.3288938271
 31
0.0
  0
ARC
  5
186
330
1F
100
AcDbEntity
  8
0
  6
Continuous
 62
     7
370
    25
100
AcDbCircle
 10
906.2991993217
 20
422.3288938271
 30
0.0
 40
3.0
100
AcDbArc
 50
0.0
 51
90.0
  0
LINE
  5
187
330
1F
100
AcDbEntity
  8
0
  6
Continuous
 62
     7
370
    25
100
AcDbLine
 10
909.2991993217
 20
405.3288938271
 30
0.0
 11
909.2991993217
 21
422.3288938271
 31
0.0
  0
CIRCLE
  5
188
330
1F
100
AcDbEntity
  8
0
  6
Continuous
 62
     7
370
    25
100
AcDbCircle
 10
894.7991993217
 20
418.8288938271
 30
0.0
 40
3.249999999999943
  0
CIRCLE
  5
189
330
1F
100
AcDbEntity
  8
0
  6
Continuous
 62
     7
370
    25
100
AcDbCircle
 10
894.7991993217
 20
393.8288938271
 30
0.0
 40
3.249999999999886
  0
LINE
  5
18A
330
1F
100
AcDbEntity
  8
0
  6
Continuous
 62
     7
370
    25
100
AcDbLine
 10
886.2991993217
 20
386.3288938271
 30
0.0
 11
886.2991993217
 21
388.1288938271
 31
0.0
  0
LINE
  5
18B
330
1F
100
AcDbEntity
  8
0
  6
Continuous
 62
     7
370
    25
100
AcDbLine
 10
905.2991993217
 20
388.1288938271
 30
0.0
 11
905.2991993217
 21
386.3288938271
 31
0.0
  0
LINE
  5
18C
330
1F
100
AcDbEntity
  8
0
  6
Continuous
 62
     7
370
    25
100
AcDbLine
 10
905.2991993217
 20
386.3288938271
 30
0.0
 11
886.2991993217
 21
386.3288938271
 31
0.0
  0
LINE
  5
18D
330
1F
100
AcDbEntity
  8
0
  6
Continuous
 62
     7
370
    25
100
AcDbLine
 10
906.4991993217
 20
398.3288938271
 30
0.0
 11
906.4991993217
 21
388.1288938271
 31
0.0
  0
LINE
  5
18E
330
1F
100
AcDbEntity
  8
0
  6
Continuous
 62
     7
370
    25
100
AcDbLine
 10
907.2991993217
 20
398.3288938271
 30
0.0
 11
906.4991993217
 21
398.3288938271
 31
0.0
  0
LINE
  5
18F
330
1F
100
AcDbEntity
  8
0
  6
Continuous
 62
     7
370
    25
100
AcDbLine
 10
905.2991993217
 20
386.3288938271
 30
0.0
 11
905.4991993217
 21
386.3288938271
 31
0.0
  0
LINE
  5
190
330
1F
100
AcDbEntity
  8
0
  6
Continuous
 62
     7
370
    25
100
AcDbLine
 10
905.2991993217
 20
387.1288938271
 30
0.0
 11
905.4991993217
 21
387.1288938271
 31
0.0
  0
ARC
  5
191
330
1F
100
AcDbEntity
  8
0
  6
Continuous
 62
     7
370
    25
100
AcDbCircle
 10
905.4991993217
 20
388.1288938271
 30
0.0
 40
1.800000000000068
100
AcDbArc
 50
270.0
 51
0.0
  0
ARC
  5
192
330
1F
100
AcDbEntity
  8
0
  6
Continuous
 62
     7
370
    25
100
AcDbCircle
 10
905.4991993217
 20
388.1288938271
 30
0.0
 40
1.0
100
AcDbArc
 50
270.0
 51
0.0
  0
LINE
  5
193
330
1F
100
AcDbEntity
  8
0
  6
Continuous
 62
     7
370
    25
100
AcDbLine
 10
862.2991993217
 20
386.3288938271
 30
0.0
 11
862.2991993217
 21
387.1288938271
 31
0.0
  0
LINE
  5
194
330
1F
100
AcDbEntity
  8
0
  6
Continuous
 62
     7
370
    25
100
AcDbLine
 10
865.2991993217
 20
386.3288938271
 30
0.0
 11
862.2991993217
 21
386.3288938271
 31
0.0
  0
LINE
  5
195
330
1F
100
AcDbEntity
  8
0
  6
Continuous
 62
     7
370
    25
100
AcDbLine
 10
862.2991993217
 20
387.1288938271
 30
0.0
 11
865.2991993217
 21
387.1288938271
 31
0.0
  0
LINE
  5
196
330
1F
100
AcDbEntity
  8
0
  6
Continuous
 62
     7
370
    25
100
AcDbLine
 10
865.2991993217
 20
386.3288938271
 30
0.0
 11
886.2991993217
 21
386.3288938271
 31
0.0
  0
LINE
  5
197
330
1F
100
AcDbEntity
  8
0
  6
Continuous
 62
     7
370
    25
100
AcDbLine
 10
865.2991993217
 20
387.1288938271
 30
0.0
 11
886.2991993217
 21
387.1288938271
 31
0.0
  0
LINE
  5
198
330
1F
100
AcDbEntity
  8
0
  6
Continuous
 62
     7
370
    25
100
AcDbLine
 10
866.3945859299
 20
390.5288938271
 30
0.0
 11
872.9122773835
 21
390.5288938271
 31
0.0
  0
LINE
  5
199
330
1F
100
AcDbEntity
  8
0
  6
Continuous
 62
     7
370
    25
100
AcDbLine
 10
866.3945859299
 20
391.3288938271
 30
0.0
 11
872.9122773835
 21
391.3288938271
 31
0.0
  0
LINE
  5
19A
330
1F
100
AcDbEntity
  8
0
  6
Continuous
 62
     7
370
    25
100
AcDbLine
 10
863.3945859299
 20
390.5288938271
 30
0.0
 11
863.3945859299
 21
391.3288938271
 31
0.0
  0
LINE
  5
19B
330
1F
100
AcDbEntity
  8
0
  6
Continuous
 62
     7
370
    25
100
AcDbLine
 10
863.3945859299
 20
391.3288938271
 30
0.0
 11
866.3945859299
 21
391.3288938271
 31
0.0
  0
LINE
  5
19C
330
1F
100
AcDbEntity
  8
0
  6
Continuous
 62
     7
370
    25
100
AcDbLine
 10
866.3945859299
 20
390.5288938271
 30
0.0
 11
863.3945859299
 21
390.5288938271
 31
0.0
  0
ARC
  5
19D
330
1F
100
AcDbEntity
  8
0
  6
Continuous
 62
     7
370
    25
100
AcDbCircle
 10
880.9371485141
 20
388.1288938271
 30
0.0
 40
1.0
100
AcDbArc
 50
240.0
 51
270.0
  0
LINE
  5
19E
330
1F
100
AcDbEntity
  8
0
  6
Continuous
 62
     7
370
    25
100
AcDbLine
 10
879.0691993217
 20
387.1288938271
 30
0.0
 11
873.4122773835
 21
390.3949192309
 31
0.0
  0
LINE
  5
19F
330
1F
100
AcDbEntity
  8
0
  6
Continuous
 62
     7
370
    25
100
AcDbLine
 10
880.4371485141
 20
387.2628684233
 30
0.0
 11
873.8122773835
 21
391.0877395539
 31
0.0
  0
ARC
  5
1A0
330
1F
100
AcDbEntity
  8
0
  6
Continuous
 62
     7
370
    25
100
AcDbCircle
 10
872.9122773835
 20
389.5288938271
 30
0.0
 40
1.799999999999969
100
AcDbArc
 50
60.0
 51
90.0
  0
ARC
  5
1A1
330
1F
100
AcDbEntity
  8
0
  6
Continuous
 62
     7
370
    25
100
AcDbCircle
 10
872.9122773835
 20
389.5288938271
 30
0.0
 40
0.9999999999999432
100
AcDbArc
 50
60.0
 51
90.0
  0
LINE
  5
1A2
330
1F
100
AcDbEntity
  8
0
  6
Continuous
 62
     7
370
    25
100
AcDbLine
 10
905.2991993217
 20
395.269723149
 30
0.0
 11
905.8845193363
 21
395.269723149
 31
0.0
  0
SPLINE
  5
1A3
330
1F
100
AcDbEntity
  8
0
  6
Continuous
 62
     7
370
    25
100
AcDbSpline
210
0.0
220
0.0
230
1.0
 70
     8
 71
     3
 72
    14
 73
    10
 74
     0
 42
0.000000001
 43
0.00000001
 40
0.0
 40
0.0
 40
0.0
 40
0.0
 40
0.25
 40
0.25
 40
0.5
 40
0.5
 40
0.75
 40
0.75
 40
1.0
 40
1.0
 40
1.0
 40
1.0
 10
905.8845193362702
 20
395.2697231489637
 30
0.0
 10
905.9793939455808
 20
394.945216919675
 30
0.0
 10
906.0589988704564
 20
394.6127576972806
 30
0.0
 10
906.1678354853508
 20
393.9461877823725
 30
0.0
 10
906.1971590910413
 20
393.6111115250972
 30
0.0
 10
906.1970943092956
 20
392.9367680548696
 30
0.0
 10
906.1669381159693
 20
392.5949886341906
 30
0.0
 10
906.0573529146036
 20
391.9285747145859
 30
0.0
 10
905.9788099408014
 20
391.6018006686332
 30
0.0
 10
905.8845193362702
 20
391.2792919515368
 30
0.0
  0
LINE
  5
1A4
330
1F
100
AcDbEntity
  8
0
  6
Continuous
 62
     7
370
    25
100
AcDbLine
 10
905.2991993217
 20
391.2792919515
 30
0.0
 11
905.8845193363
 21
391.2792919515
 31
0.0
  0
SPLINE
  5
1A5
330
1F
100
AcDbEntity
  8
0
  6
Continuous
 62
     7
370
    25
100
AcDbSpline
210
0.0
220
0.0
230
1.0
 70
     8
 71
     3
 72
    12
 73
     8
 74
     0
 42
0.000000001
 43
0.00000001
 40
0.0
 40
0.0
 40
0.0
 40
0.0
 40
0.5000000000000171
 40
0.5000000000000171
 40
0.7500000000000085
 40
0.7500000000000085
 40
1.0
 40
1.0
 40
1.0
 40
1.0
 10
905.8845193362711
 20
389.8384626296663
 30
0.0
 10
906.0750136256946
 20
390.0737224221094
 30
0.0
 10
906.1966880387571
 20
390.3125071149598
 30
0.0
 10
906.1973442292882
 20
390.6799986475169
 30
0.0
 10
906.1675102274938
 20
390.8023708421662
 30
0.0
 10
906.0585803573863
 20
391.0427545273257
 30
0.0
 10
905.9798851703233
 20
391.1615154743873
 30
0.0
 10
905.8845193362707
 20
391.2792919515369
 30
0.0
  0
SPLINE
  5
1A6
330
1F
100
AcDbEntity
  8
0
  6
Continuous
 62
     7
370
    25
100
AcDbSpline
210
0.0
220
0.0
230
1.0
 70
     8
 71
     3
 72
    12
 73
     8
 74
     0
 42
0.000000001
 43
0.00000001
 40
0.0
 40
0.0
 40
0.0
 40
0.0
 40
0.5000000000000064
 40
0.5000000000000064
 40
0.7500000000000032
 40
0.7500000000000032
 40
1.0
 40
1.0
 40
1.0
 40
1.0
 10
905.8845193362711
 20
395.2697231489636
 30
0.0
 10
906.0750136256946
 20
395.6860242326181
 30
0.0
 10
906.196688038757
 20
396.1085627606066
 30
0.0
 10
906.1973442292882
 20
396.7588529000674
 30
0.0
 10
906.1675102274938
 20
396.9753951179818
 30
0.0
 10
906.0585803573863
 20
397.4007631232221
 30
0.0
 10
905.9798851703233
 20
397.6109151022073
 30
0.0
 10
905.8845193362707
 20
397.8193250245201
 30
0.0
  0
LINE
  5
1A7
330
1F
100
AcDbEntity
  8
0
  6
Continuous
 62
     7
370
    25
100
AcDbLine
 10
905.8845193363
 20
397.8193250245
 30
0.0
 11
905.9823943735
 21
397.5764202742
 31
0.0
  0
LINE
  5
1A8
330
1F
100
AcDbEntity
  8
0
  6
Continuous
 62
     7
370
    25
100
AcDbLine
 10
906.3991993217
 20
393.3299461779
 30
0.0
 11
906.3991993217
 21
390.6788938271
 31
0.0
  0
LINE
  5
1A9
330
1F
100
AcDbEntity
  8
0
  6
Continuous
 62
     7
370
    25
100
AcDbLine
 10
906.3991993217
 20
396.9788938271
 30
0.0
 11
906.3991993217
 21
393.3299461779
 31
0.0
  0
LINE
  5
1AA
330
1F
100
AcDbEntity
  8
0
  6
Continuous
 62
     7
370
    25
100
AcDbLine
 10
905.2991993217
 20
397.8193250245
 30
0.0
 11
905.8845193363
 21
397.8193250245
 31
0.0
  0
LINE
  5
1AB
330
1F
100
AcDbEntity
  8
0
  6
Continuous
 62
     7
370
    25
100
AcDbLine
 10
905.2991993217
 20
389.8384626297
 30
0.0
 11
905.8845193363
 21
389.8384626297
 31
0.0
  0
LINE
  5
1AC
330
1F
100
AcDbEntity
  8
0
  6
Continuous
 62
     7
370
    25
100
AcDbLine
 10
909.0991993217
 20
383.8288938271
 30
0.0
 11
909.0991993217
 21
384.6288938271
 31
0.0
  0
LINE
  5
1AD
330
1F
100
AcDbEntity
  8
0
  6
Continuous
 62
     7
370
    25
100
AcDbLine
 10
913.3991993217
 20
384.6288938271
 30
0.0
 11
909.0991993217
 21
384.6288938271
 31
0.0
  0
LINE
  5
1AE
330
1F
100
AcDbEntity
  8
0
  6
Continuous
 62
     7
370
    25
100
AcDbLine
 10
913.3991993217
 20
383.8288938271
 30
0.0
 11
909.0991993217
 21
383.8288938271
 31
0.0
  0
LINE
  5
1AF
330
1F
100
AcDbEntity
  8
0
  6
Continuous
 62
     7
370
    25
100
AcDbLine
 10
913.8491993217
 20
402.1288938271
 30
0.0
 11
918.9991993217
 21
402.1288938271
 31
0.0
  0
LINE
  5
1B0
330
1F
100
AcDbEntity
  8
0
  6
Continuous
 62
     7
370
    25
100
AcDbLine
 10
913.8491993217
 20
402.9288938271
 30
0.0
 11
913.8491993217
 21
402.1288938271
 31
0.0
  0
LINE
  5
1B1
330
1F
100
AcDbEntity
  8
0
  6
Continuous
 62
     7
370
    25
100
AcDbLine
 10
913.8491993217
 20
402.9288938271
 30
0.0
 11
918.9991993217
 21
402.9288938271
 31
0.0
  0
LINE
  5
1B2
330
1F
100
AcDbEntity
  8
0
  6
Continuous
 62
     7
370
    25
100
AcDbLine
 10
918.9991993217
 20
402.9288938271
 30
0.0
 11
918.9991993217
 21
403.0288938271
 31
0.0
  0
LINE
  5
1B3
330
1F
100
AcDbEntity
  8
0
  6
Continuous
 62
     7
370
    25
100
AcDbLine
 10
909.0991993217
 20
403.0288938271
 30
0.0
 11
918.9991993217
 21
403.0288938271
 31
0.0
  0
LINE
  5
1B4
330
1F
100
AcDbEntity
  8
0
  6
Continuous
 62
     7
370
    25
100
AcDbLine
 10
909.0991993217
 20
403.0288938271
 30
0.0
 11
909.0991993217
 21
403.8288938271
 31
0.0
  0
LINE
  5
1B5
330
1F
100
AcDbEntity
  8
0
  6
Continuous
 62
     7
370
    25
100
AcDbLine
 10
918.9991993217
 20
403.8288938271
 30
0.0
 11
909.0991993217
 21
403.8288938271
 31
0.0
  0
ARC
  5
1B6
330
1F
100
AcDbEntity
  8
0
  6
Continuous
 62
     7
370
    25
100
AcDbCircle
 10
918.9991993217
 20
402.9788938271
 30
0.0
 40
0.8500000000000227
100
AcDbArc
 50
270.0
 51
90.0
  0
ARC
  5
1B7
330
1F
100
AcDbEntity
  8
0
  6
Continuous
 62
     7
370
    25
100
AcDbCircle
 10
909.0991993217
 20
385.6288938271
 30
0.0
 40
1.800000000000239
100
AcDbArc
 50
180.0
 51
270.0
  0
ARC
  5
1B8
330
1F
100
AcDbEntity
  8
0
  6
Continuous
 62
     7
370
    25
100
AcDbCircle
 10
909.0991993217
 20
402.0288938271
 30
0.0
 40
1.800000000000068
100
AcDbArc
 50
90.0
 51
180.0
  0
LINE
  5
1B9
330
1F
100
AcDbEntity
  8
0
  6
Continuous
 62
     7
370
    25
100
AcDbLine
 10
907.2991993217
 20
385.6288938271
 30
0.0
 11
907.2991993217
 21
402.0288938271
 31
0.0
  0
ARC
  5
1BA
330
1F
100
AcDbEntity
  8
0
  6
Continuous
 62
     7
370
    25
100
AcDbCircle
 10
909.0991993217
 20
385.6288938271
 30
0.0
 40
1.000000000000114
100
AcDbArc
 50
180.0
 51
270.0
  0
ARC
  5
1BB
330
1F
100
AcDbEntity
  8
0
  6
Continuous
 62
     7
370
    25
100
AcDbCircle
 10
909.0991993217
 20
402.0288938271
 30
0.0
 40
1.000000000000114
100
AcDbArc
 50
90.0
 51
180.0
  0
LINE
  5
1BC
330
1F
100
AcDbEntity
  8
0
  6
Continuous
 62
     7
370
    25
100
AcDbLine
 10
908.0991993217
 20
402.0288938271
 30
0.0
 11
908.0991993217
 21
385.6288938271
 31
0.0
  0
CIRCLE
  5
1BD
330
1F
100
AcDbEntity
  8
0
  6
Continuous
 62
     7
370
    25
100
AcDbCircle
 10
894.7991993217
 20
393.8288938271
 30
0.0
 40
2.458750000016599
  0
CIRCLE
  5
1BE
330
1F
100
AcDbEntity
  8
0
  6
Continuous
 62
     7
370
    25
100
AcDbCircle
 10
894.7991993217
 20
393.8288938271
 30
0.0
 40
3.000000000000015
  0
ARC
  5
1BF
330
1F
100
AcDbEntity
  8
0
  6
Continuous
 62
     7
370
    25
100
AcDbCircle
 10
903.3622194239
 20
393.7329558072
 30
0.0
 40
7.786288415086501
100
AcDbArc
 50
4.3702527064
 51
15.2299003794
  0
ARC
  5
1C0
330
1F
100
AcDbEntity
  8
0
  6
Continuous
 62
     7
370
    25
100
AcDbCircle
 10
910.6014758875
 20
394.6394094095
 30
0.0
 40
0.6107675350073376
100
AcDbArc
 50
296.6101963366
 51
329.1575418587
  0
ARC
  5
1C1
330
1F
100
AcDbEntity
  8
0
  6
Continuous
 62
     7
370
    25
100
AcDbCircle
 10
901.795413746
 20
393.5009123145
 30
0.0
 40
9.098942710248924
100
AcDbArc
 50
356.2668736478
 51
3.7331263522
  0
ARC
  5
1C2
330
1F
100
AcDbEntity
  8
0
  6
Continuous
 62
     7
370
    25
100
AcDbCircle
 10
910.6014758875
 20
393.4545586247
 30
0.0
 40
0.6107675350076567
100
AcDbArc
 50
296.6101963367
 51
329.1575418587
  0
ARC
  5
1C3
330
1F
100
AcDbEntity
  8
0
  6
Continuous
 62
     7
370
    25
100
AcDbCircle
 10
903.3622194239
 20
393.734756552
 30
0.0
 40
7.786288415085703
100
AcDbArc
 50
344.7700996206
 51
355.6297472936
  0
ARC
  5
1C4
330
1F
100
AcDbEntity
  8
0
  6
Continuous
 62
     7
370
    25
100
AcDbCircle
 10
910.741965543
 20
391.7632914503
 30
0.0
 40
0.1522432420583996
100
AcDbArc
 50
330.9451665854
 51
359.1449116558
  0
LWPOLYLINE
  5
1C5
330
1F
100
AcDbEntity
  8
0
  6
Continuous
 62
     7
370
    25
100
AcDbPolyline
 90
        3
 70
   128
 43
0.0
 10
911.1258688119
 20
393.3315060821
 10
911.1096439632
 20
393.1478077533
 10
911.1090018202
 20
393.1414307872
  0
ARC
  5
1C6
330
1F
100
AcDbEntity
  8
0
  6
Continuous
 62
     7
370
    25
100
AcDbCircle
 10
910.6014758875
 20
393.0183782446
 30
0.0
 40
0.6107675350076567
100
AcDbArc
 50
30.8424581413
 51
63.3898036633
  0
ARC
  5
1C7
330
1F
100
AcDbEntity
  8
0
  6
Continuous
 62
     7
370
    25
100
AcDbCircle
 10
901.7185419667
 20
394.159891196
 30
0.0
 40
9.175815043034651
100
AcDbArc
 50
357.9327321268
 51
359.6562101023
  0
ARC
  5
1C8
330
1F
100
AcDbEntity
  8
0
  6
Continuous
 62
     7
370
    25
100
AcDbCircle
 10
903.3622194239
 20
393.9230311022
 30
0.0
 40
7.786288415086733
100
AcDbArc
 50
4.3702527064
 51
15.2299003794
  0
ARC
  5
1C9
330
1F
100
AcDbEntity
  8
0
  6
Continuous
 62
     7
370
    25
100
AcDbCircle
 10
910.6539277567
 20
395.8733949434
 30
0.0
 40
0.2406805056722237
100
AcDbArc
 50
336.7420981705
 51
23.2579018295
  0
LINE
  5
1CA
330
1F
100
AcDbEntity
  8
0
  6
Continuous
 62
     7
370
    25
100
AcDbLine
 10
910.0991993217
 20
397.7783964431
 30
0.0
 11
910.0991993217
 21
397.8288938271
 31
0.0
  0
LINE
  5
1CB
330
1F
100
AcDbEntity
  8
0
  6
Continuous
 62
     7
370
    25
100
AcDbLine
 10
910.0991993217
 20
389.8288938271
 30
0.0
 11
910.0991993217
 21
397.7783964431
 31
0.0
  0
LINE
  5
1CC
330
1F
100
AcDbEntity
  8
0
  6
Continuous
 62
     7
370
    25
100
AcDbLine
 10
911.1258688119
 20
393.1414307872
 30
0.0
 11
910.8873131541
 21
393.1414307872
 31
0.0
  0
LINE
  5
1CD
330
1F
100
AcDbEntity
  8
0
  6
Continuous
 62
     7
370
    25
100
AcDbLine
 10
911.1258688119
 20
394.516356867
 30
0.0
 11
911.1090018202
 21
394.516356867
 31
0.0
  0
LINE
  5
1CE
330
1F
100
AcDbEntity
  8
0
  6
Continuous
 62
     7
370
    25
100
AcDbLine
 10
911.1258688119
 20
393.3315060821
 30
0.0
 11
910.8928184955
 21
393.3315060821
 31
0.0
  0
LINE
  5
1CF
330
1F
100
AcDbEntity
  8
0
  6
Continuous
 62
     7
370
    25
100
AcDbLine
 10
900.8991993217
 20
328.142739186
 30
0.0
 11
888.8991993217
 21
328.142739186
 31
0.0
  0
LINE
  5
1D0
330
1F
100
AcDbEntity
  8
0
  6
Continuous
 62
     7
370
    25
100
AcDbLine
 10
900.8991993217
 20
327.4586988994
 30
0.0
 11
888.8991993217
 21
327.4586988994
 31
0.0
  0
ARC
  5
1D1
330
1F
100
AcDbEntity
  8
0
  6
Continuous
 62
     7
370
    25
100
AcDbCircle
 10
888.8407104324
 20
330.0843670035
 30
0.0
 40
1.942508566655477
100
AcDbArc
 50
181.8362067977
 51
271.7254354149
  0
LINE
  5
1D2
330
1F
100
AcDbEntity
  8
0
  6
Continuous
 62
     7
370
    25
100
AcDbLine
 10
886.8991993217
 20
330.0221244276
 30
0.0
 11
886.8991993217
 21
335.1632006645
 31
0.0
  0
LINE
  5
1D3
330
1F
100
AcDbEntity
  8
0
  6
Continuous
 62
     7
370
    25
100
AcDbLine
 10
902.8991993217
 20
335.1632006645
 30
0.0
 11
902.8991993217
 21
330.0221244276
 31
0.0
  0
ARC
  5
1D4
330
1F
100
AcDbEntity
  8
0
  6
Continuous
 62
     7
370
    25
100
AcDbCircle
 10
900.9576882109
 20
330.0843670035
 30
0.0
 40
1.942508566655127
100
AcDbArc
 50
268.2745645851
 51
358.1637932023
  0
LINE
  5
1D5
330
1F
100
AcDbEntity
  8
0
  6
Continuous
 62
     7
370
    25
100
AcDbLine
 10
886.8991993217
 20
329.338084141
 30
0.0
 11
886.8991993217
 21
330.0221244276
 31
0.0
  0
ARC
  5
1D6
330
1F
100
AcDbEntity
  8
0
  6
Continuous
 62
     7
370
    25
100
AcDbCircle
 10
888.8407104324
 20
329.4003267168
 30
0.0
 40
1.942508566655362
100
AcDbArc
 50
181.8362067977
 51
271.7254354149
  0
LINE
  5
1D7
330
1F
100
AcDbEntity
  8
0
  6
Continuous
 62
     7
370
    25
100
AcDbLine
 10
902.8991993217
 20
330.0221244276
 30
0.0
 11
902.8991993217
 21
329.338084141
 31
0.0
  0
ARC
  5
1D8
330
1F
100
AcDbEntity
  8
0
  6
Continuous
 62
     7
370
    25
100
AcDbCircle
 10
900.9576882109
 20
329.4003267168
 30
0.0
 40
1.94250856665519
100
AcDbArc
 50
268.2745645851
 51
358.1637932023
  0
LINE
  5
1D9
330
1F
100
AcDbEntity
  8
0
  6
Continuous
 62
     7
370
    25
100
AcDbLine
 10
902.8991993217
 20
335.1632006645
 30
0.0
 11
902.8991993217
 21
335.5052208078
 31
0.0
  0
LINE
  5
1DA
330
1F
100
AcDbEntity
  8
0
  6
Continuous
 62
     7
370
    25
100
AcDbLine
 10
886.8991993217
 20
335.5052208078
 30
0.0
 11
886.8991993217
 21
335.1632006645
 31
0.0
  0
LINE
  5
1DB
330
1F
100
AcDbEntity
  8
0
  6
Continuous
 62
     7
370
    25
100
AcDbLine
 10
902.8991993217
 20
335.3288938271
 30
0.0
 11
913.3991993217
 21
335.3288938271
 31
0.0
  0
LINE
  5
1DC
330
1F
100
AcDbEntity
  8
0
  6
Continuous
 62
     7
370
    25
100
AcDbLine
 10
886.8991993217
 20
348.3288938271
 30
0.0
 11
886.8991993217
 21
335.5052208078
 31
0.0
  0
CIRCLE
  5
1DD
330
1F
100
AcDbEntity
  8
0
  6
Continuous
 62
     7
370
    25
100
AcDbCircle
 10
894.7991993217
 20
342.8288938271
 30
0.0
 40
3.499999999999886
  0
LINE
  5
1DE
330
1F
100
AcDbEntity
  8
0
  6
Continuous
 62
     7
370
    25
100
AcDbLine
 10
913.3991993217
 20
350.3288938271
 30
0.0
 11
888.8991993217
 21
350.3288938271
 31
0.0
  0
ARC
  5
1DF
330
1F
100
AcDbEntity
  8
0
  6
Continuous
 62
     7
370
    25
100
AcDbCircle
 10
888.8991993217
 20
348.3288938271
 30
0.0
 40
2.0
100
AcDbArc
 50
90.0
 51
180.0
  0
CIRCLE
  5
1E0
330
1F
100
AcDbEntity
  8
0
  6
Continuous
 62
     7
370
    25
100
AcDbCircle
 10
894.7991993217
 20
192.8288938271
 30
0.0
 40
2.458750000016497
  0
CIRCLE
  5
1E1
330
1F
100
AcDbEntity
  8
0
  6
Continuous
 62
     7
370
    25
100
AcDbCircle
 10
894.7991993217
 20
192.8288938271
 30
0.0
 40
3.000000000000015
  0
ARC
  5
1E2
330
1F
100
AcDbEntity
  8
0
  6
Continuous
 62
     7
370
    25
100
AcDbCircle
 10
888.8407104324
 20
205.5734206507
 30
0.0
 40
1.94250856665536
100
AcDbArc
 50
88.2745645851
 51
178.1637932023
  0
LINE
  5
1E3
330
1F
100
AcDbEntity
  8
0
  6
Continuous
 62
     7
370
    25
100
AcDbLine
 10
886.8991993217
 20
205.6356632266
 30
0.0
 11
886.8991993217
 21
206.3197035132
 31
0.0
  0
ARC
  5
1E4
330
1F
100
AcDbEntity
  8
0
  6
Continuous
 62
     7
370
    25
100
AcDbCircle
 10
888.8407104324
 20
206.2574609374
 30
0.0
 40
1.942508566655359
100
AcDbArc
 50
88.2745645851
 51
178.1637932023
  0
LINE
  5
1E5
330
1F
100
AcDbEntity
  8
0
  6
Continuous
 62
     7
370
    25
100
AcDbLine
 10
888.8991993217
 20
208.1990887548
 30
0.0
 11
900.8991993217
 21
208.1990887548
 31
0.0
  0
LINE
  5
1E6
330
1F
100
AcDbEntity
  8
0
  6
Continuous
 62
     7
370
    25
100
AcDbLine
 10
888.8991993217
 20
207.5150484681
 30
0.0
 11
900.8991993217
 21
207.5150484681
 31
0.0
  0
LINE
  5
1E7
330
1F
100
AcDbEntity
  8
0
  6
Continuous
 62
     7
370
    25
100
AcDbLine
 10
886.8991993217
 20
200.4945869897
 30
0.0
 11
886.8991993217
 21
205.6356632266
 31
0.0
  0
ARC
  5
1E8
330
1F
100
AcDbEntity
  8
0
  6
Continuous
 62
     7
370
    25
100
AcDbCircle
 10
900.9576882109
 20
205.5734206507
 30
0.0
 40
1.942508566655242
100
AcDbArc
 50
1.8362067977
 51
91.7254354149
  0
LINE
  5
1E9
330
1F
100
AcDbEntity
  8
0
  6
Continuous
 62
     7
370
    25
100
AcDbLine
 10
902.8991993217
 20
205.6356632266
 30
0.0
 11
902.8991993217
 21
200.4945869897
 31
0.0
  0
LINE
  5
1EA
330
1F
100
AcDbEntity
  8
0
  6
Continuous
 62
     7
370
    25
100
AcDbLine
 10
902.8991993217
 20
206.3197035132
 30
0.0
 11
902.8991993217
 21
205.6356632266
 31
0.0
  0
ARC
  5
1EB
330
1F
100
AcDbEntity
  8
0
  6
Continuous
 62
     7
370
    25
100
AcDbCircle
 10
900.9576882109
 20
206.2574609374
 30
0.0
 40
1.942508566655243
100
AcDbArc
 50
1.8362067977
 51
91.7254354149
  0
LINE
  5
1EC
330
1F
100
AcDbEntity
  8
0
  6
Continuous
 62
     7
370
    25
100
AcDbLine
 10
886.8991993217
 20
200.4945869897
 30
0.0
 11
886.8991993217
 21
200.1525668464
 31
0.0
  0
LINE
  5
1ED
330
1F
100
AcDbEntity
  8
0
  6
Continuous
 62
     7
370
    25
100
AcDbLine
 10
902.8991993217
 20
200.1525668464
 30
0.0
 11
902.8991993217
 21
200.4945869897
 31
0.0
  0
LINE
  5
1EE
330
1F
100
AcDbEntity
  8
0
  6
Continuous
 62
     7
370
    25
100
AcDbLine
 10
913.3991993217
 20
200.3288938271
 30
0.0
 11
902.8991993217
 21
200.3288938271
 31
0.0
  0
CIRCLE
  5
1EF
330
1F
100
AcDbEntity
  8
0
  6
Continuous
 62
     7
370
    25
100
AcDbCircle
 10
894.7991993217
 20
192.8288938271
 30
0.0
 40
3.5
  0
LINE
  5
1F0
330
1F
100
AcDbEntity
  8
0
  6
Continuous
 62
     7
370
    25
100
AcDbLine
 10
888.8991993217
 20
185.3288938271
 30
0.0
 11
913.3991993217
 21
185.3288938271
 31
0.0
  0
ARC
  5
1F1
330
1F
100
AcDbEntity
  8
0
  6
Continuous
 62
     7
370
    25
100
AcDbCircle
 10
888.8991993217
 20
187.3288938271
 30
0.0
 40
2.0
100
AcDbArc
 50
180.0
 51
270.0
  0
LINE
  5
1F2
330
1F
100
AcDbEntity
  8
0
  6
Continuous
 62
     7
370
    25
100
AcDbLine
 10
886.8991993217
 20
200.1525668464
 30
0.0
 11
886.8991993217
 21
187.3288938271
 31
0.0
  0
CIRCLE
  5
1F3
330
1F
100
AcDbEntity
  8
0
  6
Continuous
 62
     7
370
    25
100
AcDbCircle
 10
894.7991993217
 20
418.8288938271
 30
0.0
 40
2.458750000016702
  0
CIRCLE
  5
1F4
330
1F
100
AcDbEntity
  8
0
  6
Continuous
 62
     7
370
    25
100
AcDbCircle
 10
894.7991993217
 20
418.8288938271
 30
0.0
 40
3.000000000000015
  0
CIRCLE
  5
1F5
330
1F
100
AcDbEntity
  8
0
  6
Continuous
 62
     7
370
    25
100
AcDbCircle
 10
894.7991993217
 20
342.8288938271
 30
0.0
 40
2.458750000016599
  0
CIRCLE
  5
1F6
330
1F
100
AcDbEntity
  8
0
  6
Continuous
 62
     7
370
    25
100
AcDbCircle
 10
894.7991993217
 20
342.8288938271
 30
0.0
 40
3.000000000000039
  0
ARC
  5
1F7
330
1F
100
AcDbEntity
  8
0
  6
Continuous
 62
     7
370
    25
100
AcDbCircle
 10
764.2433501725
 20
504.6642175452
 30
0.0
 40
0.5000000000001137
100
AcDbArc
 50
180.0
 51
0.0
  0
ARC
  5
1F8
330
1F
100
AcDbEntity
  8
0
  6
Continuous
 62
     7
370
    25
100
AcDbCircle
 10
764.2433501725
 20
516.2642175453
 30
0.0
 40
0.5
100
AcDbArc
 50
0.0
 51
180.0
  0
LINE
  5
1F9
330
1F
100
AcDbEntity
  8
0
  6
Continuous
 62
     7
370
    25
100
AcDbLine
 10
759.9709316097
 20
515.8584001573
 30
0.0
 11
759.7433501725
 21
515.4642175452
 31
0.0
  0
LINE
  5
1FA
330
1F
100
AcDbEntity
  8
0
  6
Continuous
 62
     7
370
    25
100
AcDbLine
 10
774.2021001725
 20
507.4642175452
 30
0.0
 11
774.7433501725
 21
508.0054675452
 31
0.0
  0
LINE
  5
1FB
330
1F
100
AcDbEntity
  8
0
  6
Continuous
 62
     7
370
    25
100
AcDbLine
 10
774.7433501725
 20
512.9229675453
 30
0.0
 11
774.2021001725
 21
513.4642175453
 31
0.0
  0
LINE
  5
1FC
330
1F
100
AcDbEntity
  8
0
  6
Continuous
 62
     7
370
    25
100
AcDbLine
 10
774.2021001725
 20
513.4642175453
 30
0.0
 11
766.7433501725
 21
513.4642175453
 31
0.0
  0
LINE
  5
1FD
330
1F
100
AcDbEntity
  8
0
  6
Continuous
 62
     7
370
    25
100
AcDbLine
 10
766.7433501725
 20
507.4642175453
 30
0.0
 11
774.2021001725
 21
507.4642175453
 31
0.0
  0
LINE
  5
1FE
330
1F
100
AcDbEntity
  8
0
  6
Continuous
 62
     7
370
    25
100
AcDbLine
 10
759.7433501725
 20
505.4642175453
 30
0.0
 11
759.9709316097
 21
505.0700349332
 31
0.0
  0
LINE
  5
1FF
330
1F
100
AcDbEntity
  8
0
  6
Continuous
 62
     7
370
    25
100
AcDbLine
 10
751.3748974581
 20
528.5642175453
 30
0.0
 11
751.3748974581
 21
524.5642175453
 31
0.0
  0
LINE
  5
200
330
1F
100
AcDbEntity
  8
0
  6
Continuous
 62
     7
370
    25
100
AcDbLine
 10
751.3748974581
 20
524.5642175453
 30
0.0
 11
751.8748974581
 21
524.0642175453
 31
0.0
  0
LINE
  5
201
330
1F
100
AcDbEntity
  8
0
  6
Continuous
 62
     7
370
    25
100
AcDbLine
 10
757.1547342479
 20
524.5642175453
 30
0.0
 11
757.1547342479
 21
528.5642175452
 31
0.0
  0
LINE
  5
202
330
1F
100
AcDbEntity
  8
0
  6
Continuous
 62
     7
370
    25
100
AcDbLine
 10
756.6547342479
 20
524.0642175453
 30
0.0
 11
757.1547342479
 21
524.5642175453
 31
0.0
  0
LINE
  5
203
330
1F
100
AcDbEntity
  8
0
  6
Continuous
 62
     7
370
    25
100
AcDbLine
 10
751.4312394199
 20
528.5642175452
 30
0.0
 11
751.4312394199
 21
524.5642175453
 31
0.0
  0
LINE
  5
204
330
1F
100
AcDbEntity
  8
0
  6
Continuous
 62
     7
370
    25
100
AcDbLine
 10
751.4312394199
 20
524.5642175453
 30
0.0
 11
751.9312394199
 21
524.0642175453
 31
0.0
  0
LINE
  5
205
330
1F
100
AcDbEntity
  8
0
  6
Continuous
 62
     7
370
    25
100
AcDbLine
 10
74.0812351183
 20
524.5642175453
 30
0.0
 11
74.0812351183
 21
528.5642175453
 31
0.0
  0
LINE
  5
206
330
1F
100
AcDbEntity
  8
0
  6
Continuous
 62
     7
370
    25
100
AcDbLine
 10
73.5812351183
 20
524.0642175453
 30
0.0
 11
74.0812351183
 21
524.5642175453
 31
0.0
  0
LINE
  5
207
330
1F
100
AcDbEntity
  8
0
  6
Continuous
 62
     7
370
    25
100
AcDbLine
 10
68.351690434
 20
524.5642175453
 30
0.0
 11
68.851690434
 21
524.0642175453
 31
0.0
  0
LINE
  5
208
330
1F
100
AcDbEntity
  8
0
  6
Continuous
 62
     7
370
    25
100
AcDbLine
 10
68.351690434
 20
528.5642175453
 30
0.0
 11
68.351690434
 21
524.5642175453
 31
0.0
  0
LINE
  5
209
330
1F
100
AcDbEntity
  8
0
  6
Continuous
 62
     7
370
    25
100
AcDbLine
 10
774.4021001725
 20
513.4642175453
 30
0.0
 11
774.2021001725
 21
513.4642175453
 31
0.0
  0
LINE
  5
20A
330
1F
100
AcDbEntity
  8
0
  6
Continuous
 62
     7
370
    25
100
AcDbLine
 10
774.2021001725
 20
507.4642175453
 30
0.0
 11
774.4021001725
 21
507.4642175453
 31
0.0
  0
LINE
  5
20B
330
1F
100
AcDbEntity
  8
0
  6
Continuous
 62
     7
370
    25
100
AcDbLine
 10
774.4021001725
 20
507.4642175452
 30
0.0
 11
774.9433501725
 21
508.0054675452
 31
0.0
  0
LINE
  5
20C
330
1F
100
AcDbEntity
  8
0
  6
Continuous
 62
     7
370
    25
100
AcDbLine
 10
774.9433501725
 20
512.9229675453
 30
0.0
 11
774.4021001725
 21
513.4642175453
 31
0.0
  0
LINE
  5
20D
330
1F
100
AcDbEntity
  8
0
  6
Continuous
 62
     7
370
    25
100
AcDbLine
 10
51.0846001725
 20
513.4642175453
 30
0.0
 11
50.5433501725
 21
512.9229675453
 31
0.0
  0
LINE
  5
20E
330
1F
100
AcDbEntity
  8
0
  6
Continuous
 62
     7
370
    25
100
AcDbLine
 10
50.5433501725
 20
508.0054675452
 30
0.0
 11
51.0846001725
 21
507.4642175452
 31
0.0
  0
LINE
  5
20F
330
1F
100
AcDbEntity
  8
0
  6
Continuous
 62
     7
370
    25
100
AcDbLine
 10
51.0846001725
 20
507.4642175453
 30
0.0
 11
51.2846001725
 21
507.4642175453
 31
0.0
  0
LINE
  5
210
330
1F
100
AcDbEntity
  8
0
  6
Continuous
 62
     7
370
    25
100
AcDbLine
 10
51.2846001725
 20
513.4642175453
 30
0.0
 11
51.0846001725
 21
513.4642175453
 31
0.0
  0
ARC
  5
211
330
1F
100
AcDbEntity
  8
0
  6
Continuous
 62
     7
370
    25
100
AcDbCircle
 10
61.2433501725
 20
516.2642175453
 30
0.0
 40
0.5
100
AcDbArc
 50
0.0
 51
180.0
  0
ARC
  5
212
330
1F
100
AcDbEntity
  8
0
  6
Continuous
 62
     7
370
    25
100
AcDbCircle
 10
61.2433501725
 20
504.6642175452
 30
0.0
 40
0.5
100
AcDbArc
 50
180.0
 51
0.0
  0
LINE
  5
213
330
1F
100
AcDbEntity
  8
0
  6
Continuous
 62
     7
370
    25
100
AcDbLine
 10
51.2846001725
 20
507.4642175453
 30
0.0
 11
58.7433501725
 21
507.4642175453
 31
0.0
  0
LINE
  5
214
330
1F
100
AcDbEntity
  8
0
  6
Continuous
 62
     7
370
    25
100
AcDbLine
 10
58.7433501725
 20
513.4642175453
 30
0.0
 11
51.2846001725
 21
513.4642175453
 31
0.0
  0
LINE
  5
215
330
1F
100
AcDbEntity
  8
0
  6
Continuous
 62
     7
370
    25
100
AcDbLine
 10
51.2846001725
 20
513.4642175453
 30
0.0
 11
50.7433501725
 21
512.9229675453
 31
0.0
  0
LINE
  5
216
330
1F
100
AcDbEntity
  8
0
  6
Continuous
 62
     7
370
    25
100
AcDbLine
 10
50.7433501725
 20
508.0054675452
 30
0.0
 11
51.2846001725
 21
507.4642175452
 31
0.0
  0
LINE
  5
217
330
1F
100
AcDbEntity
  8
0
  6
Continuous
 62
     7
370
    25
100
AcDbLine
 10
65.7433501725
 20
515.4642175452
 30
0.0
 11
65.4138670767
 21
516.0348990073
 31
0.0
  0
LINE
  5
218
330
1F
100
AcDbEntity
  8
0
  6
Continuous
 62
     7
370
    25
100
AcDbLine
 10
65.4138670767
 20
504.8935360832
 30
0.0
 11
65.7433501725
 21
505.4642175453
 31
0.0
  0
LINE
  5
219
330
1F
100
AcDbEntity
  8
0
  6
Continuous
 62
     7
370
    25
100
AcDbLine
 10
58.2433501725
 20
533.6642175453
 30
0.0
 11
61.1827378638
 21
533.6642175453
 31
0.0
  0
LINE
  5
21A
330
1F
100
AcDbEntity
  8
0
  6
Continuous
 62
     7
370
    25
100
AcDbLine
 10
764.3039624811
 20
533.6642175453
 30
0.0
 11
767.2433501725
 21
533.6642175453
 31
0.0
  0
LINE
  5
21B
330
1F
100
AcDbEntity
  8
0
  6
Continuous
 62
     7
370
    25
100
AcDbLine
 10
767.2433501725
 20
533.6642175453
 30
0.0
 11
773.2433501725
 21
533.6642175453
 31
0.0
  0
LINE
  5
21C
330
1F
100
AcDbEntity
  8
0
  6
Continuous
 62
     7
370
    25
100
AcDbLine
 10
52.2433501725
 20
533.6642175453
 30
0.0
 11
58.2433501725
 21
533.6642175453
 31
0.0
  0
SPLINE
  5
21D
330
1F
100
AcDbEntity
  8
0
  6
Continuous
 62
     7
370
    25
100
AcDbSpline
210
0.0
220
0.0
230
1.0
 70
    24
 71
     3
 72
    19
 73
    15
 74
     0
 42
0.000000001
 43
0.00000001
 40
0.0
 40
0.0
 40
0.0
 40
0.0
 40
0.1260638187928846
 40
0.1939261817305607
 40
0.263228681375984
 40
0.3325311810214077
 40
0.4003935439590839
 40
0.5264573627519689
 40
0.6525211815448536
 40
0.7203835444825298
 40
0.7896860441279533
 40
0.8589885437733766
 40
0.9268509067110526
 40
1.0
 40
1.0
 40
1.0
 40
1.0
 10
763.7433501724776
 20
516.1916059006325
 30
0.0
 10
763.7433501724774
 20
516.0000179896961
 30
0.0
 10
763.7433501724773
 20
515.7052949487048
 30
0.0
 10
763.7433501724776
 20
514.7780404258642
 30
0.0
 10
763.7433501724773
 20
513.8924843853316
 30
0.0
 10
763.7433501724776
 20
512.8560831757965
 30
0.0
 10
763.7433501724773
 20
511.4121298031471
 30
0.0
 10
763.7433501724776
 20
509.5273022204384
 30
0.0
 10
763.7433501724773
 20
507.7542920186119
 30
0.0
 10
763.7433501724776
 20
506.5319883968716
 30
0.0
 10
763.7433501724776
 20
505.7313016816535
 30
0.0
 10
763.7433501724774
 20
505.1458110988805
 30
0.0
 10
763.7433501724776
 20
504.7179249603275
 30
0.0
 10
763.7433501724774
 20
504.7484372122302
 30
0.0
 10
763.7433501724776
 20
504.7642653131562
 30
0.0
  0
SPLINE
  5
21E
330
1F
100
AcDbEntity
  8
0
  6
Continuous
 62
     7
370
    25
100
AcDbSpline
210
0.0
220
0.0
230
1.0
 70
     8
 71
     3
 72
     8
 73
     4
 74
     0
 42
0.000000001
 43
0.00000001
 40
0.0
 40
0.0
 40
0.0
 40
0.0
 40
1.0
 40
1.0
 40
1.0
 40
1.0
 10
759.7433501724846
 20
509.6755197531963
 30
0.0
 10
759.7433501724846
 20
508.7025754374167
 30
0.0
 10
759.9176654728641
 20
507.7562601899642
 30
0.0
 10
760.189932159876
 20
506.8249083689062
 30
0.0
  0
SPLINE
  5
21F
330
1F
100
AcDbEntity
  8
0
  6
Continuous
 62
     7
370
    25
100
AcDbSpline
210
0.0
220
0.0
230
1.0
 70
     8
 71
     3
 72
     8
 73
     4
 74
     0
 42
0.000000001
 43
0.00000001
 40
0.0
 40
0.0
 40
0.0
 40
0.0
 40
1.0
 40
1.0
 40
1.0
 40
1.0
 10
760.189932159876
 20
512.5261311374867
 30
0.0
 10
759.9176654728645
 20
511.5947793164303
 30
0.0
 10
759.7433501724846
 20
510.6484640689742
 30
0.0
 10
759.7433501724846
 20
509.6755197531963
 30
0.0
  0
LINE
  5
220
330
1F
100
AcDbEntity
  8
0
  6
Continuous
 62
     7
370
    25
100
AcDbLine
 10
763.7433501725
 20
512.5261311375
 30
0.0
 11
760.1899321599
 21
512.5261311375
 31
0.0
  0
LINE
  5
221
330
1F
100
AcDbEntity
  8
0
  6
Continuous
 62
     7
370
    25
100
AcDbLine
 10
763.7433501725
 20
506.8249083689
 30
0.0
 11
760.1899321599
 21
506.8249083689
 31
0.0
  0
LINE
  5
222
330
1F
100
AcDbEntity
  8
0
  6
Continuous
 62
     7
370
    25
100
AcDbLine
 10
759.7433501725
 20
514.3457857257
 30
0.0
 11
759.7433501725
 21
509.6755197532
 31
0.0
  0
SPLINE
  5
223
330
1F
100
AcDbEntity
  8
0
  6
Continuous
 62
     7
370
    25
100
AcDbSpline
210
0.0
220
0.0
230
1.0
 70
     8
 71
     3
 72
     8
 73
     4
 74
     0
 42
0.000000001
 43
0.00000001
 40
0.0
 40
0.0
 40
0.0
 40
0.0
 40
1.0
 40
1.0
 40
1.0
 40
1.0
 10
759.7433501724846
 20
514.345785725666
 30
0.0
 10
759.7433501724846
 20
513.7247180494468
 30
0.0
 10
759.917665472864
 20
513.1206487289583
 30
0.0
 10
760.189932159876
 20
512.526131137493
 30
0.0
  0
SPLINE
  5
224
330
1F
100
AcDbEntity
  8
0
  6
Continuous
 62
     7
370
    25
100
AcDbSpline
210
0.0
220
0.0
230
1.0
 70
     8
 71
     3
 72
     8
 73
     4
 74
     0
 42
0.000000001
 43
0.00000001
 40
0.0
 40
0.0
 40
0.0
 40
0.0
 40
1.0
 40
1.0
 40
1.0
 40
1.0
 10
760.189932159876
 20
516.1654403138391
 30
0.0
 10
759.9176654728645
 20
515.5709227223749
 30
0.0
 10
759.7433501724846
 20
514.9668534018842
 30
0.0
 10
759.7433501724846
 20
514.345785725666
 30
0.0
  0
LINE
  5
225
330
1F
100
AcDbEntity
  8
0
  6
Continuous
 62
     7
370
    25
100
AcDbLine
 10
763.7433501725
 20
516.1654403138
 30
0.0
 11
760.1899321599
 21
516.1654403138
 31
0.0
  0
LINE
  5
226
330
1F
100
AcDbEntity
  8
0
  6
Continuous
 62
     7
370
    25
100
AcDbLine
 10
759.7433501725
 20
509.6755197532
 30
0.0
 11
759.7433501725
 21
505.7939515728
 31
0.0
  0
SPLINE
  5
227
330
1F
100
AcDbEntity
  8
0
  6
Continuous
 62
     7
370
    25
100
AcDbSpline
210
0.0
220
0.0
230
1.0
 70
     8
 71
     3
 72
     8
 73
     4
 74
     0
 42
0.000000001
 43
0.00000001
 40
0.0
 40
0.0
 40
0.0
 40
0.0
 40
1.0
 40
1.0
 40
1.0
 40
1.0
 10
760.1899321598759
 20
506.824908368901
 30
0.0
 10
759.9176654728644
 20
506.4880741393088
 30
0.0
 10
759.7433501724845
 20
506.1458282123433
 30
0.0
 10
759.7433501724845
 20
505.7939515727835
 30
0.0
  0
SPLINE
  5
228
330
1F
100
AcDbEntity
  8
0
  6
Continuous
 62
     7
370
    25
100
AcDbSpline
210
0.0
220
0.0
230
1.0
 70
     8
 71
     3
 72
     8
 73
     4
 74
     0
 42
0.000000001
 43
0.00000001
 40
0.0
 40
0.0
 40
0.0
 40
0.0
 40
1.0
 40
1.0
 40
1.0
 40
1.0
 10
759.7433501724845
 20
505.7939515727835
 30
0.0
 10
759.7433501724845
 20
505.442074933223
 30
0.0
 10
759.9176654728639
 20
505.0998290062589
 30
0.0
 10
760.189932159876
 20
504.7629947766659
 30
0.0
  0
LINE
  5
229
330
1F
100
AcDbEntity
  8
0
  6
Continuous
 62
     7
370
    25
100
AcDbLine
 10
763.7433501725
 20
504.7629947767
 30
0.0
 11
760.1899321599
 21
504.7629947767
 31
0.0
  0
LINE
  5
22A
330
1F
100
AcDbEntity
  8
0
  6
Continuous
 62
     7
370
    25
100
AcDbLine
 10
760.0397259296
 20
515.8186817382
 30
0.0
 11
760.1899321599
 21
516.1654403138
 31
0.0
  0
LINE
  5
22B
330
1F
100
AcDbEntity
  8
0
  6
Continuous
 62
     7
370
    25
100
AcDbLine
 10
759.7433501725
 20
515.4642175452
 30
0.0
 11
759.7433501725
 21
514.3457857257
 31
0.0
  0
LINE
  5
22C
330
1F
100
AcDbEntity
  8
0
  6
Continuous
 62
     7
370
    25
100
AcDbLine
 10
774.7433501725
 20
510.076375406
 30
0.0
 11
774.7433501725
 21
512.9229675453
 31
0.0
  0
LINE
  5
22D
330
1F
100
AcDbEntity
  8
0
  6
Continuous
 62
     7
370
    25
100
AcDbLine
 10
774.7433501725
 20
508.0054675452
 30
0.0
 11
774.7433501725
 21
510.076375406
 31
0.0
  0
LINE
  5
22E
330
1F
100
AcDbEntity
  8
0
  6
Continuous
 62
     7
370
    25
100
AcDbLine
 10
774.2021001725
 20
507.4642175452
 30
0.0
 11
774.2021001725
 21
513.4642175453
 31
0.0
  0
LINE
  5
22F
330
1F
100
AcDbEntity
  8
0
  6
Continuous
 62
     7
370
    25
100
AcDbLine
 10
759.7433501725
 20
505.7939515728
 30
0.0
 11
759.7433501725
 21
505.4642175453
 31
0.0
  0
LINE
  5
230
330
1F
100
AcDbEntity
  8
0
  6
Continuous
 62
     7
370
    25
100
AcDbLine
 10
66.4933501725
 20
528.5642175453
 30
0.0
 11
66.4933501725
 21
529.0642175453
 31
0.0
  0
LINE
  5
231
330
1F
100
AcDbEntity
  8
0
  6
Continuous
 62
     7
370
    25
100
AcDbLine
 10
75.9933501725
 20
528.5642175453
 30
0.0
 11
66.4933501725
 21
528.5642175453
 31
0.0
  0
LINE
  5
232
330
1F
100
AcDbEntity
  8
0
  6
Continuous
 62
     7
370
    25
100
AcDbLine
 10
75.9933501725
 20
529.0642175453
 30
0.0
 11
75.9933501725
 21
528.5642175453
 31
0.0
  0
LINE
  5
233
330
1F
100
AcDbEntity
  8
0
  6
Continuous
 62
     7
370
    25
100
AcDbLine
 10
66.4933501725
 20
528.5642175453
 30
0.0
 11
65.7299501725
 21
528.5642175453
 31
0.0
  0
ARC
  5
234
330
1F
100
AcDbEntity
  8
0
  6
Continuous
 62
     7
370
    25
100
AcDbCircle
 10
65.7299501725
 20
529.8008175453
 30
0.0
 40
1.236600000000067
100
AcDbArc
 50
216.5600911005
 51
270.0
  0
ARC
  5
235
330
1F
100
AcDbEntity
  8
0
  6
Continuous
 62
     7
370
    25
100
AcDbCircle
 10
76.7567501725
 20
529.8008175453
 30
0.0
 40
1.23660000000007
100
AcDbArc
 50
270.0
 51
323.4399088995
  0
LINE
  5
236
330
1F
100
AcDbEntity
  8
0
  6
Continuous
 62
     7
370
    25
100
AcDbLine
 10
76.7567501725
 20
528.5642175453
 30
0.0
 11
75.9933501725
 21
528.5642175453
 31
0.0
  0
ARC
  5
237
330
1F
100
AcDbEntity
  8
0
  6
Continuous
 62
     7
370
    25
100
AcDbCircle
 10
58.2433501725
 20
533.0642175453
 30
0.0
 40
3.0
100
AcDbArc
 50
0.0
 51
90.0
  0
LINE
  5
238
330
1F
100
AcDbEntity
  8
0
  6
Continuous
 62
     7
370
    25
100
AcDbLine
 10
46.2433501725
 20
536.0642175453
 30
0.0
 11
58.2433501725
 21
536.0642175453
 31
0.0
  0
ARC
  5
239
330
1F
100
AcDbEntity
  8
0
  6
Continuous
 62
     7
370
    25
100
AcDbCircle
 10
46.2433501725
 20
533.0642175453
 30
0.0
 40
3.0
100
AcDbArc
 50
90.0
 51
180.0
  0
LINE
  5
23A
330
1F
100
AcDbEntity
  8
0
  6
Continuous
 62
     7
370
    25
100
AcDbLine
 10
43.2433501725
 20
532.0642175453
 30
0.0
 11
43.2433501725
 21
533.0642175453
 31
0.0
  0
ARC
  5
23B
330
1F
100
AcDbEntity
  8
0
  6
Continuous
 62
     7
370
    25
100
AcDbCircle
 10
40.2433501725
 20
532.0642175453
 30
0.0
 40
3.0
100
AcDbArc
 50
270.0
 51
0.0
  0
LINE
  5
23C
330
1F
100
AcDbEntity
  8
0
  6
Continuous
 62
     7
370
    25
100
AcDbLine
 10
16.7140608506
 20
529.0642175453
 30
0.0
 11
40.2433501725
 21
529.0642175453
 31
0.0
  0
LINE
  5
23D
330
1F
100
AcDbEntity
  8
0
  6
Continuous
 62
     7
370
    25
100
AcDbLine
 10
808.7726394944
 20
538.6642175453
 30
0.0
 11
808.7726394944
 21
529.0642175453
 31
0.0
  0
LINE
  5
23E
330
1F
100
AcDbEntity
  8
0
  6
Continuous
 62
     7
370
    25
100
AcDbLine
 10
785.2433501725
 20
529.0642175453
 30
0.0
 11
808.7726394944
 21
529.0642175453
 31
0.0
  0
ARC
  5
23F
330
1F
100
AcDbEntity
  8
0
  6
Continuous
 62
     7
370
    25
100
AcDbCircle
 10
785.2433501725
 20
532.0642175453
 30
0.0
 40
3.0
100
AcDbArc
 50
180.0
 51
270.0
  0
LINE
  5
240
330
1F
100
AcDbEntity
  8
0
  6
Continuous
 62
     7
370
    25
100
AcDbLine
 10
782.2433501725
 20
532.0642175453
 30
0.0
 11
782.2433501725
 21
533.0642175453
 31
0.0
  0
ARC
  5
241
330
1F
100
AcDbEntity
  8
0
  6
Continuous
 62
     7
370
    25
100
AcDbCircle
 10
779.2433501725
 20
533.0642175453
 30
0.0
 40
3.0
100
AcDbArc
 50
0.0
 51
90.0
  0
LINE
  5
242
330
1F
100
AcDbEntity
  8
0
  6
Continuous
 62
     7
370
    25
100
AcDbLine
 10
779.2433501725
 20
536.0642175453
 30
0.0
 11
767.2433501725
 21
536.0642175453
 31
0.0
  0
ARC
  5
243
330
1F
100
AcDbEntity
  8
0
  6
Continuous
 62
     7
370
    25
100
AcDbCircle
 10
767.2433501725
 20
533.0642175453
 30
0.0
 40
3.0
100
AcDbArc
 50
90.0
 51
180.0
  0
LINE
  5
244
330
1F
100
AcDbEntity
  8
0
  6
Continuous
 62
     7
370
    25
100
AcDbLine
 10
764.2433501725
 20
532.0642175453
 30
0.0
 11
764.2433501725
 21
533.0642175453
 31
0.0
  0
ARC
  5
245
330
1F
100
AcDbEntity
  8
0
  6
Continuous
 62
     7
370
    25
100
AcDbCircle
 10
761.2433501725
 20
532.0642175453
 30
0.0
 40
3.0
100
AcDbArc
 50
270.0
 51
0.0
  0
LINE
  5
246
330
1F
100
AcDbEntity
  8
0
  6
Continuous
 62
     7
370
    25
100
AcDbLine
 10
64.2433501725
 20
529.0642175453
 30
0.0
 11
761.2433501725
 21
529.0642175453
 31
0.0
  0
ARC
  5
247
330
1F
100
AcDbEntity
  8
0
  6
Continuous
 62
     7
370
    25
100
AcDbCircle
 10
64.2433501725
 20
532.0642175453
 30
0.0
 40
3.0
100
AcDbArc
 50
180.0
 51
270.0
  0
LINE
  5
248
330
1F
100
AcDbEntity
  8
0
  6
Continuous
 62
     7
370
    25
100
AcDbLine
 10
61.2433501725
 20
532.0642175453
 30
0.0
 11
61.2433501725
 21
533.0642175453
 31
0.0
  0
LINE
  5
249
330
1F
100
AcDbEntity
  8
0
  6
Continuous
 62
     7
370
    25
100
AcDbLine
 10
16.7140608506
 20
538.6642175453
 30
0.0
 11
16.7140608506
 21
529.0642175453
 31
0.0
  0
SPLINE
  5
24A
330
1F
100
AcDbEntity
  8
0
  6
Continuous
 62
     7
370
    25
100
AcDbSpline
210
0.0
220
0.0
230
1.0
 70
     8
 71
     3
 72
    20
 73
    16
 74
     0
 42
0.000000001
 43
0.00000001
 40
0.0
 40
0.0
 40
0.0
 40
0.0
 40
0.1249999999999981
 40
0.1249999999999981
 40
0.2499999999999963
 40
0.2499999999999963
 40
0.3749999999999944
 40
0.3749999999999944
 40
0.4999999999999926
 40
0.4999999999999926
 40
0.7499999999999962
 40
0.7499999999999962
 40
0.8749999999999981
 40
0.8749999999999981
 40
1.0
 40
1.0
 40
1.0
 40
1.0
 10
807.8433501724775
 20
541.0642175452529
 30
0.0
 10
807.8823909033321
 20
541.0642175452529
 30
0.0
 10
807.9209096075317
 20
541.0486809847781
 30
0.0
 10
807.9983163588396
 20
540.9873626328175
 30
0.0
 10
808.0374607768264
 20
540.9409388872307
 30
0.0
 10
808.1146115307416
 20
540.8209880170766
 30
0.0
 10
808.1529391124825
 20
540.7473833727931
 30
0.0
 10
808.2304854329591
 20
540.5726530066976
 30
0.0
 10
808.2694616406278
 20
540.471802377796
 30
0.0
 10
808.3849564970727
 20
540.1405170978121
 30
0.0
 10
808.462868940743
 20
539.8728369364281
 30
0.0
 10
808.5783488661439
 20
539.4401629103728
 30
0.0
 10
808.617214662009
 20
539.2886448235217
 30
0.0
 10
808.6949889956774
 20
538.9792190661356
 30
0.0
 10
808.733598762632
 20
538.8225967364418
 30
0.0
 10
808.7726394943587
 20
538.6642175452531
 30
0.0
  0
LINE
  5
24B
330
1F
100
AcDbEntity
  8
0
  6
Continuous
 62
     7
370
    25
100
AcDbLine
 10
17.6433501725
 20
541.0642175453
 30
0.0
 11
807.8433501725
 21
541.0642175453
 31
0.0
  0
SPLINE
  5
24C
330
1F
100
AcDbEntity
  8
0
  6
Continuous
 62
     7
370
    25
100
AcDbSpline
210
0.0
220
0.0
230
1.0
 70
     8
 71
     3
 72
    20
 73
    16
 74
     0
 42
0.000000001
 43
0.00000001
 40
0.0
 40
0.0
 40
0.0
 40
0.0
 40
0.1250000000000005
 40
0.1250000000000005
 40
0.250000000000001
 40
0.250000000000001
 40
0.3750000000000015
 40
0.3750000000000015
 40
0.500000000000002
 40
0.500000000000002
 40
0.7500000000000059
 40
0.7500000000000059
 40
0.8750000000000029
 40
0.8750000000000029
 40
1.0
 40
1.0
 40
1.0
 40
1.0
 10
16.71406085059612
 20
538.664217545253
 30
0.0
 10
16.75310158145071
 20
538.8225967329037
 30
0.0
 10
16.79162028565051
 20
538.9788424575953
 30
0.0
 10
16.86902703695847
 20
539.286834307012
 30
0.0
 10
16.908171454945
 20
539.439478414483
 30
0.0
 10
16.98532220886018
 20
539.72856270367
 30
0.0
 10
17.02364979060123
 20
539.866367241854
 30
0.0
 10
17.10119611107785
 20
540.127985917493
 30
0.0
 10
17.14017231874659
 20
540.2507322241756
 30
0.0
 10
17.25566717519167
 20
540.5820566011233
 30
0.0
 10
17.33357961886167
 20
540.7610677251516
 30
0.0
 10
17.44905954426246
 20
540.9406828245325
 30
0.0
 10
17.48792534012744
 20
540.9869271734002
 30
0.0
 10
17.56569967379601
 20
541.0486804794115
 30
0.0
 10
17.60430944075103
 20
541.0642175452529
 30
0.0
 10
17.64335017247742
 20
541.0642175452529
 30
0.0
  0
SPLINE
  5
24D
330
1F
100
AcDbEntity
  8
0
  6
Continuous
 62
     7
370
    25
100
AcDbSpline
210
0.0
220
0.0
230
1.0
 70
     8
 71
     3
 72
     9
 73
     5
 74
     0
 42
0.000000001
 43
0.00000001
 40
0.0
 40
0.0
 40
0.0
 40
0.0
 40
0.4825784287293653
 40
1.0
 40
1.0
 40
1.0
 40
1.0
 10
16.86717994053105
 20
539.2767572844311
 30
0.0
 10
16.80337174746954
 20
539.1886229431146
 30
0.0
 10
16.67114828023036
 20
539.0059907820616
 30
0.0
 10
16.65282897577391
 20
538.7807578980172
 30
0.0
 10
16.64335017247748
 20
538.6642175452531
 30
0.0
  0
LINE
  5
24E
330
1F
100
AcDbEntity
  8
0
  6
Continuous
 62
     7
370
    25
100
AcDbLine
 10
15.2433501725
 20
538.6642175453
 30
0.0
 11
16.6433501725
 21
538.6642175453
 31
0.0
  0
SPLINE
  5
24F
330
1F
100
AcDbEntity
  8
0
  6
Continuous
 62
     7
370
    25
100
AcDbSpline
210
0.0
220
0.0
230
1.0
 70
     8
 71
     3
 72
    20
 73
    16
 74
     0
 42
0.000000001
 43
0.00000001
 40
0.0
 40
0.0
 40
0.0
 40
0.0
 40
0.1250000000000095
 40
0.1250000000000095
 40
0.2500000000000189
 40
0.2500000000000189
 40
0.3750000000000284
 40
0.3750000000000284
 40
0.5000000000000379
 40
0.5000000000000379
 40
0.7500000000000271
 40
0.7500000000000271
 40
0.8750000000000137
 40
0.8750000000000137
 40
1.0
 40
1.0
 40
1.0
 40
1.0
 10
17.64335017247748
 20
541.064217545253
 30
0.0
 10
17.48497098482688
 20
541.064217545253
 30
0.0
 10
17.32872526013496
 20
541.0486809847781
 30
0.0
 10
17.02073341071836
 20
540.9873626328175
 30
0.0
 10
16.86808930324729
 20
540.9409388872307
 30
0.0
 10
16.57900501406018
 20
540.8209880170766
 30
0.0
 10
16.44120047587611
 20
540.7473833727931
 30
0.0
 10
16.17958180023738
 20
540.5726530066976
 30
0.0
 10
16.05683549355469
 20
540.471802377796
 30
0.0
 10
15.72551111660703
 20
540.1405170978121
 30
0.0
 10
15.54649999257862
 20
539.8728369364281
 30
0.0
 10
15.36688489319782
 20
539.4401629103728
 30
0.0
 10
15.32064054433013
 20
539.2886448235217
 30
0.0
 10
15.25888723831903
 20
538.9792190661356
 30
0.0
 10
15.24335017247747
 20
538.8225967364417
 30
0.0
 10
15.24335017247747
 20
538.6642175452531
 30
0.0
  0
LINE
  5
250
330
1F
100
AcDbEntity
  8
0
  6
Continuous
 62
     7
370
    25
100
AcDbLine
 10
810.2433501725
 20
538.6642175453
 30
0.0
 11
808.8433501725
 21
538.6642175453
 31
0.0
  0
SPLINE
  5
251
330
1F
100
AcDbEntity
  8
0
  6
Continuous
 62
     7
370
    25
100
AcDbSpline
210
0.0
220
0.0
230
1.0
 70
     8
 71
     3
 72
     9
 73
     5
 74
     0
 42
0.000000001
 43
0.00000001
 40
0.0
 40
0.0
 40
0.0
 40
0.0
 40
0.6784508005722577
 40
1.0
 40
1.0
 40
1.0
 40
1.0
 10
808.8433501724776
 20
538.6642175452531
 30
0.0
 10
808.8301006020131
 20
538.8149247497063
 30
0.0
 10
808.8105714475729
 20
539.0370590656009
 30
0.0
 10
808.6697237939338
 20
539.2038921704902
 30
0.0
 10
808.6244343436648
 20
539.2575372218055
 30
0.0
  0
SPLINE
  5
252
330
1F
100
AcDbEntity
  8
0
  6
Continuous
 62
     7
370
    25
100
AcDbSpline
210
0.0
220
0.0
230
1.0
 70
     8
 71
     3
 72
    20
 73
    16
 74
     0
 42
0.000000001
 43
0.00000001
 40
0.0
 40
0.0
 40
0.0
 40
0.0
 40
0.1249999999999993
 40
0.1249999999999993
 40
0.2499999999999987
 40
0.2499999999999987
 40
0.374999999999998
 40
0.374999999999998
 40
0.4999999999999973
 40
0.4999999999999973
 40
0.7499999999999987
 40
0.7499999999999987
 40
0.8749999999999993
 40
0.8749999999999993
 40
1.0
 40
1.0
 40
1.0
 40
1.0
 10
810.2433501724774
 20
538.6642175452531
 30
0.0
 10
810.2433501724774
 20
538.8225967329037
 30
0.0
 10
810.2278136120027
 20
538.9788424575954
 30
0.0
 10
810.166495260042
 20
539.286834307012
 30
0.0
 10
810.1200715144553
 20
539.4394784144831
 30
0.0
 10
810.0001206443011
 20
539.7285627036701
 30
0.0
 10
809.9265160000177
 20
539.8663672418542
 30
0.0
 10
809.7517856339222
 20
540.1279859174932
 30
0.0
 10
809.6509350050205
 20
540.2507322241759
 30
0.0
 10
809.3196497250366
 20
540.5820566011234
 30
0.0
 10
809.0519695636528
 20
540.7610677251517
 30
0.0
 10
808.6192955375975
 20
540.9406828245327
 30
0.0
 10
808.4677774507462
 20
540.9869271734003
 30
0.0
 10
808.1583516933601
 20
541.0486804794116
 30
0.0
 10
808.0017293636663
 20
541.064217545253
 30
0.0
 10
807.8433501724776
 20
541.064217545253
 30
0.0
  0
LINE
  5
253
330
1F
100
AcDbEntity
  8
0
  6
Continuous
 62
     7
370
    25
100
AcDbLine
 10
15.2433501725
 20
529.0642175453
 30
0.0
 11
16.6433501725
 21
529.0642175453
 31
0.0
  0
LINE
  5
254
330
1F
100
AcDbEntity
  8
0
  6
Continuous
 62
     7
370
    25
100
AcDbLine
 10
15.2433501725
 20
538.6642175453
 30
0.0
 11
15.2433501725
 21
529.0642175453
 31
0.0
  0
LINE
  5
255
330
1F
100
AcDbEntity
  8
0
  6
Continuous
 62
     7
370
    25
100
AcDbLine
 10
16.6433501725
 20
538.6642175453
 30
0.0
 11
16.6433501725
 21
529.0642175453
 31
0.0
  0
LINE
  5
256
330
1F
100
AcDbEntity
  8
0
  6
Continuous
 62
     7
370
    25
100
AcDbLine
 10
810.2433501725
 20
529.0642175453
 30
0.0
 11
808.8433501725
 21
529.0642175453
 31
0.0
  0
LINE
  5
257
330
1F
100
AcDbEntity
  8
0
  6
Continuous
 62
     7
370
    25
100
AcDbLine
 10
808.8433501725
 20
538.6642175453
 30
0.0
 11
808.8433501725
 21
529.0642175453
 31
0.0
  0
LINE
  5
258
330
1F
100
AcDbEntity
  8
0
  6
Continuous
 62
     7
370
    25
100
AcDbLine
 10
810.2433501725
 20
538.6642175453
 30
0.0
 11
810.2433501725
 21
529.0642175453
 31
0.0
  0
LINE
  5
259
330
1F
100
AcDbEntity
  8
0
  6
Continuous
 62
     7
370
    25
100
AcDbLine
 10
751.3748974581
 20
524.5642175453
 30
0.0
 11
751.4312394199
 21
524.5642175453
 31
0.0
  0
LINE
  5
25A
330
1F
100
AcDbEntity
  8
0
  6
Continuous
 62
     7
370
    25
100
AcDbLine
 10
751.9312394199
 20
524.0642175453
 30
0.0
 11
751.8748974581
 21
524.0642175453
 31
0.0
  0
LINE
  5
25B
330
1F
100
AcDbEntity
  8
0
  6
Continuous
 62
     7
370
    25
100
AcDbLine
 10
752.3213086987
 20
524.5642175453
 30
0.0
 11
755.7682983547
 21
524.5642175453
 31
0.0
  0
LINE
  5
25C
330
1F
100
AcDbEntity
  8
0
  6
Continuous
 62
     7
370
    25
100
AcDbLine
 10
755.3622429784
 20
524.0642175453
 30
0.0
 11
752.7770007364
 21
524.0642175453
 31
0.0
  0
LINE
  5
25D
330
1F
100
AcDbEntity
  8
0
  6
Continuous
 62
     7
370
    25
100
AcDbLine
 10
755.7682983547
 20
524.5642175453
 30
0.0
 11
756.778955753
 21
524.5642175453
 31
0.0
  0
LINE
  5
25E
330
1F
100
AcDbEntity
  8
0
  6
Continuous
 62
     7
370
    25
100
AcDbLine
 10
756.3729003767
 20
524.0642175453
 30
0.0
 11
755.3622429784
 21
524.0642175453
 31
0.0
  0
LINE
  5
25F
330
1F
100
AcDbEntity
  8
0
  6
Continuous
 62
     7
370
    25
100
AcDbLine
 10
751.6084712691
 20
524.5642175453
 30
0.0
 11
752.3213086987
 21
524.5642175453
 31
0.0
  0
LINE
  5
260
330
1F
100
AcDbEntity
  8
0
  6
Continuous
 62
     7
370
    25
100
AcDbLine
 10
752.7770007364
 20
524.0642175453
 30
0.0
 11
752.0641633068
 21
524.0642175453
 31
0.0
  0
LINE
  5
261
330
1F
100
AcDbEntity
  8
0
  6
Continuous
 62
     7
370
    25
100
AcDbLine
 10
756.778955753
 20
524.5642175453
 30
0.0
 11
757.1547342479
 21
524.5642175453
 31
0.0
  0
LINE
  5
262
330
1F
100
AcDbEntity
  8
0
  6
Continuous
 62
     7
370
    25
100
AcDbLine
 10
756.6547342479
 20
524.0642175453
 30
0.0
 11
756.3729003767
 21
524.0642175453
 31
0.0
  0
LINE
  5
263
330
1F
100
AcDbEntity
  8
0
  6
Continuous
 62
     7
370
    25
100
AcDbLine
 10
751.4312394199
 20
524.5642175453
 30
0.0
 11
751.6084712691
 21
524.5642175453
 31
0.0
  0
LINE
  5
264
330
1F
100
AcDbEntity
  8
0
  6
Continuous
 62
     7
370
    25
100
AcDbLine
 10
752.0641633068
 20
524.0642175453
 30
0.0
 11
751.9312394199
 21
524.0642175453
 31
0.0
  0
LINE
  5
265
330
1F
100
AcDbEntity
  8
0
  6
Continuous
 62
     7
370
    25
100
AcDbLine
 10
71.9736855331
 20
524.5642175453
 30
0.0
 11
74.0812351183
 21
524.5642175453
 31
0.0
  0
LINE
  5
266
330
1F
100
AcDbEntity
  8
0
  6
Continuous
 62
     7
370
    25
100
AcDbLine
 10
73.5812351183
 20
524.0642175453
 30
0.0
 11
72.0005729294
 21
524.0642175453
 31
0.0
  0
LINE
  5
267
330
1F
100
AcDbEntity
  8
0
  6
Continuous
 62
     7
370
    25
100
AcDbLine
 10
72.0005729294
 20
524.0642175453
 30
0.0
 11
70.2710282451
 21
524.0642175453
 31
0.0
  0
LINE
  5
268
330
1F
100
AcDbEntity
  8
0
  6
Continuous
 62
     7
370
    25
100
AcDbLine
 10
70.2441408488
 20
524.5642175453
 30
0.0
 11
71.9736855331
 21
524.5642175453
 31
0.0
  0
LINE
  5
269
330
1F
100
AcDbEntity
  8
0
  6
Continuous
 62
     7
370
    25
100
AcDbLine
 10
70.2710282451
 20
524.0642175453
 30
0.0
 11
68.851690434
 21
524.0642175453
 31
0.0
  0
LINE
  5
26A
330
1F
100
AcDbEntity
  8
0
  6
Continuous
 62
     7
370
    25
100
AcDbLine
 10
68.351690434
 20
524.5642175453
 30
0.0
 11
70.2441408488
 21
524.5642175453
 31
0.0
  0
LINE
  5
26B
330
1F
100
AcDbEntity
  8
0
  6
Continuous
 62
     7
370
    25
100
AcDbLine
 10
762.7433501725
 20
520.9642175453
 30
0.0
 11
763.9433501725
 21
520.9642175453
 31
0.0
  0
LINE
  5
26C
330
1F
100
AcDbEntity
  8
0
  6
Continuous
 62
     7
370
    25
100
AcDbLine
 10
763.9433501725
 20
501.9642175453
 30
0.0
 11
760.7433501725
 21
501.9642175453
 31
0.0
  0
LINE
  5
26D
330
1F
100
AcDbEntity
  8
0
  6
Continuous
 62
     7
370
    25
100
AcDbLine
 10
760.7433501725
 20
501.9642175453
 30
0.0
 11
760.7433501725
 21
480.9642175453
 31
0.0
  0
ARC
  5
26E
330
1F
100
AcDbEntity
  8
0
  6
Continuous
 62
     7
370
    25
100
AcDbCircle
 10
757.7433501725
 20
480.9642175453
 30
0.0
 40
3.000000000000057
100
AcDbArc
 50
270.0
 51
0.0
  0
LINE
  5
26F
330
1F
100
AcDbEntity
  8
0
  6
Continuous
 62
     7
370
    25
100
AcDbLine
 10
757.7433501725
 20
477.9642175453
 30
0.0
 11
713.7433501725
 21
477.9642175453
 31
0.0
  0
ARC
  5
270
330
1F
100
AcDbEntity
  8
0
  6
Continuous
 62
     7
370
    25
100
AcDbCircle
 10
713.7433501725
 20
480.9642175453
 30
0.0
 40
3.000000000000114
100
AcDbArc
 50
180.0
 51
270.0
  0
LINE
  5
271
330
1F
100
AcDbEntity
  8
0
  6
Continuous
 62
     7
370
    25
100
AcDbLine
 10
710.7433501725
 20
480.9642175453
 30
0.0
 11
710.7433501725
 21
497.0942175453
 31
0.0
  0
LINE
  5
272
330
1F
100
AcDbEntity
  8
0
  6
Continuous
 62
     7
370
    25
100
AcDbLine
 10
710.7433501725
 20
497.0942175453
 30
0.0
 11
708.2433501725
 21
497.0942175453
 31
0.0
  0
LINE
  5
273
330
1F
100
AcDbEntity
  8
0
  6
Continuous
 62
     7
370
    25
100
AcDbLine
 10
708.2433501725
 20
496.6021667377
 30
0.0
 11
708.2433501725
 21
497.0942175453
 31
0.0
  0
LINE
  5
274
330
1F
100
AcDbEntity
  8
0
  6
Continuous
 62
     7
370
    25
100
AcDbLine
 10
558.2433501725
 20
496.6021667377
 30
0.0
 11
558.2433501725
 21
497.0942175453
 31
0.0
  0
LINE
  5
275
330
1F
100
AcDbEntity
  8
0
  6
Continuous
 62
     7
370
    25
100
AcDbLine
 10
558.2433501725
 20
497.0942175453
 30
0.0
 11
555.7433501725
 21
497.0942175453
 31
0.0
  0
LINE
  5
276
330
1F
100
AcDbEntity
  8
0
  6
Continuous
 62
     7
370
    25
100
AcDbLine
 10
555.7433501725
 20
497.0942175453
 30
0.0
 11
555.7433501725
 21
480.9642175453
 31
0.0
  0
ARC
  5
277
330
1F
100
AcDbEntity
  8
0
  6
Continuous
 62
     7
370
    25
100
AcDbCircle
 10
552.7433501725
 20
480.9642175453
 30
0.0
 40
3.000000000000057
100
AcDbArc
 50
270.0
 51
360.0
  0
LINE
  5
278
330
1F
100
AcDbEntity
  8
0
  6
Continuous
 62
     7
370
    25
100
AcDbLine
 10
552.7433501725
 20
477.9642175453
 30
0.0
 11
493.2433501725
 21
477.9642175453
 31
0.0
  0
ARC
  5
279
330
1F
100
AcDbEntity
  8
0
  6
Continuous
 62
     7
370
    25
100
AcDbCircle
 10
493.2433501725
 20
480.9642175453
 30
0.0
 40
3.000000000000057
100
AcDbArc
 50
180.0
 51
270.0
  0
LINE
  5
27A
330
1F
100
AcDbEntity
  8
0
  6
Continuous
 62
     7
370
    25
100
AcDbLine
 10
490.2433501725
 20
480.9642175453
 30
0.0
 11
490.2433501725
 21
497.0942175453
 31
0.0
  0
LINE
  5
27B
330
1F
100
AcDbEntity
  8
0
  6
Continuous
 62
     7
370
    25
100
AcDbLine
 10
490.2433501725
 20
497.0942175453
 30
0.0
 11
487.7433501725
 21
497.0942175453
 31
0.0
  0
LINE
  5
27C
330
1F
100
AcDbEntity
  8
0
  6
Continuous
 62
     7
370
    25
100
AcDbLine
 10
487.7433501725
 20
496.6021667377
 30
0.0
 11
487.7433501725
 21
497.0942175453
 31
0.0
  0
LINE
  5
27D
330
1F
100
AcDbEntity
  8
0
  6
Continuous
 62
     7
370
    25
100
AcDbLine
 10
337.7433501725
 20
496.6021667377
 30
0.0
 11
337.7433501725
 21
497.0942175453
 31
0.0
  0
LINE
  5
27E
330
1F
100
AcDbEntity
  8
0
  6
Continuous
 62
     7
370
    25
100
AcDbLine
 10
337.7433501725
 20
497.0942175453
 30
0.0
 11
335.2433501725
 21
497.0942175453
 31
0.0
  0
LINE
  5
27F
330
1F
100
AcDbEntity
  8
0
  6
Continuous
 62
     7
370
    25
100
AcDbLine
 10
335.2433501725
 20
497.0942175453
 30
0.0
 11
335.2433501725
 21
480.9642175453
 31
0.0
  0
ARC
  5
280
330
1F
100
AcDbEntity
  8
0
  6
Continuous
 62
     7
370
    25
100
AcDbCircle
 10
332.2433501725
 20
480.9642175453
 30
0.0
 40
3.000000000000057
100
AcDbArc
 50
270.0
 51
0.0
  0
LINE
  5
281
330
1F
100
AcDbEntity
  8
0
  6
Continuous
 62
     7
370
    25
100
AcDbLine
 10
332.2433501725
 20
477.9642175453
 30
0.0
 11
272.7433501725
 21
477.9642175453
 31
0.0
  0
ARC
  5
282
330
1F
100
AcDbEntity
  8
0
  6
Continuous
 62
     7
370
    25
100
AcDbCircle
 10
272.7433501725
 20
480.9642175453
 30
0.0
 40
3.000000000000057
100
AcDbArc
 50
180.0
 51
270.0
  0
LINE
  5
283
330
1F
100
AcDbEntity
  8
0
  6
Continuous
 62
     7
370
    25
100
AcDbLine
 10
269.7433501725
 20
480.9642175453
 30
0.0
 11
269.7433501725
 21
497.0942175453
 31
0.0
  0
LINE
  5
284
330
1F
100
AcDbEntity
  8
0
  6
Continuous
 62
     7
370
    25
100
AcDbLine
 10
269.7433501725
 20
497.0942175453
 30
0.0
 11
267.2433501725
 21
497.0942175453
 31
0.0
  0
LINE
  5
285
330
1F
100
AcDbEntity
  8
0
  6
Continuous
 62
     7
370
    25
100
AcDbLine
 10
267.2433501725
 20
496.6021667377
 30
0.0
 11
267.2433501725
 21
497.0942175453
 31
0.0
  0
LINE
  5
286
330
1F
100
AcDbEntity
  8
0
  6
Continuous
 62
     7
370
    25
100
AcDbLine
 10
117.2433501725
 20
496.6021667377
 30
0.0
 11
117.2433501725
 21
497.0942175453
 31
0.0
  0
LINE
  5
287
330
1F
100
AcDbEntity
  8
0
  6
Continuous
 62
     7
370
    25
100
AcDbLine
 10
117.2433501725
 20
497.0942175453
 30
0.0
 11
114.7433501725
 21
497.0942175453
 31
0.0
  0
LINE
  5
288
330
1F
100
AcDbEntity
  8
0
  6
Continuous
 62
     7
370
    25
100
AcDbLine
 10
114.7433501725
 20
497.0942175453
 30
0.0
 11
114.7433501725
 21
480.9642175453
 31
0.0
  0
ARC
  5
289
330
1F
100
AcDbEntity
  8
0
  6
Continuous
 62
     7
370
    25
100
AcDbCircle
 10
111.7433501725
 20
480.9642175453
 30
0.0
 40
3.0
100
AcDbArc
 50
270.0
 51
0.0
  0
LINE
  5
28A
330
1F
100
AcDbEntity
  8
0
  6
Continuous
 62
     7
370
    25
100
AcDbLine
 10
111.7433501725
 20
477.9642175453
 30
0.0
 11
67.7433501725
 21
477.9642175453
 31
0.0
  0
ARC
  5
28B
330
1F
100
AcDbEntity
  8
0
  6
Continuous
 62
     7
370
    25
100
AcDbCircle
 10
67.7433501725
 20
480.9642175453
 30
0.0
 40
3.0
100
AcDbArc
 50
180.0
 51
270.0
  0
LINE
  5
28C
330
1F
100
AcDbEntity
  8
0
  6
Continuous
 62
     7
370
    25
100
AcDbLine
 10
64.7433501725
 20
480.9642175453
 30
0.0
 11
64.7433501725
 21
501.9642175453
 31
0.0
  0
LINE
  5
28D
330
1F
100
AcDbEntity
  8
0
  6
Continuous
 62
     7
370
    25
100
AcDbLine
 10
64.7433501725
 20
501.9642175453
 30
0.0
 11
61.5433501725
 21
501.9642175453
 31
0.0
  0
LINE
  5
28E
330
1F
100
AcDbEntity
  8
0
  6
Continuous
 62
     7
370
    25
100
AcDbLine
 10
61.5433501725
 20
520.9642175453
 30
0.0
 11
62.7433501725
 21
520.9642175453
 31
0.0
  0
LINE
  5
28F
330
1F
100
AcDbEntity
  8
0
  6
Continuous
 62
     7
370
    25
100
AcDbLine
 10
62.7433501725
 20
520.9642175453
 30
0.0
 11
62.7433501725
 21
521.1642175453
 31
0.0
  0
LINE
  5
290
330
1F
100
AcDbEntity
  8
0
  6
Continuous
 62
     7
370
    25
100
AcDbLine
 10
762.7433501725
 20
521.1642175453
 30
0.0
 11
762.7433501725
 21
520.9642175453
 31
0.0
  0
LINE
  5
291
330
1F
100
AcDbEntity
  8
0
  6
Continuous
 62
     7
370
    25
100
AcDbLine
 10
708.2433501725
 20
496.6021667377
 30
0.0
 11
708.2433501725
 21
495.7021667377
 31
0.0
  0
LINE
  5
292
330
1F
100
AcDbEntity
  8
0
  6
Continuous
 62
     7
370
    25
100
AcDbLine
 10
558.2433501725
 20
495.7021667377
 30
0.0
 11
558.2433501725
 21
496.6021667377
 31
0.0
  0
LINE
  5
293
330
1F
100
AcDbEntity
  8
0
  6
Continuous
 62
     7
370
    25
100
AcDbLine
 10
487.7433501725
 20
496.6021667377
 30
0.0
 11
487.7433501725
 21
495.7021667377
 31
0.0
  0
LINE
  5
294
330
1F
100
AcDbEntity
  8
0
  6
Continuous
 62
     7
370
    25
100
AcDbLine
 10
337.7433501725
 20
495.7021667377
 30
0.0
 11
337.7433501725
 21
496.6021667377
 31
0.0
  0
LINE
  5
295
330
1F
100
AcDbEntity
  8
0
  6
Continuous
 62
     7
370
    25
100
AcDbLine
 10
267.2433501725
 20
496.6021667377
 30
0.0
 11
267.2433501725
 21
495.7021667377
 31
0.0
  0
LINE
  5
296
330
1F
100
AcDbEntity
  8
0
  6
Continuous
 62
     7
370
    25
100
AcDbLine
 10
117.2433501725
 20
495.7021667377
 30
0.0
 11
117.2433501725
 21
496.6021667377
 31
0.0
  0
LINE
  5
297
330
1F
100
AcDbEntity
  8
0
  6
Continuous
 62
     7
370
    25
100
AcDbLine
 10
763.9433501725
 20
520.9642175453
 30
0.0
 11
764.7433501725
 21
520.9642175453
 31
0.0
  0
LINE
  5
298
330
1F
100
AcDbEntity
  8
0
  6
Continuous
 62
     7
370
    25
100
AcDbLine
 10
765.7433501725
 20
501.9642175453
 30
0.0
 11
765.7433501725
 21
502.5642175453
 31
0.0
  0
LINE
  5
299
330
1F
100
AcDbEntity
  8
0
  6
Continuous
 62
     7
370
    25
100
AcDbLine
 10
765.7433501725
 20
501.9642175453
 30
0.0
 11
763.9433501725
 21
501.9642175453
 31
0.0
  0
LINE
  5
29A
330
1F
100
AcDbEntity
  8
0
  6
Continuous
 62
     7
370
    25
100
AcDbLine
 10
59.7433501725
 20
501.9642175453
 30
0.0
 11
59.7433501725
 21
502.5642175453
 31
0.0
  0
LINE
  5
29B
330
1F
100
AcDbEntity
  8
0
  6
Continuous
 62
     7
370
    25
100
AcDbLine
 10
60.7433501725
 20
520.9642175453
 30
0.0
 11
61.5433501725
 21
520.9642175453
 31
0.0
  0
LINE
  5
29C
330
1F
100
AcDbEntity
  8
0
  6
Continuous
 62
     7
370
    25
100
AcDbLine
 10
61.5433501725
 20
501.9642175453
 30
0.0
 11
59.7433501725
 21
501.9642175453
 31
0.0
  0
LINE
  5
29D
330
1F
100
AcDbEntity
  8
0
  6
Continuous
 62
     7
370
    25
100
AcDbLine
 10
62.7433501725
 20
521.1642175453
 30
0.0
 11
62.7433501725
 21
522.9642175453
 31
0.0
  0
LINE
  5
29E
330
1F
100
AcDbEntity
  8
0
  6
Continuous
 62
     7
370
    25
100
AcDbLine
 10
762.7433501725
 20
522.9642175453
 30
0.0
 11
762.7433501725
 21
521.1642175453
 31
0.0
  0
LINE
  5
29F
330
1F
100
AcDbEntity
  8
0
  6
Continuous
 62
     7
370
    25
100
AcDbLine
 10
117.2433501725
 20
495.7021667377
 30
0.0
 11
117.2433501725
 21
489.0772956071
 31
0.0
  0
LINE
  5
2A0
330
1F
100
AcDbEntity
  8
0
  6
Continuous
 62
     7
370
    25
100
AcDbLine
 10
267.2433501725
 20
489.0772956071
 30
0.0
 11
267.2433501725
 21
495.7021667377
 31
0.0
  0
LINE
  5
2A1
330
1F
100
AcDbEntity
  8
0
  6
Continuous
 62
     7
370
    25
100
AcDbLine
 10
337.7433501725
 20
495.7021667377
 30
0.0
 11
337.7433501725
 21
489.0772956071
 31
0.0
  0
LINE
  5
2A2
330
1F
100
AcDbEntity
  8
0
  6
Continuous
 62
     7
370
    25
100
AcDbLine
 10
487.7433501725
 20
489.0772956071
 30
0.0
 11
487.7433501725
 21
495.7021667377
 31
0.0
  0
LINE
  5
2A3
330
1F
100
AcDbEntity
  8
0
  6
Continuous
 62
     7
370
    25
100
AcDbLine
 10
558.2433501725
 20
495.7021667377
 30
0.0
 11
558.2433501725
 21
489.0772956071
 31
0.0
  0
LINE
  5
2A4
330
1F
100
AcDbEntity
  8
0
  6
Continuous
 62
     7
370
    25
100
AcDbLine
 10
708.2433501725
 20
489.0772956071
 30
0.0
 11
708.2433501725
 21
495.7021667377
 31
0.0
  0
LINE
  5
2A5
330
1F
100
AcDbEntity
  8
0
  6
Continuous
 62
     7
370
    25
100
AcDbLine
 10
117.2433501725
 20
489.0772956071
 30
0.0
 11
117.2433501725
 21
488.5772956071
 31
0.0
  0
LINE
  5
2A6
330
1F
100
AcDbEntity
  8
0
  6
Continuous
 62
     7
370
    25
100
AcDbLine
 10
267.2433501725
 20
488.5772956071
 30
0.0
 11
267.2433501725
 21
489.0772956071
 31
0.0
  0
LINE
  5
2A7
330
1F
100
AcDbEntity
  8
0
  6
Continuous
 62
     7
370
    25
100
AcDbLine
 10
487.7433501725
 20
488.5772956071
 30
0.0
 11
487.7433501725
 21
489.0772956071
 31
0.0
  0
LINE
  5
2A8
330
1F
100
AcDbEntity
  8
0
  6
Continuous
 62
     7
370
    25
100
AcDbLine
 10
337.7433501725
 20
489.0772956071
 30
0.0
 11
337.7433501725
 21
488.5772956071
 31
0.0
  0
LINE
  5
2A9
330
1F
100
AcDbEntity
  8
0
  6
Continuous
 62
     7
370
    25
100
AcDbLine
 10
558.2433501725
 20
489.0772956071
 30
0.0
 11
558.2433501725
 21
488.5772956071
 31
0.0
  0
LINE
  5
2AA
330
1F
100
AcDbEntity
  8
0
  6
Continuous
 62
     7
370
    25
100
AcDbLine
 10
708.2433501725
 20
488.5772956071
 30
0.0
 11
708.2433501725
 21
489.0772956071
 31
0.0
  0
ARC
  5
2AB
330
1F
100
AcDbEntity
  8
0
  6
Continuous
 62
     7
370
    25
100
AcDbCircle
 10
120.2433501725
 20
482.0596041535
 30
0.0
 40
3.0
100
AcDbArc
 50
180.0
 51
270.0
  0
LINE
  5
2AC
330
1F
100
AcDbEntity
  8
0
  6
Continuous
 62
     7
370
    25
100
AcDbLine
 10
117.2433501725
 20
482.0596041535
 30
0.0
 11
117.2433501725
 21
488.5772956071
 31
0.0
  0
LINE
  5
2AD
330
1F
100
AcDbEntity
  8
0
  6
Continuous
 62
     7
370
    25
100
AcDbLine
 10
267.2433501725
 20
488.5772956071
 30
0.0
 11
267.2433501725
 21
482.0596041535
 31
0.0
  0
ARC
  5
2AE
330
1F
100
AcDbEntity
  8
0
  6
Continuous
 62
     7
370
    25
100
AcDbCircle
 10
264.2433501725
 20
482.0596041535
 30
0.0
 40
3.0
100
AcDbArc
 50
270.0
 51
0.0
  0
LINE
  5
2AF
330
1F
100
AcDbEntity
  8
0
  6
Continuous
 62
     7
370
    25
100
AcDbLine
 10
264.2433501725
 20
479.0596041535
 30
0.0
 11
120.2433501725
 21
479.0596041535
 31
0.0
  0
ARC
  5
2B0
330
1F
100
AcDbEntity
  8
0
  6
Continuous
 62
     7
370
    25
100
AcDbCircle
 10
561.2433501725
 20
482.0596041535
 30
0.0
 40
3.0
100
AcDbArc
 50
180.0
 51
270.0
  0
LINE
  5
2B1
330
1F
100
AcDbEntity
  8
0
  6
Continuous
 62
     7
370
    25
100
AcDbLine
 10
558.2433501725
 20
482.0596041535
 30
0.0
 11
558.2433501725
 21
488.5772956071
 31
0.0
  0
LINE
  5
2B2
330
1F
100
AcDbEntity
  8
0
  6
Continuous
 62
     7
370
    25
100
AcDbLine
 10
708.2433501725
 20
488.5772956071
 30
0.0
 11
708.2433501725
 21
482.0596041535
 31
0.0
  0
ARC
  5
2B3
330
1F
100
AcDbEntity
  8
0
  6
Continuous
 62
     7
370
    25
100
AcDbCircle
 10
705.2433501725
 20
482.0596041535
 30
0.0
 40
3.0
100
AcDbArc
 50
270.0
 51
0.0
  0
LINE
  5
2B4
330
1F
100
AcDbEntity
  8
0
  6
Continuous
 62
     7
370
    25
100
AcDbLine
 10
705.2433501725
 20
479.0596041535
 30
0.0
 11
561.2433501725
 21
479.0596041535
 31
0.0
  0
ARC
  5
2B5
330
1F
100
AcDbEntity
  8
0
  6
Continuous
 62
     7
370
    25
100
AcDbCircle
 10
340.7433501725
 20
482.0596041535
 30
0.0
 40
3.0
100
AcDbArc
 50
180.0
 51
270.0
  0
LINE
  5
2B6
330
1F
100
AcDbEntity
  8
0
  6
Continuous
 62
     7
370
    25
100
AcDbLine
 10
337.7433501725
 20
482.0596041535
 30
0.0
 11
337.7433501725
 21
488.5772956071
 31
0.0
  0
LINE
  5
2B7
330
1F
100
AcDbEntity
  8
0
  6
Continuous
 62
     7
370
    25
100
AcDbLine
 10
487.7433501725
 20
488.5772956071
 30
0.0
 11
487.7433501725
 21
482.0596041535
 31
0.0
  0
ARC
  5
2B8
330
1F
100
AcDbEntity
  8
0
  6
Continuous
 62
     7
370
    25
100
AcDbCircle
 10
484.7433501725
 20
482.0596041535
 30
0.0
 40
3.0
100
AcDbArc
 50
270.0
 51
0.0
  0
LINE
  5
2B9
330
1F
100
AcDbEntity
  8
0
  6
Continuous
 62
     7
370
    25
100
AcDbLine
 10
484.7433501725
 20
479.0596041535
 30
0.0
 11
340.7433501725
 21
479.0596041535
 31
0.0
  0
LINE
  5
2BA
330
1F
100
AcDbEntity
  8
0
  6
Continuous
 62
     7
370
    25
100
AcDbLine
 10
774.4021001725
 20
507.4642175453
 30
0.0
 11
774.4021001725
 21
507.6642175452
 31
0.0
  0
LINE
  5
2BB
330
1F
100
AcDbEntity
  8
0
  6
Continuous
 62
     7
370
    25
100
AcDbLine
 10
774.4021001725
 20
513.2642175453
 30
0.0
 11
774.4021001725
 21
513.4642175453
 31
0.0
  0
LINE
  5
2BC
330
1F
100
AcDbEntity
  8
0
  6
Continuous
 62
     7
370
    25
100
AcDbLine
 10
774.9433501725
 20
512.0436208826
 30
0.0
 11
774.9433501725
 21
512.9229675453
 31
0.0
  0
LINE
  5
2BD
330
1F
100
AcDbEntity
  8
0
  6
Continuous
 62
     7
370
    25
100
AcDbLine
 10
774.9433501725
 20
508.0054675452
 30
0.0
 11
774.9433501725
 21
512.0436208826
 31
0.0
  0
LINE
  5
2BE
330
1F
100
AcDbEntity
  8
0
  6
Continuous
 62
     7
370
    25
100
AcDbLine
 10
764.2433501725
 20
524.7642175453
 30
0.0
 11
764.2433501725
 21
522.9642175453
 31
0.0
  0
LINE
  5
2BF
330
1F
100
AcDbEntity
  8
0
  6
Continuous
 62
     7
370
    25
100
AcDbLine
 10
764.2433501725
 20
522.9642175453
 30
0.0
 11
61.2433501725
 21
522.9642175453
 31
0.0
  0
LINE
  5
2C0
330
1F
100
AcDbEntity
  8
0
  6
Continuous
 62
     7
370
    25
100
AcDbLine
 10
61.2433501725
 20
522.9642175453
 30
0.0
 11
61.2433501725
 21
524.7642175453
 31
0.0
  0
LINE
  5
2C1
330
1F
100
AcDbEntity
  8
0
  6
Continuous
 62
     7
370
    25
100
AcDbLine
 10
764.2433501725
 20
524.7642175453
 30
0.0
 11
764.7433501725
 21
530.1392175453
 31
0.0
  0
LINE
  5
2C2
330
1F
100
AcDbEntity
  8
0
  6
Continuous
 62
     7
370
    25
100
AcDbLine
 10
60.7433501725
 20
530.1392175453
 30
0.0
 11
61.2433501725
 21
524.7642175453
 31
0.0
  0
LINE
  5
2C3
330
1F
100
AcDbEntity
  8
0
  6
Continuous
 62
     7
370
    25
100
AcDbLine
 10
50.5433501725
 20
508.246879468
 30
0.0
 11
50.5433501725
 21
508.0054675452
 31
0.0
  0
LINE
  5
2C4
330
1F
100
AcDbEntity
  8
0
  6
Continuous
 62
     7
370
    25
100
AcDbLine
 10
50.5433501725
 20
512.9229675453
 30
0.0
 11
50.5433501725
 21
508.246879468
 31
0.0
  0
LINE
  5
2C5
330
1F
100
AcDbEntity
  8
0
  6
Continuous
 62
     7
370
    25
100
AcDbLine
 10
51.0846001725
 20
513.4642175453
 30
0.0
 11
51.0846001725
 21
513.2642175453
 31
0.0
  0
LINE
  5
2C6
330
1F
100
AcDbEntity
  8
0
  6
Continuous
 62
     7
370
    25
100
AcDbLine
 10
51.0846001725
 20
507.6642175452
 30
0.0
 11
51.0846001725
 21
507.4642175452
 31
0.0
  0
SPLINE
  5
2C7
330
1F
100
AcDbEntity
  8
0
  6
Continuous
 62
     7
370
    25
100
AcDbSpline
210
0.0
220
0.0
230
1.0
 70
    24
 71
     3
 72
    15
 73
    11
 74
     0
 42
0.000000001
 43
0.00000001
 40
0.0
 40
0.0
 40
0.0
 40
0.0
 40
0.0346967497918696
 40
0.2211884951269675
 40
0.4076802404620664
 40
0.5080720152630808
 40
0.610594247563484
 40
0.7131164798638869
 40
0.8135082546649017
 40
1.0
 40
1.0
 40
1.0
 40
1.0
 10
61.74335017247723
 20
504.69096873585
 30
0.0
 10
61.74335017247723
 20
504.6842476322186
 30
0.0
 10
61.74335017247734
 20
504.6414012328659
 30
0.0
 10
61.74335017247712
 20
505.1294421956244
 30
0.0
 10
61.74335017247734
 20
506.2253532530929
 30
0.0
 10
61.74335017247712
 20
507.4442503855404
 30
0.0
 10
61.74335017247723
 20
508.5244256133974
 30
0.0
 10
61.74335017247729
 20
509.6849025158631
 30
0.0
 10
61.74335017247723
 20
511.2154774109782
 30
0.0
 10
61.74335017247717
 20
512.2791032996283
 30
0.0
 10
61.74335017247723
 20
512.9705248503114
 30
0.0
  0
SPLINE
  5
2C8
330
1F
100
AcDbEntity
  8
0
  6
Continuous
 62
     7
370
    25
100
AcDbSpline
210
0.0
220
0.0
230
1.0
 70
    24
 71
     3
 72
    12
 73
     8
 74
     0
 42
0.000000001
 43
0.00000001
 40
0.0
 40
0.0
 40
0.0
 40
0.0
 40
0.3344405486782632
 40
0.5144757571369869
 40
0.6983315710265365
 40
0.8821873849160873
 40
0.9999999999999999
 40
0.9999999999999999
 40
0.9999999999999999
 40
0.9999999999999999
 10
61.74335017247723
 20
512.9705248503114
 30
0.0
 10
61.74335017247729
 20
513.5946703858133
 30
0.0
 10
61.74335017247729
 20
514.5548044012909
 30
0.0
 10
61.74335017247717
 20
515.4627153075861
 30
0.0
 10
61.74335017247729
 20
515.9684326455023
 30
0.0
 10
61.74335017247729
 20
516.2400523796405
 30
0.0
 10
61.74335017247723
 20
516.2381926481808
 30
0.0
 10
61.74335017247723
 20
516.2374663546558
 30
0.0
  0
SPLINE
  5
2C9
330
1F
100
AcDbEntity
  8
0
  6
Continuous
 62
     7
370
    25
100
AcDbSpline
210
0.0
220
0.0
230
1.0
 70
     8
 71
     3
 72
     8
 73
     4
 74
     0
 42
0.000000001
 43
0.00000001
 40
0.0
 40
0.0
 40
0.0
 40
0.0
 40
1.0
 40
1.0
 40
1.0
 40
1.0
 10
65.74335017247024
 20
510.0808225175665
 30
0.0
 10
65.74335017247024
 20
511.0632009621393
 30
0.0
 10
65.56903487209081
 20
512.018692130329
 30
0.0
 10
65.29676818507885
 20
512.9590747796566
 30
0.0
  0
SPLINE
  5
2CA
330
1F
100
AcDbEntity
  8
0
  6
Continuous
 62
     7
370
    25
100
AcDbSpline
210
0.0
220
0.0
230
1.0
 70
     8
 71
     3
 72
     8
 73
     4
 74
     0
 42
0.000000001
 43
0.00000001
 40
0.0
 40
0.0
 40
0.0
 40
0.0
 40
1.0
 40
1.0
 40
1.0
 40
1.0
 10
65.29676818507885
 20
507.2025702554765
 30
0.0
 10
65.56903487209026
 20
508.1429529048023
 30
0.0
 10
65.74335017247024
 20
509.0984440729956
 30
0.0
 10
65.74335017247024
 20
510.0808225175665
 30
0.0
  0
LINE
  5
2CB
330
1F
100
AcDbEntity
  8
0
  6
Continuous
 62
     7
370
    25
100
AcDbLine
 10
61.7433501725
 20
507.2025702555
 30
0.0
 11
65.2967681851
 21
507.2025702555
 31
0.0
  0
LINE
  5
2CC
330
1F
100
AcDbEntity
  8
0
  6
Continuous
 62
     7
370
    25
100
AcDbLine
 10
61.7433501725
 20
512.9590747797
 30
0.0
 11
65.2967681851
 21
512.9590747797
 31
0.0
  0
LINE
  5
2CD
330
1F
100
AcDbEntity
  8
0
  6
Continuous
 62
     7
370
    25
100
AcDbLine
 10
65.7433501725
 20
510.0808225176
 30
0.0
 11
65.7433501725
 21
514.5898984245
 31
0.0
  0
SPLINE
  5
2CE
330
1F
100
AcDbEntity
  8
0
  6
Continuous
 62
     7
370
    25
100
AcDbSpline
210
0.0
220
0.0
230
1.0
 70
     8
 71
     3
 72
     8
 73
     4
 74
     0
 42
0.000000001
 43
0.00000001
 40
0.0
 40
0.0
 40
0.0
 40
0.0
 40
1.0
 40
1.0
 40
1.0
 40
1.0
 10
65.29676818507879
 20
512.9590747796627
 30
0.0
 10
65.5690348720902
 20
513.4918975207275
 30
0.0
 10
65.74335017247013
 20
514.0332807796221
 30
0.0
 10
65.74335017247013
 20
514.5898984245506
 30
0.0
  0
LINE
  5
2CF
330
1F
100
AcDbEntity
  8
0
  6
Continuous
 62
     7
370
    25
100
AcDbLine
 10
65.7433501725
 20
505.9551416383
 30
0.0
 11
65.7433501725
 21
510.0808225176
 31
0.0
  0
SPLINE
  5
2D0
330
1F
100
AcDbEntity
  8
0
  6
Continuous
 62
     7
370
    25
100
AcDbSpline
210
0.0
220
0.0
230
1.0
 70
     8
 71
     3
 72
     8
 73
     4
 74
     0
 42
0.000000001
 43
0.00000001
 40
0.0
 40
0.0
 40
0.0
 40
0.0
 40
1.0
 40
1.0
 40
1.0
 40
1.0
 10
65.74335017247002
 20
505.9551416382689
 30
0.0
 10
65.74335017247002
 20
506.3809024379123
 30
0.0
 10
65.56903487209065
 20
506.7950103472092
 30
0.0
 10
65.29676818507879
 20
507.2025702554709
 30
0.0
  0
SPLINE
  5
2D1
330
1F
100
AcDbEntity
  8
0
  6
Continuous
 62
     7
370
    25
100
AcDbSpline
210
0.0
220
0.0
230
1.0
 70
     8
 71
     3
 72
     8
 73
     4
 74
     0
 42
0.000000001
 43
0.00000001
 40
0.0
 40
0.0
 40
0.0
 40
0.0
 40
1.0
 40
1.0
 40
1.0
 40
1.0
 10
65.74335017247013
 20
514.5898984245506
 30
0.0
 10
65.74335017247013
 20
515.1465160694804
 30
0.0
 10
65.56903487209087
 20
515.6878993283722
 30
0.0
 10
65.29676818507879
 20
516.2207220694385
 30
0.0
  0
LINE
  5
2D2
330
1F
100
AcDbEntity
  8
0
  6
Continuous
 62
     7
370
    25
100
AcDbLine
 10
65.2967681851
 20
516.2207220694
 30
0.0
 11
61.7433501725
 21
516.2207220694
 31
0.0
  0
SPLINE
  5
2D3
330
1F
100
AcDbEntity
  8
0
  6
Continuous
 62
     7
370
    25
100
AcDbSpline
210
0.0
220
0.0
230
1.0
 70
     8
 71
     3
 72
     8
 73
     4
 74
     0
 42
0.000000001
 43
0.00000001
 40
0.0
 40
0.0
 40
0.0
 40
0.0
 40
1.0
 40
1.0
 40
1.0
 40
1.0
 10
65.29676818507873
 20
504.707713021067
 30
0.0
 10
65.56903487209014
 20
505.1152729293279
 30
0.0
 10
65.74335017247002
 20
505.5293808386265
 30
0.0
 10
65.74335017247002
 20
505.9551416382689
 30
0.0
  0
LINE
  5
2D4
330
1F
100
AcDbEntity
  8
0
  6
Continuous
 62
     7
370
    25
100
AcDbLine
 10
61.7433501725
 20
504.7077130211
 30
0.0
 11
65.2967681851
 21
504.7077130211
 31
0.0
  0
LINE
  5
2D5
330
1F
100
AcDbEntity
  8
0
  6
Continuous
 62
     7
370
    25
100
AcDbLine
 10
51.2846001725
 20
513.4642175453
 30
0.0
 11
51.2846001725
 21
507.4642175453
 31
0.0
  0
LINE
  5
2D6
330
1F
100
AcDbEntity
  8
0
  6
Continuous
 62
     7
370
    25
100
AcDbLine
 10
50.7433501725
 20
508.246879468
 30
0.0
 11
50.7433501725
 21
508.0054675452
 31
0.0
  0
LINE
  5
2D7
330
1F
100
AcDbEntity
  8
0
  6
Continuous
 62
     7
370
    25
100
AcDbLine
 10
50.7433501725
 20
512.9229675453
 30
0.0
 11
50.7433501725
 21
508.246879468
 31
0.0
  0
LINE
  5
2D8
330
1F
100
AcDbEntity
  8
0
  6
Continuous
 62
     7
370
    25
100
AcDbLine
 10
65.2967681851
 20
516.2207220694
 30
0.0
 11
65.3719559406
 21
516.0107016016
 31
0.0
  0
LINE
  5
2D9
330
1F
100
AcDbEntity
  8
0
  6
Continuous
 62
     7
370
    25
100
AcDbLine
 10
65.7433501725
 20
514.5898984245
 30
0.0
 11
65.7433501725
 21
515.4642175452
 31
0.0
  0
LINE
  5
2DA
330
1F
100
AcDbEntity
  8
0
  6
Continuous
 62
     7
370
    25
100
AcDbLine
 10
65.7433501725
 20
505.4642175453
 30
0.0
 11
65.7433501725
 21
505.9551416383
 31
0.0
  0
LINE
  5
2DB
330
1F
100
AcDbEntity
  8
0
  6
Continuous
 62
     7
370
    25
100
AcDbLine
 10
60.7433501725
 20
504.5642175453
 30
0.0
 11
60.7433501725
 21
502.5642175453
 31
0.0
  0
LINE
  5
2DC
330
1F
100
AcDbEntity
  8
0
  6
Continuous
 62
     7
370
    25
100
AcDbLine
 10
60.7433501725
 20
502.5642175453
 30
0.0
 11
58.7433501725
 21
502.5642175453
 31
0.0
  0
LINE
  5
2DD
330
1F
100
AcDbEntity
  8
0
  6
Continuous
 62
     7
370
    25
100
AcDbLine
 10
58.7433501725
 20
502.5642175453
 30
0.0
 11
58.7433501725
 21
504.5642175453
 31
0.0
  0
LINE
  5
2DE
330
1F
100
AcDbEntity
  8
0
  6
Continuous
 62
     7
370
    25
100
AcDbLine
 10
58.7433501725
 20
504.5642175453
 30
0.0
 11
58.7433501725
 21
533.5642175453
 31
0.0
  0
LINE
  5
2DF
330
1F
100
AcDbEntity
  8
0
  6
Continuous
 62
     7
370
    25
100
AcDbLine
 10
60.7433501725
 20
504.5642175453
 30
0.0
 11
60.7433501725
 21
533.5642175453
 31
0.0
  0
LINE
  5
2E0
330
1F
100
AcDbEntity
  8
0
  6
Continuous
 62
     7
370
    25
100
AcDbLine
 10
60.7483627354
 20
533.6642175453
 30
0.0
 11
60.7433501725
 21
533.5642175453
 31
0.0
  0
LINE
  5
2E1
330
1F
100
AcDbEntity
  8
0
  6
Continuous
 62
     7
370
    25
100
AcDbLine
 10
58.7450173024
 20
533.6642175453
 30
0.0
 11
58.7433501725
 21
533.5642175453
 31
0.0
  0
LINE
  5
2E2
330
1F
100
AcDbEntity
  8
0
  6
Continuous
 62
     7
370
    25
100
AcDbLine
 10
58.7433501725
 20
518.5642175453
 30
0.0
 11
58.6830427933
 21
518.5642175453
 31
0.0
  0
LINE
  5
2E3
330
1F
100
AcDbEntity
  8
0
  6
Continuous
 62
     7
370
    25
100
AcDbLine
 10
58.6830427933
 20
502.5642175453
 30
0.0
 11
58.7433501725
 21
502.5642175453
 31
0.0
  0
LWPOLYLINE
  5
2E4
330
1F
100
AcDbEntity
  8
0
  6
Continuous
 62
     7
370
    25
100
AcDbPolyline
 90
        9
 70
   128
 43
0.0
 10
56.1278037843
 20
504.5642175453
 10
56.1409474266
 20
504.1740369012
 10
56.1798732507
 20
503.7988506805
 10
56.243085359
 20
503.4530770792
 10
56.3281545457
 20
503.1500039829
 10
56.4318116495
 20
502.9012783206
 10
56.5500731862
 20
502.7164584802
 10
56.6783944312
 20
502.6026469844
 10
56.811844071
 20
502.5642175453
  0
LINE
  5
2E5
330
1F
100
AcDbEntity
  8
0
  6
Continuous
 62
     7
370
    25
100
AcDbLine
 10
56.1278037843
 20
504.5642175453
 30
0.0
 11
56.1278037843
 21
507.4642175453
 31
0.0
  0
LINE
  5
2E6
330
1F
100
AcDbEntity
  8
0
  6
Continuous
 62
     7
370
    25
100
AcDbLine
 10
56.1278037843
 20
513.4642175453
 30
0.0
 11
56.1278037843
 21
516.5642175453
 31
0.0
  0
LWPOLYLINE
  5
2E7
330
1F
100
AcDbEntity
  8
0
  6
Continuous
 62
     7
370
    25
100
AcDbPolyline
 90
        9
 70
   128
 43
0.0
 10
56.811844071
 20
518.5642175453
 10
56.6783944312
 20
518.5257881061
 10
56.5500731862
 20
518.4119766103
 10
56.4318116495
 20
518.2271567699
 10
56.3281545457
 20
517.9784311076
 10
56.243085359
 20
517.6753580113
 10
56.1798732507
 20
517.32958441
 10
56.1409474266
 20
516.9543981893
 10
56.1278037843
 20
516.5642175453
  0
LINE
  5
2E8
330
1F
100
AcDbEntity
  8
0
  6
Continuous
 62
     7
370
    25
100
AcDbLine
 10
56.811844071
 20
518.5642175453
 30
0.0
 11
58.6830427933
 21
518.5642175453
 31
0.0
  0
LINE
  5
2E9
330
1F
100
AcDbEntity
  8
0
  6
Continuous
 62
     7
370
    25
100
AcDbLine
 10
58.6830427933
 20
502.5642175453
 30
0.0
 11
56.811844071
 21
502.5642175453
 31
0.0
  0
LINE
  5
2EA
330
1F
100
AcDbEntity
  8
0
  6
Continuous
 62
     7
370
    25
100
AcDbLine
 10
766.7433501725
 20
502.5642175453
 30
0.0
 11
764.7433501725
 21
502.5642175453
 31
0.0
  0
LINE
  5
2EB
330
1F
100
AcDbEntity
  8
0
  6
Continuous
 62
     7
370
    25
100
AcDbLine
 10
764.7433501725
 20
502.5642175453
 30
0.0
 11
764.7433501725
 21
504.5642175453
 31
0.0
  0
LINE
  5
2EC
330
1F
100
AcDbEntity
  8
0
  6
Continuous
 62
     7
370
    25
100
AcDbLine
 10
766.7433501725
 20
504.5642175453
 30
0.0
 11
766.7433501725
 21
502.5642175453
 31
0.0
  0
LINE
  5
2ED
330
1F
100
AcDbEntity
  8
0
  6
Continuous
 62
     7
370
    25
100
AcDbLine
 10
764.7433501725
 20
533.5642175453
 30
0.0
 11
764.7433501725
 21
504.5642175453
 31
0.0
  0
LINE
  5
2EE
330
1F
100
AcDbEntity
  8
0
  6
Continuous
 62
     7
370
    25
100
AcDbLine
 10
766.7433501725
 20
533.5642175453
 30
0.0
 11
766.7433501725
 21
504.5642175453
 31
0.0
  0
LINE
  5
2EF
330
1F
100
AcDbEntity
  8
0
  6
Continuous
 62
     7
370
    25
100
AcDbLine
 10
766.7433501725
 20
533.5642175453
 30
0.0
 11
766.7416830426
 21
533.6642175453
 31
0.0
  0
LINE
  5
2F0
330
1F
100
AcDbEntity
  8
0
  6
Continuous
 62
     7
370
    25
100
AcDbLine
 10
764.7433501725
 20
533.5642175453
 30
0.0
 11
764.7383376096
 21
533.6642175453
 31
0.0
  0
LINE
  5
2F1
330
1F
100
AcDbEntity
  8
0
  6
Continuous
 62
     7
370
    25
100
AcDbLine
 10
766.8036575517
 20
518.5642175453
 30
0.0
 11
766.7433501725
 21
518.5642175453
 31
0.0
  0
LINE
  5
2F2
330
1F
100
AcDbEntity
  8
0
  6
Continuous
 62
     7
370
    25
100
AcDbLine
 10
766.7433501725
 20
502.5642175453
 30
0.0
 11
766.8036575517
 21
502.5642175453
 31
0.0
  0
LWPOLYLINE
  5
2F3
330
1F
100
AcDbEntity
  8
0
  6
Continuous
 62
     7
370
    25
100
AcDbPolyline
 90
        9
 70
   128
 43
0.0
 10
768.674856274
 20
502.5642175453
 10
768.8083059138
 20
502.6026469844
 10
768.9366271588
 20
502.7164584802
 10
769.0548886955
 20
502.9012783206
 10
769.1585457993
 20
503.1500039829
 10
769.2436149859
 20
503.4530770792
 10
769.3068270943
 20
503.7988506805
 10
769.3457529184
 20
504.1740369012
 10
769.3588965607
 20
504.5642175453
  0
LINE
  5
2F4
330
1F
100
AcDbEntity
  8
0
  6
Continuous
 62
     7
370
    25
100
AcDbLine
 10
766.8036575517
 20
518.5642175453
 30
0.0
 11
768.674856274
 21
518.5642175453
 31
0.0
  0
LWPOLYLINE
  5
2F5
330
1F
100
AcDbEntity
  8
0
  6
Continuous
 62
     7
370
    25
100
AcDbPolyline
 90
        9
 70
   128
 43
0.0
 10
769.3588965607
 20
516.5642175453
 10
769.3457529184
 20
516.9543981893
 10
769.3068270943
 20
517.32958441
 10
769.2436149859
 20
517.6753580113
 10
769.1585457993
 20
517.9784311076
 10
769.0548886955
 20
518.2271567699
 10
768.9366271588
 20
518.4119766103
 10
768.8083059138
 20
518.5257881061
 10
768.674856274
 20
518.5642175453
  0
LINE
  5
2F6
330
1F
100
AcDbEntity
  8
0
  6
Continuous
 62
     7
370
    25
100
AcDbLine
 10
769.3588965607
 20
516.5642175453
 30
0.0
 11
769.3588965607
 21
513.4642175453
 31
0.0
  0
LINE
  5
2F7
330
1F
100
AcDbEntity
  8
0
  6
Continuous
 62
     7
370
    25
100
AcDbLine
 10
769.3588965607
 20
507.4642175453
 30
0.0
 11
769.3588965607
 21
504.5642175453
 31
0.0
  0
LINE
  5
2F8
330
1F
100
AcDbEntity
  8
0
  6
Continuous
 62
     7
370
    25
100
AcDbLine
 10
768.674856274
 20
502.5642175453
 30
0.0
 11
766.8036575517
 21
502.5642175453
 31
0.0
  0
LINE
  5
2F9
330
1F
100
AcDbEntity
  8
0
  6
Continuous
 62
     7
370
    25
100
AcDbLine
 10
758.9933501725
 20
528.5642175452
 30
0.0
 11
749.4933501725
 21
528.5642175452
 31
0.0
  0
LINE
  5
2FA
330
1F
100
AcDbEntity
  8
0
  6
Continuous
 62
     7
370
    25
100
AcDbLine
 10
758.9933501725
 20
529.0642175453
 30
0.0
 11
758.9933501725
 21
528.5642175452
 31
0.0
  0
LINE
  5
2FB
330
1F
100
AcDbEntity
  8
0
  6
Continuous
 62
     7
370
    25
100
AcDbLine
 10
749.4933501725
 20
528.5642175452
 30
0.0
 11
749.4933501725
 21
529.0642175452
 31
0.0
  0
ARC
  5
2FC
330
1F
100
AcDbEntity
  8
0
  6
Continuous
 62
     7
370
    25
100
AcDbCircle
 10
748.7299501725
 20
529.8008175452
 30
0.0
 40
1.236599999999922
100
AcDbArc
 50
216.5600911004
 51
270.0
  0
LINE
  5
2FD
330
1F
100
AcDbEntity
  8
0
  6
Continuous
 62
     7
370
    25
100
AcDbLine
 10
749.4933501725
 20
528.5642175452
 30
0.0
 11
748.7299501725
 21
528.5642175452
 31
0.0
  0
ARC
  5
2FE
330
1F
100
AcDbEntity
  8
0
  6
Continuous
 62
     7
370
    25
100
AcDbCircle
 10
759.7567501725
 20
529.8008175452
 30
0.0
 40
1.236600000000013
100
AcDbArc
 50
270.0
 51
323.4399088996
  0
LINE
  5
2FF
330
1F
100
AcDbEntity
  8
0
  6
Continuous
 62
     7
370
    25
100
AcDbLine
 10
759.7567501725
 20
528.5642175452
 30
0.0
 11
758.9933501725
 21
528.5642175452
 31
0.0
  0
ARC
  5
300
330
1F
100
AcDbEntity
  8
0
  6
Continuous
 62
     7
370
    25
100
AcDbCircle
 10
773.2433501725
 20
539.6642175453
 30
0.0
 40
6.0
100
AcDbArc
 50
270.0
 51
323.1301023541
  0
ARC
  5
301
330
1F
100
AcDbEntity
  8
0
  6
Continuous
 62
     7
370
    25
100
AcDbCircle
 10
52.2433501725
 20
539.6642175453
 30
0.0
 40
6.000000000000035
100
AcDbArc
 50
216.8698976459
 51
270.0
  0
ARC
  5
302
330
1F
100
AcDbEntity
  8
0
  6
Continuous
 62
     7
370
    25
100
AcDbCircle
 10
764.4433501725
 20
34.9761944286
 30
0.0
 40
0.5
100
AcDbArc
 50
180.0
 51
0.0
  0
ARC
  5
303
330
1F
100
AcDbEntity
  8
0
  6
Continuous
 62
     7
370
    25
100
AcDbCircle
 10
764.4433501725
 20
46.5761944288
 30
0.0
 40
0.5
100
AcDbArc
 50
0.0
 51
180.0
  0
LINE
  5
304
330
1F
100
AcDbEntity
  8
0
  6
Continuous
 62
     7
370
    25
100
AcDbLine
 10
774.4021001725
 20
37.7761944287
 30
0.0
 11
774.9433501725
 21
38.3174444287
 31
0.0
  0
LINE
  5
305
330
1F
100
AcDbEntity
  8
0
  6
Continuous
 62
     7
370
    25
100
AcDbLine
 10
774.9433501725
 20
43.2349444288
 30
0.0
 11
774.4021001725
 21
43.7761944287
 31
0.0
  0
LINE
  5
306
330
1F
100
AcDbEntity
  8
0
  6
Continuous
 62
     7
370
    25
100
AcDbLine
 10
774.4021001725
 20
43.7761944287
 30
0.0
 11
765.7433501725
 21
43.7761944287
 31
0.0
  0
LINE
  5
307
330
1F
100
AcDbEntity
  8
0
  6
Continuous
 62
     7
370
    25
100
AcDbLine
 10
765.7433501725
 20
37.7761944287
 30
0.0
 11
774.4021001725
 21
37.7761944287
 31
0.0
  0
LINE
  5
308
330
1F
100
AcDbEntity
  8
0
  6
Continuous
 62
     7
370
    25
100
AcDbLine
 10
740.6628118775
 20
29.4247658292
 30
0.0
 11
741.0933501725
 21
29.1761944287
 31
0.0
  0
LINE
  5
309
330
1F
100
AcDbEntity
  8
0
  6
Continuous
 62
     7
370
    25
100
AcDbLine
 10
747.3933501725
 20
29.1761944287
 30
0.0
 11
747.7885647581
 21
29.4043716761
 31
0.0
  0
LINE
  5
30A
330
1F
100
AcDbEntity
  8
0
  6
Continuous
 62
     7
370
    25
100
AcDbLine
 10
747.7885647581
 20
32.1480171814
 30
0.0
 11
747.3933501725
 21
32.3761944287
 31
0.0
  0
LINE
  5
30B
330
1F
100
AcDbEntity
  8
0
  6
Continuous
 62
     7
370
    25
100
AcDbLine
 10
741.0933501725
 20
32.3761944287
 30
0.0
 11
740.6628118775
 21
32.1276230283
 31
0.0
  0
LINE
  5
30C
330
1F
100
AcDbEntity
  8
0
  6
Continuous
 62
     7
370
    25
100
AcDbLine
 10
297.6628118775
 20
29.4247658292
 30
0.0
 11
298.0933501725
 21
29.1761944287
 31
0.0
  0
LINE
  5
30D
330
1F
100
AcDbEntity
  8
0
  6
Continuous
 62
     7
370
    25
100
AcDbLine
 10
304.3933501725
 20
29.1761944287
 30
0.0
 11
304.7885647581
 21
29.4043716761
 31
0.0
  0
LINE
  5
30E
330
1F
100
AcDbEntity
  8
0
  6
Continuous
 62
     7
370
    25
100
AcDbLine
 10
304.7885647581
 20
32.1480171814
 30
0.0
 11
304.3933501725
 21
32.3761944287
 31
0.0
  0
LINE
  5
30F
330
1F
100
AcDbEntity
  8
0
  6
Continuous
 62
     7
370
    25
100
AcDbLine
 10
298.0933501725
 20
32.3761944287
 30
0.0
 11
297.6628118775
 21
32.1276230283
 31
0.0
  0
LINE
  5
310
330
1F
100
AcDbEntity
  8
0
  6
Continuous
 62
     7
370
    25
100
AcDbLine
 10
527.7885647581
 20
32.1480171814
 30
0.0
 11
527.3933501725
 21
32.3761944287
 31
0.0
  0
LINE
  5
311
330
1F
100
AcDbEntity
  8
0
  6
Continuous
 62
     7
370
    25
100
AcDbLine
 10
521.0933501725
 20
32.3761944287
 30
0.0
 11
520.6628118775
 21
32.1276230283
 31
0.0
  0
LINE
  5
312
330
1F
100
AcDbEntity
  8
0
  6
Continuous
 62
     7
370
    25
100
AcDbLine
 10
520.6628118775
 20
29.4247658292
 30
0.0
 11
521.0933501725
 21
29.1761944287
 31
0.0
  0
LINE
  5
313
330
1F
100
AcDbEntity
  8
0
  6
Continuous
 62
     7
370
    25
100
AcDbLine
 10
527.3933501725
 20
29.1761944287
 30
0.0
 11
527.7885647581
 21
29.4043716761
 31
0.0
  0
LINE
  5
314
330
1F
100
AcDbEntity
  8
0
  6
Continuous
 62
     7
370
    25
100
AcDbLine
 10
77.6628118775
 20
29.4247658292
 30
0.0
 11
78.0933501725
 21
29.1761944287
 31
0.0
  0
LINE
  5
315
330
1F
100
AcDbEntity
  8
0
  6
Continuous
 62
     7
370
    25
100
AcDbLine
 10
84.3933501725
 20
29.1761944287
 30
0.0
 11
84.7885647581
 21
29.4043716761
 31
0.0
  0
LINE
  5
316
330
1F
100
AcDbEntity
  8
0
  6
Continuous
 62
     7
370
    25
100
AcDbLine
 10
84.7885647581
 20
32.1480171814
 30
0.0
 11
84.3933501725
 21
32.3761944287
 31
0.0
  0
LINE
  5
317
330
1F
100
AcDbEntity
  8
0
  6
Continuous
 62
     7
370
    25
100
AcDbLine
 10
78.0933501725
 20
32.3761944287
 30
0.0
 11
77.6628118775
 21
32.1276230283
 31
0.0
  0
LINE
  5
318
330
1F
100
AcDbEntity
  8
0
  6
Continuous
 62
     7
370
    25
100
AcDbLine
 10
60.2433501725
 20
15.7261944287
 30
0.0
 11
765.2433501725
 21
15.7261944287
 31
0.0
  0
LINE
  5
319
330
1F
100
AcDbEntity
  8
0
  6
Continuous
 62
     7
370
    25
100
AcDbLine
 10
742.2433501725
 20
37.4761944287
 30
0.0
 11
742.2433501725
 21
32.3761944287
 31
0.0
  0
LINE
  5
31A
330
1F
100
AcDbEntity
  8
0
  6
Continuous
 62
     7
370
    25
100
AcDbLine
 10
742.2433501725
 20
29.1761944287
 30
0.0
 11
742.2433501725
 21
29.0761944287
 31
0.0
  0
LINE
  5
31B
330
1F
100
AcDbEntity
  8
0
  6
Continuous
 62
     7
370
    25
100
AcDbLine
 10
746.2433501725
 20
29.0761944287
 30
0.0
 11
746.2433501725
 21
29.1761944287
 31
0.0
  0
LINE
  5
31C
330
1F
100
AcDbEntity
  8
0
  6
Continuous
 62
     7
370
    25
100
AcDbLine
 10
746.2433501725
 20
32.3761944287
 30
0.0
 11
746.2433501725
 21
37.4761944287
 31
0.0
  0
LINE
  5
31D
330
1F
100
AcDbEntity
  8
0
  6
Continuous
 62
     7
370
    25
100
AcDbLine
 10
299.2433501725
 20
37.4761944287
 30
0.0
 11
299.2433501725
 21
32.3761944287
 31
0.0
  0
LINE
  5
31E
330
1F
100
AcDbEntity
  8
0
  6
Continuous
 62
     7
370
    25
100
AcDbLine
 10
299.2433501725
 20
29.1761944287
 30
0.0
 11
299.2433501725
 21
29.0761944287
 31
0.0
  0
LINE
  5
31F
330
1F
100
AcDbEntity
  8
0
  6
Continuous
 62
     7
370
    25
100
AcDbLine
 10
303.2433501725
 20
29.0761944287
 30
0.0
 11
303.2433501725
 21
29.1761944287
 31
0.0
  0
LINE
  5
320
330
1F
100
AcDbEntity
  8
0
  6
Continuous
 62
     7
370
    25
100
AcDbLine
 10
303.2433501725
 20
32.3761944287
 30
0.0
 11
303.2433501725
 21
37.4761944287
 31
0.0
  0
LINE
  5
321
330
1F
100
AcDbEntity
  8
0
  6
Continuous
 62
     7
370
    25
100
AcDbLine
 10
522.2433501725
 20
37.4761944287
 30
0.0
 11
522.2433501725
 21
32.3761944287
 31
0.0
  0
LINE
  5
322
330
1F
100
AcDbEntity
  8
0
  6
Continuous
 62
     7
370
    25
100
AcDbLine
 10
522.2433501725
 20
29.1761944287
 30
0.0
 11
522.2433501725
 21
29.0761944287
 31
0.0
  0
LINE
  5
323
330
1F
100
AcDbEntity
  8
0
  6
Continuous
 62
     7
370
    25
100
AcDbLine
 10
526.2433501725
 20
29.0761944287
 30
0.0
 11
526.2433501725
 21
29.1761944287
 31
0.0
  0
LINE
  5
324
330
1F
100
AcDbEntity
  8
0
  6
Continuous
 62
     7
370
    25
100
AcDbLine
 10
526.2433501725
 20
32.3761944287
 30
0.0
 11
526.2433501725
 21
37.4761944287
 31
0.0
  0
LINE
  5
325
330
1F
100
AcDbEntity
  8
0
  6
Continuous
 62
     7
370
    25
100
AcDbLine
 10
79.2433501725
 20
37.4761944287
 30
0.0
 11
79.2433501725
 21
32.3761944287
 31
0.0
  0
LINE
  5
326
330
1F
100
AcDbEntity
  8
0
  6
Continuous
 62
     7
370
    25
100
AcDbLine
 10
79.2433501725
 20
29.1761944287
 30
0.0
 11
79.2433501725
 21
29.0761944287
 31
0.0
  0
LINE
  5
327
330
1F
100
AcDbEntity
  8
0
  6
Continuous
 62
     7
370
    25
100
AcDbLine
 10
83.2433501725
 20
29.0761944287
 30
0.0
 11
83.2433501725
 21
29.1761944287
 31
0.0
  0
LINE
  5
328
330
1F
100
AcDbEntity
  8
0
  6
Continuous
 62
     7
370
    25
100
AcDbLine
 10
83.2433501725
 20
32.3761944287
 30
0.0
 11
83.2433501725
 21
37.4761944287
 31
0.0
  0
ARC
  5
329
330
1F
100
AcDbEntity
  8
0
  6
Continuous
 62
     7
370
    25
100
AcDbCircle
 10
61.0433501725
 20
46.5761944288
 30
0.0
 40
0.5
100
AcDbArc
 50
0.0
 51
180.0
  0
ARC
  5
32A
330
1F
100
AcDbEntity
  8
0
  6
Continuous
 62
     7
370
    25
100
AcDbCircle
 10
61.0433501725
 20
34.9761944286
 30
0.0
 40
0.5000000000000071
100
AcDbArc
 50
180.0
 51
0.0
  0
LINE
  5
32B
330
1F
100
AcDbEntity
  8
0
  6
Continuous
 62
     7
370
    25
100
AcDbLine
 10
51.0846001725
 20
37.7761944287
 30
0.0
 11
59.7433501725
 21
37.7761944287
 31
0.0
  0
LINE
  5
32C
330
1F
100
AcDbEntity
  8
0
  6
Continuous
 62
     7
370
    25
100
AcDbLine
 10
59.7433501725
 20
43.7761944287
 30
0.0
 11
51.0846001725
 21
43.7761944287
 31
0.0
  0
LINE
  5
32D
330
1F
100
AcDbEntity
  8
0
  6
Continuous
 62
     7
370
    25
100
AcDbLine
 10
51.0846001725
 20
43.7761944287
 30
0.0
 11
50.5433501725
 21
43.2349444288
 31
0.0
  0
LINE
  5
32E
330
1F
100
AcDbEntity
  8
0
  6
Continuous
 62
     7
370
    25
100
AcDbLine
 10
50.5433501725
 20
38.3174444287
 30
0.0
 11
51.0846001725
 21
37.7761944287
 31
0.0
  0
LINE
  5
32F
330
1F
100
AcDbEntity
  8
0
  6
Continuous
 62
     7
370
    25
100
AcDbLine
 10
65.5433501725
 20
45.7761944287
 30
0.0
 11
65.2138670767
 21
46.3468758908
 31
0.0
  0
LINE
  5
330
330
1F
100
AcDbEntity
  8
0
  6
Continuous
 62
     7
370
    25
100
AcDbLine
 10
65.2138670767
 20
35.2055129666
 30
0.0
 11
65.5433501725
 21
35.7761944287
 31
0.0
  0
LINE
  5
331
330
1F
100
AcDbEntity
  8
0
  6
Continuous
 62
     7
370
    25
100
AcDbLine
 10
767.2433501725
 20
17.5761944287
 30
0.0
 11
765.0712571492
 21
17.5761944287
 31
0.0
  0
LINE
  5
332
330
1F
100
AcDbEntity
  8
0
  6
Continuous
 62
     7
370
    25
100
AcDbLine
 10
60.4154431957
 20
17.5761944287
 30
0.0
 11
58.2433501725
 21
17.5761944287
 31
0.0
  0
LINE
  5
333
330
1F
100
AcDbEntity
  8
0
  6
Continuous
 62
     7
370
    25
100
AcDbLine
 10
58.2433501725
 20
17.5761944287
 30
0.0
 11
52.2433501725
 21
17.5761944287
 31
0.0
  0
LINE
  5
334
330
1F
100
AcDbEntity
  8
0
  6
Continuous
 62
     7
370
    25
100
AcDbLine
 10
773.2433501725
 20
17.5761944287
 30
0.0
 11
767.2433501725
 21
17.5761944287
 31
0.0
  0
SPLINE
  5
335
330
1F
100
AcDbEntity
  8
0
  6
Continuous
 62
     7
370
    25
100
AcDbSpline
210
0.0
220
0.0
230
1.0
 70
    24
 71
     3
 72
     9
 73
     5
 74
     0
 42
0.000000001
 43
0.00000001
 40
0.0
 40
0.0
 40
0.0
 40
0.0
 40
0.5153941859631411
 40
1.0
 40
1.0
 40
1.0
 40
1.0
 10
764.9433501724769
 20
46.4512044287367
 30
0.0
 10
764.9433501724769
 20
46.49494627679231
 30
0.0
 10
764.9433501724769
 20
46.57981694325869
 30
0.0
 10
764.9433501724769
 20
46.55706050801528
 30
0.0
 10
764.9433501724769
 20
46.54603260718958
 30
0.0
  0
SPLINE
  5
336
330
1F
100
AcDbEntity
  8
0
  6
Continuous
 62
     7
370
    25
100
AcDbSpline
210
0.0
220
0.0
230
1.0
 70
    24
 71
     3
 72
    17
 73
    13
 74
     0
 42
0.000000001
 43
0.00000001
 40
0.0
 40
0.0
 40
0.0
 40
0.0
 40
0.0359921626376374
 40
0.1205930661280436
 40
0.2034359252874612
 40
0.3573281084250904
 40
0.5112202915627204
 40
0.5940631507221378
 40
0.6786640542125448
 40
0.7632649577029521
 40
0.8461078168623682
 40
1.0
 40
1.0
 40
1.0
 40
1.0
 10
763.9433501724769
 20
46.54603260720052
 30
0.0
 10
763.9433501724769
 20
46.5531839942418
 30
0.0
 10
763.9433501724768
 20
46.57714497983351
 30
0.0
 10
763.943350172477
 20
46.35914005359788
 30
0.0
 10
763.9433501724769
 20
45.78735295651079
 30
0.0
 10
763.9433501724769
 20
44.59033638042047
 30
0.0
 10
763.9433501724768
 20
42.94427962054338
 30
0.0
 10
763.943350172477
 20
41.45908926832959
 30
0.0
 10
763.9433501724768
 20
40.26306114395535
 30
0.0
 10
763.943350172477
 20
39.09329573116595
 30
0.0
 10
763.9433501724768
 20
37.67134855058215
 30
0.0
 10
763.9433501724768
 20
36.85908127072197
 30
0.0
 10
763.9433501724769
 20
36.33105811126045
 30
0.0
  0
SPLINE
  5
337
330
1F
100
AcDbEntity
  8
0
  6
Continuous
 62
     7
370
    25
100
AcDbSpline
210
0.0
220
0.0
230
1.0
 70
     8
 71
     3
 72
     8
 73
     4
 74
     0
 42
0.000000001
 43
0.00000001
 40
0.0
 40
0.0
 40
0.0
 40
0.0
 40
1.0
 40
1.0
 40
1.0
 40
1.0
 10
759.9433501724842
 20
43.98799582641507
 30
0.0
 10
759.9433501724842
 20
43.23287502010714
 30
0.0
 10
760.1176654728635
 20
42.49842154616369
 30
0.0
 10
760.3899321598752
 20
41.77558147539336
 30
0.0
  0
SPLINE
  5
338
330
1F
100
AcDbEntity
  8
0
  6
Continuous
 62
     7
370
    25
100
AcDbSpline
210
0.0
220
0.0
230
1.0
 70
     8
 71
     3
 72
     8
 73
     4
 74
     0
 42
0.000000001
 43
0.00000001
 40
0.0
 40
0.0
 40
0.0
 40
0.0
 40
1.0
 40
1.0
 40
1.0
 40
1.0
 10
760.3899321598753
 20
46.20041017743686
 30
0.0
 10
760.1176654728639
 20
45.47757010666759
 30
0.0
 10
759.9433501724842
 20
44.74311663272189
 30
0.0
 10
759.9433501724842
 20
43.98799582641507
 30
0.0
  0
LINE
  5
339
330
1F
100
AcDbEntity
  8
0
  6
Continuous
 62
     7
370
    25
100
AcDbLine
 10
760.3899321599
 20
46.2004101774
 30
0.0
 11
763.9433501725
 21
46.2004101774
 31
0.0
  0
LINE
  5
33A
330
1F
100
AcDbEntity
  8
0
  6
Continuous
 62
     7
370
    25
100
AcDbLine
 10
763.9433501725
 20
41.7755814754
 30
0.0
 11
760.3899321599
 21
41.7755814754
 31
0.0
  0
SPLINE
  5
33B
330
1F
100
AcDbEntity
  8
0
  6
Continuous
 62
     7
370
    25
100
AcDbSpline
210
0.0
220
0.0
230
1.0
 70
     8
 71
     3
 72
     8
 73
     4
 74
     0
 42
0.000000001
 43
0.00000001
 40
0.0
 40
0.0
 40
0.0
 40
0.0
 40
1.0
 40
1.0
 40
1.0
 40
1.0
 10
759.943350172484
 20
39.06347360103807
 30
0.0
 10
759.943350172484
 20
38.13780202241778
 30
0.0
 10
760.1176654728635
 20
37.23746567759849
 30
0.0
 10
760.3899321598752
 20
36.35136572668929
 30
0.0
  0
SPLINE
  5
33C
330
1F
100
AcDbEntity
  8
0
  6
Continuous
 62
     7
370
    25
100
AcDbSpline
210
0.0
220
0.0
230
1.0
 70
     8
 71
     3
 72
     8
 73
     4
 74
     0
 42
0.000000001
 43
0.00000001
 40
0.0
 40
0.0
 40
0.0
 40
0.0
 40
1.0
 40
1.0
 40
1.0
 40
1.0
 10
760.3899321598752
 20
41.77558147538675
 30
0.0
 10
760.1176654728639
 20
40.88948152447924
 30
0.0
 10
759.943350172484
 20
39.9891451796566
 30
0.0
 10
759.943350172484
 20
39.06347360103807
 30
0.0
  0
LINE
  5
33D
330
1F
100
AcDbEntity
  8
0
  6
Continuous
 62
     7
370
    25
100
AcDbLine
 10
763.9433501725
 20
36.3513657267
 30
0.0
 11
760.3899321599
 21
36.3513657267
 31
0.0
  0
LINE
  5
33E
330
1F
100
AcDbEntity
  8
0
  6
Continuous
 62
     7
370
    25
100
AcDbLine
 10
759.9433501725
 20
43.9879958264
 30
0.0
 11
759.9433501725
 21
39.063473601
 31
0.0
  0
SPLINE
  5
33F
330
1F
100
AcDbEntity
  8
0
  6
Continuous
 62
     7
370
    25
100
AcDbSpline
210
0.0
220
0.0
230
1.0
 70
     8
 71
     3
 72
     8
 73
     4
 74
     0
 42
0.000000001
 43
0.00000001
 40
0.0
 40
0.0
 40
0.0
 40
0.0
 40
1.0
 40
1.0
 40
1.0
 40
1.0
 10
760.3899321598753
 20
36.35136572668488
 30
0.0
 10
760.117665472864
 20
36.18810584654647
 30
0.0
 10
759.9433501724842
 20
36.02222297567005
 30
0.0
 10
759.9433501724842
 20
35.85167220335817
 30
0.0
  0
LINE
  5
340
330
1F
100
AcDbEntity
  8
0
  6
Continuous
 62
     7
370
    25
100
AcDbLine
 10
759.9433501725
 20
39.063473601
 30
0.0
 11
759.9433501725
 21
35.8516722034
 31
0.0
  0
SPLINE
  5
341
330
1F
100
AcDbEntity
  8
0
  6
Continuous
 62
     7
370
    25
100
AcDbSpline
210
0.0
220
0.0
230
1.0
 70
     8
 71
     3
 72
     8
 73
     4
 74
     0
 42
0.000000001
 43
0.00000001
 40
0.0
 40
0.0
 40
0.0
 40
0.0
 40
1.0
 40
1.0
 40
1.0
 40
1.0
 10
759.9433501724842
 20
45.70071665411245
 30
0.0
 10
759.9433501724842
 20
45.87126742642476
 30
0.0
 10
760.1176654728633
 20
46.03715029730034
 30
0.0
 10
760.3899321598753
 20
46.20041017743917
 30
0.0
  0
LINE
  5
342
330
1F
100
AcDbEntity
  8
0
  6
Continuous
 62
     7
370
    25
100
AcDbLine
 10
759.9433501725
 20
43.9879958264
 30
0.0
 11
759.9433501725
 21
45.7715563945
 31
0.0
  0
SPLINE
  5
343
330
1F
100
AcDbEntity
  8
0
  6
Continuous
 62
     7
370
    25
100
AcDbSpline
210
0.0
220
0.0
230
1.0
 70
     8
 71
     3
 72
     8
 73
     4
 74
     0
 42
0.000000001
 43
0.00000001
 40
0.0
 40
0.0
 40
0.0
 40
0.0
 40
1.0
 40
1.0
 40
1.0
 40
1.0
 10
759.9433501724842
 20
35.85167220335817
 30
0.0
 10
759.9433501724842
 20
35.68112143104598
 30
0.0
 10
760.1176654728636
 20
35.51523856017018
 30
0.0
 10
760.3899321598755
 20
35.35197868003146
 30
0.0
  0
LINE
  5
344
330
1F
100
AcDbEntity
  8
0
  6
Continuous
 62
     7
370
    25
100
AcDbLine
 10
763.9433501725
 20
35.35197868
 30
0.0
 11
760.3899321599
 21
35.35197868
 31
0.0
  0
LINE
  5
345
330
1F
100
AcDbEntity
  8
0
  6
Continuous
 62
     7
370
    25
100
AcDbLine
 10
774.9433501725
 20
38.3174444287
 30
0.0
 11
774.9433501725
 21
43.2349444288
 31
0.0
  0
LINE
  5
346
330
1F
100
AcDbEntity
  8
0
  6
Continuous
 62
     7
370
    25
100
AcDbLine
 10
774.4021001725
 20
42.7032752673
 30
0.0
 11
774.4021001725
 21
43.7761944287
 31
0.0
  0
LINE
  5
347
330
1F
100
AcDbEntity
  8
0
  6
Continuous
 62
     7
370
    25
100
AcDbLine
 10
774.4021001725
 20
37.7761944287
 30
0.0
 11
774.4021001725
 21
42.7032752673
 31
0.0
  0
ARC
  5
348
330
1F
100
AcDbEntity
  8
0
  6
Continuous
 62
     7
370
    25
100
AcDbCircle
 10
767.2433501725
 20
18.1761944287
 30
0.0
 40
3.000000000000004
100
AcDbArc
 50
227.6305369016
 51
270.0
  0
LINE
  5
349
330
1F
100
AcDbEntity
  8
0
  6
Continuous
 62
     7
370
    25
100
AcDbLine
 10
779.2433501725
 20
15.1761944287
 30
0.0
 11
767.2433501725
 21
15.1761944287
 31
0.0
  0
ARC
  5
34A
330
1F
100
AcDbEntity
  8
0
  6
Continuous
 62
     7
370
    25
100
AcDbCircle
 10
779.2433501725
 20
18.1761944287
 30
0.0
 40
3.000000000000004
100
AcDbArc
 50
270.0
 51
0.0
  0
LINE
  5
34B
330
1F
100
AcDbEntity
  8
0
  6
Continuous
 62
     7
370
    25
100
AcDbLine
 10
782.2433501725
 20
19.1761944287
 30
0.0
 11
782.2433501725
 21
18.1761944287
 31
0.0
  0
ARC
  5
34C
330
1F
100
AcDbEntity
  8
0
  6
Continuous
 62
     7
370
    25
100
AcDbCircle
 10
785.2433501725
 20
19.1761944287
 30
0.0
 40
3.0
100
AcDbArc
 50
90.0
 51
180.0
  0
LINE
  5
34D
330
1F
100
AcDbEntity
  8
0
  6
Continuous
 62
     7
370
    25
100
AcDbLine
 10
808.7726394944
 20
22.1761944287
 30
0.0
 11
785.2433501725
 21
22.1761944287
 31
0.0
  0
LINE
  5
34E
330
1F
100
AcDbEntity
  8
0
  6
Continuous
 62
     7
370
    25
100
AcDbLine
 10
808.7726394944
 20
12.5761944287
 30
0.0
 11
808.7726394944
 21
22.1761944287
 31
0.0
  0
LINE
  5
34F
330
1F
100
AcDbEntity
  8
0
  6
Continuous
 62
     7
370
    25
100
AcDbLine
 10
16.7140608506
 20
12.5761944287
 30
0.0
 11
16.7140608506
 21
22.1761944287
 31
0.0
  0
LINE
  5
350
330
1F
100
AcDbEntity
  8
0
  6
Continuous
 62
     7
370
    25
100
AcDbLine
 10
40.2433501725
 20
22.1761944287
 30
0.0
 11
16.7140608506
 21
22.1761944287
 31
0.0
  0
ARC
  5
351
330
1F
100
AcDbEntity
  8
0
  6
Continuous
 62
     7
370
    25
100
AcDbCircle
 10
40.2433501725
 20
19.1761944287
 30
0.0
 40
3.0
100
AcDbArc
 50
0.0
 51
90.0
  0
LINE
  5
352
330
1F
100
AcDbEntity
  8
0
  6
Continuous
 62
     7
370
    25
100
AcDbLine
 10
43.2433501725
 20
19.1761944287
 30
0.0
 11
43.2433501725
 21
18.1761944287
 31
0.0
  0
ARC
  5
353
330
1F
100
AcDbEntity
  8
0
  6
Continuous
 62
     7
370
    25
100
AcDbCircle
 10
46.2433501725
 20
18.1761944287
 30
0.0
 40
3.000000000000004
100
AcDbArc
 50
180.0
 51
270.0
  0
LINE
  5
354
330
1F
100
AcDbEntity
  8
0
  6
Continuous
 62
     7
370
    25
100
AcDbLine
 10
46.2433501725
 20
15.1761944287
 30
0.0
 11
58.2433501725
 21
15.1761944287
 31
0.0
  0
ARC
  5
355
330
1F
100
AcDbEntity
  8
0
  6
Continuous
 62
     7
370
    25
100
AcDbCircle
 10
58.2433501725
 20
18.1761944287
 30
0.0
 40
3.000000000000004
100
AcDbArc
 50
270.0
 51
312.3694630984
  0
SPLINE
  5
356
330
1F
100
AcDbEntity
  8
0
  6
Continuous
 62
     7
370
    25
100
AcDbSpline
210
0.0
220
0.0
230
1.0
 70
     8
 71
     3
 72
    20
 73
    16
 74
     0
 42
0.000000001
 43
0.00000001
 40
0.0
 40
0.0
 40
0.0
 40
0.0
 40
0.1250000000000006
 40
0.1250000000000006
 40
0.2500000000000011
 40
0.2500000000000011
 40
0.3750000000000017
 40
0.3750000000000017
 40
0.5000000000000022
 40
0.5000000000000022
 40
0.7500000000000062
 40
0.7500000000000062
 40
0.8750000000000031
 40
0.8750000000000031
 40
1.0
 40
1.0
 40
1.0
 40
1.0
 10
17.64335017247753
 20
10.17619442873671
 30
0.0
 10
17.604309441623
 20
10.17619442873671
 30
0.0
 10
17.5657907374232
 20
10.19173098921156
 30
0.0
 10
17.48838398611524
 20
10.25304934117215
 30
0.0
 10
17.44923956812866
 20
10.29947308675897
 30
0.0
 10
17.37208881421343
 20
10.41942395691309
 30
0.0
 10
17.33376123247227
 20
10.49302860119646
 30
0.0
 10
17.25621491199575
 20
10.66775896729211
 30
0.0
 10
17.21723870432701
 20
10.76860959619368
 30
0.0
 10
17.10174384788193
 20
11.09989487617759
 30
0.0
 10
17.02383140421188
 20
11.36757503756148
 30
0.0
 10
16.90835147881103
 20
11.80024906361688
 30
0.0
 10
16.86948568294605
 20
11.95176715046802
 30
0.0
 10
16.79171134927754
 20
12.26119290785415
 30
0.0
 10
16.75310158232285
 20
12.41781523754796
 30
0.0
 10
16.71406085059612
 20
12.5761944287367
 30
0.0
  0
SPLINE
  5
357
330
1F
100
AcDbEntity
  8
0
  6
Continuous
 62
     7
370
    25
100
AcDbSpline
210
0.0
220
0.0
230
1.0
 70
     8
 71
     3
 72
    20
 73
    16
 74
     0
 42
0.000000001
 43
0.00000001
 40
0.0
 40
0.0
 40
0.0
 40
0.0
 40
0.1249999999999988
 40
0.1249999999999988
 40
0.2499999999999977
 40
0.2499999999999977
 40
0.3749999999999965
 40
0.3749999999999965
 40
0.4999999999999953
 40
0.4999999999999953
 40
0.7499999999999928
 40
0.7499999999999928
 40
0.8749999999999963
 40
0.8749999999999963
 40
1.0
 40
1.0
 40
1.0
 40
1.0
 10
808.7726394943588
 20
12.5761944287366
 30
0.0
 10
808.7335987635043
 20
12.41781524108591
 30
0.0
 10
808.6950800593044
 20
12.26156951639419
 30
0.0
 10
808.6176733079965
 20
11.95357766697762
 30
0.0
 10
808.5785288900099
 20
11.80093355950651
 30
0.0
 10
808.5013781360948
 20
11.51184927031947
 30
0.0
 10
808.4630505543537
 20
11.37404473213544
 30
0.0
 10
808.3855042338772
 20
11.11242605649653
 30
0.0
 10
808.3465280262085
 20
10.9896797498139
 30
0.0
 10
808.2310331697637
 20
10.65835537286621
 30
0.0
 10
808.1531207260932
 20
10.479344248838
 30
0.0
 10
808.0376408006925
 20
10.29972914945711
 30
0.0
 10
807.9987750048276
 20
10.2534848005894
 30
0.0
 10
807.9210006711588
 20
10.19173149457818
 30
0.0
 10
807.8823909042042
 20
10.17619442873673
 30
0.0
 10
807.8433501724776
 20
10.17619442873671
 30
0.0
  0
LINE
  5
358
330
1F
100
AcDbEntity
  8
0
  6
Continuous
 62
     7
370
    25
100
AcDbLine
 10
807.8433501725
 20
10.1761944287
 30
0.0
 11
17.6433501725
 21
10.1761944287
 31
0.0
  0
SPLINE
  5
359
330
1F
100
AcDbEntity
  8
0
  6
Continuous
 62
     7
370
    25
100
AcDbSpline
210
0.0
220
0.0
230
1.0
 70
     8
 71
     3
 72
    20
 73
    16
 74
     0
 42
0.000000001
 43
0.00000001
 40
0.0
 40
0.0
 40
0.0
 40
0.0
 40
0.1250000000000097
 40
0.1250000000000097
 40
0.2500000000000194
 40
0.2500000000000194
 40
0.3750000000000291
 40
0.3750000000000291
 40
0.5000000000000387
 40
0.5000000000000387
 40
0.7500000000000285
 40
0.7500000000000285
 40
0.8750000000000143
 40
0.8750000000000143
 40
1.0
 40
1.0
 40
1.0
 40
1.0
 10
807.8433501724776
 20
10.17619442873669
 30
0.0
 10
808.0017293601283
 20
10.17619442873669
 30
0.0
 10
808.1579750848199
 20
10.19173098921154
 30
0.0
 10
808.4659669342365
 20
10.25304934117215
 30
0.0
 10
808.6186110417075
 20
10.29947308675896
 30
0.0
 10
808.9076953308949
 20
10.41942395691308
 30
0.0
 10
809.0454998690788
 20
10.49302860119652
 30
0.0
 10
809.3071185447176
 20
10.66775896729214
 30
0.0
 10
809.4298648514005
 20
10.76860959619368
 30
0.0
 10
809.761189228348
 20
11.09989487617763
 30
0.0
 10
809.9402003523765
 20
11.36757503756151
 30
0.0
 10
810.1198154517573
 20
11.80024906361692
 30
0.0
 10
810.1660598006247
 20
11.95176715046806
 30
0.0
 10
810.2278131066361
 20
12.26119290785418
 30
0.0
 10
810.2433501724777
 20
12.41781523754795
 30
0.0
 10
810.2433501724774
 20
12.57619442873669
 30
0.0
  0
SPLINE
  5
35A
330
1F
100
AcDbEntity
  8
0
  6
Continuous
 62
     7
370
    25
100
AcDbSpline
210
0.0
220
0.0
230
1.0
 70
     8
 71
     3
 72
     9
 73
     5
 74
     0
 42
0.000000001
 43
0.00000001
 40
0.0
 40
0.0
 40
0.0
 40
0.0
 40
0.4825784287294707
 40
0.9999999999999999
 40
0.9999999999999999
 40
0.9999999999999999
 40
0.9999999999999999
 10
808.6195204044237
 20
11.96365468955842
 30
0.0
 10
808.6833285974852
 20
12.05178903087489
 30
0.0
 10
808.8155520647244
 20
12.23442119192796
 30
0.0
 10
808.8338713691811
 20
12.45965407597255
 30
0.0
 10
808.8433501724776
 20
12.57619442873669
 30
0.0
  0
LINE
  5
35B
330
1F
100
AcDbEntity
  8
0
  6
Continuous
 62
     7
370
    25
100
AcDbLine
 10
810.2433501725
 20
12.5761944287
 30
0.0
 11
808.8433501725
 21
12.5761944287
 31
0.0
  0
LINE
  5
35C
330
1F
100
AcDbEntity
  8
0
  6
Continuous
 62
     7
370
    25
100
AcDbLine
 10
15.2433501725
 20
12.5761944287
 30
0.0
 11
16.6433501725
 21
12.5761944287
 31
0.0
  0
SPLINE
  5
35D
330
1F
100
AcDbEntity
  8
0
  6
Continuous
 62
     7
370
    25
100
AcDbSpline
210
0.0
220
0.0
230
1.0
 70
     8
 71
     3
 72
     9
 73
     5
 74
     0
 42
0.000000001
 43
0.00000001
 40
0.0
 40
0.0
 40
0.0
 40
0.0
 40
0.6784508005727926
 40
1.0
 40
1.0
 40
1.0
 40
1.0
 10
16.64335017247742
 20
12.57619442873669
 30
0.0
 10
16.65659974294176
 20
12.42548722428339
 30
0.0
 10
16.6761288973819
 20
12.20335290838892
 30
0.0
 10
16.81697655102105
 20
12.03651980349974
 30
0.0
 10
16.86226600128982
 20
11.98287475218467
 30
0.0
  0
SPLINE
  5
35E
330
1F
100
AcDbEntity
  8
0
  6
Continuous
 62
     7
370
    25
100
AcDbSpline
210
0.0
220
0.0
230
1.0
 70
     8
 71
     3
 72
    20
 73
    16
 74
     0
 42
0.000000001
 43
0.00000001
 40
0.0
 40
0.0
 40
0.0
 40
0.0
 40
0.1249999999999998
 40
0.1249999999999998
 40
0.2499999999999995
 40
0.2499999999999995
 40
0.3749999999999992
 40
0.3749999999999992
 40
0.4999999999999988
 40
0.4999999999999988
 40
0.7500000000000007
 40
0.7500000000000007
 40
0.8750000000000002
 40
0.8750000000000002
 40
1.0
 40
1.0
 40
1.0
 40
1.0
 10
15.24335017247747
 20
12.57619442873668
 30
0.0
 10
15.24335017247741
 20
12.41781524108598
 30
0.0
 10
15.25888673295228
 20
12.26156951639431
 30
0.0
 10
15.32020508491294
 20
11.95357766697768
 30
0.0
 10
15.36662883049966
 20
11.80093355950656
 30
0.0
 10
15.48657970065387
 20
11.51184927031949
 30
0.0
 10
15.56018434493733
 20
11.37404473213543
 30
0.0
 10
15.73491471103289
 20
11.11242605649651
 30
0.0
 10
15.83576533993447
 20
10.9896797498139
 30
0.0
 10
16.16705061991852
 20
10.65835537286621
 30
0.0
 10
16.43473078130225
 20
10.47934424883797
 30
0.0
 10
16.8674048073576
 20
10.29972914945708
 30
0.0
 10
17.01892289420864
 20
10.25348480058936
 30
0.0
 10
17.32834865159499
 20
10.19173149457812
 30
0.0
 10
17.48497098128865
 20
10.1761944287367
 30
0.0
 10
17.64335017247748
 20
10.1761944287367
 30
0.0
  0
LINE
  5
35F
330
1F
100
AcDbEntity
  8
0
  6
Continuous
 62
     7
370
    25
100
AcDbLine
 10
810.2433501725
 20
22.1761944287
 30
0.0
 11
808.8433501725
 21
22.1761944287
 31
0.0
  0
LINE
  5
360
330
1F
100
AcDbEntity
  8
0
  6
Continuous
 62
     7
370
    25
100
AcDbLine
 10
810.2433501725
 20
12.5761944287
 30
0.0
 11
810.2433501725
 21
22.1761944287
 31
0.0
  0
LINE
  5
361
330
1F
100
AcDbEntity
  8
0
  6
Continuous
 62
     7
370
    25
100
AcDbLine
 10
808.8433501725
 20
12.5761944287
 30
0.0
 11
808.8433501725
 21
22.1761944287
 31
0.0
  0
LINE
  5
362
330
1F
100
AcDbEntity
  8
0
  6
Continuous
 62
     7
370
    25
100
AcDbLine
 10
16.6433501725
 20
12.5761944287
 30
0.0
 11
16.6433501725
 21
22.1761944287
 31
0.0
  0
LINE
  5
363
330
1F
100
AcDbEntity
  8
0
  6
Continuous
 62
     7
370
    25
100
AcDbLine
 10
15.2433501725
 20
12.5761944287
 30
0.0
 11
15.2433501725
 21
22.1761944287
 31
0.0
  0
LINE
  5
364
330
1F
100
AcDbEntity
  8
0
  6
Continuous
 62
     7
370
    25
100
AcDbLine
 10
15.2433501725
 20
22.1761944287
 30
0.0
 11
16.6433501725
 21
22.1761944287
 31
0.0
  0
LINE
  5
365
330
1F
100
AcDbEntity
  8
0
  6
Continuous
 62
     7
370
    25
100
AcDbLine
 10
764.9433501725
 20
46.2761944287
 30
0.0
 11
764.9433501725
 21
29.2761944287
 31
0.0
  0
LINE
  5
366
330
1F
100
AcDbEntity
  8
0
  6
Continuous
 62
     7
370
    25
100
AcDbLine
 10
765.7433501725
 20
46.2761944287
 30
0.0
 11
765.7433501725
 21
29.2761944287
 31
0.0
  0
LINE
  5
367
330
1F
100
AcDbEntity
  8
0
  6
Continuous
 62
     7
370
    25
100
AcDbLine
 10
59.7433501725
 20
49.2761944287
 30
0.0
 11
60.5433501725
 21
49.2761944287
 31
0.0
  0
LINE
  5
368
330
1F
100
AcDbEntity
  8
0
  6
Continuous
 62
     7
370
    25
100
AcDbLine
 10
60.5433501725
 20
49.2761944287
 30
0.0
 11
60.5433501725
 21
46.2761944287
 31
0.0
  0
LINE
  5
369
330
1F
100
AcDbEntity
  8
0
  6
Continuous
 62
     7
370
    25
100
AcDbLine
 10
59.7433501725
 20
46.2761944287
 30
0.0
 11
59.7433501725
 21
49.2761944287
 31
0.0
  0
LINE
  5
36A
330
1F
100
AcDbEntity
  8
0
  6
Continuous
 62
     7
370
    25
100
AcDbLine
 10
59.7433501725
 20
29.2761944287
 30
0.0
 11
59.7433501725
 21
46.2761944287
 31
0.0
  0
LINE
  5
36B
330
1F
100
AcDbEntity
  8
0
  6
Continuous
 62
     7
370
    25
100
AcDbLine
 10
60.5433501725
 20
29.2761944287
 30
0.0
 11
60.5433501725
 21
46.2761944287
 31
0.0
  0
LINE
  5
36C
330
1F
100
AcDbEntity
  8
0
  6
Continuous
 62
     7
370
    25
100
AcDbLine
 10
764.9433501725
 20
49.2761944287
 30
0.0
 11
765.7433501725
 21
49.2761944287
 31
0.0
  0
LINE
  5
36D
330
1F
100
AcDbEntity
  8
0
  6
Continuous
 62
     7
370
    25
100
AcDbLine
 10
764.9433501725
 20
46.2761944287
 30
0.0
 11
764.9433501725
 21
49.2761944287
 31
0.0
  0
LINE
  5
36E
330
1F
100
AcDbEntity
  8
0
  6
Continuous
 62
     7
370
    25
100
AcDbLine
 10
765.7433501725
 20
49.2761944287
 30
0.0
 11
765.7433501725
 21
46.2761944287
 31
0.0
  0
LINE
  5
36F
330
1F
100
AcDbEntity
  8
0
  6
Continuous
 62
     7
370
    25
100
AcDbLine
 10
765.7433501725
 20
26.2761944287
 30
0.0
 11
764.9433501725
 21
26.2761944287
 31
0.0
  0
LINE
  5
370
330
1F
100
AcDbEntity
  8
0
  6
Continuous
 62
     7
370
    25
100
AcDbLine
 10
764.9433501725
 20
26.2761944287
 30
0.0
 11
764.9433501725
 21
29.2761944287
 31
0.0
  0
LINE
  5
371
330
1F
100
AcDbEntity
  8
0
  6
Continuous
 62
     7
370
    25
100
AcDbLine
 10
765.7433501725
 20
29.2761944287
 30
0.0
 11
765.7433501725
 21
26.2761944287
 31
0.0
  0
LINE
  5
372
330
1F
100
AcDbEntity
  8
0
  6
Continuous
 62
     7
370
    25
100
AcDbLine
 10
60.5433501725
 20
26.2761944287
 30
0.0
 11
59.7433501725
 21
26.2761944287
 31
0.0
  0
LINE
  5
373
330
1F
100
AcDbEntity
  8
0
  6
Continuous
 62
     7
370
    25
100
AcDbLine
 10
59.7433501725
 20
26.2761944287
 30
0.0
 11
59.7433501725
 21
29.2761944287
 31
0.0
  0
LINE
  5
374
330
1F
100
AcDbEntity
  8
0
  6
Continuous
 62
     7
370
    25
100
AcDbLine
 10
60.5433501725
 20
29.2761944287
 30
0.0
 11
60.5433501725
 21
26.2761944287
 31
0.0
  0
LINE
  5
375
330
1F
100
AcDbEntity
  8
0
  6
Continuous
 62
     7
370
    25
100
AcDbLine
 10
762.7433501725
 20
28.2761944287
 30
0.0
 11
762.7433501725
 21
29.0761944287
 31
0.0
  0
LINE
  5
376
330
1F
100
AcDbEntity
  8
0
  6
Continuous
 62
     7
370
    25
100
AcDbLine
 10
62.7433501725
 20
28.2761944287
 30
0.0
 11
62.7433501725
 21
29.0761944287
 31
0.0
  0
LINE
  5
377
330
1F
100
AcDbEntity
  8
0
  6
Continuous
 62
     7
370
    25
100
AcDbLine
 10
762.7433501725
 20
29.0761944287
 30
0.0
 11
62.7433501725
 21
29.0761944287
 31
0.0
  0
LINE
  5
378
330
1F
100
AcDbEntity
  8
0
  6
Continuous
 62
     7
370
    25
100
AcDbLine
 10
558.2433501725
 20
69.1808078205
 30
0.0
 11
558.2433501725
 21
62.6631163669
 31
0.0
  0
ARC
  5
379
330
1F
100
AcDbEntity
  8
0
  6
Continuous
 62
     7
370
    25
100
AcDbCircle
 10
561.2433501725
 20
69.1808078205
 30
0.0
 40
3.0
100
AcDbArc
 50
90.0
 51
180.0
  0
LINE
  5
37A
330
1F
100
AcDbEntity
  8
0
  6
Continuous
 62
     7
370
    25
100
AcDbLine
 10
705.2433501725
 20
72.1808078205
 30
0.0
 11
561.2433501725
 21
72.1808078205
 31
0.0
  0
ARC
  5
37B
330
1F
100
AcDbEntity
  8
0
  6
Continuous
 62
     7
370
    25
100
AcDbCircle
 10
705.2433501725
 20
69.1808078205
 30
0.0
 40
3.0
100
AcDbArc
 50
0.0
 51
90.0
  0
LINE
  5
37C
330
1F
100
AcDbEntity
  8
0
  6
Continuous
 62
     7
370
    25
100
AcDbLine
 10
708.2433501725
 20
62.6631163669
 30
0.0
 11
708.2433501725
 21
69.1808078205
 31
0.0
  0
LINE
  5
37D
330
1F
100
AcDbEntity
  8
0
  6
Continuous
 62
     7
370
    25
100
AcDbLine
 10
117.2433501725
 20
69.1808078205
 30
0.0
 11
117.2433501725
 21
62.6631163669
 31
0.0
  0
ARC
  5
37E
330
1F
100
AcDbEntity
  8
0
  6
Continuous
 62
     7
370
    25
100
AcDbCircle
 10
264.2433501725
 20
69.1808078205
 30
0.0
 40
3.0
100
AcDbArc
 50
0.0
 51
90.0
  0
LINE
  5
37F
330
1F
100
AcDbEntity
  8
0
  6
Continuous
 62
     7
370
    25
100
AcDbLine
 10
267.2433501725
 20
62.6631163669
 30
0.0
 11
267.2433501725
 21
69.1808078205
 31
0.0
  0
ARC
  5
380
330
1F
100
AcDbEntity
  8
0
  6
Continuous
 62
     7
370
    25
100
AcDbCircle
 10
120.2433501725
 20
69.1808078205
 30
0.0
 40
3.0
100
AcDbArc
 50
90.0
 51
180.0
  0
LINE
  5
381
330
1F
100
AcDbEntity
  8
0
  6
Continuous
 62
     7
370
    25
100
AcDbLine
 10
264.2433501725
 20
72.1808078205
 30
0.0
 11
120.2433501725
 21
72.1808078205
 31
0.0
  0
LINE
  5
382
330
1F
100
AcDbEntity
  8
0
  6
Continuous
 62
     7
370
    25
100
AcDbLine
 10
337.7433501725
 20
69.1808078205
 30
0.0
 11
337.7433501725
 21
62.6631163669
 31
0.0
  0
LINE
  5
383
330
1F
100
AcDbEntity
  8
0
  6
Continuous
 62
     7
370
    25
100
AcDbLine
 10
487.7433501725
 20
62.6631163669
 30
0.0
 11
487.7433501725
 21
69.1808078205
 31
0.0
  0
ARC
  5
384
330
1F
100
AcDbEntity
  8
0
  6
Continuous
 62
     7
370
    25
100
AcDbCircle
 10
340.7433501725
 20
69.1808078205
 30
0.0
 40
3.0
100
AcDbArc
 50
90.0
 51
180.0
  0
LINE
  5
385
330
1F
100
AcDbEntity
  8
0
  6
Continuous
 62
     7
370
    25
100
AcDbLine
 10
484.7433501725
 20
72.1808078205
 30
0.0
 11
340.7433501725
 21
72.1808078205
 31
0.0
  0
ARC
  5
386
330
1F
100
AcDbEntity
  8
0
  6
Continuous
 62
     7
370
    25
100
AcDbCircle
 10
484.7433501725
 20
69.1808078205
 30
0.0
 40
3.0
100
AcDbArc
 50
0.0
 51
90.0
  0
LINE
  5
387
330
1F
100
AcDbEntity
  8
0
  6
Continuous
 62
     7
370
    25
100
AcDbLine
 10
558.2433501725
 20
61.7631163669
 30
0.0
 11
558.2433501725
 21
62.6631163669
 31
0.0
  0
LINE
  5
388
330
1F
100
AcDbEntity
  8
0
  6
Continuous
 62
     7
370
    25
100
AcDbLine
 10
708.2433501725
 20
62.6631163669
 30
0.0
 11
708.2433501725
 21
61.7631163669
 31
0.0
  0
LINE
  5
389
330
1F
100
AcDbEntity
  8
0
  6
Continuous
 62
     7
370
    25
100
AcDbLine
 10
117.2433501725
 20
61.7631163669
 30
0.0
 11
117.2433501725
 21
62.6631163669
 31
0.0
  0
LINE
  5
38A
330
1F
100
AcDbEntity
  8
0
  6
Continuous
 62
     7
370
    25
100
AcDbLine
 10
267.2433501725
 20
62.6631163669
 30
0.0
 11
267.2433501725
 21
61.7631163669
 31
0.0
  0
LINE
  5
38B
330
1F
100
AcDbEntity
  8
0
  6
Continuous
 62
     7
370
    25
100
AcDbLine
 10
487.7433501725
 20
62.6631163669
 30
0.0
 11
487.7433501725
 21
61.7631163669
 31
0.0
  0
LINE
  5
38C
330
1F
100
AcDbEntity
  8
0
  6
Continuous
 62
     7
370
    25
100
AcDbLine
 10
337.7433501725
 20
61.7631163669
 30
0.0
 11
337.7433501725
 21
62.6631163669
 31
0.0
  0
LINE
  5
38D
330
1F
100
AcDbEntity
  8
0
  6
Continuous
 62
     7
370
    25
100
AcDbLine
 10
117.2433501725
 20
55.1382452363
 30
0.0
 11
117.2433501725
 21
61.7631163669
 31
0.0
  0
LINE
  5
38E
330
1F
100
AcDbEntity
  8
0
  6
Continuous
 62
     7
370
    25
100
AcDbLine
 10
267.2433501725
 20
61.7631163669
 30
0.0
 11
267.2433501725
 21
55.1382452363
 31
0.0
  0
LINE
  5
38F
330
1F
100
AcDbEntity
  8
0
  6
Continuous
 62
     7
370
    25
100
AcDbLine
 10
487.7433501725
 20
61.7631163669
 30
0.0
 11
487.7433501725
 21
55.1382452363
 31
0.0
  0
LINE
  5
390
330
1F
100
AcDbEntity
  8
0
  6
Continuous
 62
     7
370
    25
100
AcDbLine
 10
337.7433501725
 20
55.1382452363
 30
0.0
 11
337.7433501725
 21
61.7631163669
 31
0.0
  0
LINE
  5
391
330
1F
100
AcDbEntity
  8
0
  6
Continuous
 62
     7
370
    25
100
AcDbLine
 10
708.2433501725
 20
61.7631163669
 30
0.0
 11
708.2433501725
 21
55.1382452363
 31
0.0
  0
LINE
  5
392
330
1F
100
AcDbEntity
  8
0
  6
Continuous
 62
     7
370
    25
100
AcDbLine
 10
558.2433501725
 20
55.1382452363
 30
0.0
 11
558.2433501725
 21
61.7631163669
 31
0.0
  0
LINE
  5
393
330
1F
100
AcDbEntity
  8
0
  6
Continuous
 62
     7
370
    25
100
AcDbLine
 10
764.9433501725
 20
49.2761944287
 30
0.0
 11
763.9433501725
 21
49.2761944287
 31
0.0
  0
LINE
  5
394
330
1F
100
AcDbEntity
  8
0
  6
Continuous
 62
     7
370
    25
100
AcDbLine
 10
763.9433501725
 20
30.2761944287
 30
0.0
 11
764.9433501725
 21
30.2761944287
 31
0.0
  0
LINE
  5
395
330
1F
100
AcDbEntity
  8
0
  6
Continuous
 62
     7
370
    25
100
AcDbLine
 10
60.5433501725
 20
30.2761944287
 30
0.0
 11
61.5433501725
 21
30.2761944287
 31
0.0
  0
LINE
  5
396
330
1F
100
AcDbEntity
  8
0
  6
Continuous
 62
     7
370
    25
100
AcDbLine
 10
61.5433501725
 20
49.2761944287
 30
0.0
 11
60.5433501725
 21
49.2761944287
 31
0.0
  0
LINE
  5
397
330
1F
100
AcDbEntity
  8
0
  6
Continuous
 62
     7
370
    25
100
AcDbLine
 10
62.7433501725
 20
30.0761944287
 30
0.0
 11
62.7433501725
 21
29.0761944287
 31
0.0
  0
LINE
  5
398
330
1F
100
AcDbEntity
  8
0
  6
Continuous
 62
     7
370
    25
100
AcDbLine
 10
762.7433501725
 20
29.0761944287
 30
0.0
 11
762.7433501725
 21
30.0761944287
 31
0.0
  0
LINE
  5
399
330
1F
100
AcDbEntity
  8
0
  6
Continuous
 62
     7
370
    25
100
AcDbLine
 10
117.2433501725
 20
55.1382452363
 30
0.0
 11
117.2433501725
 21
54.6382452363
 31
0.0
  0
LINE
  5
39A
330
1F
100
AcDbEntity
  8
0
  6
Continuous
 62
     7
370
    25
100
AcDbLine
 10
267.2433501725
 20
54.6382452363
 30
0.0
 11
267.2433501725
 21
55.1382452363
 31
0.0
  0
LINE
  5
39B
330
1F
100
AcDbEntity
  8
0
  6
Continuous
 62
     7
370
    25
100
AcDbLine
 10
337.7433501725
 20
55.1382452363
 30
0.0
 11
337.7433501725
 21
54.6382452363
 31
0.0
  0
LINE
  5
39C
330
1F
100
AcDbEntity
  8
0
  6
Continuous
 62
     7
370
    25
100
AcDbLine
 10
487.7433501725
 20
54.6382452363
 30
0.0
 11
487.7433501725
 21
55.1382452363
 31
0.0
  0
LINE
  5
39D
330
1F
100
AcDbEntity
  8
0
  6
Continuous
 62
     7
370
    25
100
AcDbLine
 10
708.2433501725
 20
54.6382452363
 30
0.0
 11
708.2433501725
 21
55.1382452363
 31
0.0
  0
LINE
  5
39E
330
1F
100
AcDbEntity
  8
0
  6
Continuous
 62
     7
370
    25
100
AcDbLine
 10
558.2433501725
 20
55.1382452363
 30
0.0
 11
558.2433501725
 21
54.6382452363
 31
0.0
  0
LINE
  5
39F
330
1F
100
AcDbEntity
  8
0
  6
Continuous
 62
     7
370
    25
100
AcDbLine
 10
62.7433501725
 20
30.2761944287
 30
0.0
 11
62.7433501725
 21
30.0761944287
 31
0.0
  0
LINE
  5
3A0
330
1F
100
AcDbEntity
  8
0
  6
Continuous
 62
     7
370
    25
100
AcDbLine
 10
61.5433501725
 20
30.2761944287
 30
0.0
 11
62.7433501725
 21
30.2761944287
 31
0.0
  0
LINE
  5
3A1
330
1F
100
AcDbEntity
  8
0
  6
Continuous
 62
     7
370
    25
100
AcDbLine
 10
64.7433501725
 20
49.2761944287
 30
0.0
 11
61.5433501725
 21
49.2761944287
 31
0.0
  0
LINE
  5
3A2
330
1F
100
AcDbEntity
  8
0
  6
Continuous
 62
     7
370
    25
100
AcDbLine
 10
64.7433501725
 20
70.2761944287
 30
0.0
 11
64.7433501725
 21
49.2761944287
 31
0.0
  0
ARC
  5
3A3
330
1F
100
AcDbEntity
  8
0
  6
Continuous
 62
     7
370
    25
100
AcDbCircle
 10
67.7433501725
 20
70.2761944287
 30
0.0
 40
3.0
100
AcDbArc
 50
90.0
 51
180.0
  0
LINE
  5
3A4
330
1F
100
AcDbEntity
  8
0
  6
Continuous
 62
     7
370
    25
100
AcDbLine
 10
111.7433501725
 20
73.2761944287
 30
0.0
 11
67.7433501725
 21
73.2761944287
 31
0.0
  0
ARC
  5
3A5
330
1F
100
AcDbEntity
  8
0
  6
Continuous
 62
     7
370
    25
100
AcDbCircle
 10
111.7433501725
 20
70.2761944287
 30
0.0
 40
3.0
100
AcDbArc
 50
0.0
 51
90.0
  0
LINE
  5
3A6
330
1F
100
AcDbEntity
  8
0
  6
Continuous
 62
     7
370
    25
100
AcDbLine
 10
114.7433501725
 20
70.2761944287
 30
0.0
 11
114.7433501725
 21
54.1461944287
 31
0.0
  0
LINE
  5
3A7
330
1F
100
AcDbEntity
  8
0
  6
Continuous
 62
     7
370
    25
100
AcDbLine
 10
114.7433501725
 20
54.1461944287
 30
0.0
 11
117.2433501725
 21
54.1461944287
 31
0.0
  0
LINE
  5
3A8
330
1F
100
AcDbEntity
  8
0
  6
Continuous
 62
     7
370
    25
100
AcDbLine
 10
117.2433501725
 20
54.6382452363
 30
0.0
 11
117.2433501725
 21
54.1461944287
 31
0.0
  0
LINE
  5
3A9
330
1F
100
AcDbEntity
  8
0
  6
Continuous
 62
     7
370
    25
100
AcDbLine
 10
267.2433501725
 20
54.6382452363
 30
0.0
 11
267.2433501725
 21
54.1461944287
 31
0.0
  0
LINE
  5
3AA
330
1F
100
AcDbEntity
  8
0
  6
Continuous
 62
     7
370
    25
100
AcDbLine
 10
267.2433501725
 20
54.1461944287
 30
0.0
 11
269.7433501725
 21
54.1461944287
 31
0.0
  0
LINE
  5
3AB
330
1F
100
AcDbEntity
  8
0
  6
Continuous
 62
     7
370
    25
100
AcDbLine
 10
269.7433501725
 20
54.1461944287
 30
0.0
 11
269.7433501725
 21
70.2761944287
 31
0.0
  0
ARC
  5
3AC
330
1F
100
AcDbEntity
  8
0
  6
Continuous
 62
     7
370
    25
100
AcDbCircle
 10
272.7433501725
 20
70.2761944287
 30
0.0
 40
3.000000000000057
100
AcDbArc
 50
90.0
 51
180.0
  0
LINE
  5
3AD
330
1F
100
AcDbEntity
  8
0
  6
Continuous
 62
     7
370
    25
100
AcDbLine
 10
332.2433501725
 20
73.2761944287
 30
0.0
 11
272.7433501725
 21
73.2761944287
 31
0.0
  0
ARC
  5
3AE
330
1F
100
AcDbEntity
  8
0
  6
Continuous
 62
     7
370
    25
100
AcDbCircle
 10
332.2433501725
 20
70.2761944287
 30
0.0
 40
3.0
100
AcDbArc
 50
0.0
 51
90.0
  0
LINE
  5
3AF
330
1F
100
AcDbEntity
  8
0
  6
Continuous
 62
     7
370
    25
100
AcDbLine
 10
335.2433501725
 20
70.2761944287
 30
0.0
 11
335.2433501725
 21
54.1461944287
 31
0.0
  0
LINE
  5
3B0
330
1F
100
AcDbEntity
  8
0
  6
Continuous
 62
     7
370
    25
100
AcDbLine
 10
335.2433501725
 20
54.1461944287
 30
0.0
 11
337.7433501725
 21
54.1461944287
 31
0.0
  0
LINE
  5
3B1
330
1F
100
AcDbEntity
  8
0
  6
Continuous
 62
     7
370
    25
100
AcDbLine
 10
337.7433501725
 20
54.6382452363
 30
0.0
 11
337.7433501725
 21
54.1461944287
 31
0.0
  0
LINE
  5
3B2
330
1F
100
AcDbEntity
  8
0
  6
Continuous
 62
     7
370
    25
100
AcDbLine
 10
487.7433501725
 20
54.6382452363
 30
0.0
 11
487.7433501725
 21
54.1461944287
 31
0.0
  0
LINE
  5
3B3
330
1F
100
AcDbEntity
  8
0
  6
Continuous
 62
     7
370
    25
100
AcDbLine
 10
487.7433501725
 20
54.1461944287
 30
0.0
 11
490.2433501725
 21
54.1461944287
 31
0.0
  0
LINE
  5
3B4
330
1F
100
AcDbEntity
  8
0
  6
Continuous
 62
     7
370
    25
100
AcDbLine
 10
490.2433501725
 20
54.1461944287
 30
0.0
 11
490.2433501725
 21
70.2761944287
 31
0.0
  0
ARC
  5
3B5
330
1F
100
AcDbEntity
  8
0
  6
Continuous
 62
     7
370
    25
100
AcDbCircle
 10
493.2433501725
 20
70.2761944287
 30
0.0
 40
3.000000000000057
100
AcDbArc
 50
90.0
 51
180.0
  0
LINE
  5
3B6
330
1F
100
AcDbEntity
  8
0
  6
Continuous
 62
     7
370
    25
100
AcDbLine
 10
552.7433501725
 20
73.2761944287
 30
0.0
 11
493.2433501725
 21
73.2761944287
 31
0.0
  0
ARC
  5
3B7
330
1F
100
AcDbEntity
  8
0
  6
Continuous
 62
     7
370
    25
100
AcDbCircle
 10
552.7433501725
 20
70.2761944287
 30
0.0
 40
3.0
100
AcDbArc
 50
0.0
 51
90.0
  0
LINE
  5
3B8
330
1F
100
AcDbEntity
  8
0
  6
Continuous
 62
     7
370
    25
100
AcDbLine
 10
555.7433501725
 20
70.2761944287
 30
0.0
 11
555.7433501725
 21
54.1461944287
 31
0.0
  0
LINE
  5
3B9
330
1F
100
AcDbEntity
  8
0
  6
Continuous
 62
     7
370
    25
100
AcDbLine
 10
555.7433501725
 20
54.1461944287
 30
0.0
 11
558.2433501725
 21
54.1461944287
 31
0.0
  0
LINE
  5
3BA
330
1F
100
AcDbEntity
  8
0
  6
Continuous
 62
     7
370
    25
100
AcDbLine
 10
558.2433501725
 20
54.6382452363
 30
0.0
 11
558.2433501725
 21
54.1461944287
 31
0.0
  0
LINE
  5
3BB
330
1F
100
AcDbEntity
  8
0
  6
Continuous
 62
     7
370
    25
100
AcDbLine
 10
708.2433501725
 20
54.6382452363
 30
0.0
 11
708.2433501725
 21
54.1461944287
 31
0.0
  0
LINE
  5
3BC
330
1F
100
AcDbEntity
  8
0
  6
Continuous
 62
     7
370
    25
100
AcDbLine
 10
708.2433501725
 20
54.1461944287
 30
0.0
 11
710.7433501725
 21
54.1461944287
 31
0.0
  0
LINE
  5
3BD
330
1F
100
AcDbEntity
  8
0
  6
Continuous
 62
     7
370
    25
100
AcDbLine
 10
710.7433501725
 20
54.1461944287
 30
0.0
 11
710.7433501725
 21
70.2761944287
 31
0.0
  0
ARC
  5
3BE
330
1F
100
AcDbEntity
  8
0
  6
Continuous
 62
     7
370
    25
100
AcDbCircle
 10
713.7433501725
 20
70.2761944287
 30
0.0
 40
3.000000000000114
100
AcDbArc
 50
90.0
 51
180.0
  0
LINE
  5
3BF
330
1F
100
AcDbEntity
  8
0
  6
Continuous
 62
     7
370
    25
100
AcDbLine
 10
757.7433501725
 20
73.2761944287
 30
0.0
 11
713.7433501725
 21
73.2761944287
 31
0.0
  0
ARC
  5
3C0
330
1F
100
AcDbEntity
  8
0
  6
Continuous
 62
     7
370
    25
100
AcDbCircle
 10
757.7433501725
 20
70.2761944287
 30
0.0
 40
3.0
100
AcDbArc
 50
0.0
 51
90.0
  0
LINE
  5
3C1
330
1F
100
AcDbEntity
  8
0
  6
Continuous
 62
     7
370
    25
100
AcDbLine
 10
760.7433501725
 20
49.2761944287
 30
0.0
 11
760.7433501725
 21
70.2761944287
 31
0.0
  0
LINE
  5
3C2
330
1F
100
AcDbEntity
  8
0
  6
Continuous
 62
     7
370
    25
100
AcDbLine
 10
763.9433501725
 20
49.2761944287
 30
0.0
 11
760.7433501725
 21
49.2761944287
 31
0.0
  0
LINE
  5
3C3
330
1F
100
AcDbEntity
  8
0
  6
Continuous
 62
     7
370
    25
100
AcDbLine
 10
762.7433501725
 20
30.2761944287
 30
0.0
 11
763.9433501725
 21
30.2761944287
 31
0.0
  0
LINE
  5
3C4
330
1F
100
AcDbEntity
  8
0
  6
Continuous
 62
     7
370
    25
100
AcDbLine
 10
762.7433501725
 20
30.0761944287
 30
0.0
 11
762.7433501725
 21
30.2761944287
 31
0.0
  0
SPLINE
  5
3C5
330
1F
100
AcDbEntity
  8
0
  6
Continuous
 62
     7
370
    25
100
AcDbSpline
210
0.0
220
0.0
230
1.0
 70
     8
 71
     3
 72
     9
 73
     5
 74
     0
 42
0.000000001
 43
0.00000001
 40
0.0
 40
0.0
 40
0.0
 40
0.0
 40
0.6277651913045473
 40
1.0
 40
1.0
 40
1.0
 40
1.0
 10
740.6984081338422
 20
29.486420353682
 30
0.0
 10
740.6491010337007
 20
29.49144795315749
 30
0.0
 10
740.5705571755441
 20
29.4994566792626
 30
0.0
 10
740.4954265509533
 20
29.63895010534911
 30
0.0
 10
740.4674603172815
 20
29.69087441412269
 30
0.0
  0
SPLINE
  5
3C6
330
1F
100
AcDbEntity
  8
0
  6
Continuous
 62
     7
370
    25
100
AcDbSpline
210
0.0
220
0.0
230
1.0
 70
     8
 71
     3
 72
    12
 73
     8
 74
     0
 42
0.000000001
 43
0.00000001
 40
0.0
 40
0.0
 40
0.0
 40
0.0
 40
0.5000000000000064
 40
0.5000000000000064
 40
0.7500000000000032
 40
0.7500000000000032
 40
1.0
 40
1.0
 40
1.0
 40
1.0
 10
740.4674603172814
 20
29.69087441412171
 30
0.0
 10
740.9794664689862
 20
29.50038012469819
 30
0.0
 10
741.4991440152546
 20
29.37870571163582
 30
0.0
 10
742.2989318728171
 20
29.37804952110458
 30
0.0
 10
742.5652558196651
 20
29.40788352289898
 30
0.0
 10
743.0884133226666
 20
29.51681339300657
 30
0.0
 10
743.3468779538149
 20
29.59550858006944
 30
0.0
 10
743.6032000401369
 20
29.69087441412219
 30
0.0
  0
SPLINE
  5
3C7
330
1F
100
AcDbEntity
  8
0
  6
Continuous
 62
     7
370
    25
100
AcDbSpline
210
0.0
220
0.0
230
1.0
 70
     8
 71
     3
 72
    12
 73
     8
 74
     0
 42
0.000000001
 43
0.00000001
 40
0.0
 40
0.0
 40
0.0
 40
0.0
 40
0.5000000000000224
 40
0.5000000000000224
 40
0.7500000000000112
 40
0.7500000000000112
 40
1.0
 40
1.0
 40
1.0
 40
1.0
 10
743.6032000401367
 20
29.6908744141217
 30
0.0
 10
744.2197304300571
 20
29.50038012469818
 30
0.0
 10
744.8454983025068
 20
29.3787057116358
 30
0.0
 10
745.8085600118918
 20
29.37804952110457
 30
0.0
 10
746.1292530470215
 20
29.40788352289897
 30
0.0
 10
746.7592112970174
 20
29.51681339300657
 30
0.0
 10
747.0704405650483
 20
29.59550858006945
 30
0.0
 10
747.3790898953329
 20
29.6908744141222
 30
0.0
  0
SPLINE
  5
3C8
330
1F
100
AcDbEntity
  8
0
  6
Continuous
 62
     7
370
    25
100
AcDbSpline
210
0.0
220
0.0
230
1.0
 70
     8
 71
     3
 72
    14
 73
    10
 74
     0
 42
0.000000001
 43
0.00000001
 40
0.0
 40
0.0
 40
0.0
 40
0.0
 40
0.25
 40
0.25
 40
0.5
 40
0.5
 40
0.75
 40
0.75
 40
1.0
 40
1.0
 40
1.0
 40
1.0
 10
747.3790898953328
 20
29.69087441412269
 30
0.0
 10
747.4311476042237
 20
29.59599980481208
 30
0.0
 10
747.4844811425518
 20
29.51639487993633
 30
0.0
 10
747.5914131501797
 20
29.40755826504209
 30
0.0
 10
747.6451665166273
 20
29.37823465935161
 30
0.0
 10
747.7533455680509
 20
29.37829944109719
 30
0.0
 10
747.8081742646391
 20
29.40845563442356
 30
0.0
 10
747.915081247299
 20
29.51804083578928
 30
0.0
 10
747.9675027622714
 20
29.59658380959144
 30
0.0
 10
748.0192400276734
 20
29.6908744141227
 30
0.0
  0
LINE
  5
3C9
330
1F
100
AcDbEntity
  8
0
  6
Continuous
 62
     7
370
    25
100
AcDbLine
 10
747.3933501725
 20
29.1761944287
 30
0.0
 11
741.0933501725
 21
29.1761944287
 31
0.0
  0
SPLINE
  5
3CA
330
1F
100
AcDbEntity
  8
0
  6
Continuous
 62
     7
370
    25
100
AcDbSpline
210
0.0
220
0.0
230
1.0
 70
     8
 71
     3
 72
    12
 73
     8
 74
     0
 42
0.000000001
 43
0.00000001
 40
0.0
 40
0.0
 40
0.0
 40
0.0
 40
0.5000000000000224
 40
0.5000000000000224
 40
0.7500000000000112
 40
0.7500000000000112
 40
1.0
 40
1.0
 40
1.0
 40
1.0
 10
747.379089895333
 20
31.86151444335165
 30
0.0
 10
746.7625595054127
 20
32.05200873277516
 30
0.0
 10
746.1367916329629
 20
32.17368314583754
 30
0.0
 10
745.173729923578
 20
32.17433933636877
 30
0.0
 10
744.8530368884483
 20
32.14450533457438
 30
0.0
 10
744.2230786384524
 20
32.0355754644668
 30
0.0
 10
743.9118493704216
 20
31.95688027740393
 30
0.0
 10
743.6032000401368
 20
31.86151444335117
 30
0.0
  0
LINE
  5
3CB
330
1F
100
AcDbEntity
  8
0
  6
Continuous
 62
     7
370
    25
100
AcDbLine
 10
747.3790898953
 20
31.8615144434
 30
0.0
 11
747.3790898953
 21
29.6908744141
 31
0.0
  0
LINE
  5
3CC
330
1F
100
AcDbEntity
  8
0
  6
Continuous
 62
     7
370
    25
100
AcDbLine
 10
743.6032000401
 20
31.8615144434
 30
0.0
 11
743.6032000401
 21
29.6908744141
 31
0.0
  0
SPLINE
  5
3CD
330
1F
100
AcDbEntity
  8
0
  6
Continuous
 62
     7
370
    25
100
AcDbSpline
210
0.0
220
0.0
230
1.0
 70
     8
 71
     3
 72
    14
 73
    10
 74
     0
 42
0.000000001
 43
0.00000001
 40
0.0
 40
0.0
 40
0.0
 40
0.0
 40
0.25
 40
0.25
 40
0.5
 40
0.5
 40
0.75
 40
0.75
 40
1.0
 40
1.0
 40
1.0
 40
1.0
 10
747.3790898953328
 20
31.86151444335066
 30
0.0
 10
747.4311476042237
 20
31.95638905266127
 30
0.0
 10
747.4844811425518
 20
32.03599397753703
 30
0.0
 10
747.5914131501797
 20
32.14483059243124
 30
0.0
 10
747.6451665166273
 20
32.17415419812176
 30
0.0
 10
747.7533455680509
 20
32.17408941637616
 30
0.0
 10
747.8081742646391
 20
32.1439332230498
 30
0.0
 10
747.915081247299
 20
32.03434802168407
 30
0.0
 10
747.9675027622714
 20
31.95580504788191
 30
0.0
 10
748.0192400276734
 20
31.86151444335065
 30
0.0
  0
SPLINE
  5
3CE
330
1F
100
AcDbEntity
  8
0
  6
Continuous
 62
     7
370
    25
100
AcDbSpline
210
0.0
220
0.0
230
1.0
 70
     8
 71
     3
 72
    12
 73
     8
 74
     0
 42
0.000000001
 43
0.00000001
 40
0.0
 40
0.0
 40
0.0
 40
0.0
 40
0.5000000000000093
 40
0.5000000000000093
 40
0.7500000000000047
 40
0.7500000000000047
 40
1.0
 40
1.0
 40
1.0
 40
1.0
 10
743.6032000401369
 20
31.86151444335165
 30
0.0
 10
743.0911938884319
 20
32.05200873277516
 30
0.0
 10
742.5715163421638
 20
32.17368314583754
 30
0.0
 10
741.7717284846012
 20
32.17433933636877
 30
0.0
 10
741.5054045377532
 20
32.14450533457438
 30
0.0
 10
740.9822470347518
 20
32.03557546446678
 30
0.0
 10
740.7237824036035
 20
31.95688027740391
 30
0.0
 10
740.4674603172814
 20
31.86151444335115
 30
0.0
  0
SPLINE
  5
3CF
330
1F
100
AcDbEntity
  8
0
  6
Continuous
 62
     7
370
    25
100
AcDbSpline
210
0.0
220
0.0
230
1.0
 70
     8
 71
     3
 72
     9
 73
     5
 74
     0
 42
0.000000001
 43
0.00000001
 40
0.0
 40
0.0
 40
0.0
 40
0.0
 40
0.3722348086954393
 40
1.0
 40
1.0
 40
1.0
 40
1.0
 10
740.4674603172816
 20
31.86151444335067
 30
0.0
 10
740.4954265509533
 20
31.91343875212425
 30
0.0
 10
740.5705571755442
 20
32.05293217821076
 30
0.0
 10
740.6491010337008
 20
32.06094090431587
 30
0.0
 10
740.6984081338422
 20
32.06596850379135
 30
0.0
  0
LINE
  5
3D0
330
1F
100
AcDbEntity
  8
0
  6
Continuous
 62
     7
370
    25
100
AcDbLine
 10
747.3933501725
 20
32.3761944287
 30
0.0
 11
741.0933501725
 21
32.3761944287
 31
0.0
  0
LINE
  5
3D1
330
1F
100
AcDbEntity
  8
0
  6
Continuous
 62
     7
370
    25
100
AcDbLine
 10
740.4674603173
 20
31.8615144434
 30
0.0
 11
740.4674603173
 21
29.6908744141
 31
0.0
  0
LINE
  5
3D2
330
1F
100
AcDbEntity
  8
0
  6
Continuous
 62
     7
370
    25
100
AcDbLine
 10
748.0192400277
 20
31.8615144434
 30
0.0
 11
748.0192400277
 21
29.6908744141
 31
0.0
  0
SPLINE
  5
3D3
330
1F
100
AcDbEntity
  8
0
  6
Continuous
 62
     7
370
    25
100
AcDbSpline
210
0.0
220
0.0
230
1.0
 70
     8
 71
     3
 72
     9
 73
     5
 74
     0
 42
0.000000001
 43
0.00000001
 40
0.0
 40
0.0
 40
0.0
 40
0.0
 40
0.6277651913045496
 40
1.0
 40
1.0
 40
1.0
 40
1.0
 10
297.6984081338423
 20
29.48642035368203
 30
0.0
 10
297.6491010337008
 20
29.49144795315751
 30
0.0
 10
297.5705571755442
 20
29.49945667926263
 30
0.0
 10
297.4954265509534
 20
29.63895010534913
 30
0.0
 10
297.4674603172816
 20
29.69087441412272
 30
0.0
  0
SPLINE
  5
3D4
330
1F
100
AcDbEntity
  8
0
  6
Continuous
 62
     7
370
    25
100
AcDbSpline
210
0.0
220
0.0
230
1.0
 70
     8
 71
     3
 72
    12
 73
     8
 74
     0
 42
0.000000001
 43
0.00000001
 40
0.0
 40
0.0
 40
0.0
 40
0.0
 40
0.5000000000000063
 40
0.5000000000000063
 40
0.7500000000000031
 40
0.7500000000000031
 40
1.0
 40
1.0
 40
1.0
 40
1.0
 10
297.4674603172815
 20
29.69087441412172
 30
0.0
 10
297.9794664689865
 20
29.50038012469821
 30
0.0
 10
298.4991440152547
 20
29.37870571163583
 30
0.0
 10
299.2989318728172
 20
29.3780495211046
 30
0.0
 10
299.5652558196652
 20
29.407883522899
 30
0.0
 10
300.0884133226667
 20
29.51681339300658
 30
0.0
 10
300.346877953815
 20
29.59550858006945
 30
0.0
 10
300.603200040137
 20
29.69087441412221
 30
0.0
  0
SPLINE
  5
3D5
330
1F
100
AcDbEntity
  8
0
  6
Continuous
 62
     7
370
    25
100
AcDbSpline
210
0.0
220
0.0
230
1.0
 70
     8
 71
     3
 72
    12
 73
     8
 74
     0
 42
0.000000001
 43
0.00000001
 40
0.0
 40
0.0
 40
0.0
 40
0.0
 40
0.5000000000000083
 40
0.5000000000000083
 40
0.7500000000000041
 40
0.7500000000000041
 40
1.0
 40
1.0
 40
1.0
 40
1.0
 10
300.6032000401368
 20
29.69087441412173
 30
0.0
 10
301.2197304300571
 20
29.5003801246982
 30
0.0
 10
301.8454983025069
 20
29.37870571163583
 30
0.0
 10
302.8085600118918
 20
29.3780495211046
 30
0.0
 10
303.1292530470215
 20
29.407883522899
 30
0.0
 10
303.7592112970174
 20
29.51681339300658
 30
0.0
 10
304.0704405650483
 20
29.59550858006945
 30
0.0
 10
304.3790898953329
 20
29.69087441412221
 30
0.0
  0
SPLINE
  5
3D6
330
1F
100
AcDbEntity
  8
0
  6
Continuous
 62
     7
370
    25
100
AcDbSpline
210
0.0
220
0.0
230
1.0
 70
     8
 71
     3
 72
    14
 73
    10
 74
     0
 42
0.000000001
 43
0.00000001
 40
0.0
 40
0.0
 40
0.0
 40
0.0
 40
0.25
 40
0.25
 40
0.5
 40
0.5
 40
0.75
 40
0.75
 40
1.0
 40
1.0
 40
1.0
 40
1.0
 10
304.3790898953329
 20
29.6908744141227
 30
0.0
 10
304.4311476042237
 20
29.5959998048121
 30
0.0
 10
304.4844811425518
 20
29.51639487993634
 30
0.0
 10
304.5914131501799
 20
29.40755826504211
 30
0.0
 10
304.6451665166274
 20
29.37823465935162
 30
0.0
 10
304.7533455680511
 20
29.37829944109721
 30
0.0
 10
304.8081742646391
 20
29.40845563442357
 30
0.0
 10
304.9150812472989
 20
29.51804083578928
 30
0.0
 10
304.9675027622713
 20
29.59658380959145
 30
0.0
 10
305.0192400276734
 20
29.69087441412271
 30
0.0
  0
LINE
  5
3D7
330
1F
100
AcDbEntity
  8
0
  6
Continuous
 62
     7
370
    25
100
AcDbLine
 10
304.3933501725
 20
29.1761944287
 30
0.0
 11
298.0933501725
 21
29.1761944287
 31
0.0
  0
SPLINE
  5
3D8
330
1F
100
AcDbEntity
  8
0
  6
Continuous
 62
     7
370
    25
100
AcDbSpline
210
0.0
220
0.0
230
1.0
 70
     8
 71
     3
 72
    12
 73
     8
 74
     0
 42
0.000000001
 43
0.00000001
 40
0.0
 40
0.0
 40
0.0
 40
0.0
 40
0.5000000000000083
 40
0.5000000000000083
 40
0.7500000000000041
 40
0.7500000000000041
 40
1.0
 40
1.0
 40
1.0
 40
1.0
 10
304.379089895333
 20
31.86151444335168
 30
0.0
 10
303.7625595054128
 20
32.05200873277519
 30
0.0
 10
303.136791632963
 20
32.17368314583757
 30
0.0
 10
302.173729923578
 20
32.1743393363688
 30
0.0
 10
301.8530368884483
 20
32.14450533457441
 30
0.0
 10
301.2230786384524
 20
32.03557546446682
 30
0.0
 10
300.9118493704215
 20
31.95688027740394
 30
0.0
 10
300.6032000401369
 20
31.8615144433512
 30
0.0
  0
LINE
  5
3D9
330
1F
100
AcDbEntity
  8
0
  6
Continuous
 62
     7
370
    25
100
AcDbLine
 10
304.3790898953
 20
31.8615144434
 30
0.0
 11
304.3790898953
 21
29.6908744141
 31
0.0
  0
LINE
  5
3DA
330
1F
100
AcDbEntity
  8
0
  6
Continuous
 62
     7
370
    25
100
AcDbLine
 10
300.6032000401
 20
31.8615144434
 30
0.0
 11
300.6032000401
 21
29.6908744141
 31
0.0
  0
SPLINE
  5
3DB
330
1F
100
AcDbEntity
  8
0
  6
Continuous
 62
     7
370
    25
100
AcDbSpline
210
0.0
220
0.0
230
1.0
 70
     8
 71
     3
 72
    14
 73
    10
 74
     0
 42
0.000000001
 43
0.00000001
 40
0.0
 40
0.0
 40
0.0
 40
0.0
 40
0.25
 40
0.25
 40
0.5
 40
0.5
 40
0.75
 40
0.75
 40
1.0
 40
1.0
 40
1.0
 40
1.0
 10
304.3790898953329
 20
31.8615144433507
 30
0.0
 10
304.4311476042237
 20
31.95638905266131
 30
0.0
 10
304.4844811425518
 20
32.03599397753706
 30
0.0
 10
304.5914131501799
 20
32.14483059243129
 30
0.0
 10
304.6451665166275
 20
32.17415419812179
 30
0.0
 10
304.7533455680511
 20
32.17408941637619
 30
0.0
 10
304.8081742646391
 20
32.14393322304984
 30
0.0
 10
304.9150812472989
 20
32.03434802168412
 30
0.0
 10
304.9675027622713
 20
31.95580504788195
 30
0.0
 10
305.0192400276734
 20
31.8615144433507
 30
0.0
  0
SPLINE
  5
3DC
330
1F
100
AcDbEntity
  8
0
  6
Continuous
 62
     7
370
    25
100
AcDbSpline
210
0.0
220
0.0
230
1.0
 70
     8
 71
     3
 72
    12
 73
     8
 74
     0
 42
0.000000001
 43
0.00000001
 40
0.0
 40
0.0
 40
0.0
 40
0.0
 40
0.5000000000000063
 40
0.5000000000000063
 40
0.7500000000000031
 40
0.7500000000000031
 40
1.0
 40
1.0
 40
1.0
 40
1.0
 10
300.6032000401371
 20
31.86151444335168
 30
0.0
 10
300.0911938884321
 20
32.05200873277521
 30
0.0
 10
299.5715163421639
 20
32.17368314583757
 30
0.0
 10
298.7717284846014
 20
32.1743393363688
 30
0.0
 10
298.5054045377533
 20
32.14450533457441
 30
0.0
 10
297.9822470347519
 20
32.03557546446682
 30
0.0
 10
297.7237824036036
 20
31.95688027740394
 30
0.0
 10
297.4674603172816
 20
31.8615144433512
 30
0.0
  0
SPLINE
  5
3DD
330
1F
100
AcDbEntity
  8
0
  6
Continuous
 62
     7
370
    25
100
AcDbSpline
210
0.0
220
0.0
230
1.0
 70
     8
 71
     3
 72
     9
 73
     5
 74
     0
 42
0.000000001
 43
0.00000001
 40
0.0
 40
0.0
 40
0.0
 40
0.0
 40
0.3722348086954365
 40
1.0
 40
1.0
 40
1.0
 40
1.0
 10
297.4674603172816
 20
31.86151444335069
 30
0.0
 10
297.4954265509534
 20
31.91343875212427
 30
0.0
 10
297.5705571755442
 20
32.05293217821079
 30
0.0
 10
297.6491010337009
 20
32.0609409043159
 30
0.0
 10
297.6984081338423
 20
32.06596850379138
 30
0.0
  0
LINE
  5
3DE
330
1F
100
AcDbEntity
  8
0
  6
Continuous
 62
     7
370
    25
100
AcDbLine
 10
304.3933501725
 20
32.3761944287
 30
0.0
 11
298.0933501725
 21
32.3761944287
 31
0.0
  0
LINE
  5
3DF
330
1F
100
AcDbEntity
  8
0
  6
Continuous
 62
     7
370
    25
100
AcDbLine
 10
297.4674603173
 20
31.8615144434
 30
0.0
 11
297.4674603173
 21
29.6908744141
 31
0.0
  0
LINE
  5
3E0
330
1F
100
AcDbEntity
  8
0
  6
Continuous
 62
     7
370
    25
100
AcDbLine
 10
305.0192400277
 20
31.8615144434
 30
0.0
 11
305.0192400277
 21
29.6908744141
 31
0.0
  0
SPLINE
  5
3E1
330
1F
100
AcDbEntity
  8
0
  6
Continuous
 62
     7
370
    25
100
AcDbSpline
210
0.0
220
0.0
230
1.0
 70
     8
 71
     3
 72
    12
 73
     8
 74
     0
 42
0.000000001
 43
0.00000001
 40
0.0
 40
0.0
 40
0.0
 40
0.0
 40
0.5000000000000083
 40
0.5000000000000083
 40
0.7500000000000041
 40
0.7500000000000041
 40
1.0
 40
1.0
 40
1.0
 40
1.0
 10
527.3790898953329
 20
31.86151444335166
 30
0.0
 10
526.7625595054126
 20
32.05200873277517
 30
0.0
 10
526.1367916329629
 20
32.17368314583754
 30
0.0
 10
525.173729923578
 20
32.17433933636877
 30
0.0
 10
524.8530368884483
 20
32.14450533457438
 30
0.0
 10
524.2230786384523
 20
32.0355754644668
 30
0.0
 10
523.9118493704215
 20
31.95688027740391
 30
0.0
 10
523.6032000401368
 20
31.86151444335117
 30
0.0
  0
LINE
  5
3E2
330
1F
100
AcDbEntity
  8
0
  6
Continuous
 62
     7
370
    25
100
AcDbLine
 10
527.3790898953
 20
31.8615144434
 30
0.0
 11
527.3790898953
 21
29.6908744141
 31
0.0
  0
SPLINE
  5
3E3
330
1F
100
AcDbEntity
  8
0
  6
Continuous
 62
     7
370
    25
100
AcDbSpline
210
0.0
220
0.0
230
1.0
 70
     8
 71
     3
 72
    12
 73
     8
 74
     0
 42
0.000000001
 43
0.00000001
 40
0.0
 40
0.0
 40
0.0
 40
0.0
 40
0.5000000000000083
 40
0.5000000000000083
 40
0.7500000000000041
 40
0.7500000000000041
 40
1.0
 40
1.0
 40
1.0
 40
1.0
 10
523.6032000401367
 20
29.6908744141217
 30
0.0
 10
524.219730430057
 20
29.50038012469818
 30
0.0
 10
524.8454983025068
 20
29.3787057116358
 30
0.0
 10
525.8085600118917
 20
29.37804952110457
 30
0.0
 10
526.1292530470214
 20
29.40788352289897
 30
0.0
 10
526.7592112970173
 20
29.51681339300655
 30
0.0
 10
527.0704405650481
 20
29.59550858006942
 30
0.0
 10
527.3790898953329
 20
29.69087441412218
 30
0.0
  0
LINE
  5
3E4
330
1F
100
AcDbEntity
  8
0
  6
Continuous
 62
     7
370
    25
100
AcDbLine
 10
523.6032000401
 20
31.8615144434
 30
0.0
 11
523.6032000401
 21
29.6908744141
 31
0.0
  0
SPLINE
  5
3E5
330
1F
100
AcDbEntity
  8
0
  6
Continuous
 62
     7
370
    25
100
AcDbSpline
210
0.0
220
0.0
230
1.0
 70
     8
 71
     3
 72
    14
 73
    10
 74
     0
 42
0.000000001
 43
0.00000001
 40
0.0
 40
0.0
 40
0.0
 40
0.0
 40
0.25
 40
0.25
 40
0.5
 40
0.5
 40
0.75
 40
0.75
 40
1.0
 40
1.0
 40
1.0
 40
1.0
 10
527.3790898953328
 20
31.86151444335067
 30
0.0
 10
527.4311476042236
 20
31.95638905266128
 30
0.0
 10
527.4844811425518
 20
32.03599397753705
 30
0.0
 10
527.5914131501797
 20
32.14483059243125
 30
0.0
 10
527.6451665166273
 20
32.17415419812176
 30
0.0
 10
527.7533455680511
 20
32.17408941637616
 30
0.0
 10
527.808174264639
 20
32.14393322304981
 30
0.0
 10
527.9150812472988
 20
32.0343480216841
 30
0.0
 10
527.9675027622712
 20
31.95580504788192
 30
0.0
 10
528.0192400276734
 20
31.86151444335067
 30
0.0
  0
SPLINE
  5
3E6
330
1F
100
AcDbEntity
  8
0
  6
Continuous
 62
     7
370
    25
100
AcDbSpline
210
0.0
220
0.0
230
1.0
 70
     8
 71
     3
 72
    12
 73
     8
 74
     0
 42
0.000000001
 43
0.00000001
 40
0.0
 40
0.0
 40
0.0
 40
0.0
 40
0.5000000000000063
 40
0.5000000000000063
 40
0.7500000000000031
 40
0.7500000000000031
 40
1.0
 40
1.0
 40
1.0
 40
1.0
 10
523.6032000401369
 20
31.86151444335166
 30
0.0
 10
523.091193888432
 20
32.05200873277517
 30
0.0
 10
522.5715163421638
 20
32.17368314583754
 30
0.0
 10
521.7717284846013
 20
32.17433933636877
 30
0.0
 10
521.5054045377533
 20
32.14450533457438
 30
0.0
 10
520.9822470347518
 20
32.0355754644668
 30
0.0
 10
520.7237824036035
 20
31.95688027740391
 30
0.0
 10
520.4674603172814
 20
31.86151444335117
 30
0.0
  0
SPLINE
  5
3E7
330
1F
100
AcDbEntity
  8
0
  6
Continuous
 62
     7
370
    25
100
AcDbSpline
210
0.0
220
0.0
230
1.0
 70
     8
 71
     3
 72
     9
 73
     5
 74
     0
 42
0.000000001
 43
0.00000001
 40
0.0
 40
0.0
 40
0.0
 40
0.0
 40
0.372234808695437
 40
1.0
 40
1.0
 40
1.0
 40
1.0
 10
520.4674603172815
 20
31.86151444335067
 30
0.0
 10
520.4954265509534
 20
31.91343875212425
 30
0.0
 10
520.5705571755441
 20
32.05293217821076
 30
0.0
 10
520.6491010337007
 20
32.06094090431587
 30
0.0
 10
520.6984081338422
 20
32.06596850379135
 30
0.0
  0
LINE
  5
3E8
330
1F
100
AcDbEntity
  8
0
  6
Continuous
 62
     7
370
    25
100
AcDbLine
 10
527.3933501725
 20
32.3761944287
 30
0.0
 11
521.0933501725
 21
32.3761944287
 31
0.0
  0
SPLINE
  5
3E9
330
1F
100
AcDbEntity
  8
0
  6
Continuous
 62
     7
370
    25
100
AcDbSpline
210
0.0
220
0.0
230
1.0
 70
     8
 71
     3
 72
     9
 73
     5
 74
     0
 42
0.000000001
 43
0.00000001
 40
0.0
 40
0.0
 40
0.0
 40
0.0
 40
0.6277651913045496
 40
1.0
 40
1.0
 40
1.0
 40
1.0
 10
520.6984081338422
 20
29.486420353682
 30
0.0
 10
520.6491010337007
 20
29.49144795315749
 30
0.0
 10
520.5705571755441
 20
29.4994566792626
 30
0.0
 10
520.4954265509533
 20
29.63895010534911
 30
0.0
 10
520.4674603172815
 20
29.69087441412269
 30
0.0
  0
SPLINE
  5
3EA
330
1F
100
AcDbEntity
  8
0
  6
Continuous
 62
     7
370
    25
100
AcDbSpline
210
0.0
220
0.0
230
1.0
 70
     8
 71
     3
 72
    12
 73
     8
 74
     0
 42
0.000000001
 43
0.00000001
 40
0.0
 40
0.0
 40
0.0
 40
0.0
 40
0.5000000000000063
 40
0.5000000000000063
 40
0.7500000000000031
 40
0.7500000000000031
 40
1.0
 40
1.0
 40
1.0
 40
1.0
 10
520.4674603172814
 20
29.69087441412169
 30
0.0
 10
520.9794664689864
 20
29.50038012469818
 30
0.0
 10
521.4991440152545
 20
29.3787057116358
 30
0.0
 10
522.2989318728172
 20
29.37804952110457
 30
0.0
 10
522.5652558196651
 20
29.40788352289897
 30
0.0
 10
523.0884133226666
 20
29.51681339300656
 30
0.0
 10
523.3468779538149
 20
29.59550858006943
 30
0.0
 10
523.6032000401369
 20
29.69087441412218
 30
0.0
  0
SPLINE
  5
3EB
330
1F
100
AcDbEntity
  8
0
  6
Continuous
 62
     7
370
    25
100
AcDbSpline
210
0.0
220
0.0
230
1.0
 70
     8
 71
     3
 72
    14
 73
    10
 74
     0
 42
0.000000001
 43
0.00000001
 40
0.0
 40
0.0
 40
0.0
 40
0.0
 40
0.25
 40
0.25
 40
0.5
 40
0.5
 40
0.75
 40
0.75
 40
1.0
 40
1.0
 40
1.0
 40
1.0
 10
527.3790898953328
 20
29.69087441412267
 30
0.0
 10
527.4311476042236
 20
29.59599980481207
 30
0.0
 10
527.4844811425518
 20
29.51639487993631
 30
0.0
 10
527.5914131501797
 20
29.40755826504208
 30
0.0
 10
527.6451665166273
 20
29.37823465935159
 30
0.0
 10
527.753345568051
 20
29.37829944109718
 30
0.0
 10
527.808174264639
 20
29.40845563442354
 30
0.0
 10
527.9150812472988
 20
29.51804083578926
 30
0.0
 10
527.9675027622712
 20
29.59658380959143
 30
0.0
 10
528.0192400276734
 20
29.69087441412268
 30
0.0
  0
LINE
  5
3EC
330
1F
100
AcDbEntity
  8
0
  6
Continuous
 62
     7
370
    25
100
AcDbLine
 10
527.3933501725
 20
29.1761944287
 30
0.0
 11
521.0933501725
 21
29.1761944287
 31
0.0
  0
LINE
  5
3ED
330
1F
100
AcDbEntity
  8
0
  6
Continuous
 62
     7
370
    25
100
AcDbLine
 10
520.4674603173
 20
31.8615144434
 30
0.0
 11
520.4674603173
 21
29.6908744141
 31
0.0
  0
LINE
  5
3EE
330
1F
100
AcDbEntity
  8
0
  6
Continuous
 62
     7
370
    25
100
AcDbLine
 10
528.0192400277
 20
31.8615144434
 30
0.0
 11
528.0192400277
 21
29.6908744141
 31
0.0
  0
SPLINE
  5
3EF
330
1F
100
AcDbEntity
  8
0
  6
Continuous
 62
     7
370
    25
100
AcDbSpline
210
0.0
220
0.0
230
1.0
 70
     8
 71
     3
 72
    12
 73
     8
 74
     0
 42
0.000000001
 43
0.00000001
 40
0.0
 40
0.0
 40
0.0
 40
0.0
 40
0.5000000000000224
 40
0.5000000000000224
 40
0.7500000000000112
 40
0.7500000000000112
 40
1.0
 40
1.0
 40
1.0
 40
1.0
 10
84.379089895333
 20
31.8615144433517
 30
0.0
 10
83.76255950541267
 20
32.05200873277522
 30
0.0
 10
83.136791632963
 20
32.1736831458376
 30
0.0
 10
82.17372992357802
 20
32.17433933636883
 30
0.0
 10
81.85303688844824
 20
32.14450533457444
 30
0.0
 10
81.2230786384524
 20
32.03557546446685
 30
0.0
 10
80.91184937042145
 20
31.95688027740398
 30
0.0
 10
80.60320004013688
 20
31.86151444335123
 30
0.0
  0
LINE
  5
3F0
330
1F
100
AcDbEntity
  8
0
  6
Continuous
 62
     7
370
    25
100
AcDbLine
 10
84.3790898953
 20
31.8615144434
 30
0.0
 11
84.3790898953
 21
29.6908744141
 31
0.0
  0
SPLINE
  5
3F1
330
1F
100
AcDbEntity
  8
0
  6
Continuous
 62
     7
370
    25
100
AcDbSpline
210
0.0
220
0.0
230
1.0
 70
     8
 71
     3
 72
    12
 73
     8
 74
     0
 42
0.000000001
 43
0.00000001
 40
0.0
 40
0.0
 40
0.0
 40
0.0
 40
0.5000000000000224
 40
0.5000000000000224
 40
0.7500000000000112
 40
0.7500000000000112
 40
1.0
 40
1.0
 40
1.0
 40
1.0
 10
80.60320004013677
 20
29.69087441412175
 30
0.0
 10
81.21973043005693
 20
29.50038012469823
 30
0.0
 10
81.84549830250687
 20
29.37870571163586
 30
0.0
 10
82.80856001189169
 20
29.37804952110463
 30
0.0
 10
83.12925304702145
 20
29.40788352289903
 30
0.0
 10
83.75921129701742
 20
29.51681339300661
 30
0.0
 10
84.0704405650482
 20
29.5955085800695
 30
0.0
 10
84.37908989533294
 20
29.69087441412224
 30
0.0
  0
LINE
  5
3F2
330
1F
100
AcDbEntity
  8
0
  6
Continuous
 62
     7
370
    25
100
AcDbLine
 10
80.6032000401
 20
31.8615144434
 30
0.0
 11
80.6032000401
 21
29.6908744141
 31
0.0
  0
SPLINE
  5
3F3
330
1F
100
AcDbEntity
  8
0
  6
Continuous
 62
     7
370
    25
100
AcDbSpline
210
0.0
220
0.0
230
1.0
 70
     8
 71
     3
 72
     9
 73
     5
 74
     0
 42
0.000000001
 43
0.00000001
 40
0.0
 40
0.0
 40
0.0
 40
0.0
 40
0.6277651913045494
 40
1.0
 40
1.0
 40
1.0
 40
1.0
 10
77.69840813384238
 20
29.48642035368205
 30
0.0
 10
77.64910103370087
 20
29.49144795315754
 30
0.0
 10
77.57055717554422
 20
29.49945667926266
 30
0.0
 10
77.49542655095331
 20
29.63895010534916
 30
0.0
 10
77.46746031728158
 20
29.69087441412274
 30
0.0
  0
SPLINE
  5
3F4
330
1F
100
AcDbEntity
  8
0
  6
Continuous
 62
     7
370
    25
100
AcDbSpline
210
0.0
220
0.0
230
1.0
 70
     8
 71
     3
 72
    12
 73
     8
 74
     0
 42
0.000000001
 43
0.00000001
 40
0.0
 40
0.0
 40
0.0
 40
0.0
 40
0.5000000000000064
 40
0.5000000000000064
 40
0.7500000000000032
 40
0.7500000000000032
 40
1.0
 40
1.0
 40
1.0
 40
1.0
 10
77.46746031728146
 20
29.69087441412176
 30
0.0
 10
77.97946646898623
 20
29.50038012469824
 30
0.0
 10
78.49914401525466
 20
29.37870571163587
 30
0.0
 10
79.29893187281722
 20
29.37804952110463
 30
0.0
 10
79.56525581966511
 20
29.40788352289903
 30
0.0
 10
80.08841332266658
 20
29.51681339300662
 30
0.0
 10
80.3468779538149
 20
29.59550858006949
 30
0.0
 10
80.603200040137
 20
29.69087441412224
 30
0.0
  0
SPLINE
  5
3F5
330
1F
100
AcDbEntity
  8
0
  6
Continuous
 62
     7
370
    25
100
AcDbSpline
210
0.0
220
0.0
230
1.0
 70
     8
 71
     3
 72
    14
 73
    10
 74
     0
 42
0.000000001
 43
0.00000001
 40
0.0
 40
0.0
 40
0.0
 40
0.0
 40
0.25
 40
0.25
 40
0.5
 40
0.5
 40
0.75
 40
0.75
 40
1.0
 40
1.0
 40
1.0
 40
1.0
 10
84.37908989533288
 20
29.69087441412274
 30
0.0
 10
84.43114760422365
 20
29.59599980481213
 30
0.0
 10
84.4844811425518
 20
29.51639487993638
 30
0.0
 10
84.59141315017993
 20
29.40755826504215
 30
0.0
 10
84.6451665166274
 20
29.37823465935165
 30
0.0
 10
84.75334556805109
 20
29.37829944109725
 30
0.0
 10
84.80817426463916
 20
29.40845563442361
 30
0.0
 10
84.91508124729901
 20
29.51804083578933
 30
0.0
 10
84.96750276227132
 20
29.5965838095915
 30
0.0
 10
85.01924002767348
 20
29.69087441412275
 30
0.0
  0
LINE
  5
3F6
330
1F
100
AcDbEntity
  8
0
  6
Continuous
 62
     7
370
    25
100
AcDbLine
 10
84.3933501725
 20
29.1761944287
 30
0.0
 11
78.0933501725
 21
29.1761944287
 31
0.0
  0
SPLINE
  5
3F7
330
1F
100
AcDbEntity
  8
0
  6
Continuous
 62
     7
370
    25
100
AcDbSpline
210
0.0
220
0.0
230
1.0
 70
     8
 71
     3
 72
    14
 73
    10
 74
     0
 42
0.000000001
 43
0.00000001
 40
0.0
 40
0.0
 40
0.0
 40
0.0
 40
0.25
 40
0.25
 40
0.5
 40
0.5
 40
0.75
 40
0.75
 40
1.0
 40
1.0
 40
1.0
 40
1.0
 10
84.37908989533288
 20
31.86151444335072
 30
0.0
 10
84.43114760422365
 20
31.95638905266133
 30
0.0
 10
84.4844811425518
 20
32.03599397753708
 30
0.0
 10
84.59141315017993
 20
32.1448305924313
 30
0.0
 10
84.6451665166274
 20
32.1741541981218
 30
0.0
 10
84.75334556805109
 20
32.1740894163762
 30
0.0
 10
84.80817426463916
 20
32.14393322304986
 30
0.0
 10
84.91508124729901
 20
32.03434802168414
 30
0.0
 10
84.96750276227132
 20
31.95580504788197
 30
0.0
 10
85.01924002767348
 20
31.86151444335071
 30
0.0
  0
SPLINE
  5
3F8
330
1F
100
AcDbEntity
  8
0
  6
Continuous
 62
     7
370
    25
100
AcDbSpline
210
0.0
220
0.0
230
1.0
 70
     8
 71
     3
 72
    12
 73
     8
 74
     0
 42
0.000000001
 43
0.00000001
 40
0.0
 40
0.0
 40
0.0
 40
0.0
 40
0.5000000000000093
 40
0.5000000000000093
 40
0.7500000000000047
 40
0.7500000000000047
 40
1.0
 40
1.0
 40
1.0
 40
1.0
 10
80.60320004013704
 20
31.86151444335169
 30
0.0
 10
80.09119388843217
 20
32.05200873277522
 30
0.0
 10
79.5715163421638
 20
32.1736831458376
 30
0.0
 10
78.77172848460128
 20
32.17433933636882
 30
0.0
 10
78.5054045377533
 20
32.14450533457443
 30
0.0
 10
77.98224703475188
 20
32.03557546446684
 30
0.0
 10
77.72378240360351
 20
31.95688027740397
 30
0.0
 10
77.46746031728152
 20
31.86151444335121
 30
0.0
  0
SPLINE
  5
3F9
330
1F
100
AcDbEntity
  8
0
  6
Continuous
 62
     7
370
    25
100
AcDbSpline
210
0.0
220
0.0
230
1.0
 70
     8
 71
     3
 72
     9
 73
     5
 74
     0
 42
0.000000001
 43
0.00000001
 40
0.0
 40
0.0
 40
0.0
 40
0.0
 40
0.3722348086954393
 40
1.0
 40
1.0
 40
1.0
 40
1.0
 10
77.46746031728152
 20
31.86151444335072
 30
0.0
 10
77.49542655095325
 20
31.9134387521243
 30
0.0
 10
77.57055717554418
 20
32.05293217821081
 30
0.0
 10
77.64910103370082
 20
32.06094090431592
 30
0.0
 10
77.69840813384232
 20
32.06596850379141
 30
0.0
  0
LINE
  5
3FA
330
1F
100
AcDbEntity
  8
0
  6
Continuous
 62
     7
370
    25
100
AcDbLine
 10
84.3933501725
 20
32.3761944287
 30
0.0
 11
78.0933501725
 21
32.3761944287
 31
0.0
  0
LINE
  5
3FB
330
1F
100
AcDbEntity
  8
0
  6
Continuous
 62
     7
370
    25
100
AcDbLine
 10
77.4674603173
 20
31.8615144434
 30
0.0
 11
77.4674603173
 21
29.6908744141
 31
0.0
  0
LINE
  5
3FC
330
1F
100
AcDbEntity
  8
0
  6
Continuous
 62
     7
370
    25
100
AcDbLine
 10
85.0192400277
 20
31.8615144434
 30
0.0
 11
85.0192400277
 21
29.6908744141
 31
0.0
  0
LINE
  5
3FD
330
1F
100
AcDbEntity
  8
0
  6
Continuous
 62
     7
370
    25
100
AcDbLine
 10
764.2433501725
 20
26.4761944287
 30
0.0
 11
765.164280405
 21
16.5761944287
 31
0.0
  0
LINE
  5
3FE
330
1F
100
AcDbEntity
  8
0
  6
Continuous
 62
     7
370
    25
100
AcDbLine
 10
60.3224199399
 20
16.5761944287
 30
0.0
 11
61.2433501725
 21
26.4761944287
 31
0.0
  0
LINE
  5
3FF
330
1F
100
AcDbEntity
  8
0
  6
Continuous
 62
     7
370
    25
100
AcDbLine
 10
61.2433501725
 20
28.2761944287
 30
0.0
 11
764.2433501725
 21
28.2761944287
 31
0.0
  0
LINE
  5
400
330
1F
100
AcDbEntity
  8
0
  6
Continuous
 62
     7
370
    25
100
AcDbLine
 10
764.2433501725
 20
28.2761944287
 30
0.0
 11
764.2433501725
 21
26.4761944287
 31
0.0
  0
LINE
  5
401
330
1F
100
AcDbEntity
  8
0
  6
Continuous
 62
     7
370
    25
100
AcDbLine
 10
61.2433501725
 20
26.4761944287
 30
0.0
 11
61.2433501725
 21
28.2761944287
 31
0.0
  0
LINE
  5
402
330
1F
100
AcDbEntity
  8
0
  6
Continuous
 62
     7
370
    25
100
AcDbLine
 10
60.2433501725
 20
15.7261944287
 30
0.0
 11
60.3224199399
 21
16.5761944287
 31
0.0
  0
LINE
  5
403
330
1F
100
AcDbEntity
  8
0
  6
Continuous
 62
     7
370
    25
100
AcDbLine
 10
765.164280405
 20
16.5761944287
 30
0.0
 11
765.2433501725
 21
15.7261944287
 31
0.0
  0
LINE
  5
404
330
1F
100
AcDbEntity
  8
0
  6
Continuous
 62
     7
370
    25
100
AcDbLine
 10
743.9265580143
 20
37.4761944287
 30
0.0
 11
746.2433501725
 21
37.4761944287
 31
0.0
  0
LINE
  5
405
330
1F
100
AcDbEntity
  8
0
  6
Continuous
 62
     7
370
    25
100
AcDbLine
 10
742.2433501725
 20
37.4761944287
 30
0.0
 11
743.9265580143
 21
37.4761944287
 31
0.0
  0
LINE
  5
406
330
1F
100
AcDbEntity
  8
0
  6
Continuous
 62
     7
370
    25
100
AcDbLine
 10
300.9265580143
 20
37.4761944287
 30
0.0
 11
303.2433501725
 21
37.4761944287
 31
0.0
  0
LINE
  5
407
330
1F
100
AcDbEntity
  8
0
  6
Continuous
 62
     7
370
    25
100
AcDbLine
 10
299.2433501725
 20
37.4761944287
 30
0.0
 11
300.9265580143
 21
37.4761944287
 31
0.0
  0
LINE
  5
408
330
1F
100
AcDbEntity
  8
0
  6
Continuous
 62
     7
370
    25
100
AcDbLine
 10
523.9265580143
 20
37.4761944287
 30
0.0
 11
526.2433501725
 21
37.4761944287
 31
0.0
  0
LINE
  5
409
330
1F
100
AcDbEntity
  8
0
  6
Continuous
 62
     7
370
    25
100
AcDbLine
 10
522.2433501725
 20
37.4761944287
 30
0.0
 11
523.9265580143
 21
37.4761944287
 31
0.0
  0
LINE
  5
40A
330
1F
100
AcDbEntity
  8
0
  6
Continuous
 62
     7
370
    25
100
AcDbLine
 10
80.9265580143
 20
37.4761944287
 30
0.0
 11
83.2433501725
 21
37.4761944287
 31
0.0
  0
LINE
  5
40B
330
1F
100
AcDbEntity
  8
0
  6
Continuous
 62
     7
370
    25
100
AcDbLine
 10
79.2433501725
 20
37.4761944287
 30
0.0
 11
80.9265580143
 21
37.4761944287
 31
0.0
  0
LINE
  5
40C
330
1F
100
AcDbEntity
  8
0
  6
Continuous
 62
     7
370
    25
100
AcDbLine
 10
765.7433501725
 20
48.6761944287
 30
0.0
 11
766.7433501725
 21
48.6761944287
 31
0.0
  0
LINE
  5
40D
330
1F
100
AcDbEntity
  8
0
  6
Continuous
 62
     7
370
    25
100
AcDbLine
 10
766.7433501725
 20
48.6761944287
 30
0.0
 11
766.7433501725
 21
46.6761944287
 31
0.0
  0
LINE
  5
40E
330
1F
100
AcDbEntity
  8
0
  6
Continuous
 62
     7
370
    25
100
AcDbLine
 10
764.7433501725
 20
30.2761944287
 30
0.0
 11
764.7433501725
 21
21.1011944287
 31
0.0
  0
LINE
  5
40F
330
1F
100
AcDbEntity
  8
0
  6
Continuous
 62
     7
370
    25
100
AcDbLine
 10
766.7433501725
 20
46.6761944287
 30
0.0
 11
766.7433501725
 21
43.7761944287
 31
0.0
  0
LINE
  5
410
330
1F
100
AcDbEntity
  8
0
  6
Continuous
 62
     7
370
    25
100
AcDbLine
 10
766.7433501725
 20
37.7761944287
 30
0.0
 11
766.7433501725
 21
17.6761944287
 31
0.0
  0
LINE
  5
411
330
1F
100
AcDbEntity
  8
0
  6
Continuous
 62
     7
370
    25
100
AcDbLine
 10
766.7416830426
 20
17.5761944287
 30
0.0
 11
766.7433501725
 21
17.6761944287
 31
0.0
  0
LINE
  5
412
330
1F
100
AcDbEntity
  8
0
  6
Continuous
 62
     7
370
    25
100
AcDbLine
 10
766.8036575517
 20
48.6761944287
 30
0.0
 11
766.7433501725
 21
48.6761944287
 31
0.0
  0
LINE
  5
413
330
1F
100
AcDbEntity
  8
0
  6
Continuous
 62
     7
370
    25
100
AcDbLine
 10
766.7433501725
 20
32.6761944287
 30
0.0
 11
766.8036575517
 21
32.6761944287
 31
0.0
  0
LWPOLYLINE
  5
414
330
1F
100
AcDbEntity
  8
0
  6
Continuous
 62
     7
370
    25
100
AcDbPolyline
 90
        9
 70
   128
 43
0.0
 10
769.3588965607
 20
46.6761944287
 10
769.3457529184
 20
47.0663750728
 10
769.3068270943
 20
47.4415612935
 10
769.2436149859
 20
47.7873348948
 10
769.1585457993
 20
48.0904079911
 10
769.0548886955
 20
48.3391336533
 10
768.9366271588
 20
48.5239534938
 10
768.8083059138
 20
48.6377649895
 10
768.674856274
 20
48.6761944287
  0
LINE
  5
415
330
1F
100
AcDbEntity
  8
0
  6
Continuous
 62
     7
370
    25
100
AcDbLine
 10
769.3588965607
 20
46.6761944287
 30
0.0
 11
769.3588965607
 21
43.7761944287
 31
0.0
  0
LINE
  5
416
330
1F
100
AcDbEntity
  8
0
  6
Continuous
 62
     7
370
    25
100
AcDbLine
 10
769.3588965607
 20
37.7761944287
 30
0.0
 11
769.3588965607
 21
34.6761944287
 31
0.0
  0
LWPOLYLINE
  5
417
330
1F
100
AcDbEntity
  8
0
  6
Continuous
 62
     7
370
    25
100
AcDbPolyline
 90
        9
 70
   128
 43
0.0
 10
768.674856274
 20
32.6761944287
 10
768.8083059138
 20
32.7146238679
 10
768.9366271588
 20
32.8284353637
 10
769.0548886955
 20
33.0132552041
 10
769.1585457993
 20
33.2619808664
 10
769.2436149859
 20
33.5650539627
 10
769.3068270943
 20
33.910827564
 10
769.3457529184
 20
34.2860137847
 10
769.3588965607
 20
34.6761944287
  0
LINE
  5
418
330
1F
100
AcDbEntity
  8
0
  6
Continuous
 62
     7
370
    25
100
AcDbLine
 10
768.674856274
 20
32.6761944287
 30
0.0
 11
766.8036575517
 21
32.6761944287
 31
0.0
  0
LINE
  5
419
330
1F
100
AcDbEntity
  8
0
  6
Continuous
 62
     7
370
    25
100
AcDbLine
 10
766.8036575517
 20
48.6761944287
 30
0.0
 11
768.674856274
 21
48.6761944287
 31
0.0
  0
LINE
  5
41A
330
1F
100
AcDbEntity
  8
0
  6
Continuous
 62
     7
370
    25
100
AcDbLine
 10
58.7433501725
 20
48.6761944287
 30
0.0
 11
59.7433501725
 21
48.6761944287
 31
0.0
  0
LINE
  5
41B
330
1F
100
AcDbEntity
  8
0
  6
Continuous
 62
     7
370
    25
100
AcDbLine
 10
58.7433501725
 20
46.6761944287
 30
0.0
 11
58.7433501725
 21
48.6761944287
 31
0.0
  0
LINE
  5
41C
330
1F
100
AcDbEntity
  8
0
  6
Continuous
 62
     7
370
    25
100
AcDbLine
 10
60.7433501725
 20
21.1011944287
 30
0.0
 11
60.7433501725
 21
30.2761944287
 31
0.0
  0
LINE
  5
41D
330
1F
100
AcDbEntity
  8
0
  6
Continuous
 62
     7
370
    25
100
AcDbLine
 10
58.7433501725
 20
17.6761944287
 30
0.0
 11
58.7433501725
 21
37.7761944287
 31
0.0
  0
LINE
  5
41E
330
1F
100
AcDbEntity
  8
0
  6
Continuous
 62
     7
370
    25
100
AcDbLine
 10
58.7433501725
 20
43.7761944287
 30
0.0
 11
58.7433501725
 21
46.6761944287
 31
0.0
  0
LINE
  5
41F
330
1F
100
AcDbEntity
  8
0
  6
Continuous
 62
     7
370
    25
100
AcDbLine
 10
58.7433501725
 20
17.6761944287
 30
0.0
 11
58.7450173024
 21
17.5761944287
 31
0.0
  0
LINE
  5
420
330
1F
100
AcDbEntity
  8
0
  6
Continuous
 62
     7
370
    25
100
AcDbLine
 10
58.6830427933
 20
32.6761944287
 30
0.0
 11
58.7433501725
 21
32.6761944287
 31
0.0
  0
LINE
  5
421
330
1F
100
AcDbEntity
  8
0
  6
Continuous
 62
     7
370
    25
100
AcDbLine
 10
58.7433501725
 20
48.6761944287
 30
0.0
 11
58.6830427933
 21
48.6761944287
 31
0.0
  0
LWPOLYLINE
  5
422
330
1F
100
AcDbEntity
  8
0
  6
Continuous
 62
     7
370
    25
100
AcDbPolyline
 90
        9
 70
   128
 43
0.0
 10
56.811844071
 20
48.6761944287
 10
56.6783944312
 20
48.6377649895
 10
56.5500731862
 20
48.5239534938
 10
56.4318116495
 20
48.3391336533
 10
56.3281545457
 20
48.0904079911
 10
56.243085359
 20
47.7873348948
 10
56.1798732507
 20
47.4415612935
 10
56.1409474266
 20
47.0663750728
 10
56.1278037843
 20
46.6761944287
  0
LINE
  5
423
330
1F
100
AcDbEntity
  8
0
  6
Continuous
 62
     7
370
    25
100
AcDbLine
 10
56.811844071
 20
48.6761944287
 30
0.0
 11
58.6830427933
 21
48.6761944287
 31
0.0
  0
LINE
  5
424
330
1F
100
AcDbEntity
  8
0
  6
Continuous
 62
     7
370
    25
100
AcDbLine
 10
58.6830427933
 20
32.6761944287
 30
0.0
 11
56.811844071
 21
32.6761944287
 31
0.0
  0
LWPOLYLINE
  5
425
330
1F
100
AcDbEntity
  8
0
  6
Continuous
 62
     7
370
    25
100
AcDbPolyline
 90
        9
 70
   128
 43
0.0
 10
56.1278037843
 20
34.6761944287
 10
56.1409474266
 20
34.2860137847
 10
56.1798732507
 20
33.910827564
 10
56.243085359
 20
33.5650539627
 10
56.3281545457
 20
33.2619808664
 10
56.4318116495
 20
33.0132552041
 10
56.5500731862
 20
32.8284353637
 10
56.6783944312
 20
32.7146238679
 10
56.811844071
 20
32.6761944287
  0
LINE
  5
426
330
1F
100
AcDbEntity
  8
0
  6
Continuous
 62
     7
370
    25
100
AcDbLine
 10
56.1278037843
 20
34.6761944287
 30
0.0
 11
56.1278037843
 21
37.7761944287
 31
0.0
  0
LINE
  5
427
330
1F
100
AcDbEntity
  8
0
  6
Continuous
 62
     7
370
    25
100
AcDbLine
 10
56.1278037843
 20
43.7761944287
 30
0.0
 11
56.1278037843
 21
46.6761944287
 31
0.0
  0
SPLINE
  5
428
330
1F
100
AcDbEntity
  8
0
  6
Continuous
 62
     7
370
    25
100
AcDbSpline
210
0.0
220
0.0
230
1.0
 70
    24
 71
     3
 72
     9
 73
     5
 74
     0
 42
0.000000001
 43
0.00000001
 40
0.0
 40
0.0
 40
0.0
 40
0.0
 40
0.7059102712393301
 40
1.0
 40
1.0
 40
1.0
 40
1.0
 10
60.54335017247753
 20
46.54944323812703
 30
0.0
 10
60.54335017247753
 20
46.55969600742358
 30
0.0
 10
60.54335017247747
 20
46.57422018948222
 30
0.0
 10
60.54335017247758
 20
46.47916823287377
 30
0.0
 10
60.54335017247753
 20
46.45121442873663
 30
0.0
  0
SPLINE
  5
429
330
1F
100
AcDbEntity
  8
0
  6
Continuous
 62
     7
370
    25
100
AcDbSpline
210
0.0
220
0.0
230
1.0
 70
    24
 71
     3
 72
    12
 73
     8
 74
     0
 42
0.000000001
 43
0.00000001
 40
0.0
 40
0.0
 40
0.0
 40
0.0
 40
0.3344405486782614
 40
0.5144757571369826
 40
0.6983315710265336
 40
0.8821873849160836
 40
1.0
 40
1.0
 40
1.0
 40
1.0
 10
61.54335017247753
 20
43.28250173379354
 30
0.0
 10
61.54335017247753
 20
43.90664726929541
 30
0.0
 10
61.54335017247747
 20
44.86678128477298
 30
0.0
 10
61.54335017247753
 20
45.77469219106825
 30
0.0
 10
61.54335017247759
 20
46.28040952898441
 30
0.0
 10
61.54335017247747
 20
46.55202926312261
 30
0.0
 10
61.54335017247764
 20
46.55016953166285
 30
0.0
 10
61.54335017247753
 20
46.54944323813798
 30
0.0
  0
SPLINE
  5
42A
330
1F
100
AcDbEntity
  8
0
  6
Continuous
 62
     7
370
    25
100
AcDbSpline
210
0.0
220
0.0
230
1.0
 70
    24
 71
     3
 72
    15
 73
    11
 74
     0
 42
0.000000001
 43
0.00000001
 40
0.0
 40
0.0
 40
0.0
 40
0.0
 40
0.034696749791865
 40
0.2211884951269639
 40
0.4076802404620634
 40
0.5080720152630783
 40
0.6105942475634819
 40
0.7131164798638856
 40
0.8135082546649003
 40
1.0
 40
1.0
 40
1.0
 40
1.0
 10
61.54335017247753
 20
35.00294561933225
 30
0.0
 10
61.54335017247753
 20
34.99622451570084
 30
0.0
 10
61.54335017247747
 20
34.95337811634805
 30
0.0
 10
61.54335017247747
 20
35.44141907910653
 30
0.0
 10
61.54335017247775
 20
36.53733013657509
 30
0.0
 10
61.54335017247742
 20
37.75622726902258
 30
0.0
 10
61.54335017247753
 20
38.83640249687954
 30
0.0
 10
61.54335017247753
 20
39.99687939934523
 30
0.0
 10
61.54335017247759
 20
41.52745429446034
 30
0.0
 10
61.54335017247747
 20
42.59108018311042
 30
0.0
 10
61.54335017247753
 20
43.28250173379354
 30
0.0
  0
SPLINE
  5
42B
330
1F
100
AcDbEntity
  8
0
  6
Continuous
 62
     7
370
    25
100
AcDbSpline
210
0.0
220
0.0
230
1.0
 70
     8
 71
     3
 72
     8
 73
     4
 74
     0
 42
0.000000001
 43
0.00000001
 40
0.0
 40
0.0
 40
0.0
 40
0.0
 40
1.0
 40
1.0
 40
1.0
 40
1.0
 10
65.54335017247054
 20
40.39279940104865
 30
0.0
 10
65.54335017247054
 20
41.37517784562143
 30
0.0
 10
65.36903487209112
 20
42.33066901381116
 30
0.0
 10
65.09676818507914
 20
43.27105166313873
 30
0.0
  0
SPLINE
  5
42C
330
1F
100
AcDbEntity
  8
0
  6
Continuous
 62
     7
370
    25
100
AcDbSpline
210
0.0
220
0.0
230
1.0
 70
     8
 71
     3
 72
     8
 73
     4
 74
     0
 42
0.000000001
 43
0.00000001
 40
0.0
 40
0.0
 40
0.0
 40
0.0
 40
1.0
 40
1.0
 40
1.0
 40
1.0
 10
65.0967681850792
 20
37.51454713895866
 30
0.0
 10
65.36903487209061
 20
38.45492978828446
 30
0.0
 10
65.54335017247054
 20
39.41042095647773
 30
0.0
 10
65.54335017247054
 20
40.39279940104865
 30
0.0
  0
LINE
  5
42D
330
1F
100
AcDbEntity
  8
0
  6
Continuous
 62
     7
370
    25
100
AcDbLine
 10
61.5433501725
 20
37.514547139
 30
0.0
 11
65.0967681851
 21
37.514547139
 31
0.0
  0
LINE
  5
42E
330
1F
100
AcDbEntity
  8
0
  6
Continuous
 62
     7
370
    25
100
AcDbLine
 10
61.5433501725
 20
43.2710516631
 30
0.0
 11
65.0967681851
 21
43.2710516631
 31
0.0
  0
LINE
  5
42F
330
1F
100
AcDbEntity
  8
0
  6
Continuous
 62
     7
370
    25
100
AcDbLine
 10
65.5433501725
 20
40.392799401
 30
0.0
 11
65.5433501725
 21
44.901875308
 31
0.0
  0
SPLINE
  5
430
330
1F
100
AcDbEntity
  8
0
  6
Continuous
 62
     7
370
    25
100
AcDbSpline
210
0.0
220
0.0
230
1.0
 70
     8
 71
     3
 72
     8
 73
     4
 74
     0
 42
0.000000001
 43
0.00000001
 40
0.0
 40
0.0
 40
0.0
 40
0.0
 40
1.0
 40
1.0
 40
1.0
 40
1.0
 10
65.09676818507903
 20
43.27105166314485
 30
0.0
 10
65.36903487209045
 20
43.80387440420969
 30
0.0
 10
65.54335017247037
 20
44.34525766310428
 30
0.0
 10
65.54335017247037
 20
44.90187530803273
 30
0.0
  0
LINE
  5
431
330
1F
100
AcDbEntity
  8
0
  6
Continuous
 62
     7
370
    25
100
AcDbLine
 10
65.5433501725
 20
36.2671185218
 30
0.0
 11
65.5433501725
 21
40.392799401
 31
0.0
  0
SPLINE
  5
432
330
1F
100
AcDbEntity
  8
0
  6
Continuous
 62
     7
370
    25
100
AcDbSpline
210
0.0
220
0.0
230
1.0
 70
     8
 71
     3
 72
     8
 73
     4
 74
     0
 42
0.000000001
 43
0.00000001
 40
0.0
 40
0.0
 40
0.0
 40
0.0
 40
1.0
 40
1.0
 40
1.0
 40
1.0
 10
65.54335017247037
 20
36.26711852175113
 30
0.0
 10
65.54335017247037
 20
36.69287932139435
 30
0.0
 10
65.36903487209095
 20
37.1069872306914
 30
0.0
 10
65.09676818507909
 20
37.51454713895308
 30
0.0
  0
SPLINE
  5
433
330
1F
100
AcDbEntity
  8
0
  6
Continuous
 62
     7
370
    25
100
AcDbSpline
210
0.0
220
0.0
230
1.0
 70
     8
 71
     3
 72
     8
 73
     4
 74
     0
 42
0.000000001
 43
0.00000001
 40
0.0
 40
0.0
 40
0.0
 40
0.0
 40
1.0
 40
1.0
 40
1.0
 40
1.0
 10
65.54335017247037
 20
44.90187530803273
 30
0.0
 10
65.54335017247037
 20
45.45849295296217
 30
0.0
 10
65.36903487209095
 20
45.9998762118548
 30
0.0
 10
65.09676818507903
 20
46.5326989529206
 30
0.0
  0
LINE
  5
434
330
1F
100
AcDbEntity
  8
0
  6
Continuous
 62
     7
370
    25
100
AcDbLine
 10
61.5433501725
 20
46.5326989529
 30
0.0
 11
65.0967681851
 21
46.5326989529
 31
0.0
  0
SPLINE
  5
435
330
1F
100
AcDbEntity
  8
0
  6
Continuous
 62
     7
370
    25
100
AcDbSpline
210
0.0
220
0.0
230
1.0
 70
     8
 71
     3
 72
     8
 73
     4
 74
     0
 42
0.000000001
 43
0.00000001
 40
0.0
 40
0.0
 40
0.0
 40
0.0
 40
1.0
 40
1.0
 40
1.0
 40
1.0
 10
65.09676818507909
 20
35.01968990454914
 30
0.0
 10
65.36903487209057
 20
35.4272498128102
 30
0.0
 10
65.54335017247037
 20
35.84135772210854
 30
0.0
 10
65.54335017247037
 20
36.26711852175113
 30
0.0
  0
LINE
  5
436
330
1F
100
AcDbEntity
  8
0
  6
Continuous
 62
     7
370
    25
100
AcDbLine
 10
65.0967681851
 20
35.0196899045
 30
0.0
 11
61.5433501725
 21
35.0196899045
 31
0.0
  0
LINE
  5
437
330
1F
100
AcDbEntity
  8
0
  6
Continuous
 62
     7
370
    25
100
AcDbLine
 10
51.0846001725
 20
38.0707488845
 30
0.0
 11
51.0846001725
 21
37.7761944287
 31
0.0
  0
LINE
  5
438
330
1F
100
AcDbEntity
  8
0
  6
Continuous
 62
     7
370
    25
100
AcDbLine
 10
51.0846001725
 20
43.7761944287
 30
0.0
 11
51.0846001725
 21
38.0707488845
 31
0.0
  0
LINE
  5
439
330
1F
100
AcDbEntity
  8
0
  6
Continuous
 62
     7
370
    25
100
AcDbLine
 10
50.5433501725
 20
43.2349444288
 30
0.0
 11
50.5433501725
 21
38.3174444287
 31
0.0
  0
LINE
  5
43A
330
1F
100
AcDbEntity
  8
0
  6
Continuous
 62
     7
370
    25
100
AcDbLine
 10
65.0967681851
 20
46.5326989529
 30
0.0
 11
65.1719559406
 21
46.3226784851
 31
0.0
  0
LINE
  5
43B
330
1F
100
AcDbEntity
  8
0
  6
Continuous
 62
     7
370
    25
100
AcDbLine
 10
65.5433501725
 20
44.901875308
 30
0.0
 11
65.5433501725
 21
45.7761944287
 31
0.0
  0
LINE
  5
43C
330
1F
100
AcDbEntity
  8
0
  6
Continuous
 62
     7
370
    25
100
AcDbLine
 10
65.5433501725
 20
35.7761944287
 30
0.0
 11
65.5433501725
 21
36.2671185218
 31
0.0
  0
ARC
  5
43D
330
1F
100
AcDbEntity
  8
0
  6
Continuous
 62
     7
370
    25
100
AcDbCircle
 10
52.2433501725
 20
11.5761944287
 30
0.0
 40
6.000000000000014
100
AcDbArc
 50
90.0
 51
143.1301023541
  0
ARC
  5
43E
330
1F
100
AcDbEntity
  8
0
  6
Continuous
 62
     7
370
    25
100
AcDbCircle
 10
773.2433501725
 20
11.5761944287
 30
0.0
 40
6.000000000000083
100
AcDbArc
 50
36.8698976459
 51
90.0
  0
LINE
  5
43F
330
1F
100
AcDbEntity
  8
0
  6
Continuous
 62
     7
370
    25
100
AcDbLine
 10
-85.2902848049
 20
397.6075204992
 30
0.0
 11
-85.6532225832
 21
396.9788938271
 31
0.0
  0
LINE
  5
440
330
1F
100
AcDbEntity
  8
0
  6
Continuous
 62
     7
370
    25
100
AcDbLine
 10
-85.6532225832
 20
390.6788938271
 30
0.0
 11
-85.2902848049
 21
390.050267155
 31
0.0
  0
LINE
  5
441
330
1F
100
AcDbEntity
  8
0
  6
Continuous
 62
     7
370
    25
100
AcDbLine
 10
-87.3532225832
 20
397.8288938271
 30
0.0
 11
-89.3532225832
 21
397.8288938271
 31
0.0
  0
LINE
  5
442
330
1F
100
AcDbEntity
  8
0
  6
Continuous
 62
     7
370
    25
100
AcDbLine
 10
-89.3532225832
 20
389.8288938271
 30
0.0
 11
-87.3532225832
 21
389.8288938271
 31
0.0
  0
ARC
  5
443
330
1F
100
AcDbEntity
  8
0
  6
Continuous
 62
     7
370
    25
100
AcDbCircle
 10
-82.425019353
 20
393.8288938271
 30
0.0
 40
8.000000000000004
100
AcDbArc
 50
195.2747479997
 51
210.0
  0
ARC
  5
444
330
1F
100
AcDbEntity
  8
0
  6
Continuous
 62
     7
370
    25
100
AcDbCircle
 10
-82.425019353
 20
393.8288938271
 30
0.0
 40
8.000000000000004
100
AcDbArc
 50
150.0
 51
164.7252520003
  0
LINE
  5
445
330
1F
100
AcDbEntity
  8
0
  6
Continuous
 62
     7
370
    25
100
AcDbLine
 10
-85.6532225832
 20
395.8288938271
 30
0.0
 11
-85.7532225832
 21
395.8288938271
 31
0.0
  0
LINE
  5
446
330
1F
100
AcDbEntity
  8
0
  6
Continuous
 62
     7
370
    25
100
AcDbLine
 10
-85.7532225832
 20
391.8288938271
 30
0.0
 11
-85.6532225832
 21
391.8288938271
 31
0.0
  0
CIRCLE
  5
447
330
1F
100
AcDbEntity
  8
0
  6
Continuous
 62
     7
370
    25
100
AcDbCircle
 10
-74.0532225832
 20
192.8288938271
 30
0.0
 40
2.458750000016589
  0
CIRCLE
  5
448
330
1F
100
AcDbEntity
  8
0
  6
Continuous
 62
     7
370
    25
100
AcDbCircle
 10
-74.0532225832
 20
192.8288938271
 30
0.0
 40
2.999999999999997
  0
CIRCLE
  5
449
330
1F
100
AcDbEntity
  8
0
  6
Continuous
 62
     7
370
    25
100
AcDbCircle
 10
-74.0532225832
 20
418.8288938271
 30
0.0
 40
2.458750000016638
  0
CIRCLE
  5
44A
330
1F
100
AcDbEntity
  8
0
  6
Continuous
 62
     7
370
    25
100
AcDbCircle
 10
-74.0532225832
 20
418.8288938271
 30
0.0
 40
2.999999999999968
  0
LINE
  5
44B
330
1F
100
AcDbEntity
  8
0
  6
Continuous
 62
     7
370
    25
100
AcDbLine
 10
-92.6532225832
 20
146.2996045052
 30
0.0
 11
-92.6532225832
 21
389.358183149
 31
0.0
  0
LINE
  5
44C
330
1F
100
AcDbEntity
  8
0
  6
Continuous
 62
     7
370
    25
100
AcDbLine
 10
-102.2532225832
 20
146.2996045052
 30
0.0
 11
-92.6532225832
 21
146.2996045052
 31
0.0
  0
LINE
  5
44D
330
1F
100
AcDbEntity
  8
0
  6
Continuous
 62
     7
370
    25
100
AcDbLine
 10
-102.2532225832
 20
389.358183149
 30
0.0
 11
-92.6532225832
 21
389.358183149
 31
0.0
  0
SPLINE
  5
44E
330
1F
100
AcDbEntity
  8
0
  6
Continuous
 62
     7
370
    25
100
AcDbSpline
210
0.0
220
0.0
230
1.0
 70
     8
 71
     3
 72
    20
 73
    16
 74
     0
 42
0.000000001
 43
0.00000001
 40
0.0
 40
0.0
 40
0.0
 40
0.0
 40
0.1250000000000097
 40
0.1250000000000097
 40
0.2500000000000194
 40
0.2500000000000194
 40
0.3750000000000291
 40
0.3750000000000291
 40
0.5000000000000387
 40
0.5000000000000387
 40
0.7500000000000285
 40
0.7500000000000285
 40
0.8750000000000143
 40
0.8750000000000143
 40
1.0
 40
1.0
 40
1.0
 40
1.0
 10
-104.6532225832433
 20
388.4288938270932
 30
0.0
 10
-104.6532225832433
 20
388.4679345579477
 30
0.0
 10
-104.6376860227684
 20
388.5064532621475
 30
0.0
 10
-104.5763676708078
 20
388.5838600134554
 30
0.0
 10
-104.529943925221
 20
388.623004431442
 30
0.0
 10
-104.4099930550669
 20
388.7001551853573
 30
0.0
 10
-104.3363884107834
 20
388.7384827670983
 30
0.0
 10
-104.1616580446878
 20
388.8160290875749
 30
0.0
 10
-104.0608074157863
 20
388.8550052952436
 30
0.0
 10
-103.7295221358023
 20
388.9705001516886
 30
0.0
 10
-103.4618419744184
 20
389.0484125953587
 30
0.0
 10
-103.029167948363
 20
389.1638925207595
 30
0.0
 10
-102.8776498615119
 20
389.2027583166246
 30
0.0
 10
-102.5682241041258
 20
389.2805326502931
 30
0.0
 10
-102.411601774432
 20
389.3191424172479
 30
0.0
 10
-102.2532225832433
 20
389.3581831489745
 30
0.0
  0
SPLINE
  5
44F
330
1F
100
AcDbEntity
  8
0
  6
Continuous
 62
     7
370
    25
100
AcDbSpline
210
0.0
220
0.0
230
1.0
 70
     8
 71
     3
 72
    20
 73
    16
 74
     0
 42
0.000000001
 43
0.00000001
 40
0.0
 40
0.0
 40
0.0
 40
0.0
 40
0.1249999999999993
 40
0.1249999999999993
 40
0.2499999999999987
 40
0.2499999999999987
 40
0.374999999999998
 40
0.374999999999998
 40
0.4999999999999973
 40
0.4999999999999973
 40
0.7499999999999987
 40
0.7499999999999987
 40
0.8749999999999993
 40
0.8749999999999993
 40
1.0
 40
1.0
 40
1.0
 40
1.0
 10
-102.2532225832433
 20
146.2996045052119
 30
0.0
 10
-102.411601770894
 20
146.3386452360664
 30
0.0
 10
-102.5678474955856
 20
146.3771639402662
 30
0.0
 10
-102.8758393450023
 20
146.4545706915741
 30
0.0
 10
-103.0284834524734
 20
146.4937151095608
 30
0.0
 10
-103.3175677416605
 20
146.570865863476
 30
0.0
 10
-103.4553722798445
 20
146.609193445217
 30
0.0
 10
-103.7169909554834
 20
146.6867397656936
 30
0.0
 10
-103.8397372621661
 20
146.7257159733623
 30
0.0
 10
-104.1710616391137
 20
146.8412108298073
 30
0.0
 10
-104.350072763142
 20
146.9191232734774
 30
0.0
 10
-104.5296878625229
 20
147.0346031988782
 30
0.0
 10
-104.5759322113906
 20
147.0734689947433
 30
0.0
 10
-104.6376855174018
 20
147.1512433284118
 30
0.0
 10
-104.6532225832433
 20
147.1898530953666
 30
0.0
 10
-104.6532225832433
 20
147.2288938270933
 30
0.0
  0
LINE
  5
450
330
1F
100
AcDbEntity
  8
0
  6
Continuous
 62
     7
370
    25
100
AcDbLine
 10
-104.6532225832
 20
147.2288938271
 30
0.0
 11
-104.6532225832
 21
388.4288938271
 31
0.0
  0
LINE
  5
451
330
1F
100
AcDbEntity
  8
0
  6
Continuous
 62
     7
370
    25
100
AcDbLine
 10
-102.2532225832
 20
390.8288938271
 30
0.0
 11
-102.2532225832
 21
389.4288938271
 31
0.0
  0
SPLINE
  5
452
330
1F
100
AcDbEntity
  8
0
  6
Continuous
 62
     7
370
    25
100
AcDbSpline
210
0.0
220
0.0
230
1.0
 70
     8
 71
     3
 72
     9
 73
     5
 74
     0
 42
0.000000001
 43
0.00000001
 40
0.0
 40
0.0
 40
0.0
 40
0.0
 40
0.7584558214378443
 40
0.9999999999999999
 40
0.9999999999999999
 40
0.9999999999999999
 40
0.9999999999999999
 10
-102.2532225832433
 20
389.4288938270931
 30
0.0
 10
-102.4049303611796
 20
389.4178392912596
 30
0.0
 10
-102.6049522657496
 20
389.4032642355728
 30
0.0
 10
-102.7555063571411
 20
389.2801678519731
 30
0.0
 10
-102.7918718214754
 20
389.2504346371125
 30
0.0
  0
SPLINE
  5
453
330
1F
100
AcDbEntity
  8
0
  6
Continuous
 62
     7
370
    25
100
AcDbSpline
210
0.0
220
0.0
230
1.0
 70
     8
 71
     3
 72
    20
 73
    16
 74
     0
 42
0.000000001
 43
0.00000001
 40
0.0
 40
0.0
 40
0.0
 40
0.0
 40
0.1249999999999988
 40
0.1249999999999988
 40
0.2499999999999977
 40
0.2499999999999977
 40
0.3749999999999965
 40
0.3749999999999965
 40
0.4999999999999953
 40
0.4999999999999953
 40
0.7499999999999928
 40
0.7499999999999928
 40
0.8749999999999963
 40
0.8749999999999963
 40
1.0
 40
1.0
 40
1.0
 40
1.0
 10
-102.2532225832433
 20
390.8288938270931
 30
0.0
 10
-102.4116017708941
 20
390.8288938270931
 30
0.0
 10
-102.5678474955858
 20
390.8133572666182
 30
0.0
 10
-102.8758393450023
 20
390.7520389146575
 30
0.0
 10
-103.0284834524734
 20
390.7056151690708
 30
0.0
 10
-103.3175677416605
 20
390.5856642989167
 30
0.0
 10
-103.4553722798445
 20
390.5120596546333
 30
0.0
 10
-103.7169909554834
 20
390.3373292885377
 30
0.0
 10
-103.8397372621661
 20
390.2364786596361
 30
0.0
 10
-104.1710616391137
 20
389.9051933796522
 30
0.0
 10
-104.350072763142
 20
389.6375132182683
 30
0.0
 10
-104.5296878625228
 20
389.204839192213
 30
0.0
 10
-104.5759322113906
 20
389.0533211053618
 30
0.0
 10
-104.6376855174018
 20
388.7438953479758
 30
0.0
 10
-104.6532225832432
 20
388.587273018282
 30
0.0
 10
-104.6532225832432
 20
388.4288938270933
 30
0.0
  0
SPLINE
  5
454
330
1F
100
AcDbEntity
  8
0
  6
Continuous
 62
     7
370
    25
100
AcDbSpline
210
0.0
220
0.0
230
1.0
 70
     8
 71
     3
 72
    20
 73
    16
 74
     0
 42
0.000000001
 43
0.00000001
 40
0.0
 40
0.0
 40
0.0
 40
0.0
 40
0.1249999999999981
 40
0.1249999999999981
 40
0.2499999999999963
 40
0.2499999999999963
 40
0.3749999999999944
 40
0.3749999999999944
 40
0.4999999999999926
 40
0.4999999999999926
 40
0.7499999999999962
 40
0.7499999999999962
 40
0.8749999999999981
 40
0.8749999999999981
 40
1.0
 40
1.0
 40
1.0
 40
1.0
 10
-104.6532225832432
 20
147.2288938270933
 30
0.0
 10
-104.6532225832432
 20
147.0705146394426
 30
0.0
 10
-104.6376860227683
 20
146.9142689147509
 30
0.0
 10
-104.5763676708077
 20
146.6062770653343
 30
0.0
 10
-104.5299439252209
 20
146.4536329578631
 30
0.0
 10
-104.4099930550668
 20
146.1645486686761
 30
0.0
 10
-104.3363884107834
 20
146.026744130492
 30
0.0
 10
-104.1616580446878
 20
145.7651254548531
 30
0.0
 10
-104.0608074157862
 20
145.6423791481705
 30
0.0
 10
-103.7295221358023
 20
145.3110547712228
 30
0.0
 10
-103.4618419744184
 20
145.1320436471945
 30
0.0
 10
-103.029167948363
 20
144.9524285478136
 30
0.0
 10
-102.8776498615119
 20
144.9061841989458
 30
0.0
 10
-102.5682241041258
 20
144.8444308929346
 30
0.0
 10
-102.411601774432
 20
144.8288938270933
 30
0.0
 10
-102.2532225832433
 20
144.8288938270933
 30
0.0
  0
SPLINE
  5
455
330
1F
100
AcDbEntity
  8
0
  6
Continuous
 62
     7
370
    25
100
AcDbSpline
210
0.0
220
0.0
230
1.0
 70
     8
 71
     3
 72
     9
 73
     5
 74
     0
 42
0.000000001
 43
0.00000001
 40
0.0
 40
0.0
 40
0.0
 40
0.0
 40
0.4258694941519226
 40
1.0
 40
1.0
 40
1.0
 40
1.0
 10
-102.8096140102519
 20
146.4189723897703
 30
0.0
 10
-102.7392098336472
 20
146.3690507649258
 30
0.0
 10
-102.5738911677848
 20
146.2518279407275
 30
0.0
 10
-102.3701796055285
 20
146.2372585555659
 30
0.0
 10
-102.2532225832433
 20
146.2288938270932
 30
0.0
  0
LINE
  5
456
330
1F
100
AcDbEntity
  8
0
  6
Continuous
 62
     7
370
    25
100
AcDbLine
 10
-102.2532225832
 20
144.8288938271
 30
0.0
 11
-102.2532225832
 21
146.2288938271
 31
0.0
  0
LINE
  5
457
330
1F
100
AcDbEntity
  8
0
  6
Continuous
 62
     7
370
    25
100
AcDbLine
 10
-102.2532225832
 20
390.8288938271
 30
0.0
 11
-92.6532225832
 21
390.8288938271
 31
0.0
  0
LINE
  5
458
330
1F
100
AcDbEntity
  8
0
  6
Continuous
 62
     7
370
    25
100
AcDbLine
 10
-102.2532225832
 20
389.4288938271
 30
0.0
 11
-92.6532225832
 21
389.4288938271
 31
0.0
  0
LINE
  5
459
330
1F
100
AcDbEntity
  8
0
  6
Continuous
 62
     7
370
    25
100
AcDbLine
 10
-92.6532225832
 20
390.8288938271
 30
0.0
 11
-92.6532225832
 21
389.4288938271
 31
0.0
  0
LINE
  5
45A
330
1F
100
AcDbEntity
  8
0
  6
Continuous
 62
     7
370
    25
100
AcDbLine
 10
-92.6532225832
 20
144.8288938271
 30
0.0
 11
-92.6532225832
 21
146.2288938271
 31
0.0
  0
LINE
  5
45B
330
1F
100
AcDbEntity
  8
0
  6
Continuous
 62
     7
370
    25
100
AcDbLine
 10
-102.2532225832
 20
146.2288938271
 30
0.0
 11
-92.6532225832
 21
146.2288938271
 31
0.0
  0
LINE
  5
45C
330
1F
100
AcDbEntity
  8
0
  6
Continuous
 62
     7
370
    25
100
AcDbLine
 10
-102.2532225832
 20
144.8288938271
 30
0.0
 11
-92.6532225832
 21
144.8288938271
 31
0.0
  0
ARC
  5
45D
330
1F
100
AcDbEntity
  8
0
  6
Continuous
 62
     7
370
    25
100
AcDbCircle
 10
-68.5532225832
 20
422.3288938271
 30
0.0
 40
3.0
100
AcDbArc
 50
0.0
 51
90.0
  0
LINE
  5
45E
330
1F
100
AcDbEntity
  8
0
  6
Continuous
 62
     7
370
    25
100
AcDbLine
 10
-65.5532225832
 20
388.1288938271
 30
0.0
 11
-65.5532225832
 21
422.3288938271
 31
0.0
  0
LINE
  5
45F
330
1F
100
AcDbEntity
  8
0
  6
Continuous
 62
     7
370
    25
100
AcDbLine
 10
-84.5532225832
 20
405.3288938271
 30
0.0
 11
-84.5532225832
 21
388.1288938271
 31
0.0
  0
LINE
  5
460
330
1F
100
AcDbEntity
  8
0
  6
Continuous
 62
     7
370
    25
100
AcDbLine
 10
-88.5532225832
 20
405.3288938271
 30
0.0
 11
-84.5532225832
 21
405.3288938271
 31
0.0
  0
LINE
  5
461
330
1F
100
AcDbEntity
  8
0
  6
Continuous
 62
     7
370
    25
100
AcDbLine
 10
-88.5532225832
 20
422.3288938271
 30
0.0
 11
-88.5532225832
 21
405.3288938271
 31
0.0
  0
ARC
  5
462
330
1F
100
AcDbEntity
  8
0
  6
Continuous
 62
     7
370
    25
100
AcDbCircle
 10
-85.5532225832
 20
422.3288938271
 30
0.0
 40
3.0
100
AcDbArc
 50
90.0
 51
180.0
  0
LINE
  5
463
330
1F
100
AcDbEntity
  8
0
  6
Continuous
 62
     7
370
    25
100
AcDbLine
 10
-68.5532225832
 20
425.3288938271
 30
0.0
 11
-85.5532225832
 21
425.3288938271
 31
0.0
  0
CIRCLE
  5
464
330
1F
100
AcDbEntity
  8
0
  6
Continuous
 62
     7
370
    25
100
AcDbCircle
 10
-74.0532225832
 20
418.8288938271
 30
0.0
 40
3.249999999999943
  0
CIRCLE
  5
465
330
1F
100
AcDbEntity
  8
0
  6
Continuous
 62
     7
370
    25
100
AcDbCircle
 10
-74.0532225832
 20
393.8288938271
 30
0.0
 40
3.249999999999943
  0
LINE
  5
466
330
1F
100
AcDbEntity
  8
0
  6
Continuous
 62
     7
370
    25
100
AcDbLine
 10
-84.5532225832
 20
386.3288938271
 30
0.0
 11
-84.5532225832
 21
388.1288938271
 31
0.0
  0
LINE
  5
467
330
1F
100
AcDbEntity
  8
0
  6
Continuous
 62
     7
370
    25
100
AcDbLine
 10
-65.5532225832
 20
386.3288938271
 30
0.0
 11
-84.5532225832
 21
386.3288938271
 31
0.0
  0
LINE
  5
468
330
1F
100
AcDbEntity
  8
0
  6
Continuous
 62
     7
370
    25
100
AcDbLine
 10
-65.5532225832
 20
388.1288938271
 30
0.0
 11
-65.5532225832
 21
386.3288938271
 31
0.0
  0
ARC
  5
469
330
1F
100
AcDbEntity
  8
0
  6
Continuous
 62
     7
370
    25
100
AcDbCircle
 10
-84.7532225832
 20
388.1288938271
 30
0.0
 40
1.799999999999997
100
AcDbArc
 50
180.0
 51
270.0
  0
ARC
  5
46A
330
1F
100
AcDbEntity
  8
0
  6
Continuous
 62
     7
370
    25
100
AcDbCircle
 10
-84.7532225832
 20
388.1288938271
 30
0.0
 40
1.0
100
AcDbArc
 50
180.0
 51
270.0
  0
LINE
  5
46B
330
1F
100
AcDbEntity
  8
0
  6
Continuous
 62
     7
370
    25
100
AcDbLine
 10
-84.7532225832
 20
386.3288938271
 30
0.0
 11
-84.5532225832
 21
386.3288938271
 31
0.0
  0
LINE
  5
46C
330
1F
100
AcDbEntity
  8
0
  6
Continuous
 62
     7
370
    25
100
AcDbLine
 10
-84.7532225832
 20
387.1288938271
 30
0.0
 11
-84.5532225832
 21
387.1288938271
 31
0.0
  0
LINE
  5
46D
330
1F
100
AcDbEntity
  8
0
  6
Continuous
 62
     7
370
    25
100
AcDbLine
 10
-86.5532225832
 20
398.3288938271
 30
0.0
 11
-85.7532225832
 21
398.3288938271
 31
0.0
  0
LINE
  5
46E
330
1F
100
AcDbEntity
  8
0
  6
Continuous
 62
     7
370
    25
100
AcDbLine
 10
-85.7532225832
 20
388.1288938271
 30
0.0
 11
-85.7532225832
 21
398.3288938271
 31
0.0
  0
LINE
  5
46F
330
1F
100
AcDbEntity
  8
0
  6
Continuous
 62
     7
370
    25
100
AcDbLine
 10
-41.5532225832
 20
387.1288938271
 30
0.0
 11
-41.5532225832
 21
386.3288938271
 31
0.0
  0
LINE
  5
470
330
1F
100
AcDbEntity
  8
0
  6
Continuous
 62
     7
370
    25
100
AcDbLine
 10
-41.5532225832
 20
386.3288938271
 30
0.0
 11
-44.5532225832
 21
386.3288938271
 31
0.0
  0
LINE
  5
471
330
1F
100
AcDbEntity
  8
0
  6
Continuous
 62
     7
370
    25
100
AcDbLine
 10
-44.5532225832
 20
387.1288938271
 30
0.0
 11
-41.5532225832
 21
387.1288938271
 31
0.0
  0
LINE
  5
472
330
1F
100
AcDbEntity
  8
0
  6
Continuous
 62
     7
370
    25
100
AcDbLine
 10
-65.5532225832
 20
386.3288938271
 30
0.0
 11
-44.5532225832
 21
386.3288938271
 31
0.0
  0
LINE
  5
473
330
1F
100
AcDbEntity
  8
0
  6
Continuous
 62
     7
370
    25
100
AcDbLine
 10
-65.5532225832
 20
387.1288938271
 30
0.0
 11
-44.5532225832
 21
387.1288938271
 31
0.0
  0
LINE
  5
474
330
1F
100
AcDbEntity
  8
0
  6
Continuous
 62
     7
370
    25
100
AcDbLine
 10
-52.1663006451
 20
391.3288938271
 30
0.0
 11
-45.6486091915
 21
391.3288938271
 31
0.0
  0
LINE
  5
475
330
1F
100
AcDbEntity
  8
0
  6
Continuous
 62
     7
370
    25
100
AcDbLine
 10
-52.1663006451
 20
390.5288938271
 30
0.0
 11
-45.6486091915
 21
390.5288938271
 31
0.0
  0
LINE
  5
476
330
1F
100
AcDbEntity
  8
0
  6
Continuous
 62
     7
370
    25
100
AcDbLine
 10
-42.6486091915
 20
391.3288938271
 30
0.0
 11
-42.6486091915
 21
390.5288938271
 31
0.0
  0
LINE
  5
477
330
1F
100
AcDbEntity
  8
0
  6
Continuous
 62
     7
370
    25
100
AcDbLine
 10
-45.6486091915
 20
391.3288938271
 30
0.0
 11
-42.6486091915
 21
391.3288938271
 31
0.0
  0
LINE
  5
478
330
1F
100
AcDbEntity
  8
0
  6
Continuous
 62
     7
370
    25
100
AcDbLine
 10
-42.6486091915
 20
390.5288938271
 30
0.0
 11
-45.6486091915
 21
390.5288938271
 31
0.0
  0
ARC
  5
479
330
1F
100
AcDbEntity
  8
0
  6
Continuous
 62
     7
370
    25
100
AcDbCircle
 10
-60.1911717757
 20
388.1288938271
 30
0.0
 40
0.9999999999999432
100
AcDbArc
 50
270.0
 51
300.0
  0
ARC
  5
47A
330
1F
100
AcDbEntity
  8
0
  6
Continuous
 62
     7
370
    25
100
AcDbCircle
 10
-52.1663006451
 20
389.5288938271
 30
0.0
 40
1.799999999999962
100
AcDbArc
 50
90.0
 51
120.0
  0
ARC
  5
47B
330
1F
100
AcDbEntity
  8
0
  6
Continuous
 62
     7
370
    25
100
AcDbCircle
 10
-52.1663006451
 20
389.5288938271
 30
0.0
 40
0.9999999999999432
100
AcDbArc
 50
90.0
 51
120.0
  0
LINE
  5
47C
330
1F
100
AcDbEntity
  8
0
  6
Continuous
 62
     7
370
    25
100
AcDbLine
 10
-53.0663006451
 20
391.0877395539
 30
0.0
 11
-59.6911717757
 21
387.2628684233
 31
0.0
  0
LINE
  5
47D
330
1F
100
AcDbEntity
  8
0
  6
Continuous
 62
     7
370
    25
100
AcDbLine
 10
-52.6663006451
 20
390.3949192309
 30
0.0
 11
-58.3232225832
 21
387.1288938271
 31
0.0
  0
CIRCLE
  5
47E
330
1F
100
AcDbEntity
  8
0
  6
Continuous
 62
     7
370
    25
100
AcDbCircle
 10
-74.0532225832
 20
393.8288938271
 30
0.0
 40
2.458750000016586
  0
CIRCLE
  5
47F
330
1F
100
AcDbEntity
  8
0
  6
Continuous
 62
     7
370
    25
100
AcDbCircle
 10
-74.0532225832
 20
393.8288938271
 30
0.0
 40
3.000000000000012
  0
SPLINE
  5
480
330
1F
100
AcDbEntity
  8
0
  6
Continuous
 62
     7
370
    25
100
AcDbSpline
210
0.0
220
0.0
230
1.0
 70
     8
 71
     3
 72
    12
 73
     8
 74
     0
 42
0.000000001
 43
0.00000001
 40
0.0
 40
0.0
 40
0.0
 40
0.0
 40
0.4999999999999969
 40
0.4999999999999969
 40
0.7499999999999984
 40
0.7499999999999984
 40
1.0
 40
1.0
 40
1.0
 40
1.0
 10
-85.13854259785825
 20
392.3880645052228
 30
0.0
 10
-85.32903688728176
 20
391.9717634215683
 30
0.0
 10
-85.45071130034412
 20
391.5492248935798
 30
0.0
 10
-85.45136749087537
 20
390.898934754119
 30
0.0
 10
-85.42153348908097
 20
390.6823925362045
 30
0.0
 10
-85.31260361897338
 20
390.2570245309642
 30
0.0
 10
-85.23390843191052
 20
390.046872551979
 30
0.0
 10
-85.13854259785776
 20
389.8384626296663
 30
0.0
  0
LINE
  5
481
330
1F
100
AcDbEntity
  8
0
  6
Continuous
 62
     7
370
    25
100
AcDbLine
 10
-85.1385425979
 20
389.8384626297
 30
0.0
 11
-85.2364176351
 21
390.08136738
 31
0.0
  0
SPLINE
  5
482
330
1F
100
AcDbEntity
  8
0
  6
Continuous
 62
     7
370
    25
100
AcDbSpline
210
0.0
220
0.0
230
1.0
 70
     8
 71
     3
 72
    12
 73
     8
 74
     0
 42
0.000000001
 43
0.00000001
 40
0.0
 40
0.0
 40
0.0
 40
0.0
 40
0.5000000000000224
 40
0.5000000000000224
 40
0.7500000000000112
 40
0.7500000000000112
 40
1.0
 40
1.0
 40
1.0
 40
1.0
 10
-85.13854259785826
 20
397.8193250245201
 30
0.0
 10
-85.32903688728177
 20
397.584065232077
 30
0.0
 10
-85.45071130034415
 20
397.3452805392266
 30
0.0
 10
-85.45136749087538
 20
396.9777890066695
 30
0.0
 10
-85.42153348908097
 20
396.8554168120202
 30
0.0
 10
-85.31260361897338
 20
396.6150331268606
 30
0.0
 10
-85.2339084319105
 20
396.4962721797991
 30
0.0
 10
-85.13854259785776
 20
396.3784957026495
 30
0.0
  0
SPLINE
  5
483
330
1F
100
AcDbEntity
  8
0
  6
Continuous
 62
     7
370
    25
100
AcDbSpline
210
0.0
220
0.0
230
1.0
 70
     8
 71
     3
 72
    14
 73
    10
 74
     0
 42
0.000000001
 43
0.00000001
 40
0.0
 40
0.0
 40
0.0
 40
0.0
 40
0.25
 40
0.25
 40
0.5
 40
0.5
 40
0.75
 40
0.75
 40
1.0
 40
1.0
 40
1.0
 40
1.0
 10
-85.13854259785727
 20
396.3784957026496
 30
0.0
 10
-85.23341720716788
 20
396.0539894733609
 30
0.0
 10
-85.31302213204363
 20
395.7215302509665
 30
0.0
 10
-85.42185874693786
 20
395.0549603360583
 30
0.0
 10
-85.45118235262835
 20
394.7198840787831
 30
0.0
 10
-85.45111757088276
 20
394.0455406085555
 30
0.0
 10
-85.4209613775564
 20
393.7037611878765
 30
0.0
 10
-85.31137617619068
 20
393.0373472682718
 30
0.0
 10
-85.23283320238852
 20
392.7105732223191
 30
0.0
 10
-85.13854259785727
 20
392.3880645052227
 30
0.0
  0
LINE
  5
484
330
1F
100
AcDbEntity
  8
0
  6
Continuous
 62
     7
370
    25
100
AcDbLine
 10
-85.6532225832
 20
390.6788938271
 30
0.0
 11
-85.6532225832
 21
396.9788938271
 31
0.0
  0
LINE
  5
485
330
1F
100
AcDbEntity
  8
0
  6
Continuous
 62
     7
370
    25
100
AcDbLine
 10
-84.5532225832
 20
392.3880645052
 30
0.0
 11
-85.1385425979
 21
392.3880645052
 31
0.0
  0
LINE
  5
486
330
1F
100
AcDbEntity
  8
0
  6
Continuous
 62
     7
370
    25
100
AcDbLine
 10
-84.5532225832
 20
396.3784957026
 30
0.0
 11
-85.1385425979
 21
396.3784957026
 31
0.0
  0
LINE
  5
487
330
1F
100
AcDbEntity
  8
0
  6
Continuous
 62
     7
370
    25
100
AcDbLine
 10
-84.5532225832
 20
389.8384626297
 30
0.0
 11
-85.1385425979
 21
389.8384626297
 31
0.0
  0
LINE
  5
488
330
1F
100
AcDbEntity
  8
0
  6
Continuous
 62
     7
370
    25
100
AcDbLine
 10
-84.5532225832
 20
397.8193250245
 30
0.0
 11
-85.1385425979
 21
397.8193250245
 31
0.0
  0
LINE
  5
489
330
1F
100
AcDbEntity
  8
0
  6
Continuous
 62
     7
370
    25
100
AcDbLine
 10
-88.3532225832
 20
403.8288938271
 30
0.0
 11
-98.2532225832
 21
403.8288938271
 31
0.0
  0
LINE
  5
48A
330
1F
100
AcDbEntity
  8
0
  6
Continuous
 62
     7
370
    25
100
AcDbLine
 10
-88.3532225832
 20
403.0288938271
 30
0.0
 11
-88.3532225832
 21
403.8288938271
 31
0.0
  0
LINE
  5
48B
330
1F
100
AcDbEntity
  8
0
  6
Continuous
 62
     7
370
    25
100
AcDbLine
 10
-98.2532225832
 20
403.0288938271
 30
0.0
 11
-88.3532225832
 21
403.0288938271
 31
0.0
  0
LINE
  5
48C
330
1F
100
AcDbEntity
  8
0
  6
Continuous
 62
     7
370
    25
100
AcDbLine
 10
-98.2532225832
 20
403.0288938271
 30
0.0
 11
-98.2532225832
 21
402.9288938271
 31
0.0
  0
LINE
  5
48D
330
1F
100
AcDbEntity
  8
0
  6
Continuous
 62
     7
370
    25
100
AcDbLine
 10
-98.2532225832
 20
402.9288938271
 30
0.0
 11
-93.1032225832
 21
402.9288938271
 31
0.0
  0
LINE
  5
48E
330
1F
100
AcDbEntity
  8
0
  6
Continuous
 62
     7
370
    25
100
AcDbLine
 10
-93.1032225832
 20
402.1288938271
 30
0.0
 11
-93.1032225832
 21
402.9288938271
 31
0.0
  0
LINE
  5
48F
330
1F
100
AcDbEntity
  8
0
  6
Continuous
 62
     7
370
    25
100
AcDbLine
 10
-98.2532225832
 20
402.1288938271
 30
0.0
 11
-93.1032225832
 21
402.1288938271
 31
0.0
  0
ARC
  5
490
330
1F
100
AcDbEntity
  8
0
  6
Continuous
 62
     7
370
    25
100
AcDbCircle
 10
-98.2532225832
 20
402.9788938271
 30
0.0
 40
0.8500000000000227
100
AcDbArc
 50
90.0
 51
270.0
  0
LINE
  5
491
330
1F
100
AcDbEntity
  8
0
  6
Continuous
 62
     7
370
    25
100
AcDbLine
 10
-88.3532225832
 20
384.6288938271
 30
0.0
 11
-92.6532225832
 21
384.6288938271
 31
0.0
  0
LINE
  5
492
330
1F
100
AcDbEntity
  8
0
  6
Continuous
 62
     7
370
    25
100
AcDbLine
 10
-88.3532225832
 20
383.8288938271
 30
0.0
 11
-88.3532225832
 21
384.6288938271
 31
0.0
  0
LINE
  5
493
330
1F
100
AcDbEntity
  8
0
  6
Continuous
 62
     7
370
    25
100
AcDbLine
 10
-88.3532225832
 20
383.8288938271
 30
0.0
 11
-92.6532225832
 21
383.8288938271
 31
0.0
  0
LINE
  5
494
330
1F
100
AcDbEntity
  8
0
  6
Continuous
 62
     7
370
    25
100
AcDbLine
 10
-86.5532225832
 20
385.6288938271
 30
0.0
 11
-86.5532225832
 21
402.0288938271
 31
0.0
  0
ARC
  5
495
330
1F
100
AcDbEntity
  8
0
  6
Continuous
 62
     7
370
    25
100
AcDbCircle
 10
-88.3532225832
 20
385.6288938271
 30
0.0
 40
1.800000000000125
100
AcDbArc
 50
270.0
 51
0.0
  0
ARC
  5
496
330
1F
100
AcDbEntity
  8
0
  6
Continuous
 62
     7
370
    25
100
AcDbCircle
 10
-88.3532225832
 20
385.6288938271
 30
0.0
 40
1.000000000000043
100
AcDbArc
 50
270.0
 51
0.0
  0
LINE
  5
497
330
1F
100
AcDbEntity
  8
0
  6
Continuous
 62
     7
370
    25
100
AcDbLine
 10
-87.3532225832
 20
385.6288938271
 30
0.0
 11
-87.3532225832
 21
402.0288938271
 31
0.0
  0
ARC
  5
498
330
1F
100
AcDbEntity
  8
0
  6
Continuous
 62
     7
370
    25
100
AcDbCircle
 10
-88.3532225832
 20
402.0288938271
 30
0.0
 40
1.000000000000114
100
AcDbArc
 50
0.0
 51
90.0
  0
ARC
  5
499
330
1F
100
AcDbEntity
  8
0
  6
Continuous
 62
     7
370
    25
100
AcDbCircle
 10
-88.3532225832
 20
402.0288938271
 30
0.0
 40
1.800000000000011
100
AcDbArc
 50
0.0
 51
90.0
  0
LINE
  5
49A
330
1F
100
AcDbEntity
  8
0
  6
Continuous
 62
     7
370
    25
100
AcDbLine
 10
-89.3532225832
 20
397.8288938271
 30
0.0
 11
-89.3532225832
 21
389.8288938271
 31
0.0
  0
LWPOLYLINE
  5
49B
330
1F
100
AcDbEntity
  8
0
  6
Continuous
 62
     7
370
    25
100
AcDbPolyline
 90
        3
 70
   128
 43
0.0
 10
-90.3592666997
 20
394.5526752315
 10
-90.3636672248
 20
394.5099799009
 10
-90.3798920735
 20
394.326281572
  0
ARC
  5
49C
330
1F
100
AcDbEntity
  8
0
  6
Continuous
 62
     7
370
    25
100
AcDbCircle
 10
-89.8554991491
 20
394.6394094095
 30
0.0
 40
0.6107675350081716
100
AcDbArc
 50
210.8424581413
 51
243.3898036633
  0
ARC
  5
49D
330
1F
100
AcDbEntity
  8
0
  6
Continuous
 62
     7
370
    25
100
AcDbCircle
 10
-80.9725652276
 20
393.4978964582
 30
0.0
 40
9.175815043737785
100
AcDbArc
 50
177.9327321271
 51
179.6562101056
  0
ARC
  5
49E
330
1F
100
AcDbEntity
  8
0
  6
Continuous
 62
     7
370
    25
100
AcDbCircle
 10
-82.6162426855
 20
393.734756552
 30
0.0
 40
7.786288415098348
100
AcDbArc
 50
184.3702527064
 51
195.2299003794
  0
ARC
  5
49F
330
1F
100
AcDbEntity
  8
0
  6
Continuous
 62
     7
370
    25
100
AcDbCircle
 10
-89.9079510182
 20
391.7843927108
 30
0.0
 40
0.2406805056720875
100
AcDbArc
 50
156.7420981705
 51
203.2579018295
  0
ARC
  5
4A0
330
1F
100
AcDbEntity
  8
0
  6
Continuous
 62
     7
370
    25
100
AcDbCircle
 10
-82.6162426855
 20
393.9248318469
 30
0.0
 40
7.786288415100072
100
AcDbArc
 50
184.3702527064
 51
195.2299003794
  0
ARC
  5
4A1
330
1F
100
AcDbEntity
  8
0
  6
Continuous
 62
     7
370
    25
100
AcDbCircle
 10
-89.8554991491
 20
393.0183782446
 30
0.0
 40
0.6107675350085657
100
AcDbArc
 50
116.6101963367
 51
149.1575418587
  0
ARC
  5
4A2
330
1F
100
AcDbEntity
  8
0
  6
Continuous
 62
     7
370
    25
100
AcDbCircle
 10
-81.0494370076
 20
394.1568753397
 30
0.0
 40
9.098942710252226
100
AcDbArc
 50
176.2668736478
 51
183.7331263522
  0
ARC
  5
4A3
330
1F
100
AcDbEntity
  8
0
  6
Continuous
 62
     7
370
    25
100
AcDbCircle
 10
-89.8554991491
 20
394.2032290294
 30
0.0
 40
0.610767535008039
100
AcDbArc
 50
116.6101963367
 51
149.1575418587
  0
ARC
  5
4A4
330
1F
100
AcDbEntity
  8
0
  6
Continuous
 62
     7
370
    25
100
AcDbCircle
 10
-82.6162426855
 20
393.9230311022
 30
0.0
 40
7.786288415099227
100
AcDbArc
 50
164.7700996206
 51
175.6297472936
  0
ARC
  5
4A5
330
1F
100
AcDbEntity
  8
0
  6
Continuous
 62
     7
370
    25
100
AcDbCircle
 10
-89.9959888046
 20
395.8944962039
 30
0.0
 40
0.1522432420607859
100
AcDbArc
 50
150.9451665856
 51
179.1449116558
  0
LINE
  5
4A6
330
1F
100
AcDbEntity
  8
0
  6
Continuous
 62
     7
370
    25
100
AcDbLine
 10
-90.3798920735
 20
394.516356867
 30
0.0
 11
-90.1413364156
 21
394.516356867
 31
0.0
  0
LINE
  5
4A7
330
1F
100
AcDbEntity
  8
0
  6
Continuous
 62
     7
370
    25
100
AcDbLine
 10
-90.3798920735
 20
393.1414307872
 30
0.0
 11
-90.3630250818
 21
393.1414307872
 31
0.0
  0
LINE
  5
4A8
330
1F
100
AcDbEntity
  8
0
  6
Continuous
 62
     7
370
    25
100
AcDbLine
 10
-90.3798920735
 20
394.326281572
 30
0.0
 11
-90.1468417571
 21
394.326281572
 31
0.0
  0
LINE
  5
4A9
330
1F
100
AcDbEntity
  8
0
  6
Continuous
 62
     7
370
    25
100
AcDbLine
 10
-66.1532225832
 20
335.1632006645
 30
0.0
 11
-66.1532225832
 21
330.0221244276
 31
0.0
  0
ARC
  5
4AA
330
1F
100
AcDbEntity
  8
0
  6
Continuous
 62
     7
370
    25
100
AcDbCircle
 10
-68.094733694
 20
330.0843670035
 30
0.0
 40
1.942508566655216
100
AcDbArc
 50
268.2745645851
 51
358.1637932023
  0
LINE
  5
4AB
330
1F
100
AcDbEntity
  8
0
  6
Continuous
 62
     7
370
    25
100
AcDbLine
 10
-68.1532225832
 20
328.142739186
 30
0.0
 11
-80.1532225832
 21
328.142739186
 31
0.0
  0
ARC
  5
4AC
330
1F
100
AcDbEntity
  8
0
  6
Continuous
 62
     7
370
    25
100
AcDbCircle
 10
-80.2117114725
 20
330.0843670035
 30
0.0
 40
1.942508566655259
100
AcDbArc
 50
181.8362067977
 51
271.7254354149
  0
LINE
  5
4AD
330
1F
100
AcDbEntity
  8
0
  6
Continuous
 62
     7
370
    25
100
AcDbLine
 10
-82.1532225832
 20
330.0221244276
 30
0.0
 11
-82.1532225832
 21
335.1632006645
 31
0.0
  0
LINE
  5
4AE
330
1F
100
AcDbEntity
  8
0
  6
Continuous
 62
     7
370
    25
100
AcDbLine
 10
-66.1532225832
 20
330.0221244276
 30
0.0
 11
-66.1532225832
 21
329.338084141
 31
0.0
  0
ARC
  5
4AF
330
1F
100
AcDbEntity
  8
0
  6
Continuous
 62
     7
370
    25
100
AcDbCircle
 10
-68.094733694
 20
329.4003267168
 30
0.0
 40
1.942508566655189
100
AcDbArc
 50
268.2745645851
 51
358.1637932023
  0
LINE
  5
4B0
330
1F
100
AcDbEntity
  8
0
  6
Continuous
 62
     7
370
    25
100
AcDbLine
 10
-68.1532225832
 20
327.4586988994
 30
0.0
 11
-80.1532225832
 21
327.4586988994
 31
0.0
  0
LINE
  5
4B1
330
1F
100
AcDbEntity
  8
0
  6
Continuous
 62
     7
370
    25
100
AcDbLine
 10
-82.1532225832
 20
329.338084141
 30
0.0
 11
-82.1532225832
 21
330.0221244276
 31
0.0
  0
ARC
  5
4B2
330
1F
100
AcDbEntity
  8
0
  6
Continuous
 62
     7
370
    25
100
AcDbCircle
 10
-80.2117114725
 20
329.4003267168
 30
0.0
 40
1.9425085666552
100
AcDbArc
 50
181.8362067977
 51
271.7254354149
  0
LINE
  5
4B3
330
1F
100
AcDbEntity
  8
0
  6
Continuous
 62
     7
370
    25
100
AcDbLine
 10
-82.1532225832
 20
335.5052208078
 30
0.0
 11
-82.1532225832
 21
335.1632006645
 31
0.0
  0
LINE
  5
4B4
330
1F
100
AcDbEntity
  8
0
  6
Continuous
 62
     7
370
    25
100
AcDbLine
 10
-66.1532225832
 20
335.1632006645
 30
0.0
 11
-66.1532225832
 21
335.5052208078
 31
0.0
  0
LINE
  5
4B5
330
1F
100
AcDbEntity
  8
0
  6
Continuous
 62
     7
370
    25
100
AcDbLine
 10
-92.6532225832
 20
335.3288938271
 30
0.0
 11
-82.1532225832
 21
335.3288938271
 31
0.0
  0
LINE
  5
4B6
330
1F
100
AcDbEntity
  8
0
  6
Continuous
 62
     7
370
    25
100
AcDbLine
 10
-68.1532225832
 20
350.3288938271
 30
0.0
 11
-92.6532225832
 21
350.3288938271
 31
0.0
  0
CIRCLE
  5
4B7
330
1F
100
AcDbEntity
  8
0
  6
Continuous
 62
     7
370
    25
100
AcDbCircle
 10
-74.0532225832
 20
342.8288938271
 30
0.0
 40
3.499999999999986
  0
LINE
  5
4B8
330
1F
100
AcDbEntity
  8
0
  6
Continuous
 62
     7
370
    25
100
AcDbLine
 10
-66.1532225832
 20
335.5052208078
 30
0.0
 11
-66.1532225832
 21
348.3288938271
 31
0.0
  0
ARC
  5
4B9
330
1F
100
AcDbEntity
  8
0
  6
Continuous
 62
     7
370
    25
100
AcDbCircle
 10
-68.1532225832
 20
348.3288938271
 30
0.0
 40
2.0
100
AcDbArc
 50
0.0
 51
90.0
  0
LINE
  5
4BA
330
1F
100
AcDbEntity
  8
0
  6
Continuous
 62
     7
370
    25
100
AcDbLine
 10
-80.1532225832
 20
207.5150484681
 30
0.0
 11
-68.1532225832
 21
207.5150484681
 31
0.0
  0
LINE
  5
4BB
330
1F
100
AcDbEntity
  8
0
  6
Continuous
 62
     7
370
    25
100
AcDbLine
 10
-80.1532225832
 20
208.1990887548
 30
0.0
 11
-68.1532225832
 21
208.1990887548
 31
0.0
  0
LINE
  5
4BC
330
1F
100
AcDbEntity
  8
0
  6
Continuous
 62
     7
370
    25
100
AcDbLine
 10
-66.1532225832
 20
206.3197035132
 30
0.0
 11
-66.1532225832
 21
205.6356632266
 31
0.0
  0
ARC
  5
4BD
330
1F
100
AcDbEntity
  8
0
  6
Continuous
 62
     7
370
    25
100
AcDbCircle
 10
-68.094733694
 20
205.5734206507
 30
0.0
 40
1.942508566655216
100
AcDbArc
 50
1.8362067977
 51
91.7254354149
  0
ARC
  5
4BE
330
1F
100
AcDbEntity
  8
0
  6
Continuous
 62
     7
370
    25
100
AcDbCircle
 10
-68.094733694
 20
206.2574609374
 30
0.0
 40
1.942508566655271
100
AcDbArc
 50
1.8362067977
 51
91.7254354149
  0
LINE
  5
4BF
330
1F
100
AcDbEntity
  8
0
  6
Continuous
 62
     7
370
    25
100
AcDbLine
 10
-66.1532225832
 20
205.6356632266
 30
0.0
 11
-66.1532225832
 21
200.4945869897
 31
0.0
  0
LINE
  5
4C0
330
1F
100
AcDbEntity
  8
0
  6
Continuous
 62
     7
370
    25
100
AcDbLine
 10
-82.1532225832
 20
200.4945869897
 30
0.0
 11
-82.1532225832
 21
205.6356632266
 31
0.0
  0
ARC
  5
4C1
330
1F
100
AcDbEntity
  8
0
  6
Continuous
 62
     7
370
    25
100
AcDbCircle
 10
-80.2117114725
 20
205.5734206507
 30
0.0
 40
1.942508566655272
100
AcDbArc
 50
88.2745645851
 51
178.1637932023
  0
LINE
  5
4C2
330
1F
100
AcDbEntity
  8
0
  6
Continuous
 62
     7
370
    25
100
AcDbLine
 10
-82.1532225832
 20
205.6356632266
 30
0.0
 11
-82.1532225832
 21
206.3197035132
 31
0.0
  0
ARC
  5
4C3
330
1F
100
AcDbEntity
  8
0
  6
Continuous
 62
     7
370
    25
100
AcDbCircle
 10
-80.2117114725
 20
206.2574609374
 30
0.0
 40
1.942508566655274
100
AcDbArc
 50
88.2745645851
 51
178.1637932023
  0
LINE
  5
4C4
330
1F
100
AcDbEntity
  8
0
  6
Continuous
 62
     7
370
    25
100
AcDbLine
 10
-82.1532225832
 20
200.4945869897
 30
0.0
 11
-82.1532225832
 21
200.1525668464
 31
0.0
  0
LINE
  5
4C5
330
1F
100
AcDbEntity
  8
0
  6
Continuous
 62
     7
370
    25
100
AcDbLine
 10
-66.1532225832
 20
200.1525668464
 30
0.0
 11
-66.1532225832
 21
200.4945869897
 31
0.0
  0
LINE
  5
4C6
330
1F
100
AcDbEntity
  8
0
  6
Continuous
 62
     7
370
    25
100
AcDbLine
 10
-82.1532225832
 20
200.3288938271
 30
0.0
 11
-92.6532225832
 21
200.3288938271
 31
0.0
  0
ARC
  5
4C7
330
1F
100
AcDbEntity
  8
0
  6
Continuous
 62
     7
370
    25
100
AcDbCircle
 10
-68.1532225832
 20
187.3288938271
 30
0.0
 40
2.0
100
AcDbArc
 50
270.0
 51
0.0
  0
CIRCLE
  5
4C8
330
1F
100
AcDbEntity
  8
0
  6
Continuous
 62
     7
370
    25
100
AcDbCircle
 10
-74.0532225832
 20
192.8288938271
 30
0.0
 40
3.499999999999986
  0
LINE
  5
4C9
330
1F
100
AcDbEntity
  8
0
  6
Continuous
 62
     7
370
    25
100
AcDbLine
 10
-92.6532225832
 20
185.3288938271
 30
0.0
 11
-68.1532225832
 21
185.3288938271
 31
0.0
  0
LINE
  5
4CA
330
1F
100
AcDbEntity
  8
0
  6
Continuous
 62
     7
370
    25
100
AcDbLine
 10
-66.1532225832
 20
187.3288938271
 30
0.0
 11
-66.1532225832
 21
200.1525668464
 31
0.0
  0
CIRCLE
  5
4CB
330
1F
100
AcDbEntity
  8
0
  6
Continuous
 62
     7
370
    25
100
AcDbCircle
 10
-74.0532225832
 20
342.8288938271
 30
0.0
 40
2.458750000016535
  0
CIRCLE
  5
4CC
330
1F
100
AcDbEntity
  8
0
  6
Continuous
 62
     7
370
    25
100
AcDbCircle
 10
-74.0532225832
 20
342.8288938271
 30
0.0
 40
3.000000000000053
  0
ENDSEC
  0
SECTION
  2
OBJECTS
  0
DICTIONARY
  5
C
330
0
100
AcDbDictionary
281
     1
  3
ACAD_GROUP
350
D
  3
ACAD_LAYOUT
350
1A
  3
ACAD_MLINESTYLE
350
17
  3
ACAD_PLOTSETTINGS
350
19
  3
ACAD_PLOTSTYLENAME
350
E
  3
ACAD_SCALELIST
350
47
  0
DICTIONARY
  5
D
102
{ACAD_REACTORS
330
C
102
}
330
C
100
AcDbDictionary
281
     1
  0
DICTIONARY
  5
1A
102
{ACAD_REACTORS
330
C
102
}
330
C
100
AcDbDictionary
281
     1
  3
Layout1
350
1E
  3
Layout2
350
26
  3
Model
350
22
  0
DICTIONARY
  5
17
102
{ACAD_REACTORS
330
C
102
}
330
C
100
AcDbDictionary
281
     1
  3
Standard
350
18
  0
DICTIONARY
  5
19
102
{ACAD_REACTORS
330
C
102
}
330
C
100
AcDbDictionary
281
     1
  0
ACDBDICTIONARYWDFLT
  5
E
102
{ACAD_REACTORS
330
C
102
}
330
C
100
AcDbDictionary
281
     1
  3
Normal
350
F
100
AcDbDictionaryWithDefault
340
F
  0
DICTIONARY
  5
47
102
{ACAD_REACTORS
330
C
102
}
330
C
100
AcDbDictionary
281
     1
  3
A0
350
48
  3
A1
350
49
  3
A2
350
4A
  3
A3
350
4B
  3
A4
350
4C
  3
A5
350
4D
  3
A6
350
4E
  3
A7
350
4F
  3
A8
350
50
  3
A9
350
51
  3
B0
350
52
  3
B1
350
53
  3
B2
350
54
  3
B3
350
55
  3
B4
350
56
  3
B5
350
57
  3
B6
350
58
  3
B7
350
59
  3
B8
350
5A
  3
B9
350
5B
  3
C0
350
5C
  3
C1
350
5D
  3
C2
350
5E
  3
C3
350
5F
  3
C4
350
60
  3
C5
350
61
  3
C6
350
62
  3
C7
350
63
  3
C8
350
64
  3
C9
350
65
  3
D0
350
66
  3
D1
350
67
  3
D2
350
68
  0
LAYOUT
  5
1E
102
{ACAD_REACTORS
330
1A
102
}
330
1A
100
AcDbPlotSettings
  1

  2
none_device
  4

  6

 40
0.0
 41
0.0
 42
0.0
 43
0.0
 44
0.0
 45
0.0
 46
0.0
 47
0.0
 48
0.0
 49
0.0
140
0.0
141
0.0
142
1.0
143
1.0
 70
   688
 72
     1
 73
     0
 74
     5
  7

 75
    16
147
1.0
148
0.0
149
0.0
100
AcDbLayout
  1
Layout1
 70
     1
 71
     1
 10
0.0
 20
0.0
 11
420.0
 21
297.0
 12
0.0
 22
0.0
 32
0.0
 14
1.0000000000E+20
 24
1.0000000000E+20
 34
1.0000000000E+20
 15
-1.0000000000E+20
 25
-1.0000000000E+20
 35
-1.0000000000E+20
146
0.0
 13
0.0
 23
0.0
 33
0.0
 16
1.0
 26
0.0
 36
0.0
 17
0.0
 27
1.0
 37
0.0
 76
     0
330
1B
  0
LAYOUT
  5
26
102
{ACAD_REACTORS
330
1A
102
}
330
1A
100
AcDbPlotSettings
  1

  2
none_device
  4

  6

 40
0.0
 41
0.0
 42
0.0
 43
0.0
 44
0.0
 45
0.0
 46
0.0
 47
0.0
 48
0.0
 49
0.0
140
0.0
141
0.0
142
1.0
143
1.0
 70
   688
 72
     1
 73
     0
 74
     5
  7

 75
    16
147
1.0
148
0.0
149
0.0
100
AcDbLayout
  1
Layout2
 70
     1
 71
     2
 10
0.0
 20
0.0
 11
0.0
 21
0.0
 12
0.0
 22
0.0
 32
0.0
 14
0.0
 24
0.0
 34
0.0
 15
0.0
 25
0.0
 35
0.0
146
0.0
 13
0.0
 23
0.0
 33
0.0
 16
1.0
 26
0.0
 36
0.0
 17
0.0
 27
1.0
 37
0.0
 76
     0
330
23
  0
LAYOUT
  5
22
102
{ACAD_REACTORS
330
1A
102
}
330
1A
100
AcDbPlotSettings
  1

  2
none_device
  4
Letter_(8.50_x_11.00_Inches)
  6

 40
6.35
 41
6.35
 42
6.35000508
 43
6.35000508
 44
215.9
 45
279.4
 46
0.0
 47
0.0
 48
0.0
 49
0.0
140
0.0
141
0.0
142
1.0
143
1.0
 70
  1712
 72
     1
 73
     0
 74
     0
  7

 75
     0
147
1.0
148
0.0
149
0.0
100
AcDbLayout
  1
Model
 70
     1
 71
     0
 10
0.0
 20
0.0
 11
841.0
 21
594.0
 12
0.0
 22
0.0
 32
0.0
 14
0.0
 24
0.0
 34
0.0
 15
841.0
 25
594.0
 35
0.0
146
0.0
 13
0.0
 23
0.0
 33
0.0
 16
1.0
 26
0.0
 36
0.0
 17
0.0
 27
1.0
 37
0.0
 76
     0
330
1F
331
29
  0
MLINESTYLE
  5
18
102
{ACAD_REACTORS
330
17
102
}
330
17
100
AcDbMlineStyle
  2
Standard
 70
     0
  3

 62
   256
 51
90.0
 52
90.0
 71
     2
 49
0.5
 62
   256
  6
BYLAYER
 49
-0.5
 62
   256
  6
BYLAYER
  0
ACDBPLACEHOLDER
  5
F
102
{ACAD_REACTORS
330
E
102
}
330
E
  0
SCALE
  5
48
102
{ACAD_REACTORS
330
47
102
}
330
47
100
AcDbScale
 70
     0
300
1:1
140
1.0
141
1.0
290
     1
  0
SCALE
  5
49
102
{ACAD_REACTORS
330
47
102
}
330
47
100
AcDbScale
 70
     0
300
1:2
140
1.0
141
2.0
290
     0
  0
SCALE
  5
4A
102
{ACAD_REACTORS
330
47
102
}
330
47
100
AcDbScale
 70
     0
300
1:4
140
1.0
141
4.0
290
     0
  0
SCALE
  5
4B
102
{ACAD_REACTORS
330
47
102
}
330
47
100
AcDbScale
 70
     0
300
1:5
140
1.0
141
5.0
290
     0
  0
SCALE
  5
4C
102
{ACAD_REACTORS
330
47
102
}
330
47
100
AcDbScale
 70
     0
300
1:8
140
1.0
141
8.0
290
     0
  0
SCALE
  5
4D
102
{ACAD_REACTORS
330
47
102
}
330
47
100
AcDbScale
 70
     0
300
1:10
140
1.0
141
10.0
290
     0
  0
SCALE
  5
4E
102
{ACAD_REACTORS
330
47
102
}
330
47
100
AcDbScale
 70
     0
300
1:16
140
1.0
141
16.0
290
     0
  0
SCALE
  5
4F
102
{ACAD_REACTORS
330
47
102
}
330
47
100
AcDbScale
 70
     0
300
1:20
140
1.0
141
20.0
290
     0
  0
SCALE
  5
50
102
{ACAD_REACTORS
330
47
102
}
330
47
100
AcDbScale
 70
     0
300
1:30
140
1.0
141
30.0
290
     0
  0
SCALE
  5
51
102
{ACAD_REACTORS
330
47
102
}
330
47
100
AcDbScale
 70
     0
300
1:40
140
1.0
141
40.0
290
     0
  0
SCALE
  5
52
102
{ACAD_REACTORS
330
47
102
}
330
47
100
AcDbScale
 70
     0
300
1:50
140
1.0
141
50.0
290
     0
  0
SCALE
  5
53
102
{ACAD_REACTORS
330
47
102
}
330
47
100
AcDbScale
 70
     0
300
1:100
140
1.0
141
100.0
290
     0
  0
SCALE
  5
54
102
{ACAD_REACTORS
330
47
102
}
330
47
100
AcDbScale
 70
     0
300
2:1
140
2.0
141
1.0
290
     0
  0
SCALE
  5
55
102
{ACAD_REACTORS
330
47
102
}
330
47
100
AcDbScale
 70
     0
300
4:1
140
4.0
141
1.0
290
     0
  0
SCALE
  5
56
102
{ACAD_REACTORS
330
47
102
}
330
47
100
AcDbScale
 70
     0
300
8:1
140
8.0
141
1.0
290
     0
  0
SCALE
  5
57
102
{ACAD_REACTORS
330
47
102
}
330
47
100
AcDbScale
 70
     0
300
10:1
140
10.0
141
1.0
290
     0
  0
SCALE
  5
58
102
{ACAD_REACTORS
330
47
102
}
330
47
100
AcDbScale
 70
     0
300
100:1
140
100.0
141
1.0
290
     0
  0
SCALE
  5
59
102
{ACAD_REACTORS
330
47
102
}
330
47
100
AcDbScale
 70
     0
300
1/128" = 1'-0"
140
0.0078125
141
12.0
290
     0
  0
SCALE
  5
5A
102
{ACAD_REACTORS
330
47
102
}
330
47
100
AcDbScale
 70
     0
300
1/64" = 1'-0"
140
0.015625
141
12.0
290
     0
  0
SCALE
  5
5B
102
{ACAD_REACTORS
330
47
102
}
330
47
100
AcDbScale
 70
     0
300
1/32" = 1'-0"
140
0.03125
141
12.0
290
     0
  0
SCALE
  5
5C
102
{ACAD_REACTORS
330
47
102
}
330
47
100
AcDbScale
 70
     0
300
1/16" = 1'-0"
140
0.0625
141
12.0
290
     0
  0
SCALE
  5
5D
102
{ACAD_REACTORS
330
47
102
}
330
47
100
AcDbScale
 70
     0
300
3/32" = 1'-0"
140
0.09375
141
12.0
290
     0
  0
SCALE
  5
5E
102
{ACAD_REACTORS
330
47
102
}
330
47
100
AcDbScale
 70
     0
300
1/8" = 1'-0"
140
0.125
141
12.0
290
     0
  0
SCALE
  5
5F
102
{ACAD_REACTORS
330
47
102
}
330
47
100
AcDbScale
 70
     0
300
3/16" = 1'-0"
140
0.1875
141
12.0
290
     0
  0
SCALE
  5
60
102
{ACAD_REACTORS
330
47
102
}
330
47
100
AcDbScale
 70
     0
300
1/4" = 1'-0"
140
0.25
141
12.0
290
     0
  0
SCALE
  5
61
102
{ACAD_REACTORS
330
47
102
}
330
47
100
AcDbScale
 70
     0
300
3/8" = 1'-0"
140
0.375
141
12.0
290
     0
  0
SCALE
  5
62
102
{ACAD_REACTORS
330
47
102
}
330
47
100
AcDbScale
 70
     0
300
1/2" = 1'-0"
140
0.5
141
12.0
290
     0
  0
SCALE
  5
63
102
{ACAD_REACTORS
330
47
102
}
330
47
100
AcDbScale
 70
     0
300
3/4" = 1'-0"
140
0.75
141
12.0
290
     0
  0
SCALE
  5
64
102
{ACAD_REACTORS
330
47
102
}
330
47
100
AcDbScale
 70
     0
300
1" = 1'-0"
140
1.0
141
12.0
290
     0
  0
SCALE
  5
65
102
{ACAD_REACTORS
330
47
102
}
330
47
100
AcDbScale
 70
     0
300
1-1/2" = 1'-0"
140
1.5
141
12.0
290
     0
  0
SCALE
  5
66
102
{ACAD_REACTORS
330
47
102
}
330
47
100
AcDbScale
 70
     0
300
3" = 1'-0"
140
3.0
141
12.0
290
     0
  0
SCALE
  5
67
102
{ACAD_REACTORS
330
47
102
}
330
47
100
AcDbScale
 70
     0
300
6" = 1'-0"
140
6.0
141
12.0
290
     0
  0
SCALE
  5
68
102
{ACAD_REACTORS
330
47
102
}
330
47
100
AcDbScale
 70
     0
300
1'-0" = 1'-0"
140
12.0
141
12.0
290
     0
  0
ENDSEC
  0
EOF
