  0
SECTION
  2
HEADER
  9
$ACADVER
  1
AC1015
  9
$ACADMAINTVER
 70
     6
  9
$DWGCODEPAGE
  3
ANSI_1251
  9
$INSBASE
 10
0.0
 20
0.0
 30
0.0
  9
$EXTMIN
 10
0.0
 20
0.0
 30
0.0
  9
$EXTMAX
 10
210.0
 20
297.0
 30
0.0
  9
$LIMMIN
 10
0.0
 20
0.0
  9
$LIMMAX
 10
210.0
 20
297.0
  9
$ORTHOMODE
 70
     0
  9
$REGENMODE
 70
     1
  9
$FILLMODE
 70
     1
  9
$QTEXTMODE
 70
     0
  9
$MIRRTEXT
 70
     1
  9
$LTSCALE
 40
1.0
  9
$ATTMODE
 70
     1
  9
$TEXTSIZE
 40
5.0
  9
$TRACEWID
 40
1.0
  9
$TEXTSTYLE
  7
Standard
  9
$CLAYER
  8
0
  9
$CELTYPE
  6
ByLayer
  9
$CECOLOR
 62
   256
  9
$CELTSCALE
 40
1.0
  9
$DISPSILH
 70
     0
  9
$DIMSCALE
 40
1.0
  9
$DIMASZ
 40
5.0
  9
$DIMEXO
 40
0.0
  9
$DIMDLI
 40
3.75
  9
$DIMRND
 40
0.0
  9
$DIMDLE
 40
0.0
  9
$DIMEXE
 40
1.0
  9
$DIMTP
 40
0.0
  9
$DIMTM
 40
0.0
  9
$DIMTXT
 40
3.5
  9
$DIMCEN
 40
2.5
  9
$DIMTSZ
 40
0.0
  9
$DIMTOL
 70
     0
  9
$DIMLIM
 70
     0
  9
$DIMTIH
 70
     1
  9
$DIMTOH
 70
     1
  9
$DIMSE1
 70
     0
  9
$DIMSE2
 70
     0
  9
$DIMTAD
 70
     1
  9
$DIMZIN
 70
     0
  9
$DIMBLK
  1

  9
$DIMASO
 70
     1
  9
$DIMSHO
 70
     1
  9
$DIMPOST
  1

  9
$DIMAPOST
  1

  9
$DIMALT
 70
     0
  9
$DIMALTD
 70
     3
  9
$DIMALTF
 40
0.0393700787
  9
$DIMLFAC
 40
1.0
  9
$DIMTOFL
 70
     1
  9
$DIMTVP
 40
0.0
  9
$DIMTIX
 70
     0
  9
$DIMSOXD
 70
     0
  9
$DIMSAH
 70
     0
  9
$DIMBLK1
  1

  9
$DIMBLK2
  1

  9
$DIMSTYLE
  2
ISO-25
  9
$DIMCLRD
 70
     0
  9
$DIMCLRE
 70
     0
  9
$DIMCLRT
 70
     0
  9
$DIMTFAC
 40
1.0
  9
$DIMGAP
 40
1.5
  9
$DIMJUST
 70
     0
  9
$DIMSD1
 70
     0
  9
$DIMSD2
 70
     0
  9
$DIMTOLJ
 70
     0
  9
$DIMTZIN
 70
     0
  9
$DIMALTZ
 70
     0
  9
$DIMALTTZ
 70
     0
  9
$DIMUPT
 70
     0
  9
$DIMDEC
 70
     1
  9
$DIMTDEC
 70
     1
  9
$DIMALTU
 70
     2
  9
$DIMALTTD
 70
     3
  9
$DIMTXSTY
  7
Standard
  9
$DIMAUNIT
 70
     0
  9
$DIMADEC
 70
     2
  9
$DIMALTRND
 40
0.0
  9
$DIMAZIN
 70
     0
  9
$DIMDSEP
 70
    44
  9
$DIMATFIT
 70
     3
  9
$DIMFRAC
 70
     0
  9
$DIMLDRBLK
  1

  9
$DIMLUNIT
 70
     2
  9
$DIMLWD
 70
    -2
  9
$DIMLWE
 70
    -2
  9
$DIMTMOVE
 70
     0
  9
$LUNITS
 70
     2
  9
$LUPREC
 70
     1
  9
$SKETCHINC
 40
1.0
  9
$FILLETRAD
 40
0.0
  9
$AUNITS
 70
     0
  9
$AUPREC
 70
     2
  9
$MENU
  1
.
  9
$ELEVATION
 40
0.0
  9
$PELEVATION
 40
0.0
  9
$THICKNESS
 40
0.0
  9
$LIMCHECK
 70
     0
  9
$CHAMFERA
 40
0.0
  9
$CHAMFERB
 40
0.0
  9
$CHAMFERC
 40
0.0
  9
$CHAMFERD
 40
0.0
  9
$SKPOLY
 70
     0
  9
$TDCREATE
 40
2460480.694502893
  9
$TDUCREATE
 40
2460480.569502893
  9
$TDUPDATE
 40
2460480.694505961
  9
$TDUUPDATE
 40
2460480.569505961
  9
$TDINDWG
 40
0.0000000116
  9
$TDUSRTIMER
 40
0.0000000116
  9
$USRTIMER
 70
     1
  9
$ANGBASE
 50
0.0
  9
$ANGDIR
 70
     0
  9
$PDMODE
 70
     0
  9
$PDSIZE
 40
-1.0
  9
$PLINEWID
 40
0.0
  9
$SPLFRAME
 70
     0
  9
$SPLINETYPE
 70
     6
  9
$SPLINESEGS
 70
     8
  9
$HANDSEED
  5
128
  9
$SURFTAB1
 70
     6
  9
$SURFTAB2
 70
     6
  9
$SURFTYPE
 70
     6
  9
$SURFU
 70
     6
  9
$SURFV
 70
     6
  9
$UCSBASE
  2

  9
$UCSNAME
  2

  9
$UCSORG
 10
0.0
 20
0.0
 30
0.0
  9
$UCSXDIR
 10
1.0
 20
0.0
 30
0.0
  9
$UCSYDIR
 10
0.0
 20
1.0
 30
0.0
  9
$UCSORTHOREF
  2

  9
$UCSORTHOVIEW
 70
     0
  9
$UCSORGTOP
 10
0.0
 20
0.0
 30
0.0
  9
$UCSORGBOTTOM
 10
0.0
 20
0.0
 30
0.0
  9
$UCSORGLEFT
 10
0.0
 20
0.0
 30
0.0
  9
$UCSORGRIGHT
 10
0.0
 20
0.0
 30
0.0
  9
$UCSORGFRONT
 10
0.0
 20
0.0
 30
0.0
  9
$UCSORGBACK
 10
0.0
 20
0.0
 30
0.0
  9
$PUCSBASE
  2

  9
$PUCSNAME
  2

  9
$PUCSORG
 10
0.0
 20
0.0
 30
0.0
  9
$PUCSXDIR
 10
1.0
 20
0.0
 30
0.0
  9
$PUCSYDIR
 10
0.0
 20
1.0
 30
0.0
  9
$PUCSORTHOREF
  2

  9
$PUCSORTHOVIEW
 70
     0
  9
$PUCSORGTOP
 10
0.0
 20
0.0
 30
0.0
  9
$PUCSORGBOTTOM
 10
0.0
 20
0.0
 30
0.0
  9
$PUCSORGLEFT
 10
0.0
 20
0.0
 30
0.0
  9
$PUCSORGRIGHT
 10
0.0
 20
0.0
 30
0.0
  9
$PUCSORGFRONT
 10
0.0
 20
0.0
 30
0.0
  9
$PUCSORGBACK
 10
0.0
 20
0.0
 30
0.0
  9
$USERI1
 70
     0
  9
$USERI2
 70
     0
  9
$USERI3
 70
     0
  9
$USERI4
 70
     0
  9
$USERI5
 70
     0
  9
$USERR1
 40
0.0
  9
$USERR2
 40
0.0
  9
$USERR3
 40
0.0
  9
$USERR4
 40
0.0
  9
$USERR5
 40
0.0
  9
$WORLDVIEW
 70
     1
  9
$SHADEDGE
 70
     3
  9
$SHADEDIF
 70
    70
  9
$TILEMODE
 70
     1
  9
$MAXACTVP
 70
    64
  9
$PINSBASE
 10
0.0
 20
0.0
 30
0.0
  9
$PLIMCHECK
 70
     0
  9
$PEXTMIN
 10
1.0000000000E+20
 20
1.0000000000E+20
 30
1.0000000000E+20
  9
$PEXTMAX
 10
-1.0000000000E+20
 20
-1.0000000000E+20
 30
-1.0000000000E+20
  9
$PLIMMIN
 10
0.0
 20
0.0
  9
$PLIMMAX
 10
420.0
 20
297.0
  9
$UNITMODE
 70
     0
  9
$VISRETAIN
 70
     1
  9
$PLINEGEN
 70
     0
  9
$PSLTSCALE
 70
     1
  9
$TREEDEPTH
 70
  3020
  9
$CMLSTYLE
  2
Standard
  9
$CMLJUST
 70
     0
  9
$CMLSCALE
 40
20.0
  9
$PROXYGRAPHICS
 70
     1
  9
$MEASUREMENT
 70
     1
  9
$CELWEIGHT
370
    -1
  9
$ENDCAPS
280
     0
  9
$JOINSTYLE
280
     0
  9
$LWDISPLAY
290
     1
  9
$INSUNITS
 70
     4
  9
$HYPERLINKBASE
  1

  9
$STYLESHEET
  1

  9
$XEDIT
290
     1
  9
$CEPSNTYPE
380
     0
  9
$PSTYLEMODE
290
     1
  9
$FINGERPRINTGUID
  2
{e5aca81c-0a2c-4c7e-836c-3a78e54d422f}
  9
$VERSIONGUID
  2
{FAEB1C32-E019-11D5-929B-00C0DF256EC4}
  9
$EXTNAMES
290
     1
  9
$PSVPSCALE
 40
0.0
  9
$OLESTARTUP
290
     0
  0
ENDSEC
  0
SECTION
  2
CLASSES
  0
CLASS
  1
ACDBDICTIONARYWDFLT
  2
AcDbDictionaryWithDefault
  3
ObjectDBX Classes
 90
        0
280
     0
281
     0
  0
CLASS
  1
VISUALSTYLE
  2
AcDbVisualStyle
  3
ObjectDBX Classes
 90
     4095
280
     0
281
     0
  0
CLASS
  1
MATERIAL
  2
AcDbMaterial
  3
ObjectDBX Classes
 90
     1153
280
     0
281
     0
  0
CLASS
  1
SCALE
  2
AcDbScale
  3
ObjectDBX Classes
 90
     1153
280
     0
281
     0
  0
CLASS
  1
TABLESTYLE
  2
AcDbTableStyle
  3
ObjectDBX Classes
 90
     4095
280
     0
281
     0
  0
CLASS
  1
MLEADERSTYLE
  2
AcDbMLeaderStyle
  3
ACDB_MLEADERSTYLE_CLASS
 90
     4095
280
     0
281
     0
  0
CLASS
  1
SUN
  2
AcDbSun
  3
SCENEOE
 90
     1153
280
     0
281
     0
  0
CLASS
  1
ACDBPLACEHOLDER
  2
AcDbPlaceHolder
  3
ObjectDBX Classes
 90
        0
280
     0
281
     0
  0
CLASS
  1
LAYOUT
  2
AcDbLayout
  3
ObjectDBX Classes
 90
        0
280
     0
281
     0
  0
ENDSEC
  0
SECTION
  2
TABLES
  0
TABLE
  2
VPORT
  5
8
330
0
100
AcDbSymbolTable
 70
     1
  0
VPORT
  5
29
330
8
100
AcDbSymbolTableRecord
100
AcDbViewportTableRecord
  2
*Active
 70
     0
 10
0.0
 20
0.0
 11
1.0
 21
1.0
 12
105.0
 22
148.5
 13
0.0
 23
0.0
 14
10.0
 24
10.0
 15
10.0
 25
10.0
 16
0.0
 26
0.0
 36
1.0
 17
0.0
 27
0.0
 37
0.0
 40
297.0
 41
0.7070707071
 42
50.0
 43
0.0
 44
0.0
 50
0.0
 51
0.0
 71
     0
 72
  2000
 73
     1
 74
     3
 75
     0
 76
     0
 77
     0
 78
     0
281
     0
 65
     1
110
0.0
120
0.0
130
0.0
111
1.0
121
0.0
131
0.0
112
0.0
122
1.0
132
0.0
 79
     0
146
0.0
  0
ENDTAB
  0
TABLE
  2
LTYPE
  5
5
330
0
100
AcDbSymbolTable
 70
     6
  0
LTYPE
  5
14
330
5
100
AcDbSymbolTableRecord
100
AcDbLinetypeTableRecord
  2
ByBlock
 70
     0
  3

 72
    65
 73
     0
 40
0.0
  0
LTYPE
  5
15
330
5
100
AcDbSymbolTableRecord
100
AcDbLinetypeTableRecord
  2
ByLayer
 70
     0
  3

 72
    65
 73
     0
 40
0.0
  0
LTYPE
  5
16
330
5
100
AcDbSymbolTableRecord
100
AcDbLinetypeTableRecord
  2
Continuous
 70
     0
  3
Solid line
 72
    65
 73
     0
 40
0.0
  0
LTYPE
  5
5E
330
5
100
AcDbSymbolTableRecord
100
AcDbLinetypeTableRecord
  2
HIDDEN
 70
     0
  3
Hidden __ __ __ __ __ __ __ __ __ __ __ __ __ __
 72
    65
 73
     2
 40
1.905
 49
1.27
 74
     0
 49
-0.635
 74
     0
  0
LTYPE
  5
5F
330
5
100
AcDbSymbolTableRecord
100
AcDbLinetypeTableRecord
  2
PHANTOM
 70
     0
  3
Phantom ______  __  __  ______  __  __  ______
 72
    65
 73
     6
 40
12.7
 49
6.35
 74
     0
 49
-1.27
 74
     0
 49
1.27
 74
     0
 49
-1.27
 74
     0
 49
1.27
 74
     0
 49
-1.27
 74
     0
  0
LTYPE
  5
60
330
5
100
AcDbSymbolTableRecord
100
AcDbLinetypeTableRecord
  2
CENTER
 70
     0
  3
Center ____ _ ____ _ ____ _ ____ _ ____ _ ____
 72
    65
 73
     4
 40
10.16
 49
6.35
 74
     0
 49
-1.27
 74
     0
 49
1.27
 74
     0
 49
-1.27
 74
     0
  0
LTYPE
  5
61
330
5
100
AcDbSymbolTableRecord
100
AcDbLinetypeTableRecord
  2
CENTERX2
 70
     0
  3
Center (2x) ________  __  ________  __  _____
 72
    65
 73
     4
 40
20.32
 49
12.7
 74
     0
 49
-2.54
 74
     0
 49
2.54
 74
     0
 49
-2.54
 74
     0
  0
LTYPE
  5
62
330
5
100
AcDbSymbolTableRecord
100
AcDbLinetypeTableRecord
  2
DOT2
 70
     0
  3
Dot (.5x) ........................................
 72
    65
 73
     2
 40
0.635
 49
0.0
 74
     0
 49
-0.635
 74
     0
  0
ENDTAB
  0
TABLE
  2
LAYER
  5
2
330
0
100
AcDbSymbolTable
 70
     3
  0
LAYER
  5
10
330
2
100
AcDbSymbolTableRecord
100
AcDbLayerTableRecord
  2
0
 70
     0
 62
     7
  6
Continuous
370
    -3
390
F
  0
LAYER
  5
63
330
2
100
AcDbSymbolTableRecord
100
AcDbLayerTableRecord
  2
ВОДЯНОЙ_ЗНАК
 70
     0
 62
    11
  6
Continuous
370
    -3
390
F
  0
LAYER
  5
64
330
2
100
AcDbSymbolTableRecord
100
AcDbLayerTableRecord
  2
ОСНОВНОЙ
 70
     0
 62
     7
  6
Continuous
370
    -3
390
F
  0
ENDTAB
  0
TABLE
  2
STYLE
  5
3
330
0
100
AcDbSymbolTable
 70
     1
  0
STYLE
  5
11
330
3
100
AcDbSymbolTableRecord
100
AcDbTextStyleTableRecord
  2
Standard
 70
     0
 40
0.0
 41
1.0
 50
0.0
 71
     0
 42
5.0
  3
txt
  4

  0
ENDTAB
  0
TABLE
  2
VIEW
  5
6
330
0
100
AcDbSymbolTable
 70
     0
  0
ENDTAB
  0
TABLE
  2
UCS
  5
7
330
0
100
AcDbSymbolTable
 70
     0
  0
ENDTAB
  0
TABLE
  2
APPID
  5
9
330
0
100
AcDbSymbolTable
 70
     1
  0
APPID
  5
12
330
9
100
AcDbSymbolTableRecord
100
AcDbRegAppTableRecord
  2
ACAD
 70
     0
  0
ENDTAB
  0
TABLE
  2
DIMSTYLE
  5
A
330
0
100
AcDbSymbolTable
 70
     1
100
AcDbDimStyleTable
  0
DIMSTYLE
105
27
330
A
100
AcDbSymbolTableRecord
100
AcDbDimStyleTableRecord
  2
ISO-25
 70
     0
 41
2.5
 42
0.625
 43
3.75
 44
1.25
 73
     0
 74
     0
 77
     1
 78
     8
140
2.5
141
2.5
143
0.0393700787
147
0.625
171
     3
172
     1
178
     0
271
     2
272
     2
274
     3
278
    44
283
     0
284
     8
340
11
  0
ENDTAB
  0
TABLE
  2
BLOCK_RECORD
  5
1
330
0
100
AcDbSymbolTable
 70
     2
  0
BLOCK_RECORD
  5
1F
330
1
100
AcDbSymbolTableRecord
100
AcDbBlockTableRecord
  2
*Model_Space
340
22
  0
BLOCK_RECORD
  5
1B
330
1
100
AcDbSymbolTableRecord
100
AcDbBlockTableRecord
  2
*Paper_Space
340
1E
  0
BLOCK_RECORD
  5
23
330
1
100
AcDbSymbolTableRecord
100
AcDbBlockTableRecord
  2
*Paper_Space0
340
26
  0
BLOCK_RECORD
  5
A4
330
1
100
AcDbSymbolTableRecord
100
AcDbBlockTableRecord
  2
SW_CENTERMARKSYMBOL_0
340
0
102
{BLKREFS
331
AF
102
}
  0
ENDTAB
  0
ENDSEC
  0
SECTION
  2
BLOCKS
  0
BLOCK
  5
20
330
1F
100
AcDbEntity
  8
0
100
AcDbBlockBegin
  2
*Model_Space
 70
     0
 10
0.0
 20
0.0
 30
0.0
  3
*Model_Space
  1

  0
ENDBLK
  5
21
330
1F
100
AcDbEntity
  8
0
100
AcDbBlockEnd
  0
BLOCK
  5
1C
330
1B
100
AcDbEntity
 67
     1
  8
0
100
AcDbBlockBegin
  2
*Paper_Space
 70
     0
 10
0.0
 20
0.0
 30
0.0
  3
*Paper_Space
  1

  0
ENDBLK
  5
1D
330
1B
100
AcDbEntity
 67
     1
  8
0
100
AcDbBlockEnd
  0
BLOCK
  5
24
330
23
100
AcDbEntity
  8
0
100
AcDbBlockBegin
  2
*Paper_Space0
 70
     0
 10
0.0
 20
0.0
 30
0.0
  3
*Paper_Space0
  1

  0
ENDBLK
  5
25
330
23
100
AcDbEntity
  8
0
100
AcDbBlockEnd
  0
BLOCK
  5
A5
330
A4
100
AcDbEntity
  8
0
100
AcDbBlockBegin
  2
SW_CENTERMARKSYMBOL_0
 70
     0
 10
0.0
 20
0.0
 30
0.0
  3
SW_CENTERMARKSYMBOL_0
  1

  0
LINE
  5
A7
330
A4
100
AcDbEntity
  8
ОСНОВНОЙ
 62
     0
100
AcDbLine
 10
0.0
 20
0.0
 30
0.0
 11
0.0
 21
2.5
 31
0.0
  0
LINE
  5
A8
330
A4
100
AcDbEntity
  8
ОСНОВНОЙ
 62
     0
100
AcDbLine
 10
0.0
 20
0.0
 30
0.0
 11
-2.5
 21
0.0
 31
0.0
  0
LINE
  5
A9
330
A4
100
AcDbEntity
  8
ОСНОВНОЙ
 62
     0
100
AcDbLine
 10
0.0
 20
0.0
 30
0.0
 11
0.0
 21
-2.5
 31
0.0
  0
LINE
  5
AA
330
A4
100
AcDbEntity
  8
ОСНОВНОЙ
 62
     0
100
AcDbLine
 10
0.0
 20
0.0
 30
0.0
 11
2.5
 21
0.0
 31
0.0
  0
LINE
  5
AB
330
A4
100
AcDbEntity
  8
ОСНОВНОЙ
 62
     0
100
AcDbLine
 10
0.0
 20
5.0
 30
0.0
 11
0.0
 21
33.4804853108
 31
0.0
  0
LINE
  5
AC
330
A4
100
AcDbEntity
  8
ОСНОВНОЙ
 62
     0
100
AcDbLine
 10
-5.0
 20
0.0
 30
0.0
 11
-37.5975136096
 21
0.0
 31
0.0
  0
LINE
  5
AD
330
A4
100
AcDbEntity
  8
ОСНОВНОЙ
 62
     0
100
AcDbLine
 10
0.0
 20
-5.0
 30
0.0
 11
0.0
 21
-33.4804853108
 31
0.0
  0
LINE
  5
AE
330
A4
100
AcDbEntity
  8
ОСНОВНОЙ
 62
     0
100
AcDbLine
 10
5.0
 20
0.0
 30
0.0
 11
36.8884358372
 21
0.0
 31
0.0
  0
ENDBLK
  5
A6
330
A4
100
AcDbEntity
  8
0
100
AcDbBlockEnd
  0
ENDSEC
  0
SECTION
  2
ENTITIES
  0
LINE
  5
65
330
1F
100
AcDbEntity
  8
0
  6
Continuous
 62
     7
100
AcDbLine
 10
26.7079011045
 20
232.7589747815
 30
0.0
 11
26.4163101303
 21
216.0537390595
 31
0.0
  0
LINE
  5
66
330
1F
100
AcDbEntity
  8
0
  6
Continuous
 62
     7
100
AcDbLine
 10
96.5998888659
 20
216.0537390595
 30
0.0
 11
96.3082978918
 21
232.7589747815
 31
0.0
  0
ARC
  5
67
330
1F
100
AcDbEntity
  8
0
  6
Continuous
 62
     7
100
AcDbCircle
 10
96.0083435832
 20
232.7537390595
 30
0.0
 40
0.3000000000000147
100
AcDbArc
 50
1.0
 51
90.0
  0
ARC
  5
68
330
1F
100
AcDbEntity
  8
0
  6
Continuous
 62
     7
100
AcDbCircle
 10
27.0078554131
 20
232.7537390595
 30
0.0
 40
0.3000000000000018
100
AcDbArc
 50
90.0
 51
178.9999999999
  0
LINE
  5
69
330
1F
100
AcDbEntity
  8
0
  6
Continuous
 62
     7
100
AcDbLine
 10
51.4622048142
 20
216.0537390595
 30
0.0
 11
38.4718237575
 21
216.0537390595
 31
0.0
  0
LINE
  5
6A
330
1F
100
AcDbEntity
  8
0
  6
Continuous
 62
     7
100
AcDbLine
 10
71.553994182
 20
216.0537390595
 30
0.0
 11
51.4622048142
 21
216.0537390595
 31
0.0
  0
LINE
  5
6B
330
1F
100
AcDbEntity
  8
0
  6
Continuous
 62
     7
100
AcDbLine
 10
84.5443752388
 20
216.0537390595
 30
0.0
 11
71.553994182
 21
216.0537390595
 31
0.0
  0
LINE
  5
6C
330
1F
100
AcDbEntity
  8
0
  6
Continuous
 62
     7
100
AcDbLine
 10
38.9841169998
 20
233.0537390595
 30
0.0
 11
51.4622048142
 21
233.0537390595
 31
0.0
  0
LINE
  5
6D
330
1F
100
AcDbEntity
  8
0
  6
Continuous
 62
     7
100
AcDbLine
 10
71.553994182
 20
233.0537390595
 30
0.0
 11
84.0320819965
 21
233.0537390595
 31
0.0
  0
LINE
  5
6E
330
1F
100
AcDbEntity
  8
0
  6
Continuous
 62
     7
100
AcDbLine
 10
51.4622048142
 20
233.0537390595
 30
0.0
 11
71.553994182
 21
233.0537390595
 31
0.0
  0
ARC
  5
6F
330
1F
100
AcDbEntity
  8
0
  6
Continuous
 62
     7
100
AcDbCircle
 10
30.2283449723
 20
233.3537390595
 30
0.0
 40
0.3000000000020125
100
AcDbArc
 50
270.0
 51
356.0000000001
  0
ARC
  5
70
330
1F
100
AcDbEntity
  8
0
  6
Continuous
 62
     7
100
AcDbCircle
 10
92.787854024
 20
233.3537390595
 30
0.0
 40
0.3000000000020196
100
AcDbArc
 50
183.9999999999
 51
270.0
  0
ARC
  5
71
330
1F
100
AcDbEntity
  8
0
  6
Continuous
 62
     7
100
AcDbCircle
 10
30.2283449723
 20
215.7537390595
 30
0.0
 40
0.3000000000018182
100
AcDbArc
 50
3.9999999994
 51
90.0
  0
ARC
  5
72
330
1F
100
AcDbEntity
  8
0
  6
Continuous
 62
     7
100
AcDbCircle
 10
92.787854024
 20
215.7537390595
 30
0.0
 40
0.3000000000018253
100
AcDbArc
 50
90.0
 51
176.0000000006
  0
LINE
  5
73
330
1F
100
AcDbEntity
  8
0
  6
Continuous
 62
     7
100
AcDbLine
 10
92.4885848089
 20
215.7746660017
 30
0.0
 11
90.4355028502
 21
186.4142261121
 31
0.0
  0
LINE
  5
74
330
1F
100
AcDbEntity
  8
0
  6
Continuous
 62
     7
100
AcDbLine
 10
30.5276141874
 20
215.7746660017
 30
0.0
 11
32.5806961461
 21
186.4142261121
 31
0.0
  0
LINE
  5
75
330
1F
100
AcDbEntity
  8
0
  6
Continuous
 62
     7
100
AcDbLine
 10
32.5806961461
 20
262.693252007
 30
0.0
 11
30.5276141874
 21
233.3328121174
 31
0.0
  0
LINE
  5
76
330
1F
100
AcDbEntity
  8
0
  6
Continuous
 62
     7
100
AcDbLine
 10
90.4355028502
 20
262.693252007
 30
0.0
 11
92.4885848089
 21
233.3328121174
 31
0.0
  0
ARC
  5
77
330
1F
100
AcDbEntity
  8
0
  6
Continuous
 62
     7
100
AcDbCircle
 10
34.5758242466
 20
262.5537390595
 30
0.0
 40
2.000000000000468
100
AcDbArc
 50
90.0
 51
176.0
  0
LINE
  5
78
330
1F
100
AcDbEntity
  8
0
  6
Continuous
 62
     7
100
AcDbLine
 10
34.5758242466
 20
264.5537390595
 30
0.0
 11
88.4403747496
 21
264.5537390595
 31
0.0
  0
ARC
  5
79
330
1F
100
AcDbEntity
  8
0
  6
Continuous
 62
     7
100
AcDbCircle
 10
88.4403747496
 20
262.5537390595
 30
0.0
 40
2.000000000000475
100
AcDbArc
 50
4.0
 51
90.0
  0
ARC
  5
7A
330
1F
100
AcDbEntity
  8
0
  6
Continuous
 62
     7
100
AcDbCircle
 10
34.5758242466
 20
186.5537390595
 30
0.0
 40
2.00000000000047
100
AcDbArc
 50
184.0
 51
270.0
  0
ARC
  5
7B
330
1F
100
AcDbEntity
  8
0
  6
Continuous
 62
     7
100
AcDbCircle
 10
88.4403747496
 20
186.5537390595
 30
0.0
 40
2.000000000000477
100
AcDbArc
 50
270.0
 51
356.0
  0
LINE
  5
7C
330
1F
100
AcDbEntity
  8
0
  6
Continuous
 62
     7
100
AcDbLine
 10
34.5758242466
 20
184.5537390595
 30
0.0
 11
88.4403747496
 21
184.5537390595
 31
0.0
  0
LINE
  5
7D
330
1F
100
AcDbEntity
  8
0
  6
Continuous
 62
     7
100
AcDbLine
 10
94.5902699227
 20
216.0537390595
 30
0.0
 11
84.5443752388
 21
216.0537390595
 31
0.0
  0
LINE
  5
7E
330
1F
100
AcDbEntity
  8
0
  6
Continuous
 62
     7
100
AcDbLine
 10
38.4718237575
 20
216.0537390595
 30
0.0
 11
28.4259290736
 21
216.0537390595
 31
0.0
  0
LINE
  5
7F
330
1F
100
AcDbEntity
  8
0
  6
Continuous
 62
     7
100
AcDbLine
 10
28.9382223159
 20
233.0537390595
 30
0.0
 11
38.9841169998
 21
233.0537390595
 31
0.0
  0
LINE
  5
80
330
1F
100
AcDbEntity
  8
0
  6
Continuous
 62
     7
100
AcDbLine
 10
84.0320819965
 20
233.0537390595
 30
0.0
 11
94.0779766804
 21
233.0537390595
 31
0.0
  0
LINE
  5
81
330
1F
100
AcDbEntity
  8
0
  6
Continuous
 62
     7
100
AcDbLine
 10
28.4259290736
 20
216.0537390595
 30
0.0
 11
26.4163101303
 21
216.0537390595
 31
0.0
  0
LINE
  5
82
330
1F
100
AcDbEntity
  8
0
  6
Continuous
 62
     7
100
AcDbLine
 10
96.5998888659
 20
216.0537390595
 30
0.0
 11
94.5902699227
 21
216.0537390595
 31
0.0
  0
LINE
  5
83
330
1F
100
AcDbEntity
  8
0
  6
Continuous
 62
     7
100
AcDbLine
 10
94.0779766804
 20
233.0537390595
 30
0.0
 11
96.0083435832
 21
233.0537390595
 31
0.0
  0
LINE
  5
84
330
1F
100
AcDbEntity
  8
0
  6
Continuous
 62
     7
100
AcDbLine
 10
27.0078554131
 20
233.0537390595
 30
0.0
 11
28.9382223159
 21
233.0537390595
 31
0.0
  0
LINE
  5
85
330
1F
100
AcDbEntity
  8
0
  6
Continuous
 62
     7
100
AcDbLine
 10
51.4622048142
 20
216.0537390595
 30
0.0
 11
51.4622048142
 21
232.7589747815
 31
0.0
  0
LINE
  5
86
330
1F
100
AcDbEntity
  8
0
  6
Continuous
 62
     7
100
AcDbLine
 10
38.4718237575
 20
216.0537390595
 30
0.0
 11
38.7243489486
 21
232.7589747815
 31
0.0
  0
LINE
  5
87
330
1F
100
AcDbEntity
  8
0
  6
Continuous
 62
     7
100
AcDbLine
 10
71.553994182
 20
216.0537390595
 30
0.0
 11
71.553994182
 21
232.7589747815
 31
0.0
  0
LINE
  5
88
330
1F
100
AcDbEntity
  8
0
  6
Continuous
 62
     7
100
AcDbLine
 10
84.5443752388
 20
216.0537390595
 30
0.0
 11
84.2918500477
 21
232.7589747815
 31
0.0
  0
LINE
  5
89
330
1F
100
AcDbEntity
  8
0
  6
Continuous
 62
     7
100
AcDbLine
 10
51.4622048142
 20
233.0537390595
 30
0.0
 11
51.4622048142
 21
232.7589747815
 31
0.0
  0
ARC
  5
8A
330
1F
100
AcDbEntity
  8
0
  6
Continuous
 62
     7
100
AcDbCircle
 10
39.0052609457
 20
232.7732599181
 30
0.0
 40
0.2812749814996548
100
AcDbArc
 50
94.311093428
 51
182.9111380559
  0
ARC
  5
8B
330
1F
100
AcDbEntity
  8
0
  6
Continuous
 62
     7
100
AcDbCircle
 10
84.0109380506
 20
232.7732599181
 30
0.0
 40
0.2812749814996853
100
AcDbArc
 50
357.0888619442
 51
85.6889065719
  0
LINE
  5
8C
330
1F
100
AcDbEntity
  8
0
  6
Continuous
 62
     7
100
AcDbLine
 10
71.553994182
 20
233.0537390595
 30
0.0
 11
71.553994182
 21
232.7589747815
 31
0.0
  0
LINE
  5
8D
330
1F
100
AcDbEntity
  8
0
  6
Continuous
 62
     7
100
AcDbLine
 10
94.5902699227
 20
216.0537390595
 30
0.0
 11
94.3377447316
 21
232.7589747815
 31
0.0
  0
LINE
  5
8E
330
1F
100
AcDbEntity
  8
0
  6
Continuous
 62
     7
100
AcDbLine
 10
28.4259290736
 20
216.0537390595
 30
0.0
 11
28.6784542647
 21
232.7589747815
 31
0.0
  0
ARC
  5
8F
330
1F
100
AcDbEntity
  8
0
  6
Continuous
 62
     7
100
AcDbCircle
 10
28.9593662618
 20
232.7732599181
 30
0.0
 40
0.2812749814996556
100
AcDbArc
 50
94.311093428
 51
182.9111380559
  0
ARC
  5
90
330
1F
100
AcDbEntity
  8
0
  6
Continuous
 62
     7
100
AcDbCircle
 10
94.0568327345
 20
232.7732599181
 30
0.0
 40
0.281274981499768
100
AcDbArc
 50
357.0888619441
 51
85.6889065719
  0
LINE
  5
91
330
1F
100
AcDbEntity
  8
0
  6
Continuous
 62
     7
100
AcDbLine
 10
26.7079011045
 20
232.7589747815
 30
0.0
 11
28.6784542647
 21
232.7589747815
 31
0.0
  0
ARC
  5
92
330
1F
100
AcDbEntity
  8
0
  6
Continuous
 62
     7
100
AcDbCircle
 10
61.5080994981
 20
126.2355621527
 30
0.0
 40
30.98048531076
100
AcDbArc
 50
180.0
 51
0.0
  0
ARC
  5
93
330
1F
100
AcDbEntity
  8
0
  6
Continuous
 62
     7
100
AcDbCircle
 10
51.4622048142
 20
143.6355621527
 30
0.0
 40
15.00000000000296
100
AcDbArc
 50
90.0
 51
150.0
  0
LINE
  5
94
330
1F
100
AcDbEntity
  8
0
  6
Continuous
 62
     7
100
AcDbLine
 10
51.4622048142
 20
158.6355621527
 30
0.0
 11
71.553994182
 21
158.6355621527
 31
0.0
  0
ARC
  5
95
330
1F
100
AcDbEntity
  8
0
  6
Continuous
 62
     7
100
AcDbCircle
 10
71.553994182
 20
143.6355621527
 30
0.0
 40
15.00000000000297
100
AcDbArc
 50
30.0
 51
90.0
  0
LINE
  5
96
330
1F
100
AcDbEntity
  8
0
  6
Continuous
 62
     7
100
AcDbLine
 10
28.4259290736
 20
133.7355621527
 30
0.0
 11
38.4718237575
 21
151.1355621527
 31
0.0
  0
ARC
  5
97
330
1F
100
AcDbEntity
  8
0
  6
Continuous
 62
     7
100
AcDbCircle
 10
41.4163101303
 20
126.2355621527
 30
0.0
 40
15.00000000000299
100
AcDbArc
 50
150.0
 51
210.0
  0
LINE
  5
98
330
1F
100
AcDbEntity
  8
0
  6
Continuous
 62
     7
100
AcDbLine
 10
38.4718237575
 20
101.3355621527
 30
0.0
 11
28.4259290736
 21
118.7355621527
 31
0.0
  0
LINE
  5
99
330
1F
100
AcDbEntity
  8
0
  6
Continuous
 62
     7
100
AcDbLine
 10
94.5902699227
 20
118.7355621527
 30
0.0
 11
84.5443752388
 21
101.3355621527
 31
0.0
  0
ARC
  5
9A
330
1F
100
AcDbEntity
  8
0
  6
Continuous
 62
     7
100
AcDbCircle
 10
71.553994182
 20
108.8355621527
 30
0.0
 40
15.00000000000297
100
AcDbArc
 50
270.0
 51
330.0
  0
ARC
  5
9B
330
1F
100
AcDbEntity
  8
0
  6
Continuous
 62
     7
100
AcDbCircle
 10
51.4622048142
 20
108.8355621527
 30
0.0
 40
15.00000000000296
100
AcDbArc
 50
210.0
 51
270.0
  0
LINE
  5
9C
330
1F
100
AcDbEntity
  8
0
  6
Continuous
 62
     7
100
AcDbLine
 10
71.553994182
 20
93.8355621527
 30
0.0
 11
51.4622048142
 21
93.8355621527
 31
0.0
  0
LINE
  5
9D
330
1F
100
AcDbEntity
  8
0
  6
Continuous
 62
     7
100
AcDbLine
 10
84.5443752388
 20
151.1355621527
 30
0.0
 11
94.5902699227
 21
133.7355621527
 31
0.0
  0
ARC
  5
9E
330
1F
100
AcDbEntity
  8
0
  6
Continuous
 62
     7
100
AcDbCircle
 10
81.5998888659
 20
126.2355621527
 30
0.0
 40
15.00000000000297
100
AcDbArc
 50
330.0
 51
30.0
  0
ARC
  5
9F
330
1F
100
AcDbEntity
  8
0
  6
Continuous
 62
     7
100
AcDbCircle
 10
61.5080994981
 20
126.2355621527
 30
0.0
 40
4.25
100
AcDbArc
 50
0.0
 51
180.0
  0
ARC
  5
A0
330
1F
100
AcDbEntity
  8
0
  6
Continuous
 62
     7
100
AcDbCircle
 10
61.5080994981
 20
126.2355621527
 30
0.0
 40
4.25
100
AcDbArc
 50
180.0
 51
0.0
  0
ARC
  5
A1
330
1F
100
AcDbEntity
  8
0
  6
Continuous
 62
     7
100
AcDbCircle
 10
61.5080994981
 20
126.2355621527
 30
0.0
 40
30.98048531076
100
AcDbArc
 50
0.0
 51
180.0
  0
ARC
  5
A2
330
1F
100
AcDbEntity
  8
0
  6
Continuous
 62
     7
100
AcDbCircle
 10
61.5080994981
 20
126.2355621527
 30
0.0
 40
26.9322752515
100
AcDbArc
 50
0.0
 51
180.0
  0
ARC
  5
A3
330
1F
100
AcDbEntity
  8
0
  6
Continuous
 62
     7
100
AcDbCircle
 10
61.5080994981
 20
126.2355621527
 30
0.0
 40
26.9322752515
100
AcDbArc
 50
180.0
 51
0.0
  0
INSERT
  5
AF
330
1F
100
AcDbEntity
  8
ОСНОВНОЙ
 62
     7
100
AcDbBlockReference
  2
SW_CENTERMARKSYMBOL_0
 10
61.5080994981
 20
126.2355621527
 30
0.0
  0
ARC
  5
B0
330
1F
100
AcDbEntity
  8
0
  6
Continuous
 62
     7
100
AcDbCircle
 10
155.0024572916
 20
205.9537390595
 30
0.0
 40
0.6000000000000061
100
AcDbArc
 50
90.0
 51
131.8104220465
  0
LINE
  5
B1
330
1F
100
AcDbEntity
  8
0
  6
Continuous
 62
     7
100
AcDbLine
 10
154.6024564553
 20
206.400951907
 30
0.0
 11
154.6024572916
 21
202.5537390595
 31
0.0
  0
LINE
  5
B2
330
1F
100
AcDbEntity
  8
0
  6
Continuous
 62
     7
100
AcDbLine
 10
159.750533503
 20
205.0537390595
 30
0.0
 11
163.0543810803
 21
205.0537390595
 31
0.0
  0
LINE
  5
B3
330
1F
100
AcDbEntity
  8
0
  6
Continuous
 62
     7
100
AcDbLine
 10
157.1524572916
 20
203.5537390595
 30
0.0
 11
159.750533503
 21
205.0537390595
 31
0.0
  0
LINE
  5
B4
330
1F
100
AcDbEntity
  8
0
  6
Continuous
 62
     7
100
AcDbLine
 10
157.1524572916
 20
188.5037390595
 30
0.0
 11
157.1524572916
 21
203.5537390595
 31
0.0
  0
LINE
  5
B5
330
1F
100
AcDbEntity
  8
0
  6
Continuous
 62
     7
100
AcDbLine
 10
155.9024572916
 20
187.2537390595
 30
0.0
 11
157.1524572916
 21
188.5037390595
 31
0.0
  0
LINE
  5
B6
330
1F
100
AcDbEntity
  8
0
  6
Continuous
 62
     7
100
AcDbLine
 10
155.9024572916
 20
184.7037390595
 30
0.0
 11
155.9024572916
 21
187.2537390595
 31
0.0
  0
LINE
  5
B7
330
1F
100
AcDbEntity
  8
0
  6
Continuous
 62
     7
100
AcDbLine
 10
155.7524572916
 20
184.5537390595
 30
0.0
 11
155.9024572916
 21
184.7037390595
 31
0.0
  0
LINE
  5
B8
330
1F
100
AcDbEntity
  8
0
  6
Continuous
 62
     7
100
AcDbLine
 10
154.6024572916
 20
188.5537390595
 30
0.0
 11
154.6024572916
 21
184.5537390595
 31
0.0
  0
LINE
  5
B9
330
1F
100
AcDbEntity
  8
0
  6
Continuous
 62
     7
100
AcDbLine
 10
155.2024572916
 20
188.5537390595
 30
0.0
 11
155.2024572916
 21
193.5537390595
 31
0.0
  0
LINE
  5
BA
330
1F
100
AcDbEntity
  8
0
  6
Continuous
 62
     7
100
AcDbLine
 10
154.6024572916
 20
197.5537390595
 30
0.0
 11
154.6024572916
 21
193.5537390595
 31
0.0
  0
LINE
  5
BB
330
1F
100
AcDbEntity
  8
0
  6
Continuous
 62
     7
100
AcDbLine
 10
155.2024572916
 20
197.5537390595
 30
0.0
 11
155.2024572916
 21
202.5537390595
 31
0.0
  0
LINE
  5
BC
330
1F
100
AcDbEntity
  8
0
  6
Continuous
 62
     7
100
AcDbLine
 10
155.0024572916
 20
206.5537390595
 30
0.0
 11
167.8024572916
 21
206.5537390595
 31
0.0
  0
ARC
  5
BD
330
1F
100
AcDbEntity
  8
0
  6
Continuous
 62
     7
100
AcDbCircle
 10
167.8024572916
 20
205.9537390595
 30
0.0
 40
0.6000000000000061
100
AcDbArc
 50
48.1895779535
 51
90.0
  0
LINE
  5
BE
330
1F
100
AcDbEntity
  8
0
  6
Continuous
 62
     7
100
AcDbLine
 10
168.2024572916
 20
202.5537390595
 30
0.0
 11
168.202458128
 21
206.400951907
 31
0.0
  0
LINE
  5
BF
330
1F
100
AcDbEntity
  8
0
  6
Continuous
 62
     7
100
AcDbLine
 10
167.6024572916
 20
202.5537390595
 30
0.0
 11
167.6024572916
 21
197.5537390595
 31
0.0
  0
LINE
  5
C0
330
1F
100
AcDbEntity
  8
0
  6
Continuous
 62
     7
100
AcDbLine
 10
168.2024572916
 20
193.5537390595
 30
0.0
 11
168.2024572916
 21
197.5537390595
 31
0.0
  0
LINE
  5
C1
330
1F
100
AcDbEntity
  8
0
  6
Continuous
 62
     7
100
AcDbLine
 10
167.6024572916
 20
193.5537390595
 30
0.0
 11
167.6024572916
 21
188.5537390595
 31
0.0
  0
LINE
  5
C2
330
1F
100
AcDbEntity
  8
0
  6
Continuous
 62
     7
100
AcDbLine
 10
168.2024572916
 20
184.5537390595
 30
0.0
 11
168.2024572916
 21
188.5537390595
 31
0.0
  0
LINE
  5
C3
330
1F
100
AcDbEntity
  8
0
  6
Continuous
 62
     7
100
AcDbLine
 10
166.9024572916
 20
184.7037390595
 30
0.0
 11
167.0524572916
 21
184.5537390595
 31
0.0
  0
LINE
  5
C4
330
1F
100
AcDbEntity
  8
0
  6
Continuous
 62
     7
100
AcDbLine
 10
166.9024572916
 20
187.2537390595
 30
0.0
 11
166.9024572916
 21
184.7037390595
 31
0.0
  0
LINE
  5
C5
330
1F
100
AcDbEntity
  8
0
  6
Continuous
 62
     7
100
AcDbLine
 10
165.6524572916
 20
188.5037390595
 30
0.0
 11
166.9024572916
 21
187.2537390595
 31
0.0
  0
LINE
  5
C6
330
1F
100
AcDbEntity
  8
0
  6
Continuous
 62
     7
100
AcDbLine
 10
165.6524572916
 20
203.5537390595
 30
0.0
 11
165.6524572916
 21
188.5037390595
 31
0.0
  0
LINE
  5
C7
330
1F
100
AcDbEntity
  8
0
  6
Continuous
 62
     7
100
AcDbLine
 10
163.0543810803
 20
205.0537390595
 30
0.0
 11
165.6524572916
 21
203.5537390595
 31
0.0
  0
LINE
  5
C8
330
1F
100
AcDbEntity
  8
0
  6
Continuous
 62
     7
100
AcDbLine
 10
167.6024572916
 20
197.5537390595
 30
0.0
 11
168.2024572916
 21
197.5537390595
 31
0.0
  0
LINE
  5
C9
330
1F
100
AcDbEntity
  8
0
  6
Continuous
 62
     7
100
AcDbLine
 10
154.6024572916
 20
197.5537390595
 30
0.0
 11
155.2024572916
 21
197.5537390595
 31
0.0
  0
LINE
  5
CA
330
1F
100
AcDbEntity
  8
0
  6
Continuous
 62
     7
100
AcDbLine
 10
167.0524572916
 20
184.5537390595
 30
0.0
 11
168.2024572916
 21
184.5537390595
 31
0.0
  0
LINE
  5
CB
330
1F
100
AcDbEntity
  8
0
  6
Continuous
 62
     7
100
AcDbLine
 10
154.6024572916
 20
184.5537390595
 30
0.0
 11
155.7524572916
 21
184.5537390595
 31
0.0
  0
LINE
  5
CC
330
1F
100
AcDbEntity
  8
0
  6
Continuous
 62
     7
100
AcDbLine
 10
167.6024572916
 20
193.5537390595
 30
0.0
 11
168.2024572916
 21
193.5537390595
 31
0.0
  0
LINE
  5
CD
330
1F
100
AcDbEntity
  8
0
  6
Continuous
 62
     7
100
AcDbLine
 10
154.6024572916
 20
193.5537390595
 30
0.0
 11
155.2024572916
 21
193.5537390595
 31
0.0
  0
LINE
  5
CE
330
1F
100
AcDbEntity
  8
0
  6
Continuous
 62
     7
100
AcDbLine
 10
167.6024572916
 20
188.5537390595
 30
0.0
 11
168.2024572916
 21
188.5537390595
 31
0.0
  0
LINE
  5
CF
330
1F
100
AcDbEntity
  8
0
  6
Continuous
 62
     7
100
AcDbLine
 10
154.6024572916
 20
188.5537390595
 30
0.0
 11
155.2024572916
 21
188.5537390595
 31
0.0
  0
LINE
  5
D0
330
1F
100
AcDbEntity
  8
0
  6
Continuous
 62
     7
100
AcDbLine
 10
167.6024572916
 20
202.5537390595
 30
0.0
 11
168.2024572916
 21
202.5537390595
 31
0.0
  0
LINE
  5
D1
330
1F
100
AcDbEntity
  8
0
  6
Continuous
 62
     7
100
AcDbLine
 10
154.6024572916
 20
202.5537390595
 30
0.0
 11
155.2024572916
 21
202.5537390595
 31
0.0
  0
LINE
  5
D2
330
1F
100
AcDbEntity
  8
0
  6
Continuous
 62
     7
100
AcDbLine
 10
161.4024572916
 20
184.7037390595
 30
0.0
 11
166.9024572916
 21
184.7037390595
 31
0.0
  0
LINE
  5
D3
330
1F
100
AcDbEntity
  8
0
  6
Continuous
 62
     7
100
AcDbLine
 10
161.4024572916
 20
184.5537390595
 30
0.0
 11
167.0524572916
 21
184.5537390595
 31
0.0
  0
LINE
  5
D4
330
1F
100
AcDbEntity
  8
0
  6
Continuous
 62
     7
100
AcDbLine
 10
161.4024572916
 20
187.2537390595
 30
0.0
 11
166.9024572916
 21
187.2537390595
 31
0.0
  0
LINE
  5
D5
330
1F
100
AcDbEntity
  8
0
  6
Continuous
 62
     7
100
AcDbLine
 10
161.4024572916
 20
188.5037390595
 30
0.0
 11
165.6524572916
 21
188.5037390595
 31
0.0
  0
LINE
  5
D6
330
1F
100
AcDbEntity
  8
0
  6
Continuous
 62
     7
100
AcDbLine
 10
161.4024572916
 20
203.5537390595
 30
0.0
 11
165.6524572916
 21
203.5537390595
 31
0.0
  0
LINE
  5
D7
330
1F
100
AcDbEntity
  8
0
  6
Continuous
 62
     7
100
AcDbLine
 10
161.4024572916
 20
203.5537390595
 30
0.0
 11
157.1524572916
 21
203.5537390595
 31
0.0
  0
LINE
  5
D8
330
1F
100
AcDbEntity
  8
0
  6
Continuous
 62
     7
100
AcDbLine
 10
161.4024572916
 20
188.5037390595
 30
0.0
 11
157.1524572916
 21
188.5037390595
 31
0.0
  0
LINE
  5
D9
330
1F
100
AcDbEntity
  8
0
  6
Continuous
 62
     7
100
AcDbLine
 10
161.4024572916
 20
187.2537390595
 30
0.0
 11
155.9024572916
 21
187.2537390595
 31
0.0
  0
LINE
  5
DA
330
1F
100
AcDbEntity
  8
0
  6
Continuous
 62
     7
100
AcDbLine
 10
161.4024572916
 20
184.7037390595
 30
0.0
 11
155.9024572916
 21
184.7037390595
 31
0.0
  0
LINE
  5
DB
330
1F
100
AcDbEntity
  8
0
  6
Continuous
 62
     7
100
AcDbLine
 10
161.4024572916
 20
184.5537390595
 30
0.0
 11
155.7524572916
 21
184.5537390595
 31
0.0
  0
ARC
  5
DC
330
1F
100
AcDbEntity
  8
0
  6
Continuous
 62
     7
100
AcDbCircle
 10
167.8024572916
 20
243.1537390595
 30
0.0
 40
0.6000000000000061
100
AcDbArc
 50
270.0
 51
311.8104220465
  0
LINE
  5
DD
330
1F
100
AcDbEntity
  8
0
  6
Continuous
 62
     7
100
AcDbLine
 10
168.202458128
 20
242.7065262121
 30
0.0
 11
168.2024572916
 21
246.5537390595
 31
0.0
  0
LINE
  5
DE
330
1F
100
AcDbEntity
  8
0
  6
Continuous
 62
     7
100
AcDbLine
 10
165.6524572916
 20
260.6037390595
 30
0.0
 11
165.6524572916
 21
245.5537390595
 31
0.0
  0
LINE
  5
DF
330
1F
100
AcDbEntity
  8
0
  6
Continuous
 62
     7
100
AcDbLine
 10
166.9024572916
 20
261.8537390595
 30
0.0
 11
165.6524572916
 21
260.6037390595
 31
0.0
  0
LINE
  5
E0
330
1F
100
AcDbEntity
  8
0
  6
Continuous
 62
     7
100
AcDbLine
 10
166.9024572916
 20
264.4037390595
 30
0.0
 11
166.9024572916
 21
261.8537390595
 31
0.0
  0
LINE
  5
E1
330
1F
100
AcDbEntity
  8
0
  6
Continuous
 62
     7
100
AcDbLine
 10
167.0524572916
 20
264.5537390595
 30
0.0
 11
166.9024572916
 21
264.4037390595
 31
0.0
  0
LINE
  5
E2
330
1F
100
AcDbEntity
  8
0
  6
Continuous
 62
     7
100
AcDbLine
 10
168.2024572916
 20
260.5537390595
 30
0.0
 11
168.2024572916
 21
264.5537390595
 31
0.0
  0
LINE
  5
E3
330
1F
100
AcDbEntity
  8
0
  6
Continuous
 62
     7
100
AcDbLine
 10
167.6024572916
 20
260.5537390595
 30
0.0
 11
167.6024572916
 21
255.5537390595
 31
0.0
  0
LINE
  5
E4
330
1F
100
AcDbEntity
  8
0
  6
Continuous
 62
     7
100
AcDbLine
 10
168.2024572916
 20
251.5537390595
 30
0.0
 11
168.2024572916
 21
255.5537390595
 31
0.0
  0
LINE
  5
E5
330
1F
100
AcDbEntity
  8
0
  6
Continuous
 62
     7
100
AcDbLine
 10
167.6024572916
 20
251.5537390595
 30
0.0
 11
167.6024572916
 21
246.5537390595
 31
0.0
  0
LINE
  5
E6
330
1F
100
AcDbEntity
  8
0
  6
Continuous
 62
     7
100
AcDbLine
 10
167.8024572916
 20
242.5537390595
 30
0.0
 11
155.0024572916
 21
242.5537390595
 31
0.0
  0
ARC
  5
E7
330
1F
100
AcDbEntity
  8
0
  6
Continuous
 62
     7
100
AcDbCircle
 10
155.0024572916
 20
243.1537390595
 30
0.0
 40
0.6000000000000061
100
AcDbArc
 50
228.1895779535
 51
270.0
  0
LINE
  5
E8
330
1F
100
AcDbEntity
  8
0
  6
Continuous
 62
     7
100
AcDbLine
 10
154.6024572916
 20
246.5537390595
 30
0.0
 11
154.6024564553
 21
242.7065262121
 31
0.0
  0
LINE
  5
E9
330
1F
100
AcDbEntity
  8
0
  6
Continuous
 62
     7
100
AcDbLine
 10
155.2024572916
 20
246.5537390595
 30
0.0
 11
155.2024572916
 21
251.5537390595
 31
0.0
  0
LINE
  5
EA
330
1F
100
AcDbEntity
  8
0
  6
Continuous
 62
     7
100
AcDbLine
 10
154.6024572916
 20
255.5537390595
 30
0.0
 11
154.6024572916
 21
251.5537390595
 31
0.0
  0
LINE
  5
EB
330
1F
100
AcDbEntity
  8
0
  6
Continuous
 62
     7
100
AcDbLine
 10
155.2024572916
 20
255.5537390595
 30
0.0
 11
155.2024572916
 21
260.5537390595
 31
0.0
  0
LINE
  5
EC
330
1F
100
AcDbEntity
  8
0
  6
Continuous
 62
     7
100
AcDbLine
 10
154.6024572916
 20
264.5537390595
 30
0.0
 11
154.6024572916
 21
260.5537390595
 31
0.0
  0
LINE
  5
ED
330
1F
100
AcDbEntity
  8
0
  6
Continuous
 62
     7
100
AcDbLine
 10
155.9024572916
 20
264.4037390595
 30
0.0
 11
155.7524572916
 21
264.5537390595
 31
0.0
  0
LINE
  5
EE
330
1F
100
AcDbEntity
  8
0
  6
Continuous
 62
     7
100
AcDbLine
 10
155.9024572916
 20
261.8537390595
 30
0.0
 11
155.9024572916
 21
264.4037390595
 31
0.0
  0
LINE
  5
EF
330
1F
100
AcDbEntity
  8
0
  6
Continuous
 62
     7
100
AcDbLine
 10
157.1524572916
 20
260.6037390595
 30
0.0
 11
155.9024572916
 21
261.8537390595
 31
0.0
  0
LINE
  5
F0
330
1F
100
AcDbEntity
  8
0
  6
Continuous
 62
     7
100
AcDbLine
 10
157.1524572916
 20
245.5537390595
 30
0.0
 11
157.1524572916
 21
260.6037390595
 31
0.0
  0
LINE
  5
F1
330
1F
100
AcDbEntity
  8
0
  6
Continuous
 62
     7
100
AcDbLine
 10
159.750533503
 20
244.0537390595
 30
0.0
 11
157.1524572916
 21
245.5537390595
 31
0.0
  0
LINE
  5
F2
330
1F
100
AcDbEntity
  8
0
  6
Continuous
 62
     7
100
AcDbLine
 10
163.0543810803
 20
244.0537390595
 30
0.0
 11
159.750533503
 21
244.0537390595
 31
0.0
  0
LINE
  5
F3
330
1F
100
AcDbEntity
  8
0
  6
Continuous
 62
     7
100
AcDbLine
 10
165.6524572916
 20
245.5537390595
 30
0.0
 11
163.0543810803
 21
244.0537390595
 31
0.0
  0
LINE
  5
F4
330
1F
100
AcDbEntity
  8
0
  6
Continuous
 62
     7
100
AcDbLine
 10
155.2024572916
 20
260.5537390595
 30
0.0
 11
154.6024572916
 21
260.5537390595
 31
0.0
  0
LINE
  5
F5
330
1F
100
AcDbEntity
  8
0
  6
Continuous
 62
     7
100
AcDbLine
 10
168.2024572916
 20
260.5537390595
 30
0.0
 11
167.6024572916
 21
260.5537390595
 31
0.0
  0
LINE
  5
F6
330
1F
100
AcDbEntity
  8
0
  6
Continuous
 62
     7
100
AcDbLine
 10
155.2024572916
 20
251.5537390595
 30
0.0
 11
154.6024572916
 21
251.5537390595
 31
0.0
  0
LINE
  5
F7
330
1F
100
AcDbEntity
  8
0
  6
Continuous
 62
     7
100
AcDbLine
 10
168.2024572916
 20
251.5537390595
 30
0.0
 11
167.6024572916
 21
251.5537390595
 31
0.0
  0
LINE
  5
F8
330
1F
100
AcDbEntity
  8
0
  6
Continuous
 62
     7
100
AcDbLine
 10
155.2024572916
 20
246.5537390595
 30
0.0
 11
154.6024572916
 21
246.5537390595
 31
0.0
  0
LINE
  5
F9
330
1F
100
AcDbEntity
  8
0
  6
Continuous
 62
     7
100
AcDbLine
 10
168.2024572916
 20
246.5537390595
 30
0.0
 11
167.6024572916
 21
246.5537390595
 31
0.0
  0
LINE
  5
FA
330
1F
100
AcDbEntity
  8
0
  6
Continuous
 62
     7
100
AcDbLine
 10
155.7524572916
 20
264.5537390595
 30
0.0
 11
154.6024572916
 21
264.5537390595
 31
0.0
  0
LINE
  5
FB
330
1F
100
AcDbEntity
  8
0
  6
Continuous
 62
     7
100
AcDbLine
 10
168.2024572916
 20
264.5537390595
 30
0.0
 11
167.0524572916
 21
264.5537390595
 31
0.0
  0
LINE
  5
FC
330
1F
100
AcDbEntity
  8
0
  6
Continuous
 62
     7
100
AcDbLine
 10
155.2024572916
 20
255.5537390595
 30
0.0
 11
154.6024572916
 21
255.5537390595
 31
0.0
  0
LINE
  5
FD
330
1F
100
AcDbEntity
  8
0
  6
Continuous
 62
     7
100
AcDbLine
 10
168.2024572916
 20
255.5537390595
 30
0.0
 11
167.6024572916
 21
255.5537390595
 31
0.0
  0
LINE
  5
FE
330
1F
100
AcDbEntity
  8
0
  6
Continuous
 62
     7
100
AcDbLine
 10
166.9024572916
 20
264.4037390595
 30
0.0
 11
161.4024572916
 21
264.4037390595
 31
0.0
  0
LINE
  5
FF
330
1F
100
AcDbEntity
  8
0
  6
Continuous
 62
     7
100
AcDbLine
 10
167.0524572916
 20
264.5537390595
 30
0.0
 11
161.4024572916
 21
264.5537390595
 31
0.0
  0
LINE
  5
100
330
1F
100
AcDbEntity
  8
0
  6
Continuous
 62
     7
100
AcDbLine
 10
166.9024572916
 20
261.8537390595
 30
0.0
 11
161.4024572916
 21
261.8537390595
 31
0.0
  0
LINE
  5
101
330
1F
100
AcDbEntity
  8
0
  6
Continuous
 62
     7
100
AcDbLine
 10
165.6524572916
 20
260.6037390595
 30
0.0
 11
161.4024572916
 21
260.6037390595
 31
0.0
  0
LINE
  5
102
330
1F
100
AcDbEntity
  8
0
  6
Continuous
 62
     7
100
AcDbLine
 10
165.6524572916
 20
245.5537390595
 30
0.0
 11
161.4024572916
 21
245.5537390595
 31
0.0
  0
LINE
  5
103
330
1F
100
AcDbEntity
  8
0
  6
Continuous
 62
     7
100
AcDbLine
 10
157.1524572916
 20
245.5537390595
 30
0.0
 11
161.4024572916
 21
245.5537390595
 31
0.0
  0
LINE
  5
104
330
1F
100
AcDbEntity
  8
0
  6
Continuous
 62
     7
100
AcDbLine
 10
155.9024572916
 20
261.8537390595
 30
0.0
 11
161.4024572916
 21
261.8537390595
 31
0.0
  0
LINE
  5
105
330
1F
100
AcDbEntity
  8
0
  6
Continuous
 62
     7
100
AcDbLine
 10
157.1524572916
 20
260.6037390595
 30
0.0
 11
161.4024572916
 21
260.6037390595
 31
0.0
  0
LINE
  5
106
330
1F
100
AcDbEntity
  8
0
  6
Continuous
 62
     7
100
AcDbLine
 10
155.9024572916
 20
264.4037390595
 30
0.0
 11
161.4024572916
 21
264.4037390595
 31
0.0
  0
LINE
  5
107
330
1F
100
AcDbEntity
  8
0
  6
Continuous
 62
     7
100
AcDbLine
 10
155.7524572916
 20
264.5537390595
 30
0.0
 11
161.4024572916
 21
264.5537390595
 31
0.0
  0
LINE
  5
108
330
1F
100
AcDbEntity
  8
0
  6
Continuous
 62
     7
100
AcDbLine
 10
168.2024572916
 20
242.7065260656
 30
0.0
 11
168.2024572916
 21
246.5537390595
 31
0.0
  0
LINE
  5
109
330
1F
100
AcDbEntity
  8
0
  6
Continuous
 62
     7
100
AcDbLine
 10
188.3347325431
 20
264.5537390595
 30
0.0
 11
168.2024572916
 21
264.5537390595
 31
0.0
  0
ARC
  5
10A
330
1F
100
AcDbEntity
  8
0
  6
Continuous
 62
     7
100
AcDbCircle
 10
188.3347325431
 20
262.5537390595
 30
0.0
 40
2.000000000000574
100
AcDbArc
 50
4.0
 51
90.0
  0
LINE
  5
10B
330
1F
100
AcDbEntity
  8
0
  6
Continuous
 62
     7
100
AcDbLine
 10
190.3298606436
 20
262.693252007
 30
0.0
 11
192.3829426024
 21
233.3328121174
 31
0.0
  0
ARC
  5
10C
330
1F
100
AcDbEntity
  8
0
  6
Continuous
 62
     7
100
AcDbCircle
 10
192.6822118175
 20
233.3537390595
 30
0.0
 40
0.3000000000010131
100
AcDbArc
 50
183.9999999999
 51
270.0
  0
LINE
  5
10D
330
1F
100
AcDbEntity
  8
0
  6
Continuous
 62
     7
100
AcDbLine
 10
193.2109120089
 20
233.0537390595
 30
0.0
 11
192.6822118175
 21
233.0537390595
 31
0.0
  0
ARC
  5
10E
330
1F
100
AcDbEntity
  8
0
  6
Continuous
 62
     7
100
AcDbCircle
 10
193.2109120089
 20
232.7537390595
 30
0.0
 40
0.2999999999999829
100
AcDbArc
 50
1.0000000001
 51
90.0
  0
LINE
  5
10F
330
1F
100
AcDbEntity
  8
0
  6
Continuous
 62
     7
100
AcDbLine
 10
193.8024572916
 20
216.0537390595
 30
0.0
 11
193.5108663175
 21
232.7589747815
 31
0.0
  0
LINE
  5
110
330
1F
100
AcDbEntity
  8
0
  6
Continuous
 62
     7
100
AcDbLine
 10
193.8024572916
 20
216.0537390595
 30
0.0
 11
192.6822118175
 21
216.0537390595
 31
0.0
  0
ARC
  5
111
330
1F
100
AcDbEntity
  8
0
  6
Continuous
 62
     7
100
AcDbCircle
 10
192.6822118175
 20
215.7537390595
 30
0.0
 40
0.300000000002605
100
AcDbArc
 50
90.0
 51
176.0000000007
  0
LINE
  5
112
330
1F
100
AcDbEntity
  8
0
  6
Continuous
 62
     7
100
AcDbLine
 10
192.3829426024
 20
215.7746660017
 30
0.0
 11
190.3298606436
 21
186.4142261121
 31
0.0
  0
ARC
  5
113
330
1F
100
AcDbEntity
  8
0
  6
Continuous
 62
     7
100
AcDbCircle
 10
188.3347325431
 20
186.5537390595
 30
0.0
 40
2.000000000000236
100
AcDbArc
 50
270.0
 51
356.0
  0
LINE
  5
114
330
1F
100
AcDbEntity
  8
0
  6
Continuous
 62
     7
100
AcDbLine
 10
188.3347325431
 20
184.5537390595
 30
0.0
 11
168.2024572916
 21
184.5537390595
 31
0.0
  0
LINE
  5
115
330
1F
100
AcDbEntity
  8
0
  6
Continuous
 62
     7
100
AcDbLine
 10
168.2024572916
 20
202.5537390595
 30
0.0
 11
168.2024572916
 21
206.4009520534
 31
0.0
  0
LINE
  5
116
330
1F
100
AcDbEntity
  8
0
  6
Continuous
 62
     7
100
AcDbLine
 10
154.6024572916
 20
184.5537390595
 30
0.0
 11
134.4701820401
 21
184.5537390595
 31
0.0
  0
ARC
  5
117
330
1F
100
AcDbEntity
  8
0
  6
Continuous
 62
     7
100
AcDbCircle
 10
134.4701820401
 20
186.5537390595
 30
0.0
 40
2.000000000000264
100
AcDbArc
 50
184.0
 51
270.0
  0
LINE
  5
118
330
1F
100
AcDbEntity
  8
0
  6
Continuous
 62
     7
100
AcDbLine
 10
132.4750539396
 20
186.4142261121
 30
0.0
 11
130.4219719809
 21
215.7746660017
 31
0.0
  0
ARC
  5
119
330
1F
100
AcDbEntity
  8
0
  6
Continuous
 62
     7
100
AcDbCircle
 10
130.1227027658
 20
215.7537390595
 30
0.0
 40
0.3000000000026333
100
AcDbArc
 50
3.9999999993
 51
90.0
  0
LINE
  5
11A
330
1F
100
AcDbEntity
  8
0
  6
Continuous
 62
     7
100
AcDbLine
 10
130.1227027658
 20
216.0537390595
 30
0.0
 11
129.0024572916
 21
216.0537390595
 31
0.0
  0
LINE
  5
11B
330
1F
100
AcDbEntity
  8
0
  6
Continuous
 62
     7
100
AcDbLine
 10
129.2940482658
 20
232.7589747815
 30
0.0
 11
129.0024572916
 21
216.0537390595
 31
0.0
  0
ARC
  5
11C
330
1F
100
AcDbEntity
  8
0
  6
Continuous
 62
     7
100
AcDbCircle
 10
129.5940025743
 20
232.7537390595
 30
0.0
 40
0.2999999999999829
100
AcDbArc
 50
90.0
 51
178.9999999999
  0
LINE
  5
11D
330
1F
100
AcDbEntity
  8
0
  6
Continuous
 62
     7
100
AcDbLine
 10
130.1227027658
 20
233.0537390595
 30
0.0
 11
129.5940025743
 21
233.0537390595
 31
0.0
  0
ARC
  5
11E
330
1F
100
AcDbEntity
  8
0
  6
Continuous
 62
     7
100
AcDbCircle
 10
130.1227027658
 20
233.3537390595
 30
0.0
 40
0.3000000000010414
100
AcDbArc
 50
270.0
 51
356.0000000001
  0
LINE
  5
11F
330
1F
100
AcDbEntity
  8
0
  6
Continuous
 62
     7
100
AcDbLine
 10
130.4219719809
 20
233.3328121174
 30
0.0
 11
132.4750539396
 21
262.693252007
 31
0.0
  0
ARC
  5
120
330
1F
100
AcDbEntity
  8
0
  6
Continuous
 62
     7
100
AcDbCircle
 10
134.4701820401
 20
262.5537390595
 30
0.0
 40
2.000000000000574
100
AcDbArc
 50
90.0
 51
176.0
  0
LINE
  5
121
330
1F
100
AcDbEntity
  8
0
  6
Continuous
 62
     7
100
AcDbLine
 10
154.6024572916
 20
264.5537390595
 30
0.0
 11
134.4701820401
 21
264.5537390595
 31
0.0
  0
HATCH
  5
122
330
1F
100
AcDbEntity
  8
ОСНОВНОЙ
  6
Continuous
370
    18
100
AcDbHatch
 10
0.0
 20
0.0
 30
0.0
210
0.0
220
0.0
230
1.0
  2
ANSI37
 70
     0
 71
     0
 91
        1
 92
        0
 93
       66
 72
     1
 10
155.2024572916234
 20
260.5537390595444
 11
154.6024572916234
 21
260.5537390595444
 72
     1
 10
154.6024572916234
 20
260.5537390595444
 11
154.6024572916234
 21
264.5537390595444
 72
     1
 10
154.6024572916234
 20
264.5537390595444
 11
134.4701820401234
 21
264.5537390595444
 72
     2
 10
134.4701820401234
 20
262.5537390595444
 40
2.0
 50
90.0
 51
175.9999999999508
 73
     1
 72
     1
 10
132.4750539396033
 20
262.6932520070344
 11
130.4219719808624
 21
233.3328121174216
 72
     2
 10
130.1227027657834
 20
233.3537390595444
 40
0.3
 50
3.999999999902058
 51
90.0
 73
     0
 72
     1
 10
130.1227027657834
 20
233.0537390595444
 11
129.5940025743334
 21
233.0537390595444
 72
     2
 10
129.5940025743334
 20
232.7537390595444
 40
0.3
 50
90.0
 51
178.9999999998849
 73
     1
 72
     1
 10
129.2940482657908
 20
232.7589747814761
 11
129.0024572916234
 21
216.0537390595444
 72
     1
 10
129.0024572916234
 20
216.0537390595444
 11
130.1227027657834
 21
216.0537390595444
 72
     2
 10
130.1227027657834
 20
215.7537390595444
 40
0.3
 50
270.0000000000008
 51
356.0000000006532
 73
     0
 72
     1
 10
130.4219719808642
 20
215.7746660016644
 11
132.4750539396036
 21
186.4142261120544
 72
     2
 10
134.4701820401234
 20
186.5537390595444
 40
2.0
 50
184.0000000000498
 51
270.0000000000008
 73
     1
 72
     1
 10
134.4701820401234
 20
184.5537390595444
 11
154.6024572916234
 21
184.5537390595444
 72
     1
 10
154.6024572916234
 20
184.5537390595444
 11
154.6024572916234
 21
188.5537390595444
 72
     1
 10
154.6024572916234
 20
188.5537390595444
 11
155.2024572916234
 21
188.5537390595444
 72
     1
 10
155.2024572916234
 20
188.5537390595444
 11
155.2024572916234
 21
193.5537390595444
 72
     1
 10
155.2024572916234
 20
193.5537390595444
 11
154.6024572916234
 21
193.5537390595444
 72
     1
 10
154.6024572916234
 20
193.5537390595444
 11
154.6024572916234
 21
197.5537390595444
 72
     1
 10
154.6024572916234
 20
197.5537390595444
 11
155.2024572916234
 21
197.5537390595444
 72
     1
 10
155.2024572916234
 20
197.5537390595444
 11
155.2024572916234
 21
202.5537390595444
 72
     1
 10
155.2024572916234
 20
202.5537390595444
 11
154.6024572916234
 21
202.5537390595444
 72
     1
 10
154.6024572916234
 20
202.5537390595444
 11
154.6024564552749
 21
206.4009519069901
 72
     2
 10
155.0024572916234
 20
205.9537390595444
 40
0.6
 50
228.1895779534499
 51
270.0000000000009
 73
     0
 72
     1
 10
155.0024572916234
 20
206.5537390595444
 11
167.8024572916234
 21
206.5537390595444
 72
     2
 10
167.8024572916234
 20
205.9537390595444
 40
0.6
 50
270.0000000000008
 51
311.8103531948029
 73
     0
 72
     1
 10
168.2024572916234
 20
206.4009520534452
 11
168.2024572916234
 21
202.5537390595444
 72
     1
 10
168.2024572916234
 20
202.5537390595444
 11
167.6024572916234
 21
202.5537390595444
 72
     1
 10
167.6024572916234
 20
202.5537390595444
 11
167.6024572916234
 21
197.5537390595444
 72
     1
 10
167.6024572916234
 20
197.5537390595444
 11
168.2024572916234
 21
197.5537390595444
 72
     1
 10
168.2024572916234
 20
197.5537390595444
 11
168.2024572916234
 21
193.5537390595444
 72
     1
 10
168.2024572916234
 20
193.5537390595444
 11
167.6024572916234
 21
193.5537390595444
 72
     1
 10
167.6024572916234
 20
193.5537390595444
 11
167.6024572916234
 21
188.5537390595444
 72
     1
 10
167.6024572916234
 20
188.5537390595444
 11
168.2024572916234
 21
188.5537390595444
 72
     1
 10
168.2024572916234
 20
188.5537390595444
 11
168.2024572916234
 21
184.5537390595444
 72
     1
 10
168.2024572916234
 20
184.5537390595444
 11
188.3347325431234
 21
184.5537390595444
 72
     2
 10
188.3347325431234
 20
186.5537390595444
 40
2.0
 50
270.0000000000008
 51
355.9999999999517
 73
     1
 72
     1
 10
190.3298606436432
 20
186.4142261120544
 11
192.3829426023826
 21
215.7746660016644
 72
     2
 10
192.6822118174634
 20
215.7537390595444
 40
0.3
 50
183.9999999993487
 51
270.0000000000008
 73
     0
 72
     1
 10
192.6822118174634
 20
216.0537390595444
 11
193.8024572916234
 21
216.0537390595444
 72
     1
 10
193.8024572916234
 20
216.0537390595444
 11
193.510866317456
 21
232.7589747814761
 72
     2
 10
193.2109120089134
 20
232.7537390595444
 40
0.3
 50
1.000000000115052
 51
90.0
 73
     1
 72
     1
 10
193.2109120089134
 20
233.0537390595444
 11
192.6822118174634
 21
233.0537390595444
 72
     2
 10
192.6822118174634
 20
233.3537390595444
 40
0.3
 50
90.0
 51
176.0000000000975
 73
     0
 72
     1
 10
192.3829426023844
 20
233.3328121174216
 11
190.3298606436435
 21
262.6932520070344
 72
     2
 10
188.3347325431234
 20
262.5537390595444
 40
2.0
 50
4.000000000049211
 51
90.0
 73
     1
 72
     1
 10
188.3347325431234
 20
264.5537390595444
 11
168.2024572916234
 21
264.5537390595444
 72
     1
 10
168.2024572916234
 20
264.5537390595444
 11
168.2024572916234
 21
260.5537390595444
 72
     1
 10
168.2024572916234
 20
260.5537390595444
 11
167.6024572916234
 21
260.5537390595444
 72
     1
 10
167.6024572916234
 20
260.5537390595444
 11
167.6024572916234
 21
255.5537390595444
 72
     1
 10
167.6024572916234
 20
255.5537390595444
 11
168.2024572916234
 21
255.5537390595444
 72
     1
 10
168.2024572916234
 20
255.5537390595444
 11
168.2024572916234
 21
251.5537390595444
 72
     1
 10
168.2024572916234
 20
251.5537390595444
 11
167.6024572916234
 21
251.5537390595444
 72
     1
 10
167.6024572916234
 20
251.5537390595444
 11
167.6024572916234
 21
246.5537390595444
 72
     1
 10
167.6024572916234
 20
246.5537390595444
 11
168.2024572916234
 21
246.5537390595444
 72
     1
 10
168.2024572916234
 20
246.5537390595444
 11
168.2024572916234
 21
242.7065260656463
 72
     2
 10
167.8024572916234
 20
243.1537390595444
 40
0.6
 50
48.18964680502602
 51
89.99999999999999
 73
     0
 72
     1
 10
167.8024572916234
 20
242.5537390595444
 11
155.0024572916234
 21
242.5537390595444
 72
     2
 10
155.0024572916234
 20
243.1537390595444
 40
0.6
 50
90.0
 51
131.810422046724
 73
     0
 72
     1
 10
154.6024564552735
 20
242.7065262120999
 11
154.6024572916234
 21
246.5537390595444
 72
     1
 10
154.6024572916234
 20
246.5537390595444
 11
155.2024572916234
 21
246.5537390595444
 72
     1
 10
155.2024572916234
 20
246.5537390595444
 11
155.2024572916234
 21
251.5537390595444
 72
     1
 10
155.2024572916234
 20
251.5537390595444
 11
154.6024572916234
 21
251.5537390595444
 72
     1
 10
154.6024572916234
 20
251.5537390595444
 11
154.6024572916234
 21
255.5537390595444
 72
     1
 10
154.6024572916234
 20
255.5537390595444
 11
155.2024572916234
 21
255.5537390595444
 72
     1
 10
155.2024572916234
 20
255.5537390595444
 11
155.2024572916234
 21
260.5537390595444
 97
        0
 75
     0
 76
     1
 52
0.0
 41
1.0
 77
     0
 78
     2
 53
45.0
 43
0.0
 44
0.0
 45
-2.245064030267288
 46
2.245064030267288
 79
     0
 53
135.0
 43
0.0
 44
0.0
 45
-2.245064030267288
 46
-2.245064030267288
 79
     0
 98
        1
 10
0.0
 20
0.0
  0
HATCH
  5
123
330
1F
100
AcDbEntity
  8
ОСНОВНОЙ
  6
Continuous
370
    18
100
AcDbHatch
 10
0.0
 20
0.0
 30
0.0
210
0.0
220
0.0
230
1.0
  2
ANSI31
 70
     0
 71
     0
 91
        1
 92
        0
 93
       34
 72
     1
 10
165.6524572916234
 20
245.5537390595444
 11
163.0543810802704
 21
244.0537390595444
 72
     1
 10
163.0543810802704
 20
244.0537390595444
 11
159.7505335029765
 21
244.0537390595444
 72
     1
 10
159.7505335029765
 20
244.0537390595444
 11
157.1524572916234
 21
245.5537390595444
 72
     1
 10
157.1524572916234
 20
245.5537390595444
 11
157.1524572916233
 21
260.6037390595444
 72
     1
 10
157.1524572916233
 20
260.6037390595444
 11
155.9024572916234
 21
261.8537390595444
 72
     1
 10
155.9024572916234
 20
261.8537390595444
 11
155.9024572916234
 21
264.4037390595444
 72
     1
 10
155.9024572916234
 20
264.4037390595444
 11
155.7524572916234
 21
264.5537390595444
 72
     1
 10
155.7524572916234
 20
264.5537390595444
 11
154.6024572916234
 21
264.5537390595444
 72
     1
 10
154.6024572916234
 20
264.5537390595444
 11
154.6024572916234
 21
260.5537390595444
 72
     1
 10
154.6024572916234
 20
260.5537390595444
 11
155.2024572916234
 21
260.5537390595444
 72
     1
 10
155.2024572916234
 20
260.5537390595444
 11
155.2024572916234
 21
255.5537390595444
 72
     1
 10
155.2024572916234
 20
255.5537390595444
 11
154.6024572916234
 21
255.5537390595444
 72
     1
 10
154.6024572916234
 20
255.5537390595444
 11
154.6024572916234
 21
251.5537390595444
 72
     1
 10
154.6024572916234
 20
251.5537390595444
 11
155.2024572916234
 21
251.5537390595444
 72
     1
 10
155.2024572916234
 20
251.5537390595444
 11
155.2024572916234
 21
246.5537390595444
 72
     1
 10
155.2024572916234
 20
246.5537390595444
 11
154.6024572916234
 21
246.5537390595444
 72
     1
 10
154.6024572916234
 20
246.5537390595444
 11
154.6024564552749
 21
242.7065262120987
 72
     2
 10
155.0024572916234
 20
243.1537390595444
 40
0.6
 50
228.1895779534499
 51
270.0000000000008
 73
     1
 72
     1
 10
155.0024572916234
 20
242.5537390595444
 11
167.8024572916234
 21
242.5537390595444
 72
     2
 10
167.8024572916234
 20
243.1537390595444
 40
0.6
 50
270.0000000000008
 51
311.8104220465518
 73
     1
 72
     1
 10
168.2024581279719
 20
242.7065262120987
 11
168.2024572916234
 21
246.5537390595444
 72
     1
 10
168.2024572916234
 20
246.5537390595444
 11
167.6024572916234
 21
246.5537390595444
 72
     1
 10
167.6024572916234
 20
246.5537390595444
 11
167.6024572916234
 21
251.5537390595444
 72
     1
 10
167.6024572916234
 20
251.5537390595444
 11
168.2024572916234
 21
251.5537390595444
 72
     1
 10
168.2024572916234
 20
251.5537390595444
 11
168.2024572916234
 21
255.5537390595444
 72
     1
 10
168.2024572916234
 20
255.5537390595444
 11
167.6024572916234
 21
255.5537390595444
 72
     1
 10
167.6024572916234
 20
255.5537390595444
 11
167.6024572916234
 21
260.5537390595444
 72
     1
 10
167.6024572916234
 20
260.5537390595444
 11
168.2024572916234
 21
260.5537390595444
 72
     1
 10
168.2024572916234
 20
260.5537390595444
 11
168.2024572916234
 21
264.5537390595444
 72
     1
 10
168.2024572916234
 20
264.5537390595444
 11
167.0524572916234
 21
264.5537390595444
 72
     1
 10
167.0524572916234
 20
264.5537390595444
 11
166.9024572916234
 21
264.4037390595444
 72
     1
 10
166.9024572916234
 20
264.4037390595444
 11
166.9024572916234
 21
261.8537390595444
 72
     1
 10
166.9024572916234
 20
261.8537390595444
 11
165.6524572916236
 21
260.6037390595444
 72
     1
 10
165.6524572916236
 20
260.6037390595444
 11
165.6524572916234
 21
245.5537390595444
 97
        0
 75
     0
 76
     1
 52
90.0
 41
1.0
 77
     0
 78
     1
 53
135.0000000000002
 43
0.0
 44
0.0
 45
-2.245064030267281
 46
-2.245064030267296
 79
     0
 98
        1
 10
0.0
 20
0.0
  0
HATCH
  5
124
330
1F
100
AcDbEntity
  8
ОСНОВНОЙ
  6
Continuous
370
    18
100
AcDbHatch
 10
0.0
 20
0.0
 30
0.0
210
0.0
220
0.0
230
1.0
  2
ANSI31
 70
     0
 71
     0
 91
        1
 92
        0
 93
       34
 72
     1
 10
163.0543810802704
 20
205.0537390595444
 11
165.6524572916234
 21
203.5537390595444
 72
     1
 10
165.6524572916234
 20
203.5537390595444
 11
165.6524572916236
 21
188.5037390595444
 72
     1
 10
165.6524572916236
 20
188.5037390595444
 11
166.9024572916234
 21
187.2537390595444
 72
     1
 10
166.9024572916234
 20
187.2537390595444
 11
166.9024572916234
 21
184.7037390595444
 72
     1
 10
166.9024572916234
 20
184.7037390595444
 11
167.0524572916234
 21
184.5537390595444
 72
     1
 10
167.0524572916234
 20
184.5537390595444
 11
168.2024572916234
 21
184.5537390595444
 72
     1
 10
168.2024572916234
 20
184.5537390595444
 11
168.2024572916234
 21
188.5537390595444
 72
     1
 10
168.2024572916234
 20
188.5537390595444
 11
167.6024572916234
 21
188.5537390595444
 72
     1
 10
167.6024572916234
 20
188.5537390595444
 11
167.6024572916234
 21
193.5537390595444
 72
     1
 10
167.6024572916234
 20
193.5537390595444
 11
168.2024572916234
 21
193.5537390595444
 72
     1
 10
168.2024572916234
 20
193.5537390595444
 11
168.2024572916234
 21
197.5537390595444
 72
     1
 10
168.2024572916234
 20
197.5537390595444
 11
167.6024572916234
 21
197.5537390595444
 72
     1
 10
167.6024572916234
 20
197.5537390595444
 11
167.6024572916234
 21
202.5537390595444
 72
     1
 10
167.6024572916234
 20
202.5537390595444
 11
168.2024572916234
 21
202.5537390595444
 72
     1
 10
168.2024572916234
 20
202.5537390595444
 11
168.2024581279719
 21
206.4009519069901
 72
     2
 10
167.8024572916234
 20
205.9537390595444
 40
0.6
 50
48.18957795345089
 51
90.0
 73
     1
 72
     1
 10
167.8024572916234
 20
206.5537390595444
 11
155.0024572916234
 21
206.5537390595444
 72
     2
 10
155.0024572916234
 20
205.9537390595444
 40
0.6
 50
90.0
 51
131.8104220465491
 73
     1
 72
     1
 10
154.6024564552749
 20
206.4009519069901
 11
154.6024572916234
 21
202.5537390595444
 72
     1
 10
154.6024572916234
 20
202.5537390595444
 11
155.2024572916234
 21
202.5537390595444
 72
     1
 10
155.2024572916234
 20
202.5537390595444
 11
155.2024572916234
 21
197.5537390595444
 72
     1
 10
155.2024572916234
 20
197.5537390595444
 11
154.6024572916234
 21
197.5537390595444
 72
     1
 10
154.6024572916234
 20
197.5537390595444
 11
154.6024572916234
 21
193.5537390595444
 72
     1
 10
154.6024572916234
 20
193.5537390595444
 11
155.2024572916234
 21
193.5537390595444
 72
     1
 10
155.2024572916234
 20
193.5537390595444
 11
155.2024572916234
 21
188.5537390595444
 72
     1
 10
155.2024572916234
 20
188.5537390595444
 11
154.6024572916234
 21
188.5537390595444
 72
     1
 10
154.6024572916234
 20
188.5537390595444
 11
154.6024572916234
 21
184.5537390595444
 72
     1
 10
154.6024572916234
 20
184.5537390595444
 11
155.7524572916234
 21
184.5537390595444
 72
     1
 10
155.7524572916234
 20
184.5537390595444
 11
155.9024572916234
 21
184.7037390595444
 72
     1
 10
155.9024572916234
 20
184.7037390595444
 11
155.9024572916234
 21
187.2537390595444
 72
     1
 10
155.9024572916234
 20
187.2537390595444
 11
157.1524572916233
 21
188.5037390595444
 72
     1
 10
157.1524572916233
 20
188.5037390595444
 11
157.1524572916234
 21
203.5537390595444
 72
     1
 10
157.1524572916234
 20
203.5537390595444
 11
159.7505335029765
 21
205.0537390595444
 72
     1
 10
159.7505335029765
 20
205.0537390595444
 11
163.0543810802704
 21
205.0537390595444
 97
        0
 75
     0
 76
     1
 52
90.0
 41
1.0
 77
     0
 78
     1
 53
135.0000000000002
 43
0.0
 44
0.0
 45
-2.245064030267281
 46
-2.245064030267296
 79
     0
 98
        1
 10
0.0
 20
0.0
  0
LINE
  5
125
330
1F
100
AcDbEntity
  8
ОСНОВНОЙ
  6
CENTERX2
 62
     7
370
    18
100
AcDbLine
 10
161.4024572916
 20
265.9839275346
 30
0.0
 11
161.4024572916
 21
241.8164986119
 31
0.0
  0
LINE
  5
126
330
1F
100
AcDbEntity
  8
ОСНОВНОЙ
  6
CENTERX2
 62
     7
370
    18
100
AcDbLine
 10
161.4024572916
 20
208.2671878963
 30
0.0
 11
161.4024572916
 21
183.147810899
 31
0.0
  0
ENDSEC
  0
SECTION
  2
OBJECTS
  0
DICTIONARY
  5
C
330
0
100
AcDbDictionary
281
     1
  3
ACAD_GROUP
350
D
  3
ACAD_LAYOUT
350
1A
  3
ACAD_MLINESTYLE
350
17
  3
ACAD_PLOTSETTINGS
350
19
  3
ACAD_PLOTSTYLENAME
350
E
  3
ACAD_SCALELIST
350
47
  3
DWGPROPS
350
127
  0
DICTIONARY
  5
D
102
{ACAD_REACTORS
330
C
102
}
330
C
100
AcDbDictionary
281
     1
  0
DICTIONARY
  5
1A
102
{ACAD_REACTORS
330
C
102
}
330
C
100
AcDbDictionary
281
     1
  3
Layout1
350
1E
  3
Layout2
350
26
  3
Model
350
22
  0
DICTIONARY
  5
17
102
{ACAD_REACTORS
330
C
102
}
330
C
100
AcDbDictionary
281
     1
  3
Standard
350
18
  0
DICTIONARY
  5
19
102
{ACAD_REACTORS
330
C
102
}
330
C
100
AcDbDictionary
281
     1
  0
ACDBDICTIONARYWDFLT
  5
E
102
{ACAD_REACTORS
330
C
102
}
330
C
100
AcDbDictionary
281
     1
  3
Normal
350
F
100
AcDbDictionaryWithDefault
340
F
  0
DICTIONARY
  5
47
102
{ACAD_REACTORS
330
C
102
}
330
C
100
AcDbDictionary
281
     1
  3
A0
350
48
  3
A1
350
49
  3
A2
350
4A
  3
A3
350
4B
  3
A4
350
4C
  3
A5
350
4D
  3
A6
350
4E
  3
A7
350
4F
  3
A8
350
50
  3
A9
350
51
  3
B0
350
52
  3
B1
350
53
  3
B2
350
54
  3
B3
350
55
  3
B4
350
56
  3
B5
350
57
  3
B6
350
58
  0
XRECORD
  5
127
102
{ACAD_REACTORS
330
C
102
}
330
C
100
AcDbXrecord
280
     1
  1
DWGPROPS COOKIE
  2

  3

  4

  6

  7

  8
fedoseev
  9

300
=
301
=
302
=
303
=
304
=
305
=
306
=
307
=
308
=
309
=
 40
0.0
 41
2460480.569502893
 42
2460480.569505961
  1

 90
        0
  0
LAYOUT
  5
1E
102
{ACAD_REACTORS
330
1A
102
}
330
1A
100
AcDbPlotSettings
  1

  2
none_device
  4

  6

 40
0.0
 41
0.0
 42
0.0
 43
0.0
 44
0.0
 45
0.0
 46
0.0
 47
0.0
 48
0.0
 49
0.0
140
0.0
141
0.0
142
1.0
143
1.0
 70
   688
 72
     1
 73
     0
 74
     5
  7

 75
    16
147
1.0
148
0.0
149
0.0
100
AcDbLayout
  1
Layout1
 70
     1
 71
     1
 10
0.0
 20
0.0
 11
420.0
 21
297.0
 12
0.0
 22
0.0
 32
0.0
 14
1.0000000000E+20
 24
1.0000000000E+20
 34
1.0000000000E+20
 15
-1.0000000000E+20
 25
-1.0000000000E+20
 35
-1.0000000000E+20
146
0.0
 13
0.0
 23
0.0
 33
0.0
 16
1.0
 26
0.0
 36
0.0
 17
0.0
 27
1.0
 37
0.0
 76
     0
330
1B
  0
LAYOUT
  5
26
102
{ACAD_REACTORS
330
1A
102
}
330
1A
100
AcDbPlotSettings
  1

  2
none_device
  4

  6

 40
0.0
 41
0.0
 42
0.0
 43
0.0
 44
0.0
 45
0.0
 46
0.0
 47
0.0
 48
0.0
 49
0.0
140
0.0
141
0.0
142
1.0
143
1.0
 70
   688
 72
     1
 73
     0
 74
     5
  7

 75
    16
147
1.0
148
0.0
149
0.0
100
AcDbLayout
  1
Layout2
 70
     1
 71
     2
 10
0.0
 20
0.0
 11
0.0
 21
0.0
 12
0.0
 22
0.0
 32
0.0
 14
0.0
 24
0.0
 34
0.0
 15
0.0
 25
0.0
 35
0.0
146
0.0
 13
0.0
 23
0.0
 33
0.0
 16
1.0
 26
0.0
 36
0.0
 17
0.0
 27
1.0
 37
0.0
 76
     0
330
23
  0
LAYOUT
  5
22
102
{ACAD_REACTORS
330
1A
102
}
330
1A
100
AcDbPlotSettings
  1

  2
none_device
  4
Letter_(8.50_x_11.00_Inches)
  6

 40
6.35
 41
6.35
 42
6.35000508
 43
6.35000508
 44
215.9
 45
279.4
 46
0.0
 47
0.0
 48
0.0
 49
0.0
140
0.0
141
0.0
142
1.0
143
1.0
 70
  1712
 72
     1
 73
     0
 74
     0
  7

 75
     0
147
1.0
148
0.0
149
0.0
100
AcDbLayout
  1
Model
 70
     1
 71
     0
 10
0.0
 20
0.0
 11
210.0
 21
297.0
 12
0.0
 22
0.0
 32
0.0
 14
0.0
 24
0.0
 34
0.0
 15
210.0
 25
297.0
 35
0.0
146
0.0
 13
0.0
 23
0.0
 33
0.0
 16
1.0
 26
0.0
 36
0.0
 17
0.0
 27
1.0
 37
0.0
 76
     0
330
1F
331
29
  0
MLINESTYLE
  5
18
102
{ACAD_REACTORS
330
17
102
}
330
17
100
AcDbMlineStyle
  2
Standard
 70
     0
  3

 62
   256
 51
90.0
 52
90.0
 71
     2
 49
0.5
 62
   256
  6
BYLAYER
 49
-0.5
 62
   256
  6
BYLAYER
  0
ACDBPLACEHOLDER
  5
F
102
{ACAD_REACTORS
330
E
102
}
330
E
  0
SCALE
  5
48
102
{ACAD_REACTORS
330
47
102
}
330
47
100
AcDbScale
 70
     0
300
1:1
140
1.0
141
1.0
290
     1
  0
SCALE
  5
49
102
{ACAD_REACTORS
330
47
102
}
330
47
100
AcDbScale
 70
     0
300
1:2
140
1.0
141
2.0
290
     0
  0
SCALE
  5
4A
102
{ACAD_REACTORS
330
47
102
}
330
47
100
AcDbScale
 70
     0
300
1:4
140
1.0
141
4.0
290
     0
  0
SCALE
  5
4B
102
{ACAD_REACTORS
330
47
102
}
330
47
100
AcDbScale
 70
     0
300
1:5
140
1.0
141
5.0
290
     0
  0
SCALE
  5
4C
102
{ACAD_REACTORS
330
47
102
}
330
47
100
AcDbScale
 70
     0
300
1:8
140
1.0
141
8.0
290
     0
  0
SCALE
  5
4D
102
{ACAD_REACTORS
330
47
102
}
330
47
100
AcDbScale
 70
     0
300
1:10
140
1.0
141
10.0
290
     0
  0
SCALE
  5
4E
102
{ACAD_REACTORS
330
47
102
}
330
47
100
AcDbScale
 70
     0
300
1:16
140
1.0
141
16.0
290
     0
  0
SCALE
  5
4F
102
{ACAD_REACTORS
330
47
102
}
330
47
100
AcDbScale
 70
     0
300
1:20
140
1.0
141
20.0
290
     0
  0
SCALE
  5
50
102
{ACAD_REACTORS
330
47
102
}
330
47
100
AcDbScale
 70
     0
300
1:30
140
1.0
141
30.0
290
     0
  0
SCALE
  5
51
102
{ACAD_REACTORS
330
47
102
}
330
47
100
AcDbScale
 70
     0
300
1:40
140
1.0
141
40.0
290
     0
  0
SCALE
  5
52
102
{ACAD_REACTORS
330
47
102
}
330
47
100
AcDbScale
 70
     0
300
1:50
140
1.0
141
50.0
290
     0
  0
SCALE
  5
53
102
{ACAD_REACTORS
330
47
102
}
330
47
100
AcDbScale
 70
     0
300
1:100
140
1.0
141
100.0
290
     0
  0
SCALE
  5
54
102
{ACAD_REACTORS
330
47
102
}
330
47
100
AcDbScale
 70
     0
300
2:1
140
2.0
141
1.0
290
     0
  0
SCALE
  5
55
102
{ACAD_REACTORS
330
47
102
}
330
47
100
AcDbScale
 70
     0
300
4:1
140
4.0
141
1.0
290
     0
  0
SCALE
  5
56
102
{ACAD_REACTORS
330
47
102
}
330
47
100
AcDbScale
 70
     0
300
8:1
140
8.0
141
1.0
290
     0
  0
SCALE
  5
57
102
{ACAD_REACTORS
330
47
102
}
330
47
100
AcDbScale
 70
     0
300
10:1
140
10.0
141
1.0
290
     0
  0
SCALE
  5
58
102
{ACAD_REACTORS
330
47
102
}
330
47
100
AcDbScale
 70
     0
300
100:1
140
100.0
141
1.0
290
     0
  0
ENDSEC
  0
EOF
