ISO-10303-21;
HEADER;
FILE_DESCRIPTION (( 'STEP AP203' ),
    '1' );
FILE_NAME ('CLP1K-500-3-M-HDZ Êðûøêà íà ëîòîê îñí. 500 IEK HDZ.STEP',
    '2016-02-05T12:08:10',
    ( '' ),
    ( '' ),
    'SwSTEP 2.0',
    'SolidWorks 2014',
    '' );
FILE_SCHEMA (( 'CONFIG_CONTROL_DESIGN' ));
ENDSEC;

DATA;
#1 = CC_DESIGN_PERSON_AND_ORGANIZATION_ASSIGNMENT ( #342, #150, ( #281 ) ) ;
#2 = CARTESIAN_POINT ( 'NONE',  ( 0.0000000000000000000, -15.85000000000000000, -1.000000000000055300 ) ) ;
#3 = APPROVAL_DATE_TIME ( #77, #75 ) ;
#4 = VERTEX_POINT ( 'NONE', #161 ) ;
#5 = DIRECTION ( 'NONE',  ( -1.000000000000000000, 0.0000000000000000000, 0.0000000000000000000 ) ) ;
#6 = DIRECTION ( 'NONE',  ( -1.000000000000000000, 0.0000000000000000000, 0.0000000000000000000 ) ) ;
#7 = AXIS2_PLACEMENT_3D ( 'NONE', #260, #112, #318 ) ;
#8 = LINE ( 'NONE', #337, #367 ) ;
#9 = DIRECTION ( 'NONE',  ( 0.0000000000000000000, 0.0000000000000000000, 1.000000000000000000 ) ) ;
#10 = CARTESIAN_POINT ( 'NONE',  ( -1492.500000000000000, 0.0000000000000000000, 498.0000000000000000 ) ) ;
#11 = APPLICATION_PROTOCOL_DEFINITION ( 'international standard', 'config_control_design', 1994, #172 ) ;
#12 = CARTESIAN_POINT ( 'NONE',  ( -1492.500000000000000, -15.84999999999999600, -2.000000000000055500 ) ) ;
#13 = APPROVAL ( #175, 'UNSPECIFIED' ) ;
#14 = APPROVAL_ROLE ( '' ) ;
#15 = CARTESIAN_POINT ( 'NONE',  ( -1492.500000000000000, 1.000000000000000200, -2.000000000000000000 ) ) ;
#16 = APPROVAL_PERSON_ORGANIZATION ( #83, #75, #37 ) ;
#17 = EDGE_CURVE ( 'NONE', #301, #4, #219, .T. ) ;
#18 = ORIENTED_EDGE ( 'NONE', *, *, #267, .T. ) ;
#19 = AXIS2_PLACEMENT_3D ( 'NONE', #145, #9, #319 ) ;
#20 = FACE_OUTER_BOUND ( 'NONE', #193, .T. ) ;
#21 = ORIENTED_EDGE ( 'NONE', *, *, #180, .T. ) ;
#22 = ADVANCED_BREP_SHAPE_REPRESENTATION ( 'CLP1K-500-3-M-HDZ ¦¨v°úð ýð ûþªþú þ¸ý. 500 IEK HDZ', ( #253, #19 ), #292 ) ;
#23 = ORIENTED_EDGE ( 'NONE', *, *, #125, .T. ) ;
#24 = DIRECTION ( 'NONE',  ( 0.0000000000000000000, 0.0000000000000000000, -1.000000000000000000 ) ) ;
#25 = CARTESIAN_POINT ( 'NONE',  ( 1492.500000000000000, 1.000000000000000000, 498.0000000000000000 ) ) ;
#26 = VECTOR ( 'NONE', #294, 1000.000000000000000 ) ;
#27 = CARTESIAN_POINT ( 'NONE',  ( -1492.500000000000000, 0.0000000000000000000, -1.000000000000000000 ) ) ;
#28 = CARTESIAN_POINT ( 'NONE',  ( 0.0000000000000000000, -15.85000000000000000, 499.0000000000000600 ) ) ;
#29 = EDGE_CURVE ( 'NONE', #130, #154, #8, .T. ) ;
#30 = ORIENTED_EDGE ( 'NONE', *, *, #140, .F. ) ;
#31 = CALENDAR_DATE ( 2016, 5, 2 ) ;
#32 = CARTESIAN_POINT ( 'NONE',  ( -1492.500000000000000, -15.85000000000000000, -1.000000000000055300 ) ) ;
#33 = CARTESIAN_POINT ( 'NONE',  ( -1492.500000000000000, 0.0000000000000000000, -1.000000000000000000 ) ) ;
#34 =( LENGTH_UNIT ( ) NAMED_UNIT ( * ) SI_UNIT ( .MILLI., .METRE. ) );
#35 = CC_DESIGN_PERSON_AND_ORGANIZATION_ASSIGNMENT ( #158, #351, ( #78 ) ) ;
#36 = LINE ( 'NONE', #27, #332 ) ;
#37 = APPROVAL_ROLE ( '' ) ;
#38 = CARTESIAN_POINT ( 'NONE',  ( 0.0000000000000000000, 0.0000000000000000000, -1.000000000000000000 ) ) ;
#39 = CC_DESIGN_DATE_AND_TIME_ASSIGNMENT ( #45, #353, ( #281 ) ) ;
#40 = ORIENTED_EDGE ( 'NONE', *, *, #225, .F. ) ;
#41 = DIRECTION ( 'NONE',  ( -0.0000000000000000000, -0.0000000000000000000, -1.000000000000000000 ) ) ;
#42 = DIRECTION ( 'NONE',  ( 0.0000000000000000000, -3.502280834779673500E-015, -1.000000000000000000 ) ) ;
#43 = ADVANCED_FACE ( 'NONE', ( #289 ), #164, .T. ) ;
#44 = ORIENTED_EDGE ( 'NONE', *, *, #206, .T. ) ;
#45 = DATE_AND_TIME ( #108, #185 ) ;
#46 = DESIGN_CONTEXT ( 'detailed design', #172, 'design' ) ;
#47 = AXIS2_PLACEMENT_3D ( 'NONE', #251, #288, #82 ) ;
#48 = LINE ( 'NONE', #10, #348 ) ;
#49 = LINE ( 'NONE', #141, #116 ) ;
#50 = VERTEX_POINT ( 'NONE', #313 ) ;
#51 = PERSON_AND_ORGANIZATION ( #246, #233 ) ;
#52 = EDGE_CURVE ( 'NONE', #154, #248, #73, .T. ) ;
#53 = ORIENTED_EDGE ( 'NONE', *, *, #284, .F. ) ;
#54 = FACE_OUTER_BOUND ( 'NONE', #157, .T. ) ;
#55 = PRODUCT_DEFINITION ( 'UNKNOWN', '', #149, #46 ) ;
#56 = DIRECTION ( 'NONE',  ( -0.0000000000000000000, -1.000000000000000000, -3.491481338843133000E-015 ) ) ;
#57 = VERTEX_POINT ( 'NONE', #228 ) ;
#58 = LOCAL_TIME ( 15, 8, 10.00000000000000000, #131 ) ;
#59 = DIRECTION ( 'NONE',  ( 0.0000000000000000000, 3.491481338843133000E-015, -1.000000000000000000 ) ) ;
#60 = CARTESIAN_POINT ( 'NONE',  ( 1492.500000000000000, -15.84999999999999600, -2.000000000000055500 ) ) ;
#61 = CARTESIAN_POINT ( 'NONE',  ( 1492.500000000000000, 1.744135855720277600E-012, 499.0000000000000000 ) ) ;
#62 = VECTOR ( 'NONE', #249, 1000.000000000000000 ) ;
#63 = LINE ( 'NONE', #204, #128 ) ;
#64 =( NAMED_UNIT ( * ) SI_UNIT ( $, .STERADIAN. ) SOLID_ANGLE_UNIT ( ) );
#65 = CARTESIAN_POINT ( 'NONE',  ( -1492.500000000000000, 1.744135855720277600E-012, 499.0000000000000000 ) ) ;
#66 = DATE_TIME_ROLE ( 'creation_date' ) ;
#67 = DIRECTION ( 'NONE',  ( -0.0000000000000000000, -0.0000000000000000000, -1.000000000000000000 ) ) ;
#68 = ORIENTED_EDGE ( 'NONE', *, *, #159, .F. ) ;
#69 = CALENDAR_DATE ( 2016, 5, 2 ) ;
#70 = ADVANCED_FACE ( 'NONE', ( #360 ), #290, .T. ) ;
#71 = VERTEX_POINT ( 'NONE', #198 ) ;
#72 = EDGE_CURVE ( 'NONE', #50, #248, #298, .T. ) ;
#73 = LINE ( 'NONE', #106, #62 ) ;
#74 = VECTOR ( 'NONE', #95, 1000.000000000000000 ) ;
#75 = APPROVAL ( #202, 'UNSPECIFIED' ) ;
#76 = APPROVAL ( #264, 'UNSPECIFIED' ) ;
#77 = DATE_AND_TIME ( #153, #224 ) ;
#78 = PRODUCT ( 'CLP1K-500-3-M-HDZ Êðûøêà íà ëîòîê îñí. 500 IEK HDZ', 'CLP1K-500-3-M-HDZ Êðûøêà íà ëîòîê îñí. 500 IEK HDZ', '', ( #147 ) ) ;
#79 = EDGE_LOOP ( 'NONE', ( #178, #40, #305, #184 ) ) ;
#80 = AXIS2_PLACEMENT_3D ( 'NONE', #307, #109, #314 ) ;
#81 = PLANE ( 'NONE',  #110 ) ;
#82 = DIRECTION ( 'NONE',  ( -0.0000000000000000000, 0.0000000000000000000, -1.000000000000000000 ) ) ;
#83 = PERSON_AND_ORGANIZATION ( #246, #233 ) ;
#84 = PLANE ( 'NONE',  #47 ) ;
#85 = EDGE_CURVE ( 'NONE', #167, #330, #213, .T. ) ;
#86 = ORIENTED_EDGE ( 'NONE', *, *, #72, .T. ) ;
#87 = ORIENTED_EDGE ( 'NONE', *, *, #225, .T. ) ;
#88 = DIRECTION ( 'NONE',  ( 0.0000000000000000000, 3.491481338843133400E-015, -1.000000000000000000 ) ) ;
#89 = APPLICATION_PROTOCOL_DEFINITION ( 'international standard', 'config_control_design', 1994, #114 ) ;
#90 = CC_DESIGN_APPROVAL ( #75, ( #55 ) ) ;
#91 = APPROVAL_ROLE ( '' ) ;
#92 = CC_DESIGN_APPROVAL ( #76, ( #149 ) ) ;
#93 = LINE ( 'NONE', #120, #309 ) ;
#94 = ADVANCED_FACE ( 'NONE', ( #54 ), #84, .T. ) ;
#95 = DIRECTION ( 'NONE',  ( -0.0000000000000000000, 1.000000000000000000, 3.491481338843133000E-015 ) ) ;
#96 = VERTEX_POINT ( 'NONE', #194 ) ;
#97 = VECTOR ( 'NONE', #168, 1000.000000000000000 ) ;
#98 = ORIENTED_EDGE ( 'NONE', *, *, #140, .T. ) ;
#99 = EDGE_CURVE ( 'NONE', #71, #310, #277, .T. ) ;
#100 = ORIENTED_EDGE ( 'NONE', *, *, #52, .F. ) ;
#101 = LOCAL_TIME ( 15, 8, 10.00000000000000000, #179 ) ;
#102 = ORIENTED_EDGE ( 'NONE', *, *, #302, .T. ) ;
#103 = LINE ( 'NONE', #65, #97 ) ;
#104 = CC_DESIGN_PERSON_AND_ORGANIZATION_ASSIGNMENT ( #295, #231, ( #55 ) ) ;
#105 = CARTESIAN_POINT ( 'NONE',  ( 1492.500000000000000, 1.000000000000004400, 500.0000000000000000 ) ) ;
#106 = CARTESIAN_POINT ( 'NONE',  ( 1492.500000000000000, -15.84999999999999600, 500.0000000000000000 ) ) ;
#107 = ORIENTED_EDGE ( 'NONE', *, *, #29, .F. ) ;
#108 = CALENDAR_DATE ( 2016, 5, 2 ) ;
#109 = DIRECTION ( 'NONE',  ( 0.0000000000000000000, -1.000000000000000000, 3.491481338843133400E-015 ) ) ;
#110 = AXIS2_PLACEMENT_3D ( 'NONE', #200, #347, #171 ) ;
#111 = CARTESIAN_POINT ( 'NONE',  ( 1492.500000000000000, 3.491481338843133400E-015, -2.000000000000000000 ) ) ;
#112 = DIRECTION ( 'NONE',  ( 0.0000000000000000000, -1.000000000000000000, 0.0000000000000000000 ) ) ;
#113 = FACE_OUTER_BOUND ( 'NONE', #237, .T. ) ;
#114 = APPLICATION_CONTEXT ( 'configuration controlled 3d designs of mechanical parts and assemblies' ) ;
#115 = CARTESIAN_POINT ( 'NONE',  ( -1492.500000000000000, 1.000000000000000000, 498.0000000000000000 ) ) ;
#116 = VECTOR ( 'NONE', #344, 1000.000000000000000 ) ;
#117 = ORIENTED_EDGE ( 'NONE', *, *, #267, .F. ) ;
#118 = PERSON_AND_ORGANIZATION_ROLE ( 'design_supplier' ) ;
#119 = CARTESIAN_POINT ( 'NONE',  ( -1492.500000000000000, -15.84999999999999600, 500.0000000000001100 ) ) ;
#120 = CARTESIAN_POINT ( 'NONE',  ( -1492.500000000000000, -15.84999999999999600, -2.000000000000055500 ) ) ;
#121 = ADVANCED_FACE ( 'NONE', ( #113 ), #142, .T. ) ;
#122 = DIRECTION ( 'NONE',  ( 1.000000000000000000, 0.0000000000000000000, 0.0000000000000000000 ) ) ;
#123 = ORIENTED_EDGE ( 'NONE', *, *, #365, .F. ) ;
#124 = PERSON_AND_ORGANIZATION ( #246, #233 ) ;
#125 = EDGE_CURVE ( 'NONE', #248, #57, #127, .T. ) ;
#126 = ORIENTED_EDGE ( 'NONE', *, *, #195, .T. ) ;
#127 = LINE ( 'NONE', #28, #271 ) ;
#128 = VECTOR ( 'NONE', #67, 1000.000000000000000 ) ;
#129 = CC_DESIGN_DATE_AND_TIME_ASSIGNMENT ( #364, #66, ( #55 ) ) ;
#130 = VERTEX_POINT ( 'NONE', #105 ) ;
#131 = COORDINATED_UNIVERSAL_TIME_OFFSET ( 3, 0, .AHEAD. ) ;
#132 = ORIENTED_EDGE ( 'NONE', *, *, #52, .T. ) ;
#133 = VECTOR ( 'NONE', #146, 1000.000000000000000 ) ;
#134 = VECTOR ( 'NONE', #232, 1000.000000000000000 ) ;
#135 = CC_DESIGN_PERSON_AND_ORGANIZATION_ASSIGNMENT ( #51, #118, ( #149 ) ) ;
#136 = CARTESIAN_POINT ( 'NONE',  ( 1492.500000000000000, -15.84999999999999600, 500.0000000000001100 ) ) ;
#137 = DIRECTION ( 'NONE',  ( -1.000000000000000000, -0.0000000000000000000, -0.0000000000000000000 ) ) ;
#138 = LOCAL_TIME ( 15, 8, 10.00000000000000000, #216 ) ;
#139 = CARTESIAN_POINT ( 'NONE',  ( -1492.500000000000000, -1.101719344468029700E-017, 499.0000000000000000 ) ) ;
#140 = EDGE_CURVE ( 'NONE', #154, #155, #262, .T. ) ;
#141 = CARTESIAN_POINT ( 'NONE',  ( 1492.500000000000000, -15.84999999999999600, -2.000000000000055500 ) ) ;
#142 = PLANE ( 'NONE',  #80 ) ;
#143 = VECTOR ( 'NONE', #256, 1000.000000000000000 ) ;
#144 = LINE ( 'NONE', #355, #74 ) ;
#145 = CARTESIAN_POINT ( 'NONE',  ( 0.0000000000000000000, 0.0000000000000000000, 0.0000000000000000000 ) ) ;
#146 = DIRECTION ( 'NONE',  ( 1.000000000000000000, -0.0000000000000000000, -0.0000000000000000000 ) ) ;
#147 = MECHANICAL_CONTEXT ( 'NONE', #114, 'mechanical' ) ;
#148 = DIRECTION ( 'NONE',  ( -0.0000000000000000000, 1.000000000000000000, -3.502280834779673500E-015 ) ) ;
#149 = PRODUCT_DEFINITION_FORMATION_WITH_SPECIFIED_SOURCE ( 'ANY', '', #78, .NOT_KNOWN. ) ;
#150 = PERSON_AND_ORGANIZATION_ROLE ( 'classification_officer' ) ;
#151 = CARTESIAN_POINT ( 'NONE',  ( 0.0000000000000000000, 0.0000000000000000000, -1.000000000000000000 ) ) ;
#152 = DIRECTION ( 'NONE',  ( 0.0000000000000000000, -3.491481338843133400E-015, 1.000000000000000000 ) ) ;
#153 = CALENDAR_DATE ( 2016, 5, 2 ) ;
#154 = VERTEX_POINT ( 'NONE', #223 ) ;
#155 = VERTEX_POINT ( 'NONE', #308 ) ;
#156 = AXIS2_PLACEMENT_3D ( 'NONE', #151, #322, #266 ) ;
#157 = EDGE_LOOP ( 'NONE', ( #220, #191, #303, #304, #282, #315, #132, #250 ) ) ;
#158 = PERSON_AND_ORGANIZATION ( #246, #233 ) ;
#159 = EDGE_CURVE ( 'NONE', #357, #167, #36, .T. ) ;
#160 = VERTEX_POINT ( 'NONE', #139 ) ;
#161 = CARTESIAN_POINT ( 'NONE',  ( 1492.500000000000000, 1.000000000000000200, -2.000000000000000000 ) ) ;
#162 = FACE_OUTER_BOUND ( 'NONE', #183, .T. ) ;
#163 = CLOSED_SHELL ( 'NONE', ( #326, #296, #70, #94, #356, #43, #207, #121, #177, #235 ) ) ;
#164 = PLANE ( 'NONE',  #336 ) ;
#165 = CARTESIAN_POINT ( 'NONE',  ( 0.0000000000000000000, 3.491481338843133400E-015, -2.000000000000000000 ) ) ;
#166 = ORIENTED_EDGE ( 'NONE', *, *, #180, .F. ) ;
#167 = VERTEX_POINT ( 'NONE', #32 ) ;
#168 = DIRECTION ( 'NONE',  ( 0.0000000000000000000, 1.000000000000000000, -3.502280834779673500E-015 ) ) ;
#169 = ORIENTED_EDGE ( 'NONE', *, *, #218, .F. ) ;
#170 = DIRECTION ( 'NONE',  ( -0.0000000000000000000, 1.000000000000000000, 3.491481338843133000E-015 ) ) ;
#171 = DIRECTION ( 'NONE',  ( 0.0000000000000000000, 1.000000000000000000, -3.502280834779673500E-015 ) ) ;
#172 = APPLICATION_CONTEXT ( 'configuration controlled 3d designs of mechanical parts and assemblies' ) ;
#173 = CARTESIAN_POINT ( 'NONE',  ( 1492.500000000000000, -15.85000000000000000, 499.0000000000000600 ) ) ;
#174 = LINE ( 'NONE', #119, #299 ) ;
#175 = APPROVAL_STATUS ( 'not_yet_approved' ) ;
#176 = CARTESIAN_POINT ( 'NONE',  ( 1492.500000000000000, 0.0000000000000000000, 498.0000000000000000 ) ) ;
#177 = ADVANCED_FACE ( 'NONE', ( #247 ), #81, .F. ) ;
#178 = ORIENTED_EDGE ( 'NONE', *, *, #85, .F. ) ;
#179 = COORDINATED_UNIVERSAL_TIME_OFFSET ( 3, 0, .AHEAD. ) ;
#180 = EDGE_CURVE ( 'NONE', #160, #357, #48, .T. ) ;
#181 = VECTOR ( 'NONE', #137, 1000.000000000000000 ) ;
#182 = VECTOR ( 'NONE', #197, 1000.000000000000000 ) ;
#183 = EDGE_LOOP ( 'NONE', ( #323, #208, #239, #359 ) ) ;
#184 = ORIENTED_EDGE ( 'NONE', *, *, #328, .T. ) ;
#185 = LOCAL_TIME ( 15, 8, 10.00000000000000000, #269 ) ;
#186 = AXIS2_PLACEMENT_3D ( 'NONE', #324, #42, #236 ) ;
#187 = DIRECTION ( 'NONE',  ( 0.0000000000000000000, -1.000000000000000000, 0.0000000000000000000 ) ) ;
#188 = VECTOR ( 'NONE', #287, 1000.000000000000000 ) ;
#189 = VECTOR ( 'NONE', #343, 1000.000000000000000 ) ;
#190 = PLANE ( 'NONE',  #270 ) ;
#191 = ORIENTED_EDGE ( 'NONE', *, *, #242, .F. ) ;
#192 = APPROVAL_DATE_TIME ( #274, #76 ) ;
#193 = EDGE_LOOP ( 'NONE', ( #86, #23, #126, #44 ) ) ;
#194 = CARTESIAN_POINT ( 'NONE',  ( -1492.500000000000000, 1.000000000000004400, 500.0000000000000000 ) ) ;
#195 = EDGE_CURVE ( 'NONE', #57, #160, #103, .T. ) ;
#196 = PRODUCT_DEFINITION_SHAPE ( 'NONE', 'NONE',  #55 ) ;
#197 = DIRECTION ( 'NONE',  ( 1.000000000000000000, 0.0000000000000000000, 0.0000000000000000000 ) ) ;
#198 = CARTESIAN_POINT ( 'NONE',  ( -1492.500000000000000, -15.84999999999999600, -2.000000000000055500 ) ) ;
#199 = VECTOR ( 'NONE', #258, 1000.000000000000000 ) ;
#200 = CARTESIAN_POINT ( 'NONE',  ( 0.0000000000000000000, 1.747627337059120600E-012, 500.0000000000000000 ) ) ;
#201 = LINE ( 'NONE', #25, #189 ) ;
#202 = APPROVAL_STATUS ( 'not_yet_approved' ) ;
#203 = DIRECTION ( 'NONE',  ( -1.000000000000000000, -0.0000000000000000000, -0.0000000000000000000 ) ) ;
#204 = CARTESIAN_POINT ( 'NONE',  ( -1492.500000000000000, 1.000000000000000000, 498.0000000000000000 ) ) ;
#205 = PLANE ( 'NONE',  #186 ) ;
#206 = EDGE_CURVE ( 'NONE', #160, #50, #338, .T. ) ;
#207 = ADVANCED_FACE ( 'NONE', ( #162 ), #261, .F. ) ;
#208 = ORIENTED_EDGE ( 'NONE', *, *, #159, .T. ) ;
#209 = APPROVAL_PERSON_ORGANIZATION ( #283, #76, #91 ) ;
#210 = ORIENTED_EDGE ( 'NONE', *, *, #17, .F. ) ;
#211 = ORIENTED_EDGE ( 'NONE', *, *, #218, .T. ) ;
#212 = CARTESIAN_POINT ( 'NONE',  ( 1492.500000000000000, -15.85000000000000000, -1.000000000000055300 ) ) ;
#213 = LINE ( 'NONE', #2, #133 ) ;
#214 = FACE_OUTER_BOUND ( 'NONE', #349, .T. ) ;
#215 = CARTESIAN_POINT ( 'NONE',  ( -1493.914213562372700, 1.000000000000004400, 500.0000000000000000 ) ) ;
#216 = COORDINATED_UNIVERSAL_TIME_OFFSET ( 3, 0, .AHEAD. ) ;
#217 = EDGE_LOOP ( 'NONE', ( #21, #366, #268, #275 ) ) ;
#218 = EDGE_CURVE ( 'NONE', #155, #57, #240, .T. ) ;
#219 = LINE ( 'NONE', #312, #143 ) ;
#220 = ORIENTED_EDGE ( 'NONE', *, *, #276, .T. ) ;
#221 = LINE ( 'NONE', #38, #291 ) ;
#222 = PLANE ( 'NONE',  #229 ) ;
#223 = CARTESIAN_POINT ( 'NONE',  ( 1492.500000000000000, -15.84999999999999600, 500.0000000000000000 ) ) ;
#224 = LOCAL_TIME ( 15, 8, 10.00000000000000000, #300 ) ;
#225 = EDGE_CURVE ( 'NONE', #71, #167, #93, .T. ) ;
#226 = ORIENTED_EDGE ( 'NONE', *, *, #99, .F. ) ;
#227 = PLANE ( 'NONE',  #306 ) ;
#228 = CARTESIAN_POINT ( 'NONE',  ( -1492.500000000000000, -15.85000000000000000, 499.0000000000000600 ) ) ;
#229 = AXIS2_PLACEMENT_3D ( 'NONE', #316, #5, #279 ) ;
#230 =( NAMED_UNIT ( * ) PLANE_ANGLE_UNIT ( ) SI_UNIT ( $, .RADIAN. ) );
#231 = PERSON_AND_ORGANIZATION_ROLE ( 'creator' ) ;
#232 = DIRECTION ( 'NONE',  ( 0.0000000000000000000, -1.000000000000000000, -3.491481338843133000E-015 ) ) ;
#233 = ORGANIZATION ( 'UNSPECIFIED', 'UNSPECIFIED', '' ) ;
#234 = EDGE_LOOP ( 'NONE', ( #102, #210, #53, #363 ) ) ;
#235 = ADVANCED_FACE ( 'NONE', ( #20 ), #205, .T. ) ;
#236 = DIRECTION ( 'NONE',  ( 0.0000000000000000000, 1.000000000000000000, -3.502280834779673500E-015 ) ) ;
#237 = EDGE_LOOP ( 'NONE', ( #297, #100, #98, #211 ) ) ;
#238 = EDGE_CURVE ( 'NONE', #155, #96, #174, .T. ) ;
#239 = ORIENTED_EDGE ( 'NONE', *, *, #85, .T. ) ;
#240 = LINE ( 'NONE', #327, #26 ) ;
#241 = CC_DESIGN_PERSON_AND_ORGANIZATION_ASSIGNMENT ( #124, #293, ( #149 ) ) ;
#242 = EDGE_CURVE ( 'NONE', #330, #362, #144, .T. ) ;
#243 = EDGE_LOOP ( 'NONE', ( #117, #245, #123, #226 ) ) ;
#244 = APPROVAL_DATE_TIME ( #331, #13 ) ;
#245 = ORIENTED_EDGE ( 'NONE', *, *, #17, .T. ) ;
#246 = PERSON ( 'UNSPECIFIED', 'UNSPECIFIED', 'UNSPECIFIED', ('UNSPECIFIED'), ('UNSPECIFIED'), ('UNSPECIFIED') ) ;
#247 = FACE_OUTER_BOUND ( 'NONE', #341, .T. ) ;
#248 = VERTEX_POINT ( 'NONE', #173 ) ;
#249 = DIRECTION ( 'NONE',  ( 0.0000000000000000000, -3.491481338843133400E-015, -1.000000000000000000 ) ) ;
#250 = ORIENTED_EDGE ( 'NONE', *, *, #72, .F. ) ;
#251 = CARTESIAN_POINT ( 'NONE',  ( 1492.500000000000000, 1.000000000000000000, 498.0000000000000000 ) ) ;
#252 = CARTESIAN_POINT ( 'NONE',  ( 1492.500000000000000, -15.84999999999999600, -2.000000000000055500 ) ) ;
#253 = MANIFOLD_SOLID_BREP ( 'Áîáûøêà-Âûòÿíóòü1', #163 ) ;
#254 = ORIENTED_EDGE ( 'NONE', *, *, #238, .T. ) ;
#255 = APPROVAL_PERSON_ORGANIZATION ( #335, #13, #14 ) ;
#256 = DIRECTION ( 'NONE',  ( 1.000000000000000000, 0.0000000000000000000, 0.0000000000000000000 ) ) ;
#257 = EDGE_CURVE ( 'NONE', #362, #357, #221, .T. ) ;
#258 = DIRECTION ( 'NONE',  ( 0.0000000000000000000, -1.000000000000000000, 3.502280834779673500E-015 ) ) ;
#259 = DIRECTION ( 'NONE',  ( 0.0000000000000000000, -1.000000000000000000, -3.491481338843133400E-015 ) ) ;
#260 = CARTESIAN_POINT ( 'NONE',  ( -1492.500000000000000, 0.0000000000000000000, 498.0000000000000000 ) ) ;
#261 = PLANE ( 'NONE',  #156 ) ;
#262 = LINE ( 'NONE', #136, #181 ) ;
#263 = FACE_OUTER_BOUND ( 'NONE', #79, .T. ) ;
#264 = APPROVAL_STATUS ( 'not_yet_approved' ) ;
#265 = ORIENTED_EDGE ( 'NONE', *, *, #340, .F. ) ;
#266 = DIRECTION ( 'NONE',  ( 0.0000000000000000000, 1.000000000000000000, 3.491481338843133000E-015 ) ) ;
#267 = EDGE_CURVE ( 'NONE', #301, #71, #368, .T. ) ;
#268 = ORIENTED_EDGE ( 'NONE', *, *, #276, .F. ) ;
#269 = COORDINATED_UNIVERSAL_TIME_OFFSET ( 3, 0, .AHEAD. ) ;
#270 = AXIS2_PLACEMENT_3D ( 'NONE', #115, #187, #24 ) ;
#271 = VECTOR ( 'NONE', #6, 1000.000000000000000 ) ;
#272 = FACE_OUTER_BOUND ( 'NONE', #234, .T. ) ;
#273 = ORIENTED_EDGE ( 'NONE', *, *, #284, .T. ) ;
#274 = DATE_AND_TIME ( #358, #58 ) ;
#275 = ORIENTED_EDGE ( 'NONE', *, *, #206, .F. ) ;
#276 = EDGE_CURVE ( 'NONE', #50, #362, #361, .T. ) ;
#277 = LINE ( 'NONE', #252, #188 ) ;
#278 = VECTOR ( 'NONE', #41, 1000.000000000000000 ) ;
#279 = DIRECTION ( 'NONE',  ( 0.0000000000000000000, 0.0000000000000000000, 1.000000000000000000 ) ) ;
#280 = DIRECTION ( 'NONE',  ( -0.0000000000000000000, -1.000000000000000000, 3.502280834779673500E-015 ) ) ;
#281 = SECURITY_CLASSIFICATION ( '', '', #321 ) ;
#282 = ORIENTED_EDGE ( 'NONE', *, *, #302, .F. ) ;
#283 = PERSON_AND_ORGANIZATION ( #246, #233 ) ;
#284 = EDGE_CURVE ( 'NONE', #96, #301, #63, .T. ) ;
#285 = ORIENTED_EDGE ( 'NONE', *, *, #195, .F. ) ;
#286 = DIRECTION ( 'NONE',  ( 0.0000000000000000000, 1.000000000000000000, 3.491481338843133000E-015 ) ) ;
#287 = DIRECTION ( 'NONE',  ( 1.000000000000000000, 0.0000000000000000000, 0.0000000000000000000 ) ) ;
#288 = DIRECTION ( 'NONE',  ( 1.000000000000000000, 0.0000000000000000000, -0.0000000000000000000 ) ) ;
#289 = FACE_OUTER_BOUND ( 'NONE', #243, .T. ) ;
#290 = PLANE ( 'NONE',  #7 ) ;
#291 = VECTOR ( 'NONE', #203, 1000.000000000000000 ) ;
#292 =( GEOMETRIC_REPRESENTATION_CONTEXT ( 3 ) GLOBAL_UNCERTAINTY_ASSIGNED_CONTEXT ( ( #329 ) ) GLOBAL_UNIT_ASSIGNED_CONTEXT ( ( #34, #230, #64 ) ) REPRESENTATION_CONTEXT ( 'NONE', 'WORKASPACE' ) );
#293 = PERSON_AND_ORGANIZATION_ROLE ( 'creator' ) ;
#294 = DIRECTION ( 'NONE',  ( 0.0000000000000000000, -3.491481338843133400E-015, -1.000000000000000000 ) ) ;
#295 = PERSON_AND_ORGANIZATION ( #246, #233 ) ;
#296 = ADVANCED_FACE ( 'NONE', ( #214 ), #222, .T. ) ;
#297 = ORIENTED_EDGE ( 'NONE', *, *, #125, .F. ) ;
#298 = LINE ( 'NONE', #61, #199 ) ;
#299 = VECTOR ( 'NONE', #148, 1000.000000000000000 ) ;
#300 = COORDINATED_UNIVERSAL_TIME_OFFSET ( 3, 0, .AHEAD. ) ;
#301 = VERTEX_POINT ( 'NONE', #15 ) ;
#302 = EDGE_CURVE ( 'NONE', #130, #4, #201, .T. ) ;
#303 = ORIENTED_EDGE ( 'NONE', *, *, #328, .F. ) ;
#304 = ORIENTED_EDGE ( 'NONE', *, *, #365, .T. ) ;
#305 = ORIENTED_EDGE ( 'NONE', *, *, #99, .T. ) ;
#306 = AXIS2_PLACEMENT_3D ( 'NONE', #60, #259, #88 ) ;
#307 = CARTESIAN_POINT ( 'NONE',  ( 1492.500000000000000, -15.84999999999999600, 500.0000000000000000 ) ) ;
#308 = CARTESIAN_POINT ( 'NONE',  ( -1492.500000000000000, -15.84999999999999600, 500.0000000000001100 ) ) ;
#309 = VECTOR ( 'NONE', #152, 1000.000000000000000 ) ;
#310 = VERTEX_POINT ( 'NONE', #369 ) ;
#311 = SHAPE_DEFINITION_REPRESENTATION ( #196, #22 ) ;
#312 = CARTESIAN_POINT ( 'NONE',  ( -1493.914213562372700, 1.000000000000000200, -2.000000000000000000 ) ) ;
#313 = CARTESIAN_POINT ( 'NONE',  ( 1492.500000000000000, 0.0000000000000000000, 499.0000000000000600 ) ) ;
#314 = DIRECTION ( 'NONE',  ( 0.0000000000000000000, -3.491481338843133400E-015, -1.000000000000000000 ) ) ;
#315 = ORIENTED_EDGE ( 'NONE', *, *, #29, .T. ) ;
#316 = CARTESIAN_POINT ( 'NONE',  ( -1492.500000000000000, 0.0000000000000000000, 498.0000000000000000 ) ) ;
#317 = CARTESIAN_POINT ( 'NONE',  ( 1492.500000000000000, 0.0000000000000000000, -1.000000000000000000 ) ) ;
#318 = DIRECTION ( 'NONE',  ( 0.0000000000000000000, -0.0000000000000000000, -1.000000000000000000 ) ) ;
#319 = DIRECTION ( 'NONE',  ( 1.000000000000000000, 0.0000000000000000000, 0.0000000000000000000 ) ) ;
#320 = VECTOR ( 'NONE', #122, 1000.000000000000000 ) ;
#321 = SECURITY_CLASSIFICATION_LEVEL ( 'unclassified' ) ;
#322 = DIRECTION ( 'NONE',  ( 0.0000000000000000000, 3.491481338843133000E-015, -1.000000000000000000 ) ) ;
#323 = ORIENTED_EDGE ( 'NONE', *, *, #257, .T. ) ;
#324 = CARTESIAN_POINT ( 'NONE',  ( 0.0000000000000000000, 1.744135855720277600E-012, 499.0000000000000000 ) ) ;
#325 = CC_DESIGN_SECURITY_CLASSIFICATION ( #281, ( #149 ) ) ;
#326 = ADVANCED_FACE ( 'NONE', ( #272 ), #190, .F. ) ;
#327 = CARTESIAN_POINT ( 'NONE',  ( -1492.500000000000000, -15.84999999999999600, 500.0000000000000000 ) ) ;
#328 = EDGE_CURVE ( 'NONE', #310, #330, #49, .T. ) ;
#329 = UNCERTAINTY_MEASURE_WITH_UNIT (LENGTH_MEASURE( 1.000000000000000100E-005 ), #34, 'distance_accuracy_value', 'NONE');
#330 = VERTEX_POINT ( 'NONE', #212 ) ;
#331 = DATE_AND_TIME ( #31, #101 ) ;
#332 = VECTOR ( 'NONE', #56, 1000.000000000000000 ) ;
#333 = VECTOR ( 'NONE', #170, 1000.000000000000000 ) ;
#334 = ORIENTED_EDGE ( 'NONE', *, *, #238, .F. ) ;
#335 = PERSON_AND_ORGANIZATION ( #246, #233 ) ;
#336 = AXIS2_PLACEMENT_3D ( 'NONE', #165, #59, #286 ) ;
#337 = CARTESIAN_POINT ( 'NONE',  ( 1492.500000000000000, 3.491481338843133400E-015, 500.0000000000000000 ) ) ;
#338 = LINE ( 'NONE', #354, #320 ) ;
#339 = LINE ( 'NONE', #111, #333 ) ;
#340 = EDGE_CURVE ( 'NONE', #96, #130, #350, .T. ) ;
#341 = EDGE_LOOP ( 'NONE', ( #107, #265, #334, #30 ) ) ;
#342 = PERSON_AND_ORGANIZATION ( #246, #233 ) ;
#343 = DIRECTION ( 'NONE',  ( -0.0000000000000000000, -0.0000000000000000000, -1.000000000000000000 ) ) ;
#344 = DIRECTION ( 'NONE',  ( 0.0000000000000000000, -3.491481338843133400E-015, 1.000000000000000000 ) ) ;
#345 = DIRECTION ( 'NONE',  ( -0.0000000000000000000, -0.0000000000000000000, -1.000000000000000000 ) ) ;
#346 = PRODUCT_RELATED_PRODUCT_CATEGORY ( 'detail', '', ( #78 ) ) ;
#347 = DIRECTION ( 'NONE',  ( 0.0000000000000000000, -3.502280834779673500E-015, -1.000000000000000000 ) ) ;
#348 = VECTOR ( 'NONE', #345, 1000.000000000000000 ) ;
#349 = EDGE_LOOP ( 'NONE', ( #273, #18, #87, #68, #166, #285, #169, #254 ) ) ;
#350 = LINE ( 'NONE', #215, #182 ) ;
#351 = PERSON_AND_ORGANIZATION_ROLE ( 'design_owner' ) ;
#352 = CC_DESIGN_APPROVAL ( #13, ( #281 ) ) ;
#353 = DATE_TIME_ROLE ( 'classification_date' ) ;
#354 = CARTESIAN_POINT ( 'NONE',  ( 0.0000000000000000000, 0.0000000000000000000, 499.0000000000000000 ) ) ;
#355 = CARTESIAN_POINT ( 'NONE',  ( 1492.500000000000000, 0.0000000000000000000, -1.000000000000000000 ) ) ;
#356 = ADVANCED_FACE ( 'NONE', ( #263 ), #227, .T. ) ;
#357 = VERTEX_POINT ( 'NONE', #33 ) ;
#358 = CALENDAR_DATE ( 2016, 5, 2 ) ;
#359 = ORIENTED_EDGE ( 'NONE', *, *, #242, .T. ) ;
#360 = FACE_OUTER_BOUND ( 'NONE', #217, .T. ) ;
#361 = LINE ( 'NONE', #176, #278 ) ;
#362 = VERTEX_POINT ( 'NONE', #317 ) ;
#363 = ORIENTED_EDGE ( 'NONE', *, *, #340, .T. ) ;
#364 = DATE_AND_TIME ( #69, #138 ) ;
#365 = EDGE_CURVE ( 'NONE', #310, #4, #339, .T. ) ;
#366 = ORIENTED_EDGE ( 'NONE', *, *, #257, .F. ) ;
#367 = VECTOR ( 'NONE', #280, 1000.000000000000000 ) ;
#368 = LINE ( 'NONE', #12, #134 ) ;
#369 = CARTESIAN_POINT ( 'NONE',  ( 1492.500000000000000, -15.84999999999999600, -2.000000000000055500 ) ) ;
ENDSEC;
END-ISO-10303-21;
