  0
SECTION
  2
HEADER
  9
$ACADVER
  1
AC1015
  9
$ACADMAINTVER
 70
     6
  9
$DWGCODEPAGE
  3
ANSI_1251
  9
$INSBASE
 10
0.0
 20
0.0
 30
0.0
  9
$EXTMIN
 10
0.0
 20
0.0
 30
0.0
  9
$EXTMAX
 10
841.0
 20
594.0
 30
0.0
  9
$LIMMIN
 10
0.0
 20
0.0
  9
$LIMMAX
 10
841.0
 20
594.0
  9
$ORTHOMODE
 70
     0
  9
$REGENMODE
 70
     1
  9
$FILLMODE
 70
     1
  9
$QTEXTMODE
 70
     0
  9
$MIRRTEXT
 70
     1
  9
$LTSCALE
 40
1.0
  9
$ATTMODE
 70
     1
  9
$TEXTSIZE
 40
3.5
  9
$TRACEWID
 40
1.0
  9
$TEXTSTYLE
  7
Standard
  9
$CLAYER
  8
0
  9
$CELTYPE
  6
ByLayer
  9
$CECOLOR
 62
   256
  9
$CELTSCALE
 40
1.0
  9
$DISPSILH
 70
     0
  9
$DIMSCALE
 40
1.0
  9
$DIMASZ
 40
3.5
  9
$DIMEXO
 40
0.01
  9
$DIMDLI
 40
3.75
  9
$DIMRND
 40
0.0
  9
$DIMDLE
 40
0.0
  9
$DIMEXE
 40
1.0
  9
$DIMTP
 40
0.0
  9
$DIMTM
 40
0.0
  9
$DIMTXT
 40
3.5
  9
$DIMCEN
 40
2.5
  9
$DIMTSZ
 40
0.0
  9
$DIMTOL
 70
     0
  9
$DIMLIM
 70
     0
  9
$DIMTIH
 70
     1
  9
$DIMTOH
 70
     1
  9
$DIMSE1
 70
     0
  9
$DIMSE2
 70
     0
  9
$DIMTAD
 70
     1
  9
$DIMZIN
 70
     0
  9
$DIMBLK
  1

  9
$DIMASO
 70
     1
  9
$DIMSHO
 70
     1
  9
$DIMPOST
  1

  9
$DIMAPOST
  1

  9
$DIMALT
 70
     0
  9
$DIMALTD
 70
     3
  9
$DIMALTF
 40
0.0393700787
  9
$DIMLFAC
 40
1.0
  9
$DIMTOFL
 70
     1
  9
$DIMTVP
 40
0.0
  9
$DIMTIX
 70
     0
  9
$DIMSOXD
 70
     0
  9
$DIMSAH
 70
     0
  9
$DIMBLK1
  1

  9
$DIMBLK2
  1

  9
$DIMSTYLE
  2
ISO-25
  9
$DIMCLRD
 70
     0
  9
$DIMCLRE
 70
     0
  9
$DIMCLRT
 70
     0
  9
$DIMTFAC
 40
1.0
  9
$DIMGAP
 40
3.0
  9
$DIMJUST
 70
     0
  9
$DIMSD1
 70
     0
  9
$DIMSD2
 70
     0
  9
$DIMTOLJ
 70
     0
  9
$DIMTZIN
 70
     0
  9
$DIMALTZ
 70
     0
  9
$DIMALTTZ
 70
     0
  9
$DIMUPT
 70
     0
  9
$DIMDEC
 70
     2
  9
$DIMTDEC
 70
     3
  9
$DIMALTU
 70
     2
  9
$DIMALTTD
 70
     3
  9
$DIMTXSTY
  7
Standard
  9
$DIMAUNIT
 70
     0
  9
$DIMADEC
 70
     2
  9
$DIMALTRND
 40
0.0
  9
$DIMAZIN
 70
     0
  9
$DIMDSEP
 70
    44
  9
$DIMATFIT
 70
     3
  9
$DIMFRAC
 70
     0
  9
$DIMLDRBLK
  1

  9
$DIMLUNIT
 70
     2
  9
$DIMLWD
 70
    -2
  9
$DIMLWE
 70
    -2
  9
$DIMTMOVE
 70
     0
  9
$LUNITS
 70
     2
  9
$LUPREC
 70
     2
  9
$SKETCHINC
 40
1.0
  9
$FILLETRAD
 40
10.0
  9
$AUNITS
 70
     0
  9
$AUPREC
 70
     2
  9
$MENU
  1
.
  9
$ELEVATION
 40
0.0
  9
$PELEVATION
 40
0.0
  9
$THICKNESS
 40
0.0
  9
$LIMCHECK
 70
     0
  9
$CHAMFERA
 40
0.0
  9
$CHAMFERB
 40
0.0
  9
$CHAMFERC
 40
0.0
  9
$CHAMFERD
 40
0.0
  9
$SKPOLY
 70
     0
  9
$TDCREATE
 40
2459732.507748715
  9
$TDUCREATE
 40
2459732.382748715
  9
$TDUPDATE
 40
2459732.507750347
  9
$TDUUPDATE
 40
2459732.382750347
  9
$TDINDWG
 40
0.0000000116
  9
$TDUSRTIMER
 40
0.0000000116
  9
$USRTIMER
 70
     1
  9
$ANGBASE
 50
0.0
  9
$ANGDIR
 70
     0
  9
$PDMODE
 70
     0
  9
$PDSIZE
 40
-1.0
  9
$PLINEWID
 40
0.0
  9
$SPLFRAME
 70
     0
  9
$SPLINETYPE
 70
     6
  9
$SPLINESEGS
 70
     8
  9
$HANDSEED
  5
467
  9
$SURFTAB1
 70
     6
  9
$SURFTAB2
 70
     6
  9
$SURFTYPE
 70
     6
  9
$SURFU
 70
     6
  9
$SURFV
 70
     6
  9
$UCSBASE
  2

  9
$UCSNAME
  2

  9
$UCSORG
 10
0.0
 20
0.0
 30
0.0
  9
$UCSXDIR
 10
1.0
 20
0.0
 30
0.0
  9
$UCSYDIR
 10
0.0
 20
1.0
 30
0.0
  9
$UCSORTHOREF
  2

  9
$UCSORTHOVIEW
 70
     0
  9
$UCSORGTOP
 10
0.0
 20
0.0
 30
0.0
  9
$UCSORGBOTTOM
 10
0.0
 20
0.0
 30
0.0
  9
$UCSORGLEFT
 10
0.0
 20
0.0
 30
0.0
  9
$UCSORGRIGHT
 10
0.0
 20
0.0
 30
0.0
  9
$UCSORGFRONT
 10
0.0
 20
0.0
 30
0.0
  9
$UCSORGBACK
 10
0.0
 20
0.0
 30
0.0
  9
$PUCSBASE
  2

  9
$PUCSNAME
  2

  9
$PUCSORG
 10
0.0
 20
0.0
 30
0.0
  9
$PUCSXDIR
 10
1.0
 20
0.0
 30
0.0
  9
$PUCSYDIR
 10
0.0
 20
1.0
 30
0.0
  9
$PUCSORTHOREF
  2

  9
$PUCSORTHOVIEW
 70
     0
  9
$PUCSORGTOP
 10
0.0
 20
0.0
 30
0.0
  9
$PUCSORGBOTTOM
 10
0.0
 20
0.0
 30
0.0
  9
$PUCSORGLEFT
 10
0.0
 20
0.0
 30
0.0
  9
$PUCSORGRIGHT
 10
0.0
 20
0.0
 30
0.0
  9
$PUCSORGFRONT
 10
0.0
 20
0.0
 30
0.0
  9
$PUCSORGBACK
 10
0.0
 20
0.0
 30
0.0
  9
$USERI1
 70
     0
  9
$USERI2
 70
     0
  9
$USERI3
 70
     0
  9
$USERI4
 70
     0
  9
$USERI5
 70
     0
  9
$USERR1
 40
0.0
  9
$USERR2
 40
0.0
  9
$USERR3
 40
0.0
  9
$USERR4
 40
0.0
  9
$USERR5
 40
0.0
  9
$WORLDVIEW
 70
     1
  9
$SHADEDGE
 70
     3
  9
$SHADEDIF
 70
    70
  9
$TILEMODE
 70
     1
  9
$MAXACTVP
 70
    64
  9
$PINSBASE
 10
0.0
 20
0.0
 30
0.0
  9
$PLIMCHECK
 70
     0
  9
$PEXTMIN
 10
1.0000000000E+20
 20
1.0000000000E+20
 30
1.0000000000E+20
  9
$PEXTMAX
 10
-1.0000000000E+20
 20
-1.0000000000E+20
 30
-1.0000000000E+20
  9
$PLIMMIN
 10
0.0
 20
0.0
  9
$PLIMMAX
 10
420.0
 20
297.0
  9
$UNITMODE
 70
     0
  9
$VISRETAIN
 70
     1
  9
$PLINEGEN
 70
     0
  9
$PSLTSCALE
 70
     1
  9
$TREEDEPTH
 70
  3020
  9
$CMLSTYLE
  2
Standard
  9
$CMLJUST
 70
     0
  9
$CMLSCALE
 40
20.0
  9
$PROXYGRAPHICS
 70
     1
  9
$MEASUREMENT
 70
     1
  9
$CELWEIGHT
370
    -1
  9
$ENDCAPS
280
     0
  9
$JOINSTYLE
280
     0
  9
$LWDISPLAY
290
     1
  9
$INSUNITS
 70
     4
  9
$HYPERLINKBASE
  1

  9
$STYLESHEET
  1

  9
$XEDIT
290
     1
  9
$CEPSNTYPE
380
     0
  9
$PSTYLEMODE
290
     1
  9
$FINGERPRINTGUID
  2
{AFA3F0CC-E01B-4AE4-B983-1A552048E33A}
  9
$VERSIONGUID
  2
{FAEB1C32-E019-11D5-929B-00C0DF256EC4}
  9
$EXTNAMES
290
     1
  9
$PSVPSCALE
 40
0.0
  9
$OLESTARTUP
290
     0
  0
ENDSEC
  0
SECTION
  2
CLASSES
  0
CLASS
  1
ACDBDICTIONARYWDFLT
  2
AcDbDictionaryWithDefault
  3
ObjectDBX Classes
 90
        0
280
     0
281
     0
  0
CLASS
  1
VISUALSTYLE
  2
AcDbVisualStyle
  3
ObjectDBX Classes
 90
     4095
280
     0
281
     0
  0
CLASS
  1
MATERIAL
  2
AcDbMaterial
  3
ObjectDBX Classes
 90
     1153
280
     0
281
     0
  0
CLASS
  1
SCALE
  2
AcDbScale
  3
ObjectDBX Classes
 90
     1153
280
     0
281
     0
  0
CLASS
  1
TABLESTYLE
  2
AcDbTableStyle
  3
ObjectDBX Classes
 90
     4095
280
     0
281
     0
  0
CLASS
  1
MLEADERSTYLE
  2
AcDbMLeaderStyle
  3
ACDB_MLEADERSTYLE_CLASS
 90
     4095
280
     0
281
     0
  0
CLASS
  1
SUN
  2
AcDbSun
  3
SCENEOE
 90
     1153
280
     0
281
     0
  0
CLASS
  1
ACDBPLACEHOLDER
  2
AcDbPlaceHolder
  3
ObjectDBX Classes
 90
        0
280
     0
281
     0
  0
CLASS
  1
LAYOUT
  2
AcDbLayout
  3
ObjectDBX Classes
 90
        0
280
     0
281
     0
  0
ENDSEC
  0
SECTION
  2
TABLES
  0
TABLE
  2
VPORT
  5
8
330
0
100
AcDbSymbolTable
 70
     1
  0
VPORT
  5
29
330
8
100
AcDbSymbolTableRecord
100
AcDbViewportTableRecord
  2
*Active
 70
     0
 10
0.0
 20
0.0
 11
1.0
 21
1.0
 12
420.5
 22
297.0
 13
0.0
 23
0.0
 14
10.0
 24
10.0
 15
10.0
 25
10.0
 16
0.0
 26
0.0
 36
1.0
 17
0.0
 27
0.0
 37
0.0
 40
594.0
 41
1.4158249158
 42
50.0
 43
0.0
 44
0.0
 50
0.0
 51
0.0
 71
     0
 72
  2000
 73
     1
 74
     3
 75
     0
 76
     0
 77
     0
 78
     0
281
     0
 65
     1
110
0.0
120
0.0
130
0.0
111
1.0
121
0.0
131
0.0
112
0.0
122
1.0
132
0.0
 79
     0
146
0.0
  0
ENDTAB
  0
TABLE
  2
LTYPE
  5
5
330
0
100
AcDbSymbolTable
 70
     6
  0
LTYPE
  5
14
330
5
100
AcDbSymbolTableRecord
100
AcDbLinetypeTableRecord
  2
ByBlock
 70
     0
  3

 72
    65
 73
     0
 40
0.0
  0
LTYPE
  5
15
330
5
100
AcDbSymbolTableRecord
100
AcDbLinetypeTableRecord
  2
ByLayer
 70
     0
  3

 72
    65
 73
     0
 40
0.0
  0
LTYPE
  5
16
330
5
100
AcDbSymbolTableRecord
100
AcDbLinetypeTableRecord
  2
Continuous
 70
     0
  3
Solid line
 72
    65
 73
     0
 40
0.0
  0
LTYPE
  5
6E
330
5
100
AcDbSymbolTableRecord
100
AcDbLinetypeTableRecord
  2
HIDDEN
 70
     0
  3
Hidden __ __ __ __ __ __ __ __ __ __ __ __ __ __
 72
    65
 73
     2
 40
1.905
 49
1.27
 74
     0
 49
-0.635
 74
     0
  0
LTYPE
  5
6F
330
5
100
AcDbSymbolTableRecord
100
AcDbLinetypeTableRecord
  2
PHANTOM
 70
     0
  3
Phantom ______  __  __  ______  __  __  ______
 72
    65
 73
     6
 40
12.7
 49
6.35
 74
     0
 49
-1.27
 74
     0
 49
1.27
 74
     0
 49
-1.27
 74
     0
 49
1.27
 74
     0
 49
-1.27
 74
     0
  0
LTYPE
  5
70
330
5
100
AcDbSymbolTableRecord
100
AcDbLinetypeTableRecord
  2
CENTER
 70
     0
  3
Center ____ _ ____ _ ____ _ ____ _ ____ _ ____
 72
    65
 73
     4
 40
10.16
 49
6.35
 74
     0
 49
-1.27
 74
     0
 49
1.27
 74
     0
 49
-1.27
 74
     0
  0
LTYPE
  5
71
330
5
100
AcDbSymbolTableRecord
100
AcDbLinetypeTableRecord
  2
CENTERX2
 70
     0
  3
Center (2x) ________  __  ________  __  _____
 72
    65
 73
     4
 40
20.32
 49
12.7
 74
     0
 49
-2.54
 74
     0
 49
2.54
 74
     0
 49
-2.54
 74
     0
  0
LTYPE
  5
72
330
5
100
AcDbSymbolTableRecord
100
AcDbLinetypeTableRecord
  2
DOT2
 70
     0
  3
Dot (.5x) ........................................
 72
    65
 73
     2
 40
0.635
 49
0.0
 74
     0
 49
-0.635
 74
     0
  0
ENDTAB
  0
TABLE
  2
LAYER
  5
2
330
0
100
AcDbSymbolTable
 70
     1
  0
LAYER
  5
10
330
2
100
AcDbSymbolTableRecord
100
AcDbLayerTableRecord
  2
0
 70
     0
 62
     7
  6
Continuous
370
    -3
390
F
  0
ENDTAB
  0
TABLE
  2
STYLE
  5
3
330
0
100
AcDbSymbolTable
 70
     1
  0
STYLE
  5
11
330
3
100
AcDbSymbolTableRecord
100
AcDbTextStyleTableRecord
  2
Standard
 70
     0
 40
0.0
 41
1.0
 50
0.0
 71
     0
 42
3.5
  3
txt
  4

  0
ENDTAB
  0
TABLE
  2
VIEW
  5
6
330
0
100
AcDbSymbolTable
 70
     0
  0
ENDTAB
  0
TABLE
  2
UCS
  5
7
330
0
100
AcDbSymbolTable
 70
     0
  0
ENDTAB
  0
TABLE
  2
APPID
  5
9
330
0
100
AcDbSymbolTable
 70
     1
  0
APPID
  5
12
330
9
100
AcDbSymbolTableRecord
100
AcDbRegAppTableRecord
  2
ACAD
 70
     0
  0
ENDTAB
  0
TABLE
  2
DIMSTYLE
  5
A
330
0
100
AcDbSymbolTable
 70
     1
100
AcDbDimStyleTable
  0
DIMSTYLE
105
27
330
A
100
AcDbSymbolTableRecord
100
AcDbDimStyleTableRecord
  2
ISO-25
 70
     0
 41
2.5
 42
0.625
 43
3.75
 44
1.25
 73
     0
 74
     0
 77
     1
 78
     8
140
2.5
141
2.5
143
0.0393700787
147
0.625
171
     3
172
     1
178
     0
271
     2
272
     2
274
     3
278
    44
283
     0
284
     8
340
11
  0
ENDTAB
  0
TABLE
  2
BLOCK_RECORD
  5
1
330
0
100
AcDbSymbolTable
 70
     1
  0
BLOCK_RECORD
  5
1F
330
1
100
AcDbSymbolTableRecord
100
AcDbBlockTableRecord
  2
*Model_Space
340
22
  0
BLOCK_RECORD
  5
1B
330
1
100
AcDbSymbolTableRecord
100
AcDbBlockTableRecord
  2
*Paper_Space
340
1E
  0
BLOCK_RECORD
  5
23
330
1
100
AcDbSymbolTableRecord
100
AcDbBlockTableRecord
  2
*Paper_Space0
340
26
  0
ENDTAB
  0
ENDSEC
  0
SECTION
  2
BLOCKS
  0
BLOCK
  5
20
330
1F
100
AcDbEntity
  8
0
100
AcDbBlockBegin
  2
*Model_Space
 70
     0
 10
0.0
 20
0.0
 30
0.0
  3
*Model_Space
  1

  0
ENDBLK
  5
21
330
1F
100
AcDbEntity
  8
0
100
AcDbBlockEnd
  0
BLOCK
  5
1C
330
1B
100
AcDbEntity
 67
     1
  8
0
100
AcDbBlockBegin
  2
*Paper_Space
 70
     0
 10
0.0
 20
0.0
 30
0.0
  3
*Paper_Space
  1

  0
ENDBLK
  5
1D
330
1B
100
AcDbEntity
 67
     1
  8
0
100
AcDbBlockEnd
  0
BLOCK
  5
24
330
23
100
AcDbEntity
  8
0
100
AcDbBlockBegin
  2
*Paper_Space0
 70
     0
 10
0.0
 20
0.0
 30
0.0
  3
*Paper_Space0
  1

  0
ENDBLK
  5
25
330
23
100
AcDbEntity
  8
0
100
AcDbBlockEnd
  0
ENDSEC
  0
SECTION
  2
ENTITIES
  0
ARC
  5
73
330
1F
100
AcDbEntity
  8
0
  6
Continuous
 62
     7
370
    25
100
AcDbCircle
 10
664.4433501725
 20
363.028893827
 30
0.0
 40
0.5
100
AcDbArc
 50
180.0
 51
0.0
  0
ARC
  5
74
330
1F
100
AcDbEntity
  8
0
  6
Continuous
 62
     7
370
    25
100
AcDbCircle
 10
664.4433501725
 20
374.6288938272
 30
0.0
 40
0.5
100
AcDbArc
 50
0.0
 51
180.0
  0
LINE
  5
75
330
1F
100
AcDbEntity
  8
0
  6
Continuous
 62
     7
370
    25
100
AcDbLine
 10
659.9433501725
 20
363.8288938271
 30
0.0
 11
660.1539292275
 21
363.4641602049
 31
0.0
  0
LINE
  5
76
330
1F
100
AcDbEntity
  8
0
  6
Continuous
 62
     7
370
    25
100
AcDbLine
 10
674.4021001725
 20
371.8288938271
 30
0.0
 11
665.7433501725
 21
371.8288938271
 31
0.0
  0
LINE
  5
77
330
1F
100
AcDbEntity
  8
0
  6
Continuous
 62
     7
370
    25
100
AcDbLine
 10
665.7433501725
 20
365.8288938271
 30
0.0
 11
674.4021001725
 21
365.8288938271
 31
0.0
  0
LINE
  5
78
330
1F
100
AcDbEntity
  8
0
  6
Continuous
 62
     7
370
    25
100
AcDbLine
 10
674.4021001725
 20
365.8288938271
 30
0.0
 11
674.9433501725
 21
366.3701438271
 31
0.0
  0
LINE
  5
79
330
1F
100
AcDbEntity
  8
0
  6
Continuous
 62
     7
370
    25
100
AcDbLine
 10
674.9433501725
 20
371.2876438271
 30
0.0
 11
674.4021001725
 21
371.8288938271
 31
0.0
  0
LINE
  5
7A
330
1F
100
AcDbEntity
  8
0
  6
Continuous
 62
     7
370
    25
100
AcDbLine
 10
660.1539292275
 20
374.1936274493
 30
0.0
 11
659.9433501725
 21
373.8288938271
 31
0.0
  0
ARC
  5
7B
330
1F
100
AcDbEntity
  8
0
  6
Continuous
 62
     7
370
    25
100
AcDbCircle
 10
664.4433501725
 20
349.6288938272
 30
0.0
 40
0.5000000000000661
100
AcDbArc
 50
0.0
 51
113.5781784782
  0
LINE
  5
7C
330
1F
100
AcDbEntity
  8
0
  6
Continuous
 62
     7
370
    25
100
AcDbLine
 10
674.4021001725
 20
346.8288938271
 30
0.0
 11
665.7433501725
 21
346.8288938271
 31
0.0
  0
LINE
  5
7D
330
1F
100
AcDbEntity
  8
0
  6
Continuous
 62
     7
370
    25
100
AcDbLine
 10
674.4021001725
 20
340.8288938271
 30
0.0
 11
674.9433501725
 21
341.3701438271
 31
0.0
  0
LINE
  5
7E
330
1F
100
AcDbEntity
  8
0
  6
Continuous
 62
     7
370
    25
100
AcDbLine
 10
674.9433501725
 20
346.2876438271
 30
0.0
 11
674.4021001725
 21
346.8288938271
 31
0.0
  0
ARC
  5
7F
330
1F
100
AcDbEntity
  8
0
  6
Continuous
 62
     7
370
    25
100
AcDbCircle
 10
161.0433501725
 20
349.6288938272
 30
0.0
 40
0.5
100
AcDbArc
 50
66.4218215218
 51
180.0
  0
LINE
  5
80
330
1F
100
AcDbEntity
  8
0
  6
Continuous
 62
     7
370
    25
100
AcDbLine
 10
159.7433501725
 20
346.8288938271
 30
0.0
 11
151.0846001725
 21
346.8288938271
 31
0.0
  0
LINE
  5
81
330
1F
100
AcDbEntity
  8
0
  6
Continuous
 62
     7
370
    25
100
AcDbLine
 10
151.0846001725
 20
346.8288938271
 30
0.0
 11
150.5433501725
 21
346.2876438271
 31
0.0
  0
LINE
  5
82
330
1F
100
AcDbEntity
  8
0
  6
Continuous
 62
     7
370
    25
100
AcDbLine
 10
150.5433501725
 20
341.3701438271
 30
0.0
 11
151.0846001725
 21
340.8288938271
 31
0.0
  0
ARC
  5
83
330
1F
100
AcDbEntity
  8
0
  6
Continuous
 62
     7
370
    25
100
AcDbCircle
 10
161.0433501725
 20
374.6288938272
 30
0.0
 40
0.5
100
AcDbArc
 50
0.0
 51
180.0
  0
ARC
  5
84
330
1F
100
AcDbEntity
  8
0
  6
Continuous
 62
     7
370
    25
100
AcDbCircle
 10
161.0433501725
 20
363.028893827
 30
0.0
 40
0.5
100
AcDbArc
 50
180.0
 51
0.0
  0
LINE
  5
85
330
1F
100
AcDbEntity
  8
0
  6
Continuous
 62
     7
370
    25
100
AcDbLine
 10
151.0846001725
 20
371.8288938271
 30
0.0
 11
150.5433501725
 21
371.2876438271
 31
0.0
  0
LINE
  5
86
330
1F
100
AcDbEntity
  8
0
  6
Continuous
 62
     7
370
    25
100
AcDbLine
 10
150.5433501725
 20
366.3701438271
 30
0.0
 11
151.0846001725
 21
365.8288938271
 31
0.0
  0
LINE
  5
87
330
1F
100
AcDbEntity
  8
0
  6
Continuous
 62
     7
370
    25
100
AcDbLine
 10
151.0846001725
 20
365.8288938271
 30
0.0
 11
159.7433501725
 21
365.8288938271
 31
0.0
  0
LINE
  5
88
330
1F
100
AcDbEntity
  8
0
  6
Continuous
 62
     7
370
    25
100
AcDbLine
 10
159.7433501725
 20
371.8288938271
 30
0.0
 11
151.0846001725
 21
371.8288938271
 31
0.0
  0
SPLINE
  5
89
330
1F
100
AcDbEntity
  8
0
  6
Continuous
 62
     7
370
    25
100
AcDbSpline
210
0.0
220
0.0
230
1.0
 70
    24
 71
     3
 72
    16
 73
    12
 74
     0
 42
0.000000001
 43
0.00000001
 40
0.0
 40
0.0
 40
0.0
 40
0.0
 40
0.1658292928977499
 40
0.2550981074401235
 40
0.3462613343064167
 40
0.4374245611727106
 40
0.5266933757150837
 40
0.6925226686128337
 40
0.8583519615105838
 40
0.9476207760529565
 40
1.0
 40
1.0
 40
1.0
 40
1.0
 10
663.9433501724772
 20
372.5545834517297
 30
0.0
 10
663.9433501724772
 20
371.9456756540548
 30
0.0
 10
663.9433501724772
 20
371.0089821177191
 30
0.0
 10
663.9433501724772
 20
369.5091834264833
 30
0.0
 10
663.9433501724772
 20
368.3172263466681
 30
0.0
 10
663.9433501724772
 20
367.1427980724619
 30
0.0
 10
663.9433501724772
 20
365.7391847791745
 30
0.0
 10
663.9433501724772
 20
364.2718416983924
 30
0.0
 10
663.9433501724772
 20
363.3726543475717
 30
0.0
 10
663.9433501724772
 20
363.0448230204574
 30
0.0
 10
663.9433501724772
 20
363.0552134358977
 30
0.0
 10
663.9433501724772
 20
363.0590556486318
 30
0.0
  0
LINE
  5
8A
330
1F
100
AcDbEntity
  8
0
  6
Continuous
 62
     7
370
    25
100
AcDbLine
 10
659.9433501725
 20
369.6943883977
 30
0.0
 11
659.9433501725
 21
364.9968797637
 31
0.0
  0
SPLINE
  5
8B
330
1F
100
AcDbEntity
  8
0
  6
Continuous
 62
     7
370
    25
100
AcDbSpline
210
0.0
220
0.0
230
1.0
 70
     8
 71
     3
 72
     8
 73
     4
 74
     0
 42
0.000000001
 43
0.00000001
 40
0.0
 40
0.0
 40
0.0
 40
0.0
 40
1.0
 40
1.0
 40
1.0
 40
1.0
 10
659.9433501724843
 20
369.6943883977132
 30
0.0
 10
659.9433501724843
 20
368.723982461823
 30
0.0
 10
660.1176654728638
 20
367.7801361198918
 30
0.0
 10
660.3899321598756
 20
366.8512141652652
 30
0.0
  0
SPLINE
  5
8C
330
1F
100
AcDbEntity
  8
0
  6
Continuous
 62
     7
370
    25
100
AcDbSpline
210
0.0
220
0.0
230
1.0
 70
     8
 71
     3
 72
     8
 73
     4
 74
     0
 42
0.000000001
 43
0.00000001
 40
0.0
 40
0.0
 40
0.0
 40
0.0
 40
1.0
 40
1.0
 40
1.0
 40
1.0
 10
660.3899321598756
 20
366.8512141652589
 30
0.0
 10
660.1176654728642
 20
366.2453659843277
 30
0.0
 10
659.9433501724844
 20
365.6297840331287
 30
0.0
 10
659.9433501724844
 20
364.9968797637274
 30
0.0
  0
SPLINE
  5
8D
330
1F
100
AcDbEntity
  8
0
  6
Continuous
 62
     7
370
    25
100
AcDbSpline
210
0.0
220
0.0
230
1.0
 70
     8
 71
     3
 72
     8
 73
     4
 74
     0
 42
0.000000001
 43
0.00000001
 40
0.0
 40
0.0
 40
0.0
 40
0.0
 40
1.0
 40
1.0
 40
1.0
 40
1.0
 10
660.3899321598756
 20
372.5375626301611
 30
0.0
 10
660.1176654728642
 20
371.6086406755362
 30
0.0
 10
659.9433501724843
 20
370.6647943336015
 30
0.0
 10
659.9433501724843
 20
369.6943883977132
 30
0.0
  0
LINE
  5
8E
330
1F
100
AcDbEntity
  8
0
  6
Continuous
 62
     7
370
    25
100
AcDbLine
 10
663.9433501725
 20
372.5375626302
 30
0.0
 11
660.3899321599
 21
372.5375626302
 31
0.0
  0
LINE
  5
8F
330
1F
100
AcDbEntity
  8
0
  6
Continuous
 62
     7
370
    25
100
AcDbLine
 10
663.9433501725
 20
366.8512141653
 30
0.0
 11
660.3899321599
 21
366.8512141653
 31
0.0
  0
SPLINE
  5
90
330
1F
100
AcDbEntity
  8
0
  6
Continuous
 62
     7
370
    25
100
AcDbSpline
210
0.0
220
0.0
230
1.0
 70
     8
 71
     3
 72
     8
 73
     4
 74
     0
 42
0.000000001
 43
0.00000001
 40
0.0
 40
0.0
 40
0.0
 40
0.0
 40
1.0
 40
1.0
 40
1.0
 40
1.0
 10
659.9433501724844
 20
364.9968797637274
 30
0.0
 10
659.9433501724844
 20
364.363975494325
 30
0.0
 10
660.1176654728638
 20
363.7483935431283
 30
0.0
 10
660.3899321598756
 20
363.142545362196
 30
0.0
  0
LINE
  5
91
330
1F
100
AcDbEntity
  8
0
  6
Continuous
 62
     7
370
    25
100
AcDbLine
 10
663.9433501725
 20
363.1425453622
 30
0.0
 11
660.3899321599
 21
363.1425453622
 31
0.0
  0
LINE
  5
92
330
1F
100
AcDbEntity
  8
0
  6
Continuous
 62
     7
370
    25
100
AcDbLine
 10
659.9433501725
 20
373.5264024611
 30
0.0
 11
659.9433501725
 21
369.6943883977
 31
0.0
  0
SPLINE
  5
93
330
1F
100
AcDbEntity
  8
0
  6
Continuous
 62
     7
370
    25
100
AcDbSpline
210
0.0
220
0.0
230
1.0
 70
     8
 71
     3
 72
     8
 73
     4
 74
     0
 42
0.000000001
 43
0.00000001
 40
0.0
 40
0.0
 40
0.0
 40
0.0
 40
1.0
 40
1.0
 40
1.0
 40
1.0
 10
659.9433501724842
 20
373.5264024610826
 30
0.0
 10
659.9433501724842
 20
373.1889007945949
 30
0.0
 10
660.1176654728636
 20
372.8606364038606
 30
0.0
 10
660.3899321598756
 20
372.5375626301662
 30
0.0
  0
SPLINE
  5
94
330
1F
100
AcDbEntity
  8
0
  6
Continuous
 62
     7
370
    25
100
AcDbSpline
210
0.0
220
0.0
230
1.0
 70
     8
 71
     3
 72
     8
 73
     4
 74
     0
 42
0.000000001
 43
0.00000001
 40
0.0
 40
0.0
 40
0.0
 40
0.0
 40
1.0
 40
1.0
 40
1.0
 40
1.0
 10
660.3899321598756
 20
374.5152422919991
 30
0.0
 10
660.1176654728641
 20
374.1921685183053
 30
0.0
 10
659.9433501724842
 20
373.8639041275696
 30
0.0
 10
659.9433501724842
 20
373.5264024610826
 30
0.0
  0
LINE
  5
95
330
1F
100
AcDbEntity
  8
0
  6
Continuous
 62
     7
370
    25
100
AcDbLine
 10
663.9433501725
 20
374.515242292
 30
0.0
 11
660.3899321599
 21
374.515242292
 31
0.0
  0
LINE
  5
96
330
1F
100
AcDbEntity
  8
0
  6
Continuous
 62
     7
370
    25
100
AcDbLine
 10
660.3899321599
 20
363.1425453622
 30
0.0
 11
660.2259141247
 21
363.5057207047
 31
0.0
  0
LINE
  5
97
330
1F
100
AcDbEntity
  8
0
  6
Continuous
 62
     7
370
    25
100
AcDbLine
 10
659.9433501725
 20
364.9968797637
 30
0.0
 11
659.9433501725
 21
363.8288938271
 31
0.0
  0
LINE
  5
98
330
1F
100
AcDbEntity
  8
0
  6
Continuous
 62
     7
370
    25
100
AcDbLine
 10
674.4021001725
 20
365.8288938271
 30
0.0
 11
674.4021001725
 21
371.8288938271
 31
0.0
  0
LINE
  5
99
330
1F
100
AcDbEntity
  8
0
  6
Continuous
 62
     7
370
    25
100
AcDbLine
 10
674.9433501725
 20
366.9445009114
 30
0.0
 11
674.9433501725
 21
371.2876438271
 31
0.0
  0
LINE
  5
9A
330
1F
100
AcDbEntity
  8
0
  6
Continuous
 62
     7
370
    25
100
AcDbLine
 10
674.9433501725
 20
366.3701438271
 30
0.0
 11
674.9433501725
 21
366.9445009114
 31
0.0
  0
LINE
  5
9B
330
1F
100
AcDbEntity
  8
0
  6
Continuous
 62
     7
370
    25
100
AcDbLine
 10
659.9433501725
 20
373.8288938271
 30
0.0
 11
659.9433501725
 21
373.5264024611
 31
0.0
  0
CIRCLE
  5
9C
330
1F
100
AcDbEntity
  8
0
  6
Continuous
 62
     7
370
    25
100
AcDbCircle
 10
215.2433501725
 20
315.8288938271
 30
0.0
 40
0.5000000000000284
  0
SPLINE
  5
9D
330
1F
100
AcDbEntity
  8
0
  6
Continuous
 62
     7
370
    25
100
AcDbSpline
210
0.0
220
0.0
230
1.0
 70
     8
 71
     3
 72
    20
 73
    16
 74
     0
 42
0.000000001
 43
0.00000001
 40
0.0
 40
0.0
 40
0.0
 40
0.0
 40
0.1249999999999994
 40
0.1249999999999994
 40
0.2499999999999988
 40
0.2499999999999988
 40
0.3749999999999982
 40
0.3749999999999982
 40
0.4999999999999975
 40
0.4999999999999975
 40
0.7499999999999988
 40
0.7499999999999988
 40
0.8749999999999993
 40
0.8749999999999993
 40
1.0
 40
1.0
 40
1.0
 40
1.0
 10
115.2433501724775
 20
339.3581831489749
 30
0.0
 10
115.2433501724774
 20
339.3191424181204
 30
0.0
 10
115.2588867329526
 20
339.2806237139205
 30
0.0
 10
115.3202050849133
 20
339.2032169626127
 30
0.0
 10
115.3666288304997
 20
339.164072544626
 30
0.0
 10
115.4865797006539
 20
339.0869217907107
 30
0.0
 10
115.5601843449373
 20
339.0485942089697
 30
0.0
 10
115.734914711033
 20
338.9710478884932
 30
0.0
 10
115.8357653399345
 20
338.9320716808245
 30
0.0
 10
116.1670506199183
 20
338.8165768243795
 30
0.0
 10
116.4347307813023
 20
338.7386643807094
 30
0.0
 10
116.8674048073578
 20
338.6231844553085
 30
0.0
 10
117.0189228942088
 20
338.5843186594435
 30
0.0
 10
117.3283486515949
 20
338.506544325775
 30
0.0
 10
117.4849709812887
 20
338.4679345588202
 30
0.0
 10
117.6433501724775
 20
338.4288938270935
 30
0.0
  0
LINE
  5
9E
330
1F
100
AcDbEntity
  8
0
  6
Continuous
 62
     7
370
    25
100
AcDbLine
 10
115.2433501725
 20
339.358183149
 30
0.0
 11
116.6433501725
 21
339.358183149
 31
0.0
  0
SPLINE
  5
9F
330
1F
100
AcDbEntity
  8
0
  6
Continuous
 62
     7
370
    25
100
AcDbSpline
210
0.0
220
0.0
230
1.0
 70
     8
 71
     3
 72
    14
 73
    10
 74
     0
 42
0.000000001
 43
0.00000001
 40
0.0
 40
0.0
 40
0.0
 40
0.0
 40
0.25
 40
0.25
 40
0.5
 40
0.5
 40
0.75
 40
0.75
 40
1.0
 40
1.0
 40
1.0
 40
1.0
 10
116.6433501724775
 20
339.3581831489749
 30
0.0
 10
116.6433501724776
 20
339.2799817339533
 30
0.0
 10
116.6689088371576
 20
339.2042717866564
 30
0.0
 10
116.7690368657545
 20
339.0489913750093
 30
0.0
 10
116.8426010450589
 20
338.9719815254263
 30
0.0
 10
117.0281386807507
 20
338.8165580393989
 30
0.0
 10
117.1383036017101
 20
338.7396083224805
 30
0.0
 10
117.3809153583995
 20
338.5841783432313
 30
0.0
 10
117.5111647692226
 20
338.5070952346586
 30
0.0
 10
117.6433501724775
 20
338.4288938270935
 30
0.0
  0
SPLINE
  5
A0
330
1F
100
AcDbEntity
  8
0
  6
Continuous
 62
     7
370
    25
100
AcDbSpline
210
0.0
220
0.0
230
1.0
 70
     8
 71
     3
 72
    20
 73
    16
 74
     0
 42
0.000000001
 43
0.00000001
 40
0.0
 40
0.0
 40
0.0
 40
0.0
 40
0.1250000000000091
 40
0.1250000000000091
 40
0.2500000000000182
 40
0.2500000000000182
 40
0.3750000000000273
 40
0.3750000000000273
 40
0.5000000000000364
 40
0.5000000000000364
 40
0.750000000000025
 40
0.750000000000025
 40
0.8750000000000125
 40
0.8750000000000125
 40
1.0
 40
1.0
 40
1.0
 40
1.0
 10
117.6433501724775
 20
197.2288938270936
 30
0.0
 10
117.4849709848267
 20
197.1898530962391
 30
0.0
 10
117.328725260135
 20
197.1513343920392
 30
0.0
 10
117.0207334107184
 20
197.0739276407313
 30
0.0
 10
116.8680893032474
 20
197.0347832227447
 30
0.0
 10
116.5790050140604
 20
196.9576324688295
 30
0.0
 10
116.4412004758762
 20
196.9193048870884
 30
0.0
 10
116.1795818002373
 20
196.8417585666119
 30
0.0
 10
116.0568354935547
 20
196.8027823589432
 30
0.0
 10
115.725511116607
 20
196.6872875024982
 30
0.0
 10
115.5464999925788
 20
196.6093750588281
 30
0.0
 10
115.3668848931978
 20
196.4938951334272
 30
0.0
 10
115.3206405443301
 20
196.4550293375622
 30
0.0
 10
115.258887238319
 20
196.3772550038937
 30
0.0
 10
115.2433501724776
 20
196.338645236939
 30
0.0
 10
115.2433501724775
 20
196.2996045052123
 30
0.0
  0
LINE
  5
A1
330
1F
100
AcDbEntity
  8
0
  6
Continuous
 62
     7
370
    25
100
AcDbLine
 10
115.2433501725
 20
339.358183149
 30
0.0
 11
115.2433501725
 21
196.2996045052
 31
0.0
  0
SPLINE
  5
A2
330
1F
100
AcDbEntity
  8
0
  6
Continuous
 62
     7
370
    25
100
AcDbSpline
210
0.0
220
0.0
230
1.0
 70
     8
 71
     3
 72
    20
 73
    16
 74
     0
 42
0.000000001
 43
0.00000001
 40
0.0
 40
0.0
 40
0.0
 40
0.0
 40
0.1249999999999968
 40
0.1249999999999968
 40
0.2499999999999937
 40
0.2499999999999937
 40
0.3749999999999905
 40
0.3749999999999905
 40
0.4999999999999873
 40
0.4999999999999873
 40
0.7499999999999989
 40
0.7499999999999989
 40
0.8749999999999993
 40
0.8749999999999993
 40
1.0
 40
1.0
 40
1.0
 40
1.0
 10
117.6433501724775
 20
338.4288938270935
 30
0.0
 10
117.6043094416229
 20
338.5872730147442
 30
0.0
 10
117.5657907374231
 20
338.7435187394358
 30
0.0
 10
117.4883839861154
 20
339.0515105888525
 30
0.0
 10
117.4492395681286
 20
339.2041546963237
 30
0.0
 10
117.3720888142133
 20
339.4932389855107
 30
0.0
 10
117.3337612324722
 20
339.6310435236948
 30
0.0
 10
117.2562149119957
 20
339.8926621993337
 30
0.0
 10
117.217238704327
 20
340.0154085060163
 30
0.0
 10
117.1017438478821
 20
340.346732882964
 30
0.0
 10
117.023831404212
 20
340.5257440069923
 30
0.0
 10
116.9083514788111
 20
340.7053591063732
 30
0.0
 10
116.869485682946
 20
340.7516034552409
 30
0.0
 10
116.7917113492775
 20
340.8133567612521
 30
0.0
 10
116.7531015823228
 20
340.8288938270935
 30
0.0
 10
116.7140608505962
 20
340.8288938270935
 30
0.0
  0
LINE
  5
A3
330
1F
100
AcDbEntity
  8
0
  6
Continuous
 62
     7
370
    25
100
AcDbLine
 10
708.7726394944
 20
340.8288938271
 30
0.0
 11
116.7140608506
 21
340.8288938271
 31
0.0
  0
SPLINE
  5
A4
330
1F
100
AcDbEntity
  8
0
  6
Continuous
 62
     7
370
    25
100
AcDbSpline
210
0.0
220
0.0
230
1.0
 70
     8
 71
     3
 72
    20
 73
    16
 74
     0
 42
0.000000001
 43
0.00000001
 40
0.0
 40
0.0
 40
0.0
 40
0.0
 40
0.1249999999999993
 40
0.1249999999999993
 40
0.2499999999999987
 40
0.2499999999999987
 40
0.374999999999998
 40
0.374999999999998
 40
0.4999999999999973
 40
0.4999999999999973
 40
0.7499999999999987
 40
0.7499999999999987
 40
0.8749999999999993
 40
0.8749999999999993
 40
1.0
 40
1.0
 40
1.0
 40
1.0
 10
708.7726394943587
 20
340.8288938270935
 30
0.0
 10
708.7335987635042
 20
340.8288938270935
 30
0.0
 10
708.6950800593044
 20
340.8133572666187
 30
0.0
 10
708.6176733079966
 20
340.7520389146581
 30
0.0
 10
708.5785288900099
 20
340.7056151690713
 30
0.0
 10
708.5013781360948
 20
340.5856642989172
 30
0.0
 10
708.4630505543538
 20
340.5120596546338
 30
0.0
 10
708.3855042338771
 20
340.3373292885381
 30
0.0
 10
708.3465280262084
 20
340.2364786596366
 30
0.0
 10
708.2310331697636
 20
339.9051933796526
 30
0.0
 10
708.1531207260932
 20
339.6375132182687
 30
0.0
 10
708.0376408006924
 20
339.2048391922134
 30
0.0
 10
707.9987750048275
 20
339.0533211053622
 30
0.0
 10
707.9210006711589
 20
338.7438953479761
 30
0.0
 10
707.8823909042043
 20
338.5872730182824
 30
0.0
 10
707.8433501724775
 20
338.4288938270936
 30
0.0
  0
SPLINE
  5
A5
330
1F
100
AcDbEntity
  8
0
  6
Continuous
 62
     7
370
    25
100
AcDbSpline
210
0.0
220
0.0
230
1.0
 70
     8
 71
     3
 72
    20
 73
    16
 74
     0
 42
0.000000001
 43
0.00000001
 40
0.0
 40
0.0
 40
0.0
 40
0.0
 40
0.1250000000000018
 40
0.1250000000000018
 40
0.2500000000000037
 40
0.2500000000000037
 40
0.3750000000000055
 40
0.3750000000000055
 40
0.5000000000000073
 40
0.5000000000000073
 40
0.7500000000000006
 40
0.7500000000000006
 40
0.8750000000000003
 40
0.8750000000000003
 40
1.0
 40
1.0
 40
1.0
 40
1.0
 10
707.8433501724775
 20
197.2288938270939
 30
0.0
 10
707.8823909033321
 20
197.0705146394432
 30
0.0
 10
707.9209096075318
 20
196.9142689147515
 30
0.0
 10
707.9983163588397
 20
196.6062770653348
 30
0.0
 10
708.0374607768265
 20
196.4536329578637
 30
0.0
 10
708.1146115307417
 20
196.1645486686766
 30
0.0
 10
708.1529391124827
 20
196.0267441304925
 30
0.0
 10
708.2304854329591
 20
195.7651254548536
 30
0.0
 10
708.2694616406279
 20
195.642379148171
 30
0.0
 10
708.3849564970728
 20
195.3110547712233
 30
0.0
 10
708.4628689407429
 20
195.1320436471951
 30
0.0
 10
708.5783488661438
 20
194.9524285478142
 30
0.0
 10
708.6172146620089
 20
194.9061841989464
 30
0.0
 10
708.6949889956774
 20
194.8444308929352
 30
0.0
 10
708.7335987626323
 20
194.8288938270937
 30
0.0
 10
708.7726394943587
 20
194.8288938270938
 30
0.0
  0
LINE
  5
A6
330
1F
100
AcDbEntity
  8
0
  6
Continuous
 62
     7
370
    25
100
AcDbLine
 10
116.7140608506
 20
194.8288938271
 30
0.0
 11
708.7726394944
 21
194.8288938271
 31
0.0
  0
SPLINE
  5
A7
330
1F
100
AcDbEntity
  8
0
  6
Continuous
 62
     7
370
    25
100
AcDbSpline
210
0.0
220
0.0
230
1.0
 70
     8
 71
     3
 72
    20
 73
    16
 74
     0
 42
0.000000001
 43
0.00000001
 40
0.0
 40
0.0
 40
0.0
 40
0.0
 40
0.1249999999999989
 40
0.1249999999999989
 40
0.2499999999999977
 40
0.2499999999999977
 40
0.3749999999999966
 40
0.3749999999999966
 40
0.4999999999999954
 40
0.4999999999999954
 40
0.749999999999993
 40
0.749999999999993
 40
0.8749999999999964
 40
0.8749999999999964
 40
1.0
 40
1.0
 40
1.0
 40
1.0
 10
116.7140608505962
 20
194.8288938270938
 30
0.0
 10
116.7531015814507
 20
194.8288938270938
 30
0.0
 10
116.7916202856505
 20
194.8444303875686
 30
0.0
 10
116.8690270369587
 20
194.9057487395291
 30
0.0
 10
116.908171454945
 20
194.952172485116
 30
0.0
 10
116.9853222088602
 20
195.0721233552701
 30
0.0
 10
117.0236497906013
 20
195.1457279995535
 30
0.0
 10
117.1011961110779
 20
195.3204583656491
 30
0.0
 10
117.1401723187465
 20
195.4213089945507
 30
0.0
 10
117.2556671751916
 20
195.7525942745346
 30
0.0
 10
117.3335796188615
 20
196.0202744359184
 30
0.0
 10
117.4490595442624
 20
196.4529484619738
 30
0.0
 10
117.4879253401276
 20
196.6044665488249
 30
0.0
 10
117.565699673796
 20
196.913892306211
 30
0.0
 10
117.6043094407508
 20
197.0705146359047
 30
0.0
 10
117.6433501724775
 20
197.2288938270935
 30
0.0
  0
SPLINE
  5
A8
330
1F
100
AcDbEntity
  8
0
  6
Continuous
 62
     7
370
    25
100
AcDbSpline
210
0.0
220
0.0
230
1.0
 70
     8
 71
     3
 72
    20
 73
    16
 74
     0
 42
0.000000001
 43
0.00000001
 40
0.0
 40
0.0
 40
0.0
 40
0.0
 40
0.1250000000000097
 40
0.1250000000000097
 40
0.2500000000000195
 40
0.2500000000000195
 40
0.3750000000000292
 40
0.3750000000000292
 40
0.500000000000039
 40
0.500000000000039
 40
0.7500000000000289
 40
0.7500000000000289
 40
0.8750000000000145
 40
0.8750000000000145
 40
1.0
 40
1.0
 40
1.0
 40
1.0
 10
707.8433501724775
 20
338.4288938270936
 30
0.0
 10
708.0017293601281
 20
338.4679345579481
 30
0.0
 10
708.1579750848199
 20
338.5064532621479
 30
0.0
 10
708.4659669342365
 20
338.5838600134558
 30
0.0
 10
708.6186110417076
 20
338.6230044314426
 30
0.0
 10
708.9076953308947
 20
338.7001551853577
 30
0.0
 10
709.0454998690788
 20
338.7384827670987
 30
0.0
 10
709.3071185447175
 20
338.8160290875753
 30
0.0
 10
709.4298648514002
 20
338.8550052952439
 30
0.0
 10
709.7611892283479
 20
338.970500151689
 30
0.0
 10
709.9402003523761
 20
339.0484125953591
 30
0.0
 10
710.1198154517572
 20
339.1638925207599
 30
0.0
 10
710.1660598006248
 20
339.202758316625
 30
0.0
 10
710.227813106636
 20
339.2805326502935
 30
0.0
 10
710.2433501724774
 20
339.3191424172483
 30
0.0
 10
710.2433501724774
 20
339.3581831489749
 30
0.0
  0
SPLINE
  5
A9
330
1F
100
AcDbEntity
  8
0
  6
Continuous
 62
     7
370
    25
100
AcDbSpline
210
0.0
220
0.0
230
1.0
 70
     8
 71
     3
 72
    14
 73
    10
 74
     0
 42
0.000000001
 43
0.00000001
 40
0.0
 40
0.0
 40
0.0
 40
0.0
 40
0.25
 40
0.25
 40
0.5
 40
0.5
 40
0.75
 40
0.75
 40
1.0
 40
1.0
 40
1.0
 40
1.0
 10
707.8433501724775
 20
338.4288938270936
 30
0.0
 10
707.9755355883364
 20
338.5070952421152
 30
0.0
 10
708.10351760687
 20
338.5828051894121
 30
0.0
 10
708.3461416318171
 20
338.7380856010592
 30
0.0
 10
708.4565838962272
 20
338.8150954506422
 30
0.0
 10
708.6425807934206
 20
338.9705189366696
 30
0.0
 10
708.7163817722591
 20
339.0474686535881
 30
0.0
 10
708.817200356654
 20
339.2028986328373
 30
0.0
 10
708.8433501724775
 20
339.2799817414099
 30
0.0
 10
708.8433501724775
 20
339.3581831489749
 30
0.0
  0
LINE
  5
AA
330
1F
100
AcDbEntity
  8
0
  6
Continuous
 62
     7
370
    25
100
AcDbLine
 10
710.2433501725
 20
339.358183149
 30
0.0
 11
708.8433501725
 21
339.358183149
 31
0.0
  0
SPLINE
  5
AB
330
1F
100
AcDbEntity
  8
0
  6
Continuous
 62
     7
370
    25
100
AcDbSpline
210
0.0
220
0.0
230
1.0
 70
     8
 71
     3
 72
    20
 73
    16
 74
     0
 42
0.000000001
 43
0.00000001
 40
0.0
 40
0.0
 40
0.0
 40
0.0
 40
0.1249999999999997
 40
0.1249999999999997
 40
0.2499999999999993
 40
0.2499999999999993
 40
0.374999999999999
 40
0.374999999999999
 40
0.4999999999999987
 40
0.4999999999999987
 40
0.7500000000000007
 40
0.7500000000000007
 40
0.8750000000000003
 40
0.8750000000000003
 40
1.0
 40
1.0
 40
1.0
 40
1.0
 10
710.2433501724774
 20
196.2996045052124
 30
0.0
 10
710.2433501724776
 20
196.338645236067
 30
0.0
 10
710.2278136120026
 20
196.3771639402668
 30
0.0
 10
710.166495260042
 20
196.4545706915747
 30
0.0
 10
710.1200715144553
 20
196.4937151095614
 30
0.0
 10
710.0001206443012
 20
196.5708658634765
 30
0.0
 10
709.9265160000176
 20
196.6091934452176
 30
0.0
 10
709.751785633922
 20
196.6867397656942
 30
0.0
 10
709.6509350050206
 20
196.7257159733628
 30
0.0
 10
709.3196497250367
 20
196.8412108298079
 30
0.0
 10
709.0519695636526
 20
196.9191232734779
 30
0.0
 10
708.6192955375972
 20
197.0346031988788
 30
0.0
 10
708.4677774507462
 20
197.0734689947438
 30
0.0
 10
708.1583516933599
 20
197.1512433284124
 30
0.0
 10
708.0017293636662
 20
197.1898530953671
 30
0.0
 10
707.8433501724775
 20
197.2288938270938
 30
0.0
  0
LINE
  5
AC
330
1F
100
AcDbEntity
  8
0
  6
Continuous
 62
     7
370
    25
100
AcDbLine
 10
710.2433501725
 20
196.2996045052
 30
0.0
 11
708.8433501725
 21
196.2996045052
 31
0.0
  0
SPLINE
  5
AD
330
1F
100
AcDbEntity
  8
0
  6
Continuous
 62
     7
370
    25
100
AcDbSpline
210
0.0
220
0.0
230
1.0
 70
     8
 71
     3
 72
    14
 73
    10
 74
     0
 42
0.000000001
 43
0.00000001
 40
0.0
 40
0.0
 40
0.0
 40
0.0
 40
0.25
 40
0.25
 40
0.5
 40
0.5
 40
0.75
 40
0.75
 40
1.0
 40
1.0
 40
1.0
 40
1.0
 10
708.8433501724775
 20
196.2996045052124
 30
0.0
 10
708.8433501724776
 20
196.3778059202341
 30
0.0
 10
708.8177915077969
 20
196.453515867531
 30
0.0
 10
708.7176634792
 20
196.608796279178
 30
0.0
 10
708.6440992998962
 20
196.685806128761
 30
0.0
 10
708.4585616642042
 20
196.8412296147885
 30
0.0
 10
708.3483967432448
 20
196.9181793317068
 30
0.0
 10
708.1057849865555
 20
197.073609310956
 30
0.0
 10
707.9755355757324
 20
197.1506924195287
 30
0.0
 10
707.8433501724775
 20
197.2288938270938
 30
0.0
  0
SPLINE
  5
AE
330
1F
100
AcDbEntity
  8
0
  6
Continuous
 62
     7
370
    25
100
AcDbSpline
210
0.0
220
0.0
230
1.0
 70
     8
 71
     3
 72
    14
 73
    10
 74
     0
 42
0.000000001
 43
0.00000001
 40
0.0
 40
0.0
 40
0.0
 40
0.0
 40
0.25
 40
0.25
 40
0.5
 40
0.5
 40
0.75
 40
0.75
 40
1.0
 40
1.0
 40
1.0
 40
1.0
 10
117.6433501724775
 20
338.4288938270935
 30
0.0
 10
117.5651487574559
 20
338.5610792429525
 30
0.0
 10
117.4894388101589
 20
338.6890612614861
 30
0.0
 10
117.3341583985117
 20
338.9316852864334
 30
0.0
 10
117.2571485489289
 20
339.0421275508434
 30
0.0
 10
117.1017250629013
 20
339.2281244480367
 30
0.0
 10
117.024775345983
 20
339.301925426875
 30
0.0
 10
116.8693453667338
 20
339.4027440112701
 30
0.0
 10
116.7922622581611
 20
339.4288938270936
 30
0.0
 10
116.7140608505962
 20
339.4288938270935
 30
0.0
  0
LINE
  5
AF
330
1F
100
AcDbEntity
  8
0
  6
Continuous
 62
     7
370
    25
100
AcDbLine
 10
116.7140608506
 20
340.8288938271
 30
0.0
 11
116.7140608506
 21
339.4288938271
 31
0.0
  0
LINE
  5
B0
330
1F
100
AcDbEntity
  8
0
  6
Continuous
 62
     7
370
    25
100
AcDbLine
 10
710.2433501725
 20
196.2996045052
 30
0.0
 11
710.2433501725
 21
339.358183149
 31
0.0
  0
SPLINE
  5
B1
330
1F
100
AcDbEntity
  8
0
  6
Continuous
 62
     7
370
    25
100
AcDbSpline
210
0.0
220
0.0
230
1.0
 70
     8
 71
     3
 72
    14
 73
    10
 74
     0
 42
0.000000001
 43
0.00000001
 40
0.0
 40
0.0
 40
0.0
 40
0.0
 40
0.2499999999999999
 40
0.2499999999999999
 40
0.4999999999999999
 40
0.4999999999999999
 40
0.7499999999999998
 40
0.7499999999999998
 40
1.0
 40
1.0
 40
1.0
 40
1.0
 10
707.8433501724775
 20
197.2288938270938
 30
0.0
 10
707.9215515874993
 20
197.0967084112348
 30
0.0
 10
707.9972615347962
 20
196.9687263927013
 30
0.0
 10
708.1525419464432
 20
196.7261023677539
 30
0.0
 10
708.2295517960262
 20
196.6156601033439
 30
0.0
 10
708.3849752820535
 20
196.4296632061506
 30
0.0
 10
708.4619249989719
 20
196.3558622273123
 30
0.0
 10
708.6173549782211
 20
196.2550436429173
 30
0.0
 10
708.6944380867938
 20
196.2288938270938
 30
0.0
 10
708.7726394943587
 20
196.2288938270938
 30
0.0
  0
LINE
  5
B2
330
1F
100
AcDbEntity
  8
0
  6
Continuous
 62
     7
370
    25
100
AcDbLine
 10
708.7726394944
 20
194.8288938271
 30
0.0
 11
708.7726394944
 21
196.2288938271
 31
0.0
  0
SPLINE
  5
B3
330
1F
100
AcDbEntity
  8
0
  6
Continuous
 62
     7
370
    25
100
AcDbSpline
210
0.0
220
0.0
230
1.0
 70
     8
 71
     3
 72
    14
 73
    10
 74
     0
 42
0.000000001
 43
0.00000001
 40
0.0
 40
0.0
 40
0.0
 40
0.0
 40
0.25
 40
0.25
 40
0.5
 40
0.5
 40
0.75
 40
0.75
 40
1.0
 40
1.0
 40
1.0
 40
1.0
 10
117.6433501724775
 20
197.2288938270936
 30
0.0
 10
117.5111647566185
 20
197.1506924120719
 30
0.0
 10
117.3831827380851
 20
197.074982464775
 30
0.0
 10
117.1405587131377
 20
196.919702053128
 30
0.0
 10
117.0301164487275
 20
196.8426922035451
 30
0.0
 10
116.8441195515343
 20
196.6872687175175
 30
0.0
 10
116.7703185726959
 20
196.6103190005992
 30
0.0
 10
116.669499988301
 20
196.4548890213499
 30
0.0
 10
116.6433501724775
 20
196.3778059127773
 30
0.0
 10
116.6433501724775
 20
196.2996045052123
 30
0.0
  0
LINE
  5
B4
330
1F
100
AcDbEntity
  8
0
  6
Continuous
 62
     7
370
    25
100
AcDbLine
 10
115.2433501725
 20
196.2996045052
 30
0.0
 11
116.6433501725
 21
196.2996045052
 31
0.0
  0
LINE
  5
B5
330
1F
100
AcDbEntity
  8
0
  6
Continuous
 62
     7
370
    25
100
AcDbLine
 10
708.7726394944
 20
340.8288938271
 30
0.0
 11
708.7726394944
 21
339.4288938271
 31
0.0
  0
SPLINE
  5
B6
330
1F
100
AcDbEntity
  8
0
  6
Continuous
 62
     7
370
    25
100
AcDbSpline
210
0.0
220
0.0
230
1.0
 70
     8
 71
     3
 72
    14
 73
    10
 74
     0
 42
0.000000001
 43
0.00000001
 40
0.0
 40
0.0
 40
0.0
 40
0.0
 40
0.25
 40
0.25
 40
0.5
 40
0.5
 40
0.75
 40
0.75
 40
1.0
 40
1.0
 40
1.0
 40
1.0
 10
708.7726394943587
 20
339.4288938270935
 30
0.0
 10
708.6944380793371
 20
339.4288938270935
 30
0.0
 10
708.6187281320401
 20
339.4033351624133
 30
0.0
 10
708.4634477203932
 20
339.3032071338166
 30
0.0
 10
708.3864378708103
 20
339.2296429545123
 30
0.0
 10
708.2310143847827
 20
339.0441053188204
 30
0.0
 10
708.1540646678643
 20
338.9339403978609
 30
0.0
 10
707.9986346886151
 20
338.6913286411716
 30
0.0
 10
707.9215515800425
 20
338.5610792303485
 30
0.0
 10
707.8433501724775
 20
338.4288938270936
 30
0.0
  0
LINE
  5
B7
330
1F
100
AcDbEntity
  8
0
  6
Continuous
 62
     7
370
    25
100
AcDbLine
 10
116.7140608506
 20
194.8288938271
 30
0.0
 11
116.7140608506
 21
196.2288938271
 31
0.0
  0
SPLINE
  5
B8
330
1F
100
AcDbEntity
  8
0
  6
Continuous
 62
     7
370
    25
100
AcDbSpline
210
0.0
220
0.0
230
1.0
 70
     8
 71
     3
 72
    14
 73
    10
 74
     0
 42
0.000000001
 43
0.00000001
 40
0.0
 40
0.0
 40
0.0
 40
0.0
 40
0.25
 40
0.25
 40
0.5
 40
0.5
 40
0.75
 40
0.75
 40
1.0
 40
1.0
 40
1.0
 40
1.0
 10
116.7140608505962
 20
196.2288938270938
 30
0.0
 10
116.7922622656178
 20
196.2288938270938
 30
0.0
 10
116.8679722129148
 20
196.254452491774
 30
0.0
 10
117.023252624562
 20
196.3545805203707
 30
0.0
 10
117.1002624741447
 20
196.428144699675
 30
0.0
 10
117.255685960172
 20
196.6136823353669
 30
0.0
 10
117.3326356770907
 20
196.7238472563263
 30
0.0
 10
117.4880656563397
 20
196.9664590130157
 30
0.0
 10
117.5651487649125
 20
197.0967084238387
 30
0.0
 10
117.6433501724775
 20
197.2288938270936
 30
0.0
  0
CIRCLE
  5
B9
330
1F
100
AcDbEntity
  8
0
  6
Continuous
 62
     7
370
    25
100
AcDbCircle
 10
171.2433501725
 20
267.8288938271
 30
0.0
 40
5.500000000000134
  0
ARC
  5
BA
330
1F
100
AcDbEntity
  8
0
  6
Continuous
 62
     7
370
    25
100
AcDbCircle
 10
173.4233600741
 20
268.8858299419
 30
0.0
 40
0.505099462733478
100
AcDbArc
 50
298.8005827702
 51
112.9304972368
  0
ARC
  5
BB
330
1F
100
AcDbEntity
  8
0
  6
Continuous
 62
     7
370
    25
100
AcDbCircle
 10
171.2433501725
 20
267.8288938271
 30
0.0
 40
2.499999999999994
100
AcDbArc
 50
37.506301084
 51
74.2247789229
  0
ARC
  5
BC
330
1F
100
AcDbEntity
  8
0
  6
Continuous
 62
     7
370
    25
100
AcDbCircle
 10
171.4180215977
 20
270.2453058398
 30
0.0
 40
0.5050994627349352
100
AcDbArc
 50
358.800582771
 51
172.930497236
  0
ARC
  5
BD
330
1F
100
AcDbEntity
  8
0
  6
Continuous
 62
     7
370
    25
100
AcDbCircle
 10
171.2433501725
 20
267.8288938271
 30
0.0
 40
2.499999999999999
100
AcDbArc
 50
97.5063010841
 51
134.2247789229
  0
ARC
  5
BE
330
1F
100
AcDbEntity
  8
0
  6
Continuous
 62
     7
370
    25
100
AcDbCircle
 10
169.2380116961
 20
269.188369725
 30
0.0
 40
0.5050994627351638
100
AcDbArc
 50
58.8005827697
 51
232.9304972372
  0
ARC
  5
BF
330
1F
100
AcDbEntity
  8
0
  6
Continuous
 62
     7
370
    25
100
AcDbCircle
 10
171.2433501725
 20
267.8288938271
 30
0.0
 40
2.499999999999954
100
AcDbArc
 50
157.5063010841
 51
194.2247789229
  0
ARC
  5
C0
330
1F
100
AcDbEntity
  8
0
  6
Continuous
 62
     7
370
    25
100
AcDbCircle
 10
169.0633402709
 20
266.7719577123
 30
0.0
 40
0.5050994627332729
100
AcDbArc
 50
118.8005827707
 51
292.9304972361
  0
ARC
  5
C1
330
1F
100
AcDbEntity
  8
0
  6
Continuous
 62
     7
370
    25
100
AcDbCircle
 10
171.2433501725
 20
267.8288938271
 30
0.0
 40
2.499999999999956
100
AcDbArc
 50
217.506301084
 51
254.2247789229
  0
ARC
  5
C2
330
1F
100
AcDbEntity
  8
0
  6
Continuous
 62
     7
370
    25
100
AcDbCircle
 10
171.0686787473
 20
265.4124818144
 30
0.0
 40
0.5050994627365893
100
AcDbArc
 50
178.8005827716
 51
352.9304972354
  0
ARC
  5
C3
330
1F
100
AcDbEntity
  8
0
  6
Continuous
 62
     7
370
    25
100
AcDbCircle
 10
171.2433501725
 20
267.8288938271
 30
0.0
 40
2.49999999999994
100
AcDbArc
 50
277.5063010841
 51
314.2247789229
  0
ARC
  5
C4
330
1F
100
AcDbEntity
  8
0
  6
Continuous
 62
     7
370
    25
100
AcDbCircle
 10
173.2486886489
 20
266.4694179292
 30
0.0
 40
0.5050994627355284
100
AcDbArc
 50
238.8005827701
 51
52.9304972368
  0
ARC
  5
C5
330
1F
100
AcDbEntity
  8
0
  6
Continuous
 62
     7
370
    25
100
AcDbCircle
 10
171.2433501725
 20
267.8288938271
 30
0.0
 40
2.499999999999943
100
AcDbArc
 50
337.5063010841
 51
14.2247789229
  0
CIRCLE
  5
C6
330
1F
100
AcDbEntity
  8
0
  6
Continuous
 62
     7
370
    25
100
AcDbCircle
 10
654.2433501725
 20
267.8288938271
 30
0.0
 40
5.500000000000139
  0
ARC
  5
C7
330
1F
100
AcDbEntity
  8
0
  6
Continuous
 62
     7
370
    25
100
AcDbCircle
 10
654.27601703
 20
270.2513904728
 30
0.0
 40
0.5050994627334864
100
AcDbArc
 50
2.1624680629
 51
176.2923825295
  0
ARC
  5
C8
330
1F
100
AcDbEntity
  8
0
  6
Continuous
 62
     7
370
    25
100
AcDbCircle
 10
654.2433501725
 20
267.8288938271
 30
0.0
 40
2.50000000000002
100
AcDbArc
 50
100.8681863767
 51
137.5866642156
  0
ARC
  5
C9
330
1F
100
AcDbEntity
  8
0
  6
Continuous
 62
     7
370
    25
100
AcDbCircle
 10
652.129073108
 20
266.6459358327
 30
0.0
 40
0.5050994627351374
100
AcDbArc
 50
122.1624680624
 51
296.2923825299
  0
ARC
  5
CA
330
1F
100
AcDbEntity
  8
0
  6
Continuous
 62
     7
370
    25
100
AcDbCircle
 10
654.2433501725
 20
267.8288938271
 30
0.0
 40
2.500000000000035
100
AcDbArc
 50
220.8681863768
 51
257.5866642156
  0
ARC
  5
CB
330
1F
100
AcDbEntity
  8
0
  6
Continuous
 62
     7
370
    25
100
AcDbCircle
 10
654.210683315
 20
265.4063971814
 30
0.0
 40
0.5050994627332654
100
AcDbArc
 50
182.1624680634
 51
356.2923825288
  0
ARC
  5
CC
330
1F
100
AcDbEntity
  8
0
  6
Continuous
 62
     7
370
    25
100
AcDbCircle
 10
654.2433501725
 20
267.8288938271
 30
0.0
 40
2.499999999999913
100
AcDbArc
 50
280.8681863767
 51
317.5866642156
  0
ARC
  5
CD
330
1F
100
AcDbEntity
  8
0
  6
Continuous
 62
     7
370
    25
100
AcDbCircle
 10
656.3249603795
 20
266.5893551758
 30
0.0
 40
0.505099462736639
100
AcDbArc
 50
242.1624680643
 51
56.2923825281
  0
ARC
  5
CE
330
1F
100
AcDbEntity
  8
0
  6
Continuous
 62
     7
370
    25
100
AcDbCircle
 10
654.2433501725
 20
267.8288938271
 30
0.0
 40
2.499999999999874
100
AcDbArc
 50
340.8681863768
 51
17.5866642156
  0
ARC
  5
CF
330
1F
100
AcDbEntity
  8
0
  6
Continuous
 62
     7
370
    25
100
AcDbCircle
 10
656.357627237
 20
269.0118518215
 30
0.0
 40
0.5050994627355271
100
AcDbArc
 50
302.1624680628
 51
116.2923825295
  0
ARC
  5
D0
330
1F
100
AcDbEntity
  8
0
  6
Continuous
 62
     7
370
    25
100
AcDbCircle
 10
654.2433501725
 20
267.8288938271
 30
0.0
 40
2.499999999999961
100
AcDbArc
 50
40.8681863768
 51
77.5866642156
  0
ARC
  5
D1
330
1F
100
AcDbEntity
  8
0
  6
Continuous
 62
     7
370
    25
100
AcDbCircle
 10
652.1617399655
 20
269.0684324784
 30
0.0
 40
0.505099462734931
100
AcDbArc
 50
62.1624680637
 51
236.2923825287
  0
ARC
  5
D2
330
1F
100
AcDbEntity
  8
0
  6
Continuous
 62
     7
370
    25
100
AcDbCircle
 10
654.2433501725
 20
267.8288938271
 30
0.0
 40
2.499999999999925
100
AcDbArc
 50
160.8681863768
 51
197.5866642156
  0
LINE
  5
D3
330
1F
100
AcDbEntity
  8
0
  6
Continuous
 62
     7
370
    25
100
AcDbLine
 10
159.7433501725
 20
375.3288938271
 30
0.0
 11
160.5433501725
 21
375.3288938271
 31
0.0
  0
LINE
  5
D4
330
1F
100
AcDbEntity
  8
0
  6
Continuous
 62
     7
370
    25
100
AcDbLine
 10
160.5433501725
 20
375.3288938271
 30
0.0
 11
160.5433501725
 21
372.3288938271
 31
0.0
  0
LINE
  5
D5
330
1F
100
AcDbEntity
  8
0
  6
Continuous
 62
     7
370
    25
100
AcDbLine
 10
159.7433501725
 20
372.3288938271
 30
0.0
 11
159.7433501725
 21
375.3288938271
 31
0.0
  0
LINE
  5
D6
330
1F
100
AcDbEntity
  8
0
  6
Continuous
 62
     7
370
    25
100
AcDbLine
 10
159.7433501725
 20
355.3288938271
 30
0.0
 11
160.5433501725
 21
355.3288938271
 31
0.0
  0
LINE
  5
D7
330
1F
100
AcDbEntity
  8
0
  6
Continuous
 62
     7
370
    25
100
AcDbLine
 10
159.7433501725
 20
355.3288938271
 30
0.0
 11
159.7433501725
 21
372.3288938271
 31
0.0
  0
LINE
  5
D8
330
1F
100
AcDbEntity
  8
0
  6
Continuous
 62
     7
370
    25
100
AcDbLine
 10
160.5433501725
 20
355.3288938271
 30
0.0
 11
160.5433501725
 21
372.3288938271
 31
0.0
  0
LINE
  5
D9
330
1F
100
AcDbEntity
  8
0
  6
Continuous
 62
     7
370
    25
100
AcDbLine
 10
664.9433501725
 20
372.3288938271
 30
0.0
 11
664.9433501725
 21
375.3288938271
 31
0.0
  0
LINE
  5
DA
330
1F
100
AcDbEntity
  8
0
  6
Continuous
 62
     7
370
    25
100
AcDbLine
 10
664.9433501725
 20
375.3288938271
 30
0.0
 11
665.7433501725
 21
375.3288938271
 31
0.0
  0
LINE
  5
DB
330
1F
100
AcDbEntity
  8
0
  6
Continuous
 62
     7
370
    25
100
AcDbLine
 10
665.7433501725
 20
375.3288938271
 30
0.0
 11
665.7433501725
 21
372.3288938271
 31
0.0
  0
LINE
  5
DC
330
1F
100
AcDbEntity
  8
0
  6
Continuous
 62
     7
370
    25
100
AcDbLine
 10
664.9433501725
 20
372.3288938271
 30
0.0
 11
664.9433501725
 21
355.3288938271
 31
0.0
  0
LINE
  5
DD
330
1F
100
AcDbEntity
  8
0
  6
Continuous
 62
     7
370
    25
100
AcDbLine
 10
665.7433501725
 20
372.3288938271
 30
0.0
 11
665.7433501725
 21
355.3288938271
 31
0.0
  0
LINE
  5
DE
330
1F
100
AcDbEntity
  8
0
  6
Continuous
 62
     7
370
    25
100
AcDbLine
 10
665.7433501725
 20
355.3288938271
 30
0.0
 11
664.9433501725
 21
355.3288938271
 31
0.0
  0
LINE
  5
DF
330
1F
100
AcDbEntity
  8
0
  6
Continuous
 62
     7
370
    25
100
AcDbLine
 10
160.5433501725
 20
340.8288938271
 30
0.0
 11
160.5433501725
 21
352.1288938271
 31
0.0
  0
LINE
  5
E0
330
1F
100
AcDbEntity
  8
0
  6
Continuous
 62
     7
370
    25
100
AcDbLine
 10
160.5433501725
 20
353.8288938271
 30
0.0
 11
160.5433501725
 21
355.3288938271
 31
0.0
  0
LINE
  5
E1
330
1F
100
AcDbEntity
  8
0
  6
Continuous
 62
     7
370
    25
100
AcDbLine
 10
159.7433501725
 20
340.8288938271
 30
0.0
 11
159.7433501725
 21
355.3288938271
 31
0.0
  0
LINE
  5
E2
330
1F
100
AcDbEntity
  8
0
  6
Continuous
 62
     7
370
    25
100
AcDbLine
 10
665.7433501725
 20
355.3288938271
 30
0.0
 11
665.7433501725
 21
340.8288938271
 31
0.0
  0
LINE
  5
E3
330
1F
100
AcDbEntity
  8
0
  6
Continuous
 62
     7
370
    25
100
AcDbLine
 10
664.9433501725
 20
355.3288938271
 30
0.0
 11
664.9433501725
 21
353.8288938271
 31
0.0
  0
LINE
  5
E4
330
1F
100
AcDbEntity
  8
0
  6
Continuous
 62
     7
370
    25
100
AcDbLine
 10
664.9433501725
 20
352.1288938271
 30
0.0
 11
664.9433501725
 21
340.8288938271
 31
0.0
  0
LINE
  5
E5
330
1F
100
AcDbEntity
  8
0
  6
Continuous
 62
     7
370
    25
100
AcDbLine
 10
674.4021001725
 20
340.8288938271
 30
0.0
 11
674.4021001725
 21
346.8288938271
 31
0.0
  0
LINE
  5
E6
330
1F
100
AcDbEntity
  8
0
  6
Continuous
 62
     7
370
    25
100
AcDbLine
 10
674.9433501725
 20
341.9445009114
 30
0.0
 11
674.9433501725
 21
346.2876438271
 31
0.0
  0
LINE
  5
E7
330
1F
100
AcDbEntity
  8
0
  6
Continuous
 62
     7
370
    25
100
AcDbLine
 10
674.9433501725
 20
341.3701438271
 30
0.0
 11
674.9433501725
 21
341.9445009114
 31
0.0
  0
LINE
  5
E8
330
1F
100
AcDbEntity
  8
0
  6
Continuous
 62
     7
370
    25
100
AcDbLine
 10
160.3224199399
 20
353.8288938271
 30
0.0
 11
665.164280405
 21
353.8288938271
 31
0.0
  0
LINE
  5
E9
330
1F
100
AcDbEntity
  8
0
  6
Continuous
 62
     7
370
    25
100
AcDbLine
 10
160.3224199399
 20
352.1288938271
 30
0.0
 11
665.164280405
 21
352.1288938271
 31
0.0
  0
ELLIPSE
  5
EA
330
1F
100
AcDbEntity
  8
0
  6
Continuous
 62
     7
370
    25
100
AcDbEllipse
 10
160.3224199399
 20
352.9788938271
 30
0.0
 11
0.0
 21
0.8499999999999658
 31
0.0
210
0.0
220
0.0
230
1.0
 40
0.0930232558
 41
0.0
 42
3.141592653589076
  0
ELLIPSE
  5
EB
330
1F
100
AcDbEntity
  8
0
  6
Continuous
 62
     7
370
    25
100
AcDbEllipse
 10
665.164280405
 20
352.9788938271
 30
0.0
 11
0.0
 21
0.8499999999999658
 31
0.0
210
0.0
220
0.0
230
1.0
 40
0.0930232558
 41
3.141592653589792
 42
6.283185307179586
  0
LINE
  5
EC
330
1F
100
AcDbEntity
  8
0
  6
Continuous
 62
     7
370
    25
100
AcDbLine
 10
161.2433501725
 20
352.1288938271
 30
0.0
 11
161.2433501725
 21
352.0288938271
 31
0.0
  0
LINE
  5
ED
330
1F
100
AcDbEntity
  8
0
  6
Continuous
 62
     7
370
    25
100
AcDbLine
 10
664.2433501725
 20
352.0288938271
 30
0.0
 11
664.2433501725
 21
352.1288938271
 31
0.0
  0
LINE
  5
EE
330
1F
100
AcDbEntity
  8
0
  6
Continuous
 62
     7
370
    25
100
AcDbLine
 10
161.2433501725
 20
352.0288938271
 30
0.0
 11
161.2433501725
 21
340.8288938271
 31
0.0
  0
LINE
  5
EF
330
1F
100
AcDbEntity
  8
0
  6
Continuous
 62
     7
370
    25
100
AcDbLine
 10
664.2433501725
 20
340.8288938271
 30
0.0
 11
664.2433501725
 21
352.0288938271
 31
0.0
  0
LINE
  5
F0
330
1F
100
AcDbEntity
  8
0
  6
Continuous
 62
     7
370
    25
100
AcDbLine
 10
151.0846001725
 20
345.1252596734
 30
0.0
 11
151.0846001725
 21
340.8288938271
 31
0.0
  0
LINE
  5
F1
330
1F
100
AcDbEntity
  8
0
  6
Continuous
 62
     7
370
    25
100
AcDbLine
 10
151.0846001725
 20
346.8288938271
 30
0.0
 11
151.0846001725
 21
345.1252596734
 31
0.0
  0
LINE
  5
F2
330
1F
100
AcDbEntity
  8
0
  6
Continuous
 62
     7
370
    25
100
AcDbLine
 10
150.5433501725
 20
346.2876438271
 30
0.0
 11
150.5433501725
 21
341.3701438271
 31
0.0
  0
ARC
  5
F3
330
1F
100
AcDbEntity
  8
0
  6
Continuous
 62
     7
370
    25
100
AcDbCircle
 10
654.0688164876
 20
345.4051078377
 30
0.0
 40
12.03669752938228
100
AcDbArc
 50
186.2565722694
 51
191.9710500657
  0
LINE
  5
F4
330
1F
100
AcDbEntity
  8
0
  6
Continuous
 62
     7
370
    25
100
AcDbLine
 10
643.7459624275
 20
343.1414307872
 30
0.0
 11
643.9789062927
 21
341.6893550633
 31
0.0
  0
ARC
  5
F5
330
1F
100
AcDbEntity
  8
0
  6
Continuous
 62
     7
370
    25
100
AcDbCircle
 10
642.6671361618
 20
353.6543601422
 30
0.0
 40
12.0366975293558
100
AcDbArc
 50
276.2565722694
 51
281.9710500657
  0
LINE
  5
F6
330
1F
100
AcDbEntity
  8
0
  6
Continuous
 62
     7
370
    25
100
AcDbLine
 10
644.9308132123
 20
343.3315060821
 30
0.0
 11
645.1637570775
 21
341.8794303582
 31
0.0
  0
ARC
  5
F7
330
1F
100
AcDbEntity
  8
0
  6
Continuous
 62
     7
370
    25
100
AcDbCircle
 10
634.4178838574
 20
342.2526798165
 30
0.0
 40
12.03669752934871
100
AcDbArc
 50
6.2565722694
 51
11.9710500657
  0
ARC
  5
F8
330
1F
100
AcDbEntity
  8
0
  6
Continuous
 62
     7
370
    25
100
AcDbCircle
 10
645.8195641831
 20
334.0034275121
 30
0.0
 40
12.03669752931271
100
AcDbArc
 50
96.2565722693
 51
101.9710500657
  0
ARC
  5
F9
330
1F
100
AcDbEntity
  8
0
  6
Continuous
 62
     7
370
    25
100
AcDbCircle
 10
644.2433501725
 20
343.8288938271
 30
0.0
 40
4.000000000000017
100
AcDbArc
 50
311.4096221093
 51
99.1138111675
  0
ARC
  5
FA
330
1F
100
AcDbEntity
  8
0
  6
Continuous
 62
     7
370
    25
100
AcDbCircle
 10
644.2433501725
 20
343.8288938271
 30
0.0
 40
4.000000000000017
100
AcDbArc
 50
99.1138111675
 51
228.5903778907
  0
LINE
  5
FB
330
1F
100
AcDbEntity
  8
0
  6
Continuous
 62
     7
370
    25
100
AcDbLine
 10
644.9308132123
 20
343.3315060821
 30
0.0
 11
646.3828889363
 21
343.5644499473
 31
0.0
  0
LINE
  5
FC
330
1F
100
AcDbEntity
  8
0
  6
Continuous
 62
     7
370
    25
100
AcDbLine
 10
642.1038114087
 20
344.0933377069
 30
0.0
 11
643.5558871326
 21
344.326281572
 31
0.0
  0
LINE
  5
FD
330
1F
100
AcDbEntity
  8
0
  6
Continuous
 62
     7
370
    25
100
AcDbLine
 10
642.2938867036
 20
342.9084869221
 30
0.0
 11
643.7459624275
 21
343.1414307872
 31
0.0
  0
LINE
  5
FE
330
1F
100
AcDbEntity
  8
0
  6
Continuous
 62
     7
370
    25
100
AcDbLine
 10
644.7407379174
 20
344.516356867
 30
0.0
 11
646.1928136414
 21
344.7493007321
 31
0.0
  0
LINE
  5
FF
330
1F
100
AcDbEntity
  8
0
  6
Continuous
 62
     7
370
    25
100
AcDbLine
 10
643.3229432674
 20
345.778357296
 30
0.0
 11
643.5558871326
 21
344.326281572
 31
0.0
  0
LINE
  5
100
330
1F
100
AcDbEntity
  8
0
  6
Continuous
 62
     7
370
    25
100
AcDbLine
 10
644.5077940522
 20
345.9684325909
 30
0.0
 11
644.7407379174
 21
344.516356867
 31
0.0
  0
LINE
  5
101
330
1F
100
AcDbEntity
  8
0
  6
Continuous
 62
     7
370
    25
100
AcDbLine
 10
644.8888442655
 20
344.5401162788
 30
0.0
 11
645.0789195604
 21
343.355265494
 31
0.0
  0
LINE
  5
102
330
1F
100
AcDbEntity
  8
0
  6
Continuous
 62
     7
370
    25
100
AcDbLine
 10
644.7169785056
 20
344.6644632151
 30
0.0
 11
643.5321277208
 21
344.4743879201
 31
0.0
  0
LINE
  5
103
330
1F
100
AcDbEntity
  8
0
  6
Continuous
 62
     7
370
    25
100
AcDbLine
 10
644.9545726242
 20
343.183399734
 30
0.0
 11
643.7697218394
 21
342.9933244391
 31
0.0
  0
LINE
  5
104
330
1F
100
AcDbEntity
  8
0
  6
Continuous
 62
     7
370
    25
100
AcDbLine
 10
643.4077807845
 20
344.3025221602
 30
0.0
 11
643.5978560794
 21
343.1176713754
 31
0.0
  0
ARC
  5
105
330
1F
100
AcDbEntity
  8
0
  6
Continuous
 62
     7
370
    25
100
AcDbCircle
 10
341.0688164875
 20
345.4051078377
 30
0.0
 40
12.03669752932732
100
AcDbArc
 50
186.2565722693
 51
191.9710500657
  0
ARC
  5
106
330
1F
100
AcDbEntity
  8
0
  6
Continuous
 62
     7
370
    25
100
AcDbCircle
 10
329.6671361618
 20
353.6543601421
 30
0.0
 40
12.03669752933845
100
AcDbArc
 50
276.2565722693
 51
281.9710500657
  0
ARC
  5
107
330
1F
100
AcDbEntity
  8
0
  6
Continuous
 62
     7
370
    25
100
AcDbCircle
 10
321.4178838574
 20
342.2526798165
 30
0.0
 40
12.03669752934118
100
AcDbArc
 50
6.2565722693
 51
11.9710500657
  0
ARC
  5
108
330
1F
100
AcDbEntity
  8
0
  6
Continuous
 62
     7
370
    25
100
AcDbCircle
 10
332.8195641831
 20
334.0034275121
 30
0.0
 40
12.03669752929357
100
AcDbArc
 50
96.2565722693
 51
101.9710500657
  0
ARC
  5
109
330
1F
100
AcDbEntity
  8
0
  6
Continuous
 62
     7
370
    25
100
AcDbCircle
 10
331.2433501725
 20
343.8288938271
 30
0.0
 40
4.000000000000007
100
AcDbArc
 50
311.4096221093
 51
99.1138111675
  0
ARC
  5
10A
330
1F
100
AcDbEntity
  8
0
  6
Continuous
 62
     7
370
    25
100
AcDbCircle
 10
331.2433501725
 20
343.8288938271
 30
0.0
 40
4.000000000000012
100
AcDbArc
 50
99.1138111675
 51
228.5903778907
  0
LINE
  5
10B
330
1F
100
AcDbEntity
  8
0
  6
Continuous
 62
     7
370
    25
100
AcDbLine
 10
330.3229432674
 20
345.778357296
 30
0.0
 11
330.5558871326
 21
344.326281572
 31
0.0
  0
LINE
  5
10C
330
1F
100
AcDbEntity
  8
0
  6
Continuous
 62
     7
370
    25
100
AcDbLine
 10
329.1038114087
 20
344.0933377069
 30
0.0
 11
330.5558871326
 21
344.326281572
 31
0.0
  0
LINE
  5
10D
330
1F
100
AcDbEntity
  8
0
  6
Continuous
 62
     7
370
    25
100
AcDbLine
 10
331.9308132123
 20
343.3315060821
 30
0.0
 11
332.1637570775
 21
341.8794303582
 31
0.0
  0
LINE
  5
10E
330
1F
100
AcDbEntity
  8
0
  6
Continuous
 62
     7
370
    25
100
AcDbLine
 10
331.7407379174
 20
344.516356867
 30
0.0
 11
333.1928136414
 21
344.7493007321
 31
0.0
  0
LINE
  5
10F
330
1F
100
AcDbEntity
  8
0
  6
Continuous
 62
     7
370
    25
100
AcDbLine
 10
329.2938867036
 20
342.9084869221
 30
0.0
 11
330.7459624275
 21
343.1414307872
 31
0.0
  0
LINE
  5
110
330
1F
100
AcDbEntity
  8
0
  6
Continuous
 62
     7
370
    25
100
AcDbLine
 10
331.9308132123
 20
343.3315060821
 30
0.0
 11
333.3828889363
 21
343.5644499473
 31
0.0
  0
LINE
  5
111
330
1F
100
AcDbEntity
  8
0
  6
Continuous
 62
     7
370
    25
100
AcDbLine
 10
331.5077940522
 20
345.9684325909
 30
0.0
 11
331.7407379174
 21
344.516356867
 31
0.0
  0
LINE
  5
112
330
1F
100
AcDbEntity
  8
0
  6
Continuous
 62
     7
370
    25
100
AcDbLine
 10
330.7459624275
 20
343.1414307872
 30
0.0
 11
330.9789062927
 21
341.6893550633
 31
0.0
  0
LINE
  5
113
330
1F
100
AcDbEntity
  8
0
  6
Continuous
 62
     7
370
    25
100
AcDbLine
 10
331.8888442655
 20
344.5401162788
 30
0.0
 11
332.0789195604
 21
343.355265494
 31
0.0
  0
LINE
  5
114
330
1F
100
AcDbEntity
  8
0
  6
Continuous
 62
     7
370
    25
100
AcDbLine
 10
331.9545726242
 20
343.183399734
 30
0.0
 11
330.7697218394
 21
342.9933244391
 31
0.0
  0
LINE
  5
115
330
1F
100
AcDbEntity
  8
0
  6
Continuous
 62
     7
370
    25
100
AcDbLine
 10
331.7169785056
 20
344.6644632151
 30
0.0
 11
330.5321277208
 21
344.4743879201
 31
0.0
  0
LINE
  5
116
330
1F
100
AcDbEntity
  8
0
  6
Continuous
 62
     7
370
    25
100
AcDbLine
 10
330.4077807845
 20
344.3025221602
 30
0.0
 11
330.5978560794
 21
343.1176713754
 31
0.0
  0
ARC
  5
117
330
1F
100
AcDbEntity
  8
0
  6
Continuous
 62
     7
370
    25
100
AcDbCircle
 10
504.0688164875
 20
345.4051078377
 30
0.0
 40
12.03669752935484
100
AcDbArc
 50
186.2565722694
 51
191.9710500657
  0
LINE
  5
118
330
1F
100
AcDbEntity
  8
0
  6
Continuous
 62
     7
370
    25
100
AcDbLine
 10
492.2938867036
 20
342.9084869221
 30
0.0
 11
493.7459624275
 21
343.1414307872
 31
0.0
  0
LINE
  5
119
330
1F
100
AcDbEntity
  8
0
  6
Continuous
 62
     7
370
    25
100
AcDbLine
 10
493.7459624275
 20
343.1414307872
 30
0.0
 11
493.9789062927
 21
341.6893550633
 31
0.0
  0
ARC
  5
11A
330
1F
100
AcDbEntity
  8
0
  6
Continuous
 62
     7
370
    25
100
AcDbCircle
 10
492.6671361618
 20
353.6543601421
 30
0.0
 40
12.03669752932342
100
AcDbArc
 50
276.2565722693
 51
281.9710500657
  0
LINE
  5
11B
330
1F
100
AcDbEntity
  8
0
  6
Continuous
 62
     7
370
    25
100
AcDbLine
 10
494.9308132123
 20
343.3315060821
 30
0.0
 11
495.1637570775
 21
341.8794303582
 31
0.0
  0
LINE
  5
11C
330
1F
100
AcDbEntity
  8
0
  6
Continuous
 62
     7
370
    25
100
AcDbLine
 10
494.9308132123
 20
343.3315060821
 30
0.0
 11
496.3828889363
 21
343.5644499473
 31
0.0
  0
ARC
  5
11D
330
1F
100
AcDbEntity
  8
0
  6
Continuous
 62
     7
370
    25
100
AcDbCircle
 10
484.4178838575
 20
342.2526798165
 30
0.0
 40
12.03669752931376
100
AcDbArc
 50
6.2565722693
 51
11.9710500657
  0
LINE
  5
11E
330
1F
100
AcDbEntity
  8
0
  6
Continuous
 62
     7
370
    25
100
AcDbLine
 10
494.7407379174
 20
344.516356867
 30
0.0
 11
496.1928136414
 21
344.7493007321
 31
0.0
  0
ARC
  5
11F
330
1F
100
AcDbEntity
  8
0
  6
Continuous
 62
     7
370
    25
100
AcDbCircle
 10
495.8195641831
 20
334.0034275121
 30
0.0
 40
12.03669752931231
100
AcDbArc
 50
96.2565722693
 51
101.9710500657
  0
ARC
  5
120
330
1F
100
AcDbEntity
  8
0
  6
Continuous
 62
     7
370
    25
100
AcDbCircle
 10
494.2433501725
 20
343.8288938271
 30
0.0
 40
4.000000000000007
100
AcDbArc
 50
311.4096221093
 51
99.1138111675
  0
ARC
  5
121
330
1F
100
AcDbEntity
  8
0
  6
Continuous
 62
     7
370
    25
100
AcDbCircle
 10
494.2433501725
 20
343.8288938271
 30
0.0
 40
4.000000000000007
100
AcDbArc
 50
99.1138111675
 51
228.5903778907
  0
LINE
  5
122
330
1F
100
AcDbEntity
  8
0
  6
Continuous
 62
     7
370
    25
100
AcDbLine
 10
492.1038114087
 20
344.0933377069
 30
0.0
 11
493.5558871326
 21
344.326281572
 31
0.0
  0
LINE
  5
123
330
1F
100
AcDbEntity
  8
0
  6
Continuous
 62
     7
370
    25
100
AcDbLine
 10
494.5077940522
 20
345.9684325909
 30
0.0
 11
494.7407379174
 21
344.516356867
 31
0.0
  0
LINE
  5
124
330
1F
100
AcDbEntity
  8
0
  6
Continuous
 62
     7
370
    25
100
AcDbLine
 10
493.3229432674
 20
345.778357296
 30
0.0
 11
493.5558871326
 21
344.326281572
 31
0.0
  0
LINE
  5
125
330
1F
100
AcDbEntity
  8
0
  6
Continuous
 62
     7
370
    25
100
AcDbLine
 10
494.8888442655
 20
344.5401162788
 30
0.0
 11
495.0789195604
 21
343.355265494
 31
0.0
  0
LINE
  5
126
330
1F
100
AcDbEntity
  8
0
  6
Continuous
 62
     7
370
    25
100
AcDbLine
 10
494.7169785056
 20
344.6644632151
 30
0.0
 11
493.5321277208
 21
344.4743879201
 31
0.0
  0
LINE
  5
127
330
1F
100
AcDbEntity
  8
0
  6
Continuous
 62
     7
370
    25
100
AcDbLine
 10
494.9545726242
 20
343.183399734
 30
0.0
 11
493.7697218394
 21
342.9933244391
 31
0.0
  0
LINE
  5
128
330
1F
100
AcDbEntity
  8
0
  6
Continuous
 62
     7
370
    25
100
AcDbLine
 10
493.4077807845
 20
344.3025221602
 30
0.0
 11
493.5978560794
 21
343.1176713754
 31
0.0
  0
LINE
  5
129
330
1F
100
AcDbEntity
  8
0
  6
Continuous
 62
     7
370
    25
100
AcDbLine
 10
180.3229432674
 20
345.778357296
 30
0.0
 11
180.5558871326
 21
344.326281572
 31
0.0
  0
LINE
  5
12A
330
1F
100
AcDbEntity
  8
0
  6
Continuous
 62
     7
370
    25
100
AcDbLine
 10
179.1038114087
 20
344.0933377069
 30
0.0
 11
180.5558871326
 21
344.326281572
 31
0.0
  0
ARC
  5
12B
330
1F
100
AcDbEntity
  8
0
  6
Continuous
 62
     7
370
    25
100
AcDbCircle
 10
191.0688164875
 20
345.4051078377
 30
0.0
 40
12.03669752934324
100
AcDbArc
 50
186.2565722694
 51
191.9710500657
  0
LINE
  5
12C
330
1F
100
AcDbEntity
  8
0
  6
Continuous
 62
     7
370
    25
100
AcDbLine
 10
179.2938867036
 20
342.9084869221
 30
0.0
 11
180.7459624275
 21
343.1414307872
 31
0.0
  0
LINE
  5
12D
330
1F
100
AcDbEntity
  8
0
  6
Continuous
 62
     7
370
    25
100
AcDbLine
 10
180.7459624275
 20
343.1414307872
 30
0.0
 11
180.9789062927
 21
341.6893550633
 31
0.0
  0
ARC
  5
12E
330
1F
100
AcDbEntity
  8
0
  6
Continuous
 62
     7
370
    25
100
AcDbCircle
 10
179.6671361618
 20
353.6543601421
 30
0.0
 40
12.03669752934767
100
AcDbArc
 50
276.2565722693
 51
281.9710500657
  0
LINE
  5
12F
330
1F
100
AcDbEntity
  8
0
  6
Continuous
 62
     7
370
    25
100
AcDbLine
 10
181.9308132123
 20
343.3315060821
 30
0.0
 11
182.1637570775
 21
341.8794303582
 31
0.0
  0
LINE
  5
130
330
1F
100
AcDbEntity
  8
0
  6
Continuous
 62
     7
370
    25
100
AcDbLine
 10
181.9308132123
 20
343.3315060821
 30
0.0
 11
183.3828889363
 21
343.5644499473
 31
0.0
  0
ARC
  5
131
330
1F
100
AcDbEntity
  8
0
  6
Continuous
 62
     7
370
    25
100
AcDbCircle
 10
171.4178838574
 20
342.2526798165
 30
0.0
 40
12.03669752934885
100
AcDbArc
 50
6.2565722694
 51
11.9710500657
  0
LINE
  5
132
330
1F
100
AcDbEntity
  8
0
  6
Continuous
 62
     7
370
    25
100
AcDbLine
 10
181.7407379174
 20
344.516356867
 30
0.0
 11
183.1928136414
 21
344.7493007321
 31
0.0
  0
LINE
  5
133
330
1F
100
AcDbEntity
  8
0
  6
Continuous
 62
     7
370
    25
100
AcDbLine
 10
181.5077940522
 20
345.9684325909
 30
0.0
 11
181.7407379174
 21
344.516356867
 31
0.0
  0
ARC
  5
134
330
1F
100
AcDbEntity
  8
0
  6
Continuous
 62
     7
370
    25
100
AcDbCircle
 10
182.8195641831
 20
334.0034275121
 30
0.0
 40
12.03669752932421
100
AcDbArc
 50
96.2565722693
 51
101.9710500657
  0
ARC
  5
135
330
1F
100
AcDbEntity
  8
0
  6
Continuous
 62
     7
370
    25
100
AcDbCircle
 10
181.2433501725
 20
343.8288938271
 30
0.0
 40
4.000000000000059
100
AcDbArc
 50
311.4096221093
 51
99.1138111675
  0
ARC
  5
136
330
1F
100
AcDbEntity
  8
0
  6
Continuous
 62
     7
370
    25
100
AcDbCircle
 10
181.2433501725
 20
343.8288938271
 30
0.0
 40
4.000000000000059
100
AcDbArc
 50
99.1138111675
 51
228.5903778907
  0
LINE
  5
137
330
1F
100
AcDbEntity
  8
0
  6
Continuous
 62
     7
370
    25
100
AcDbLine
 10
181.8888442655
 20
344.5401162788
 30
0.0
 11
182.0789195604
 21
343.355265494
 31
0.0
  0
LINE
  5
138
330
1F
100
AcDbEntity
  8
0
  6
Continuous
 62
     7
370
    25
100
AcDbLine
 10
181.9545726242
 20
343.183399734
 30
0.0
 11
180.7697218394
 21
342.9933244391
 31
0.0
  0
LINE
  5
139
330
1F
100
AcDbEntity
  8
0
  6
Continuous
 62
     7
370
    25
100
AcDbLine
 10
181.7169785056
 20
344.6644632151
 30
0.0
 11
180.5321277208
 21
344.4743879201
 31
0.0
  0
LINE
  5
13A
330
1F
100
AcDbEntity
  8
0
  6
Continuous
 62
     7
370
    25
100
AcDbLine
 10
180.4077807845
 20
344.3025221602
 30
0.0
 11
180.5978560794
 21
343.1176713754
 31
0.0
  0
SPLINE
  5
13B
330
1F
100
AcDbEntity
  8
0
  6
Continuous
 62
     7
370
    25
100
AcDbSpline
210
0.0
220
0.0
230
1.0
 70
    24
 71
     3
 72
    18
 73
    14
 74
     0
 42
0.000000001
 43
0.00000001
 40
0.0
 40
0.0
 40
0.0
 40
0.0
 40
0.1395442450004753
 40
0.2146633576115612
 40
0.2913766055701589
 40
0.3680898535287572
 40
0.4432089661398435
 40
0.582753211140318
 40
0.7222974561407929
 40
0.797416568751879
 40
0.8741298167104768
 40
0.9508430646690749
 40
1.0
 40
1.0
 40
1.0
 40
1.0
 10
161.5433501724775
 20
363.598365770327
 30
0.0
 10
161.5433501724775
 20
363.9834966622526
 30
0.0
 10
161.5433501724775
 20
364.5759502627606
 30
0.0
 10
161.5433501724775
 20
365.8118644441456
 30
0.0
 10
161.5433501724775
 20
366.8878940565004
 30
0.0
 10
161.5433501724774
 20
368.0514221770493
 30
0.0
 10
161.5433501724775
 20
369.5718693680674
 30
0.0
 10
161.5433501724774
 20
371.3960593660742
 30
0.0
 10
161.5433501724775
 20
372.9112943206666
 30
0.0
 10
161.5433501724774
 20
373.8290416190966
 30
0.0
 10
161.5433501724775
 20
374.3326584374502
 30
0.0
 10
161.5433501724775
 20
374.6047955621902
 30
0.0
 10
161.5433501724775
 20
374.6028877193042
 30
0.0
 10
161.5433501724775
 20
374.6021426364982
 30
0.0
  0
SPLINE
  5
13C
330
1F
100
AcDbEntity
  8
0
  6
Continuous
 62
     7
370
    25
100
AcDbSpline
210
0.0
220
0.0
230
1.0
 70
     8
 71
     3
 72
     8
 73
     4
 74
     0
 42
0.000000001
 43
0.00000001
 40
0.0
 40
0.0
 40
0.0
 40
0.0
 40
1.0
 40
1.0
 40
1.0
 40
1.0
 10
165.5433501724703
 20
366.004224415961
 30
0.0
 10
165.5433501724703
 20
366.8172139876662
 30
0.0
 10
165.3690348720911
 20
367.607952383734
 30
0.0
 10
165.096768185079
 20
368.3861873822108
 30
0.0
  0
SPLINE
  5
13D
330
1F
100
AcDbEntity
  8
0
  6
Continuous
 62
     7
370
    25
100
AcDbSpline
210
0.0
220
0.0
230
1.0
 70
     8
 71
     3
 72
     8
 73
     4
 74
     0
 42
0.000000001
 43
0.00000001
 40
0.0
 40
0.0
 40
0.0
 40
0.0
 40
1.0
 40
1.0
 40
1.0
 40
1.0
 10
165.096768185079
 20
363.6222614497113
 30
0.0
 10
165.3690348720904
 20
364.4004964481862
 30
0.0
 10
165.5433501724703
 20
365.1912348442579
 30
0.0
 10
165.5433501724703
 20
366.004224415961
 30
0.0
  0
LINE
  5
13E
330
1F
100
AcDbEntity
  8
0
  6
Continuous
 62
     7
370
    25
100
AcDbLine
 10
161.5433501725
 20
363.6222614497
 30
0.0
 11
165.0967681851
 21
363.6222614497
 31
0.0
  0
LINE
  5
13F
330
1F
100
AcDbEntity
  8
0
  6
Continuous
 62
     7
370
    25
100
AcDbLine
 10
165.0967681851
 20
368.3861873822
 30
0.0
 11
161.5433501725
 21
368.3861873822
 31
0.0
  0
SPLINE
  5
140
330
1F
100
AcDbEntity
  8
0
  6
Continuous
 62
     7
370
    25
100
AcDbSpline
210
0.0
220
0.0
230
1.0
 70
     8
 71
     3
 72
     8
 73
     4
 74
     0
 42
0.000000001
 43
0.00000001
 40
0.0
 40
0.0
 40
0.0
 40
0.0
 40
1.0
 40
1.0
 40
1.0
 40
1.0
 10
165.5433501724703
 20
370.9895035709075
 30
0.0
 10
165.5433501724703
 20
371.8780433774633
 30
0.0
 10
165.3690348720909
 20
372.7422642308824
 30
0.0
 10
165.096768185079
 20
373.5928197595974
 30
0.0
  0
SPLINE
  5
141
330
1F
100
AcDbEntity
  8
0
  6
Continuous
 62
     7
370
    25
100
AcDbSpline
210
0.0
220
0.0
230
1.0
 70
     8
 71
     3
 72
     8
 73
     4
 74
     0
 42
0.000000001
 43
0.00000001
 40
0.0
 40
0.0
 40
0.0
 40
0.0
 40
1.0
 40
1.0
 40
1.0
 40
1.0
 10
165.096768185079
 20
368.3861873822175
 30
0.0
 10
165.3690348720905
 20
369.2367429109314
 30
0.0
 10
165.5433501724703
 20
370.1009637643531
 30
0.0
 10
165.5433501724703
 20
370.9895035709075
 30
0.0
  0
LINE
  5
142
330
1F
100
AcDbEntity
  8
0
  6
Continuous
 62
     7
370
    25
100
AcDbLine
 10
161.5433501725
 20
373.5928197596
 30
0.0
 11
165.0967681851
 21
373.5928197596
 31
0.0
  0
LINE
  5
143
330
1F
100
AcDbEntity
  8
0
  6
Continuous
 62
     7
370
    25
100
AcDbLine
 10
165.5433501725
 20
366.004224416
 30
0.0
 11
165.5433501725
 21
370.9895035709
 31
0.0
  0
SPLINE
  5
144
330
1F
100
AcDbEntity
  8
0
  6
Continuous
 62
     7
370
    25
100
AcDbSpline
210
0.0
220
0.0
230
1.0
 70
     8
 71
     3
 72
     8
 73
     4
 74
     0
 42
0.000000001
 43
0.00000001
 40
0.0
 40
0.0
 40
0.0
 40
0.0
 40
1.0
 40
1.0
 40
1.0
 40
1.0
 10
165.0967681850791
 20
373.5928197596011
 30
0.0
 10
165.3690348720905
 20
373.6651402898399
 30
0.0
 10
165.5433501724704
 20
373.7386227471904
 30
0.0
 10
165.5433501724704
 20
373.8141729820416
 30
0.0
  0
LINE
  5
145
330
1F
100
AcDbEntity
  8
0
  6
Continuous
 62
     7
370
    25
100
AcDbLine
 10
165.5433501725
 20
370.9895035709
 30
0.0
 11
165.5433501725
 21
373.814172982
 31
0.0
  0
SPLINE
  5
146
330
1F
100
AcDbEntity
  8
0
  6
Continuous
 62
     7
370
    25
100
AcDbSpline
210
0.0
220
0.0
230
1.0
 70
     8
 71
     3
 72
     8
 73
     4
 74
     0
 42
0.000000001
 43
0.00000001
 40
0.0
 40
0.0
 40
0.0
 40
0.0
 40
1.0
 40
1.0
 40
1.0
 40
1.0
 10
165.5433501724704
 20
363.8436146721489
 30
0.0
 10
165.5433501724704
 20
363.7680644372976
 30
0.0
 10
165.369034872091
 20
363.6945819799474
 30
0.0
 10
165.0967681850791
 20
363.6222614497084
 30
0.0
  0
LINE
  5
147
330
1F
100
AcDbEntity
  8
0
  6
Continuous
 62
     7
370
    25
100
AcDbLine
 10
165.5433501725
 20
366.004224416
 30
0.0
 11
165.5433501725
 21
363.8362213333
 31
0.0
  0
SPLINE
  5
148
330
1F
100
AcDbEntity
  8
0
  6
Continuous
 62
     7
370
    25
100
AcDbSpline
210
0.0
220
0.0
230
1.0
 70
     8
 71
     3
 72
     8
 73
     4
 74
     0
 42
0.000000001
 43
0.00000001
 40
0.0
 40
0.0
 40
0.0
 40
0.0
 40
1.0
 40
1.0
 40
1.0
 40
1.0
 10
165.5433501724704
 20
373.8141729820416
 30
0.0
 10
165.5433501724704
 20
373.8897232168929
 30
0.0
 10
165.369034872091
 20
373.9632056742432
 30
0.0
 10
165.096768185079
 20
374.0355262044821
 30
0.0
  0
LINE
  5
149
330
1F
100
AcDbEntity
  8
0
  6
Continuous
 62
     7
370
    25
100
AcDbLine
 10
161.5433501725
 20
374.0355262045
 30
0.0
 11
165.0967681851
 21
374.0355262045
 31
0.0
  0
LINE
  5
14A
330
1F
100
AcDbEntity
  8
0
  6
Continuous
 62
     7
370
    25
100
AcDbLine
 10
150.5433501725
 20
371.2876438271
 30
0.0
 11
150.5433501725
 21
366.3701438271
 31
0.0
  0
LINE
  5
14B
330
1F
100
AcDbEntity
  8
0
  6
Continuous
 62
     7
370
    25
100
AcDbLine
 10
151.0846001725
 20
370.1252596734
 30
0.0
 11
151.0846001725
 21
365.8288938271
 31
0.0
  0
LINE
  5
14C
330
1F
100
AcDbEntity
  8
0
  6
Continuous
 62
     7
370
    25
100
AcDbLine
 10
151.0846001725
 20
371.8288938271
 30
0.0
 11
151.0846001725
 21
370.1252596734
 31
0.0
  0
LINE
  5
14D
330
1F
100
AcDbEntity
  8
0
  6
Continuous
 62
     7
370
    25
100
AcDbLine
 10
811.3482010668
 20
340.050267155
 30
0.0
 11
811.7111388451
 21
340.6788938271
 31
0.0
  0
LINE
  5
14E
330
1F
100
AcDbEntity
  8
0
  6
Continuous
 62
     7
370
    25
100
AcDbLine
 10
811.7111388451
 20
346.9788938271
 30
0.0
 11
811.3482010668
 21
347.6075204992
 31
0.0
  0
ARC
  5
14F
330
1F
100
AcDbEntity
  8
0
  6
Continuous
 62
     7
370
    25
100
AcDbCircle
 10
808.4829356149
 20
343.8288938271
 30
0.0
 40
8.000000000000066
100
AcDbArc
 50
330.0
 51
344.7252520003
  0
ARC
  5
150
330
1F
100
AcDbEntity
  8
0
  6
Continuous
 62
     7
370
    25
100
AcDbCircle
 10
808.4829356149
 20
343.8288938271
 30
0.0
 40
8.000000000000066
100
AcDbArc
 50
15.2747479997
 51
30.0
  0
LINE
  5
151
330
1F
100
AcDbEntity
  8
0
  6
Continuous
 62
     7
370
    25
100
AcDbLine
 10
813.4111388451
 20
339.8288938271
 30
0.0
 11
815.4111388451
 21
339.8288938271
 31
0.0
  0
LINE
  5
152
330
1F
100
AcDbEntity
  8
0
  6
Continuous
 62
     7
370
    25
100
AcDbLine
 10
815.4111388451
 20
347.8288938271
 30
0.0
 11
813.4111388451
 21
347.8288938271
 31
0.0
  0
LINE
  5
153
330
1F
100
AcDbEntity
  8
0
  6
Continuous
 62
     7
370
    25
100
AcDbLine
 10
811.7111388451
 20
341.8288938271
 30
0.0
 11
811.8111388451
 21
341.8288938271
 31
0.0
  0
LINE
  5
154
330
1F
100
AcDbEntity
  8
0
  6
Continuous
 62
     7
370
    25
100
AcDbLine
 10
811.8111388451
 20
345.8288938271
 30
0.0
 11
811.7111388451
 21
345.8288938271
 31
0.0
  0
LINE
  5
155
330
1F
100
AcDbEntity
  8
0
  6
Continuous
 62
     7
370
    25
100
AcDbLine
 10
818.7111388451
 20
339.358183149
 30
0.0
 11
818.7111388451
 21
196.2996045052
 31
0.0
  0
LINE
  5
156
330
1F
100
AcDbEntity
  8
0
  6
Continuous
 62
     7
370
    25
100
AcDbLine
 10
828.3111388451
 20
196.2996045052
 30
0.0
 11
818.7111388451
 21
196.2996045052
 31
0.0
  0
LINE
  5
157
330
1F
100
AcDbEntity
  8
0
  6
Continuous
 62
     7
370
    25
100
AcDbLine
 10
828.3111388451
 20
339.358183149
 30
0.0
 11
818.7111388451
 21
339.358183149
 31
0.0
  0
SPLINE
  5
158
330
1F
100
AcDbEntity
  8
0
  6
Continuous
 62
     7
370
    25
100
AcDbSpline
210
0.0
220
0.0
230
1.0
 70
     8
 71
     3
 72
    20
 73
    16
 74
     0
 42
0.000000001
 43
0.00000001
 40
0.0
 40
0.0
 40
0.0
 40
0.0
 40
0.1249999999999994
 40
0.1249999999999994
 40
0.2499999999999988
 40
0.2499999999999988
 40
0.3749999999999982
 40
0.3749999999999982
 40
0.4999999999999975
 40
0.4999999999999975
 40
0.7499999999999988
 40
0.7499999999999988
 40
0.8749999999999993
 40
0.8749999999999993
 40
1.0
 40
1.0
 40
1.0
 40
1.0
 10
828.3111388451308
 20
339.3581831489749
 30
0.0
 10
828.4695180327816
 20
339.3191424181204
 30
0.0
 10
828.6257637574732
 20
339.2806237139205
 30
0.0
 10
828.9337556068899
 20
339.2032169626127
 30
0.0
 10
829.0863997143609
 20
339.164072544626
 30
0.0
 10
829.3754840035481
 20
339.0869217907107
 30
0.0
 10
829.5132885417321
 20
339.0485942089697
 30
0.0
 10
829.774907217371
 20
338.9710478884932
 30
0.0
 10
829.8976535240537
 20
338.9320716808245
 30
0.0
 10
830.2289779010014
 20
338.8165768243795
 30
0.0
 10
830.4079890250296
 20
338.7386643807094
 30
0.0
 10
830.5876041244105
 20
338.6231844553085
 30
0.0
 10
830.6338484732781
 20
338.5843186594435
 30
0.0
 10
830.6956017792894
 20
338.506544325775
 30
0.0
 10
830.7111388451308
 20
338.4679345588202
 30
0.0
 10
830.7111388451308
 20
338.4288938270935
 30
0.0
  0
LINE
  5
159
330
1F
100
AcDbEntity
  8
0
  6
Continuous
 62
     7
370
    25
100
AcDbLine
 10
830.7111388451
 20
338.4288938271
 30
0.0
 11
830.7111388451
 21
197.2288938271
 31
0.0
  0
SPLINE
  5
15A
330
1F
100
AcDbEntity
  8
0
  6
Continuous
 62
     7
370
    25
100
AcDbSpline
210
0.0
220
0.0
230
1.0
 70
     8
 71
     3
 72
    20
 73
    16
 74
     0
 42
0.000000001
 43
0.00000001
 40
0.0
 40
0.0
 40
0.0
 40
0.0
 40
0.1250000000000091
 40
0.1250000000000091
 40
0.2500000000000182
 40
0.2500000000000182
 40
0.3750000000000273
 40
0.3750000000000273
 40
0.5000000000000364
 40
0.5000000000000364
 40
0.750000000000025
 40
0.750000000000025
 40
0.8750000000000125
 40
0.8750000000000125
 40
1.0
 40
1.0
 40
1.0
 40
1.0
 10
830.7111388451308
 20
197.2288938270936
 30
0.0
 10
830.7111388451308
 20
197.1898530962391
 30
0.0
 10
830.695602284656
 20
197.1513343920392
 30
0.0
 10
830.6342839326953
 20
197.0739276407313
 30
0.0
 10
830.5878601871085
 20
197.0347832227447
 30
0.0
 10
830.4679093169544
 20
196.9576324688295
 30
0.0
 10
830.3943046726711
 20
196.9193048870884
 30
0.0
 10
830.2195743065754
 20
196.8417585666119
 30
0.0
 10
830.1187236776738
 20
196.8027823589432
 30
0.0
 10
829.7874383976899
 20
196.6872875024982
 30
0.0
 10
829.519758236306
 20
196.6093750588281
 30
0.0
 10
829.0870842102506
 20
196.4938951334272
 30
0.0
 10
828.9355661233994
 20
196.4550293375622
 30
0.0
 10
828.6261403660134
 20
196.3772550038937
 30
0.0
 10
828.4695180363196
 20
196.338645236939
 30
0.0
 10
828.3111388451308
 20
196.2996045052123
 30
0.0
  0
LINE
  5
15B
330
1F
100
AcDbEntity
  8
0
  6
Continuous
 62
     7
370
    25
100
AcDbLine
 10
828.3111388451
 20
194.8288938271
 30
0.0
 11
828.3111388451
 21
196.2288938271
 31
0.0
  0
SPLINE
  5
15C
330
1F
100
AcDbEntity
  8
0
  6
Continuous
 62
     7
370
    25
100
AcDbSpline
210
0.0
220
0.0
230
1.0
 70
     8
 71
     3
 72
     9
 73
     5
 74
     0
 42
0.000000001
 43
0.00000001
 40
0.0
 40
0.0
 40
0.0
 40
0.0
 40
0.7329379507273006
 40
1.0
 40
1.0
 40
1.0
 40
1.0
 10
828.3111388451308
 20
196.2288938270937
 30
0.0
 10
828.4625274867866
 20
196.2406484766115
 30
0.0
 10
828.6690779069219
 20
196.2566861909992
 30
0.0
 10
828.8244382490406
 20
196.3850234974931
 30
0.0
 10
828.8659291003823
 20
196.4192975215634
 30
0.0
  0
SPLINE
  5
15D
330
1F
100
AcDbEntity
  8
0
  6
Continuous
 62
     7
370
    25
100
AcDbSpline
210
0.0
220
0.0
230
1.0
 70
     8
 71
     3
 72
    20
 73
    16
 74
     0
 42
0.000000001
 43
0.00000001
 40
0.0
 40
0.0
 40
0.0
 40
0.0
 40
0.1249999999999989
 40
0.1249999999999989
 40
0.2499999999999977
 40
0.2499999999999977
 40
0.3749999999999966
 40
0.3749999999999966
 40
0.4999999999999954
 40
0.4999999999999954
 40
0.749999999999993
 40
0.749999999999993
 40
0.8749999999999964
 40
0.8749999999999964
 40
1.0
 40
1.0
 40
1.0
 40
1.0
 10
828.3111388451308
 20
194.8288938270938
 30
0.0
 10
828.4695180327815
 20
194.8288938270938
 30
0.0
 10
828.6257637574732
 20
194.8444303875686
 30
0.0
 10
828.9337556068898
 20
194.9057487395291
 30
0.0
 10
829.0863997143609
 20
194.952172485116
 30
0.0
 10
829.375484003548
 20
195.0721233552701
 30
0.0
 10
829.513288541732
 20
195.1457279995535
 30
0.0
 10
829.7749072173709
 20
195.3204583656491
 30
0.0
 10
829.8976535240536
 20
195.4213089945507
 30
0.0
 10
830.2289779010013
 20
195.7525942745346
 30
0.0
 10
830.4079890250295
 20
196.0202744359184
 30
0.0
 10
830.5876041244104
 20
196.4529484619738
 30
0.0
 10
830.633848473278
 20
196.6044665488249
 30
0.0
 10
830.6956017792893
 20
196.913892306211
 30
0.0
 10
830.7111388451307
 20
197.0705146359047
 30
0.0
 10
830.7111388451308
 20
197.2288938270935
 30
0.0
  0
SPLINE
  5
15E
330
1F
100
AcDbEntity
  8
0
  6
Continuous
 62
     7
370
    25
100
AcDbSpline
210
0.0
220
0.0
230
1.0
 70
     8
 71
     3
 72
    20
 73
    16
 74
     0
 42
0.000000001
 43
0.00000001
 40
0.0
 40
0.0
 40
0.0
 40
0.0
 40
0.1249999999999968
 40
0.1249999999999968
 40
0.2499999999999937
 40
0.2499999999999937
 40
0.3749999999999905
 40
0.3749999999999905
 40
0.4999999999999873
 40
0.4999999999999873
 40
0.7499999999999989
 40
0.7499999999999989
 40
0.8749999999999993
 40
0.8749999999999993
 40
1.0
 40
1.0
 40
1.0
 40
1.0
 10
830.7111388451308
 20
338.4288938270935
 30
0.0
 10
830.7111388451308
 20
338.5872730147442
 30
0.0
 10
830.695602284656
 20
338.7435187394358
 30
0.0
 10
830.6342839326954
 20
339.0515105888525
 30
0.0
 10
830.5878601871086
 20
339.2041546963237
 30
0.0
 10
830.4679093169544
 20
339.4932389855107
 30
0.0
 10
830.3943046726711
 20
339.6310435236948
 30
0.0
 10
830.2195743065754
 20
339.8926621993337
 30
0.0
 10
830.1187236776739
 20
340.0154085060163
 30
0.0
 10
829.7874383976899
 20
340.346732882964
 30
0.0
 10
829.5197582363061
 20
340.5257440069923
 30
0.0
 10
829.0870842102506
 20
340.7053591063732
 30
0.0
 10
828.9355661233994
 20
340.7516034552409
 30
0.0
 10
828.6261403660134
 20
340.8133567612521
 30
0.0
 10
828.4695180363196
 20
340.8288938270935
 30
0.0
 10
828.3111388451308
 20
340.8288938270935
 30
0.0
  0
SPLINE
  5
15F
330
1F
100
AcDbEntity
  8
0
  6
Continuous
 62
     7
370
    25
100
AcDbSpline
210
0.0
220
0.0
230
1.0
 70
     8
 71
     3
 72
     9
 73
     5
 74
     0
 42
0.000000001
 43
0.00000001
 40
0.0
 40
0.0
 40
0.0
 40
0.0
 40
0.4825784287291315
 40
1.0
 40
1.0
 40
1.0
 40
1.0
 10
828.9236785843088
 20
339.20506405904
 30
0.0
 10
828.8355442429926
 20
339.2688722521013
 30
0.0
 10
828.6529120819395
 20
339.4010957193405
 30
0.0
 10
828.427679197895
 20
339.4194150237971
 30
0.0
 10
828.3111388451308
 20
339.4288938270935
 30
0.0
  0
LINE
  5
160
330
1F
100
AcDbEntity
  8
0
  6
Continuous
 62
     7
370
    25
100
AcDbLine
 10
828.3111388451
 20
340.8288938271
 30
0.0
 11
828.3111388451
 21
339.4288938271
 31
0.0
  0
LINE
  5
161
330
1F
100
AcDbEntity
  8
0
  6
Continuous
 62
     7
370
    25
100
AcDbLine
 10
818.7111388451
 20
340.8288938271
 30
0.0
 11
818.7111388451
 21
339.4288938271
 31
0.0
  0
LINE
  5
162
330
1F
100
AcDbEntity
  8
0
  6
Continuous
 62
     7
370
    25
100
AcDbLine
 10
828.3111388451
 20
340.8288938271
 30
0.0
 11
818.7111388451
 21
340.8288938271
 31
0.0
  0
LINE
  5
163
330
1F
100
AcDbEntity
  8
0
  6
Continuous
 62
     7
370
    25
100
AcDbLine
 10
828.3111388451
 20
339.4288938271
 30
0.0
 11
818.7111388451
 21
339.4288938271
 31
0.0
  0
LINE
  5
164
330
1F
100
AcDbEntity
  8
0
  6
Continuous
 62
     7
370
    25
100
AcDbLine
 10
828.3111388451
 20
194.8288938271
 30
0.0
 11
818.7111388451
 21
194.8288938271
 31
0.0
  0
LINE
  5
165
330
1F
100
AcDbEntity
  8
0
  6
Continuous
 62
     7
370
    25
100
AcDbLine
 10
818.7111388451
 20
194.8288938271
 30
0.0
 11
818.7111388451
 21
196.2288938271
 31
0.0
  0
LINE
  5
166
330
1F
100
AcDbEntity
  8
0
  6
Continuous
 62
     7
370
    25
100
AcDbLine
 10
828.3111388451
 20
196.2288938271
 30
0.0
 11
818.7111388451
 21
196.2288938271
 31
0.0
  0
LINE
  5
167
330
1F
100
AcDbEntity
  8
0
  6
Continuous
 62
     7
370
    25
100
AcDbLine
 10
810.6111388451
 20
355.3288938271
 30
0.0
 11
814.6111388451
 21
355.3288938271
 31
0.0
  0
LINE
  5
168
330
1F
100
AcDbEntity
  8
0
  6
Continuous
 62
     7
370
    25
100
AcDbLine
 10
810.6111388451
 20
338.1288938271
 30
0.0
 11
810.6111388451
 21
355.3288938271
 31
0.0
  0
LINE
  5
169
330
1F
100
AcDbEntity
  8
0
  6
Continuous
 62
     7
370
    25
100
AcDbLine
 10
791.6111388451
 20
372.3288938271
 30
0.0
 11
791.6111388451
 21
338.1288938271
 31
0.0
  0
ARC
  5
16A
330
1F
100
AcDbEntity
  8
0
  6
Continuous
 62
     7
370
    25
100
AcDbCircle
 10
794.6111388451
 20
372.3288938271
 30
0.0
 40
3.0
100
AcDbArc
 50
90.0
 51
180.0
  0
LINE
  5
16B
330
1F
100
AcDbEntity
  8
0
  6
Continuous
 62
     7
370
    25
100
AcDbLine
 10
811.6111388451
 20
375.3288938271
 30
0.0
 11
794.6111388451
 21
375.3288938271
 31
0.0
  0
ARC
  5
16C
330
1F
100
AcDbEntity
  8
0
  6
Continuous
 62
     7
370
    25
100
AcDbCircle
 10
811.6111388451
 20
372.3288938271
 30
0.0
 40
3.0
100
AcDbArc
 50
0.0
 51
90.0
  0
LINE
  5
16D
330
1F
100
AcDbEntity
  8
0
  6
Continuous
 62
     7
370
    25
100
AcDbLine
 10
814.6111388451
 20
355.3288938271
 30
0.0
 11
814.6111388451
 21
372.3288938271
 31
0.0
  0
CIRCLE
  5
16E
330
1F
100
AcDbEntity
  8
0
  6
Continuous
 62
     7
370
    25
100
AcDbCircle
 10
800.1111388451
 20
368.8288938271
 30
0.0
 40
3.25
  0
CIRCLE
  5
16F
330
1F
100
AcDbEntity
  8
0
  6
Continuous
 62
     7
370
    25
100
AcDbCircle
 10
800.1111388451
 20
343.8288938271
 30
0.0
 40
3.25
  0
LINE
  5
170
330
1F
100
AcDbEntity
  8
0
  6
Continuous
 62
     7
370
    25
100
AcDbLine
 10
791.6111388451
 20
336.3288938271
 30
0.0
 11
791.6111388451
 21
338.1288938271
 31
0.0
  0
LINE
  5
171
330
1F
100
AcDbEntity
  8
0
  6
Continuous
 62
     7
370
    25
100
AcDbLine
 10
810.6111388451
 20
338.1288938271
 30
0.0
 11
810.6111388451
 21
336.3288938271
 31
0.0
  0
LINE
  5
172
330
1F
100
AcDbEntity
  8
0
  6
Continuous
 62
     7
370
    25
100
AcDbLine
 10
810.6111388451
 20
336.3288938271
 30
0.0
 11
791.6111388451
 21
336.3288938271
 31
0.0
  0
LINE
  5
173
330
1F
100
AcDbEntity
  8
0
  6
Continuous
 62
     7
370
    25
100
AcDbLine
 10
810.6111388451
 20
337.1288938271
 30
0.0
 11
810.8111388451
 21
337.1288938271
 31
0.0
  0
LINE
  5
174
330
1F
100
AcDbEntity
  8
0
  6
Continuous
 62
     7
370
    25
100
AcDbLine
 10
810.6111388451
 20
336.3288938271
 30
0.0
 11
810.8111388451
 21
336.3288938271
 31
0.0
  0
ARC
  5
175
330
1F
100
AcDbEntity
  8
0
  6
Continuous
 62
     7
370
    25
100
AcDbCircle
 10
810.8111388451
 20
338.1288938271
 30
0.0
 40
1.800000000000011
100
AcDbArc
 50
270.0
 51
0.0
  0
ARC
  5
176
330
1F
100
AcDbEntity
  8
0
  6
Continuous
 62
     7
370
    25
100
AcDbCircle
 10
810.8111388451
 20
338.1288938271
 30
0.0
 40
1.0
100
AcDbArc
 50
270.0
 51
0.0
  0
LINE
  5
177
330
1F
100
AcDbEntity
  8
0
  6
Continuous
 62
     7
370
    25
100
AcDbLine
 10
811.8111388451
 20
348.3288938271
 30
0.0
 11
811.8111388451
 21
338.1288938271
 31
0.0
  0
LINE
  5
178
330
1F
100
AcDbEntity
  8
0
  6
Continuous
 62
     7
370
    25
100
AcDbLine
 10
812.6111388451
 20
348.3288938271
 30
0.0
 11
811.8111388451
 21
348.3288938271
 31
0.0
  0
LINE
  5
179
330
1F
100
AcDbEntity
  8
0
  6
Continuous
 62
     7
370
    25
100
AcDbLine
 10
767.6111388451
 20
336.3288938271
 30
0.0
 11
767.6111388451
 21
337.1288938271
 31
0.0
  0
LINE
  5
17A
330
1F
100
AcDbEntity
  8
0
  6
Continuous
 62
     7
370
    25
100
AcDbLine
 10
767.6111388451
 20
337.1288938271
 30
0.0
 11
770.6111388451
 21
337.1288938271
 31
0.0
  0
LINE
  5
17B
330
1F
100
AcDbEntity
  8
0
  6
Continuous
 62
     7
370
    25
100
AcDbLine
 10
770.6111388451
 20
336.3288938271
 30
0.0
 11
767.6111388451
 21
336.3288938271
 31
0.0
  0
LINE
  5
17C
330
1F
100
AcDbEntity
  8
0
  6
Continuous
 62
     7
370
    25
100
AcDbLine
 10
770.6111388451
 20
337.1288938271
 30
0.0
 11
791.6111388451
 21
337.1288938271
 31
0.0
  0
LINE
  5
17D
330
1F
100
AcDbEntity
  8
0
  6
Continuous
 62
     7
370
    25
100
AcDbLine
 10
770.6111388451
 20
336.3288938271
 30
0.0
 11
791.6111388451
 21
336.3288938271
 31
0.0
  0
LINE
  5
17E
330
1F
100
AcDbEntity
  8
0
  6
Continuous
 62
     7
370
    25
100
AcDbLine
 10
771.7065254533
 20
340.5288938271
 30
0.0
 11
768.7065254533
 21
340.5288938271
 31
0.0
  0
LINE
  5
17F
330
1F
100
AcDbEntity
  8
0
  6
Continuous
 62
     7
370
    25
100
AcDbLine
 10
768.7065254533
 20
340.5288938271
 30
0.0
 11
768.7065254533
 21
341.3288938271
 31
0.0
  0
LINE
  5
180
330
1F
100
AcDbEntity
  8
0
  6
Continuous
 62
     7
370
    25
100
AcDbLine
 10
768.7065254533
 20
341.3288938271
 30
0.0
 11
771.7065254533
 21
341.3288938271
 31
0.0
  0
ARC
  5
181
330
1F
100
AcDbEntity
  8
0
  6
Continuous
 62
     7
370
    25
100
AcDbCircle
 10
778.224216907
 20
339.5288938271
 30
0.0
 40
1.0
100
AcDbArc
 50
60.0
 51
90.0
  0
ARC
  5
182
330
1F
100
AcDbEntity
  8
0
  6
Continuous
 62
     7
370
    25
100
AcDbCircle
 10
778.224216907
 20
339.5288938271
 30
0.0
 40
1.800000000000018
100
AcDbArc
 50
60.0
 51
90.0
  0
LINE
  5
183
330
1F
100
AcDbEntity
  8
0
  6
Continuous
 62
     7
370
    25
100
AcDbLine
 10
785.7490880376
 20
337.2628684233
 30
0.0
 11
779.124216907
 21
341.0877395539
 31
0.0
  0
LINE
  5
184
330
1F
100
AcDbEntity
  8
0
  6
Continuous
 62
     7
370
    25
100
AcDbLine
 10
784.3811388451
 20
337.1288938271
 30
0.0
 11
778.724216907
 21
340.3949192309
 31
0.0
  0
LINE
  5
185
330
1F
100
AcDbEntity
  8
0
  6
Continuous
 62
     7
370
    25
100
AcDbLine
 10
771.7065254533
 20
341.3288938271
 30
0.0
 11
778.224216907
 21
341.3288938271
 31
0.0
  0
LINE
  5
186
330
1F
100
AcDbEntity
  8
0
  6
Continuous
 62
     7
370
    25
100
AcDbLine
 10
771.7065254533
 20
340.5288938271
 30
0.0
 11
778.224216907
 21
340.5288938271
 31
0.0
  0
ARC
  5
187
330
1F
100
AcDbEntity
  8
0
  6
Continuous
 62
     7
370
    25
100
AcDbCircle
 10
786.2490880376
 20
338.1288938271
 30
0.0
 40
1.00000000000004
100
AcDbArc
 50
240.0
 51
270.0
  0
SPLINE
  5
188
330
1F
100
AcDbEntity
  8
0
  6
Continuous
 62
     7
370
    25
100
AcDbSpline
210
0.0
220
0.0
230
1.0
 70
     8
 71
     3
 72
    12
 73
     8
 74
     0
 42
0.000000001
 43
0.00000001
 40
0.0
 40
0.0
 40
0.0
 40
0.0
 40
0.5000000000000077
 40
0.5000000000000077
 40
0.7500000000000038
 40
0.7500000000000038
 40
1.0
 40
1.0
 40
1.0
 40
1.0
 10
811.1964588597458
 20
339.8384626296667
 30
0.0
 10
811.3869531491694
 20
340.0737224221098
 30
0.0
 10
811.5086275622317
 20
340.3125071149602
 30
0.0
 10
811.5092837527628
 20
340.6799986475173
 30
0.0
 10
811.4794497509686
 20
340.8023708421666
 30
0.0
 10
811.3705198808609
 20
341.0427545273261
 30
0.0
 10
811.2918246937982
 20
341.1615154743877
 30
0.0
 10
811.1964588597453
 20
341.2792919515373
 30
0.0
  0
SPLINE
  5
189
330
1F
100
AcDbEntity
  8
0
  6
Continuous
 62
     7
370
    25
100
AcDbSpline
210
0.0
220
0.0
230
1.0
 70
     8
 71
     3
 72
    14
 73
    10
 74
     0
 42
0.000000001
 43
0.00000001
 40
0.0
 40
0.0
 40
0.0
 40
0.0
 40
0.25
 40
0.25
 40
0.5
 40
0.5
 40
0.75
 40
0.75
 40
1.0
 40
1.0
 40
1.0
 40
1.0
 10
811.1964588597448
 20
345.2697231489641
 30
0.0
 10
811.2913334690554
 20
344.9452169196754
 30
0.0
 10
811.3709383939312
 20
344.6127576972812
 30
0.0
 10
811.4797750088254
 20
343.9461877823729
 30
0.0
 10
811.5090986145159
 20
343.6111115250977
 30
0.0
 10
811.5090338327703
 20
342.93676805487
 30
0.0
 10
811.4788776394439
 20
342.594988634191
 30
0.0
 10
811.3692924380782
 20
341.9285747145863
 30
0.0
 10
811.290749464276
 20
341.6018006686336
 30
0.0
 10
811.1964588597448
 20
341.2792919515373
 30
0.0
  0
SPLINE
  5
18A
330
1F
100
AcDbEntity
  8
0
  6
Continuous
 62
     7
370
    25
100
AcDbSpline
210
0.0
220
0.0
230
1.0
 70
     8
 71
     3
 72
    12
 73
     8
 74
     0
 42
0.000000001
 43
0.00000001
 40
0.0
 40
0.0
 40
0.0
 40
0.0
 40
0.4999999999999921
 40
0.4999999999999921
 40
0.749999999999996
 40
0.749999999999996
 40
1.0
 40
1.0
 40
1.0
 40
1.0
 10
811.1964588597458
 20
345.269723148964
 30
0.0
 10
811.3869531491694
 20
345.6860242326186
 30
0.0
 10
811.5086275622316
 20
346.108562760607
 30
0.0
 10
811.5092837527628
 20
346.7588529000678
 30
0.0
 10
811.4794497509686
 20
346.9753951179823
 30
0.0
 10
811.3705198808609
 20
347.4007631232225
 30
0.0
 10
811.291824693798
 20
347.6109151022077
 30
0.0
 10
811.1964588597453
 20
347.8193250245205
 30
0.0
  0
LINE
  5
18B
330
1F
100
AcDbEntity
  8
0
  6
Continuous
 62
     7
370
    25
100
AcDbLine
 10
811.1964588597
 20
347.8193250245
 30
0.0
 11
811.294333897
 21
347.5764202742
 31
0.0
  0
LINE
  5
18C
330
1F
100
AcDbEntity
  8
0
  6
Continuous
 62
     7
370
    25
100
AcDbLine
 10
811.7111388451
 20
343.3299461779
 30
0.0
 11
811.7111388451
 21
340.6788938271
 31
0.0
  0
LINE
  5
18D
330
1F
100
AcDbEntity
  8
0
  6
Continuous
 62
     7
370
    25
100
AcDbLine
 10
811.7111388451
 20
346.9788938271
 30
0.0
 11
811.7111388451
 21
343.3299461779
 31
0.0
  0
LINE
  5
18E
330
1F
100
AcDbEntity
  8
0
  6
Continuous
 62
     7
370
    25
100
AcDbLine
 10
810.6111388451
 20
345.269723149
 30
0.0
 11
811.1964588597
 21
345.269723149
 31
0.0
  0
LINE
  5
18F
330
1F
100
AcDbEntity
  8
0
  6
Continuous
 62
     7
370
    25
100
AcDbLine
 10
810.6111388451
 20
341.2792919515
 30
0.0
 11
811.1964588597
 21
341.2792919515
 31
0.0
  0
LINE
  5
190
330
1F
100
AcDbEntity
  8
0
  6
Continuous
 62
     7
370
    25
100
AcDbLine
 10
810.6111388451
 20
347.8193250245
 30
0.0
 11
811.1964588597
 21
347.8193250245
 31
0.0
  0
LINE
  5
191
330
1F
100
AcDbEntity
  8
0
  6
Continuous
 62
     7
370
    25
100
AcDbLine
 10
810.6111388451
 20
339.8384626297
 30
0.0
 11
811.1964588597
 21
339.8384626297
 31
0.0
  0
LINE
  5
192
330
1F
100
AcDbEntity
  8
0
  6
Continuous
 62
     7
370
    25
100
AcDbLine
 10
814.4111388451
 20
333.8288938271
 30
0.0
 11
814.4111388451
 21
334.6288938271
 31
0.0
  0
LINE
  5
193
330
1F
100
AcDbEntity
  8
0
  6
Continuous
 62
     7
370
    25
100
AcDbLine
 10
818.7111388451
 20
334.6288938271
 30
0.0
 11
814.4111388451
 21
334.6288938271
 31
0.0
  0
LINE
  5
194
330
1F
100
AcDbEntity
  8
0
  6
Continuous
 62
     7
370
    25
100
AcDbLine
 10
818.7111388451
 20
333.8288938271
 30
0.0
 11
814.4111388451
 21
333.8288938271
 31
0.0
  0
LINE
  5
195
330
1F
100
AcDbEntity
  8
0
  6
Continuous
 62
     7
370
    25
100
AcDbLine
 10
819.1611388451
 20
352.1288938271
 30
0.0
 11
824.3111388451
 21
352.1288938271
 31
0.0
  0
LINE
  5
196
330
1F
100
AcDbEntity
  8
0
  6
Continuous
 62
     7
370
    25
100
AcDbLine
 10
819.1611388451
 20
352.9288938271
 30
0.0
 11
819.1611388451
 21
352.1288938271
 31
0.0
  0
LINE
  5
197
330
1F
100
AcDbEntity
  8
0
  6
Continuous
 62
     7
370
    25
100
AcDbLine
 10
819.1611388451
 20
352.9288938271
 30
0.0
 11
824.3111388451
 21
352.9288938271
 31
0.0
  0
LINE
  5
198
330
1F
100
AcDbEntity
  8
0
  6
Continuous
 62
     7
370
    25
100
AcDbLine
 10
824.3111388451
 20
352.9288938271
 30
0.0
 11
824.3111388451
 21
353.0288938271
 31
0.0
  0
LINE
  5
199
330
1F
100
AcDbEntity
  8
0
  6
Continuous
 62
     7
370
    25
100
AcDbLine
 10
814.4111388451
 20
353.0288938271
 30
0.0
 11
824.3111388451
 21
353.0288938271
 31
0.0
  0
LINE
  5
19A
330
1F
100
AcDbEntity
  8
0
  6
Continuous
 62
     7
370
    25
100
AcDbLine
 10
814.4111388451
 20
353.0288938271
 30
0.0
 11
814.4111388451
 21
353.8288938271
 31
0.0
  0
LINE
  5
19B
330
1F
100
AcDbEntity
  8
0
  6
Continuous
 62
     7
370
    25
100
AcDbLine
 10
824.3111388451
 20
353.8288938271
 30
0.0
 11
814.4111388451
 21
353.8288938271
 31
0.0
  0
ARC
  5
19C
330
1F
100
AcDbEntity
  8
0
  6
Continuous
 62
     7
370
    25
100
AcDbCircle
 10
824.3111388451
 20
352.9788938271
 30
0.0
 40
0.8500000000000227
100
AcDbArc
 50
270.0
 51
90.0
  0
ARC
  5
19D
330
1F
100
AcDbEntity
  8
0
  6
Continuous
 62
     7
370
    25
100
AcDbCircle
 10
814.4111388451
 20
335.6288938271
 30
0.0
 40
1.800000000000125
100
AcDbArc
 50
180.0
 51
270.0
  0
LINE
  5
19E
330
1F
100
AcDbEntity
  8
0
  6
Continuous
 62
     7
370
    25
100
AcDbLine
 10
812.6111388451
 20
335.6288938271
 30
0.0
 11
812.6111388451
 21
352.0288938271
 31
0.0
  0
ARC
  5
19F
330
1F
100
AcDbEntity
  8
0
  6
Continuous
 62
     7
370
    25
100
AcDbCircle
 10
814.4111388451
 20
352.0288938271
 30
0.0
 40
1.800000000000068
100
AcDbArc
 50
90.0
 51
180.0
  0
ARC
  5
1A0
330
1F
100
AcDbEntity
  8
0
  6
Continuous
 62
     7
370
    25
100
AcDbCircle
 10
814.4111388451
 20
335.6288938271
 30
0.0
 40
1.0
100
AcDbArc
 50
180.0
 51
270.0
  0
ARC
  5
1A1
330
1F
100
AcDbEntity
  8
0
  6
Continuous
 62
     7
370
    25
100
AcDbCircle
 10
814.4111388451
 20
352.0288938271
 30
0.0
 40
1.000000000000114
100
AcDbArc
 50
90.0
 51
180.0
  0
LINE
  5
1A2
330
1F
100
AcDbEntity
  8
0
  6
Continuous
 62
     7
370
    25
100
AcDbLine
 10
813.4111388451
 20
352.0288938271
 30
0.0
 11
813.4111388451
 21
335.6288938271
 31
0.0
  0
CIRCLE
  5
1A3
330
1F
100
AcDbEntity
  8
0
  6
Continuous
 62
     7
370
    25
100
AcDbCircle
 10
800.1111388451
 20
343.8288938271
 30
0.0
 40
2.458750000016497
  0
CIRCLE
  5
1A4
330
1F
100
AcDbEntity
  8
0
  6
Continuous
 62
     7
370
    25
100
AcDbCircle
 10
800.1111388451
 20
343.8288938271
 30
0.0
 40
3.000000000000015
  0
ARC
  5
1A5
330
1F
100
AcDbEntity
  8
0
  6
Continuous
 62
     7
370
    25
100
AcDbCircle
 10
808.6741589474
 20
343.7329558072
 30
0.0
 40
7.786288415113194
100
AcDbArc
 50
4.3702527065
 51
15.2299003794
  0
ARC
  5
1A6
330
1F
100
AcDbEntity
  8
0
  6
Continuous
 62
     7
370
    25
100
AcDbCircle
 10
815.913415411
 20
344.6394094096
 30
0.0
 40
0.6107675350101626
100
AcDbArc
 50
296.6101963367
 51
329.1575418586
  0
ARC
  5
1A7
330
1F
100
AcDbEntity
  8
0
  6
Continuous
 62
     7
370
    25
100
AcDbCircle
 10
807.1073532695
 20
343.5009123145
 30
0.0
 40
9.098942710230778
100
AcDbArc
 50
356.2668736477
 51
3.7331263523
  0
ARC
  5
1A8
330
1F
100
AcDbEntity
  8
0
  6
Continuous
 62
     7
370
    25
100
AcDbCircle
 10
815.913415411
 20
343.4545586247
 30
0.0
 40
0.6107675350106696
100
AcDbArc
 50
296.6101963367
 51
329.1575418586
  0
ARC
  5
1A9
330
1F
100
AcDbEntity
  8
0
  6
Continuous
 62
     7
370
    25
100
AcDbCircle
 10
808.6741589474
 20
343.734756552
 30
0.0
 40
7.786288415112501
100
AcDbArc
 50
344.7700996206
 51
355.6297472935
  0
ARC
  5
1AA
330
1F
100
AcDbEntity
  8
0
  6
Continuous
 62
     7
370
    25
100
AcDbCircle
 10
816.0539050665
 20
341.7632914503
 30
0.0
 40
0.1522432420565791
100
AcDbArc
 50
330.9451665852
 51
359.1449116558
  0
LWPOLYLINE
  5
1AB
330
1F
100
AcDbEntity
  8
0
  6
Continuous
 62
     7
370
    25
100
AcDbPolyline
 90
        3
 70
   128
 43
0.0
 10
816.4378083354
 20
343.3315060821
 10
816.4215834867
 20
343.1478077533
 10
816.4209413437
 20
343.1414307872
  0
ARC
  5
1AC
330
1F
100
AcDbEntity
  8
0
  6
Continuous
 62
     7
370
    25
100
AcDbCircle
 10
815.913415411
 20
343.0183782446
 30
0.0
 40
0.6107675350102603
100
AcDbArc
 50
30.8424581414
 51
63.3898036633
  0
ARC
  5
1AD
330
1F
100
AcDbEntity
  8
0
  6
Continuous
 62
     7
370
    25
100
AcDbCircle
 10
807.0304814896
 20
344.159891196
 30
0.0
 40
9.175815043570704
100
AcDbArc
 50
357.9327321271
 51
359.6562101036
  0
ARC
  5
1AE
330
1F
100
AcDbEntity
  8
0
  6
Continuous
 62
     7
370
    25
100
AcDbCircle
 10
808.6741589474
 20
343.9230311022
 30
0.0
 40
7.786288415115719
100
AcDbArc
 50
4.3702527065
 51
15.2299003794
  0
ARC
  5
1AF
330
1F
100
AcDbEntity
  8
0
  6
Continuous
 62
     7
370
    25
100
AcDbCircle
 10
815.9658672801
 20
345.8733949434
 30
0.0
 40
0.2406805056720148
100
AcDbArc
 50
336.7420981705
 51
23.2579018296
  0
LINE
  5
1B0
330
1F
100
AcDbEntity
  8
0
  6
Continuous
 62
     7
370
    25
100
AcDbLine
 10
815.4111388451
 20
347.7783964431
 30
0.0
 11
815.4111388451
 21
347.8288938271
 31
0.0
  0
LINE
  5
1B1
330
1F
100
AcDbEntity
  8
0
  6
Continuous
 62
     7
370
    25
100
AcDbLine
 10
815.4111388451
 20
339.8288938271
 30
0.0
 11
815.4111388451
 21
347.7783964431
 31
0.0
  0
LINE
  5
1B2
330
1F
100
AcDbEntity
  8
0
  6
Continuous
 62
     7
370
    25
100
AcDbLine
 10
816.4378083354
 20
343.1414307872
 30
0.0
 11
816.1992526775
 21
343.1414307872
 31
0.0
  0
LINE
  5
1B3
330
1F
100
AcDbEntity
  8
0
  6
Continuous
 62
     7
370
    25
100
AcDbLine
 10
816.4378083354
 20
344.516356867
 30
0.0
 11
816.4209413437
 21
344.516356867
 31
0.0
  0
LINE
  5
1B4
330
1F
100
AcDbEntity
  8
0
  6
Continuous
 62
     7
370
    25
100
AcDbLine
 10
816.4378083354
 20
343.3315060821
 30
0.0
 11
816.204758019
 21
343.3315060821
 31
0.0
  0
ARC
  5
1B5
330
1F
100
AcDbEntity
  8
0
  6
Continuous
 62
     7
370
    25
100
AcDbCircle
 10
794.1526499559
 20
255.0843670035
 30
0.0
 40
1.942508566654944
100
AcDbArc
 50
181.8362067976
 51
271.7254354149
  0
LINE
  5
1B6
330
1F
100
AcDbEntity
  8
0
  6
Continuous
 62
     7
370
    25
100
AcDbLine
 10
792.2111388451
 20
255.0221244276
 30
0.0
 11
792.2111388451
 21
260.1632006645
 31
0.0
  0
LINE
  5
1B7
330
1F
100
AcDbEntity
  8
0
  6
Continuous
 62
     7
370
    25
100
AcDbLine
 10
808.2111388451
 20
260.1632006645
 30
0.0
 11
808.2111388451
 21
255.0221244276
 31
0.0
  0
ARC
  5
1B8
330
1F
100
AcDbEntity
  8
0
  6
Continuous
 62
     7
370
    25
100
AcDbCircle
 10
806.2696277344
 20
255.0843670035
 30
0.0
 40
1.942508566655244
100
AcDbArc
 50
268.2745645851
 51
358.1637932023
  0
LINE
  5
1B9
330
1F
100
AcDbEntity
  8
0
  6
Continuous
 62
     7
370
    25
100
AcDbLine
 10
806.2111388451
 20
253.142739186
 30
0.0
 11
794.2111388451
 21
253.142739186
 31
0.0
  0
LINE
  5
1BA
330
1F
100
AcDbEntity
  8
0
  6
Continuous
 62
     7
370
    25
100
AcDbLine
 10
806.2111388451
 20
252.4586988994
 30
0.0
 11
794.2111388451
 21
252.4586988994
 31
0.0
  0
LINE
  5
1BB
330
1F
100
AcDbEntity
  8
0
  6
Continuous
 62
     7
370
    25
100
AcDbLine
 10
792.2111388451
 20
254.338084141
 30
0.0
 11
792.2111388451
 21
255.0221244276
 31
0.0
  0
ARC
  5
1BC
330
1F
100
AcDbEntity
  8
0
  6
Continuous
 62
     7
370
    25
100
AcDbCircle
 10
794.1526499559
 20
254.4003267168
 30
0.0
 40
1.942508566655242
100
AcDbArc
 50
181.8362067977
 51
271.7254354149
  0
LINE
  5
1BD
330
1F
100
AcDbEntity
  8
0
  6
Continuous
 62
     7
370
    25
100
AcDbLine
 10
808.2111388451
 20
255.0221244276
 30
0.0
 11
808.2111388451
 21
254.338084141
 31
0.0
  0
ARC
  5
1BE
330
1F
100
AcDbEntity
  8
0
  6
Continuous
 62
     7
370
    25
100
AcDbCircle
 10
806.2696277344
 20
254.4003267168
 30
0.0
 40
1.942508566655242
100
AcDbArc
 50
268.2745645851
 51
358.1637932023
  0
LINE
  5
1BF
330
1F
100
AcDbEntity
  8
0
  6
Continuous
 62
     7
370
    25
100
AcDbLine
 10
808.2111388451
 20
260.1632006645
 30
0.0
 11
808.2111388451
 21
260.5052208078
 31
0.0
  0
LINE
  5
1C0
330
1F
100
AcDbEntity
  8
0
  6
Continuous
 62
     7
370
    25
100
AcDbLine
 10
792.2111388451
 20
260.5052208078
 30
0.0
 11
792.2111388451
 21
260.1632006645
 31
0.0
  0
LINE
  5
1C1
330
1F
100
AcDbEntity
  8
0
  6
Continuous
 62
     7
370
    25
100
AcDbLine
 10
808.2111388451
 20
260.3288938271
 30
0.0
 11
818.7111388451
 21
260.3288938271
 31
0.0
  0
LINE
  5
1C2
330
1F
100
AcDbEntity
  8
0
  6
Continuous
 62
     7
370
    25
100
AcDbLine
 10
792.2111388451
 20
273.3288938271
 30
0.0
 11
792.2111388451
 21
260.5052208078
 31
0.0
  0
ARC
  5
1C3
330
1F
100
AcDbEntity
  8
0
  6
Continuous
 62
     7
370
    25
100
AcDbCircle
 10
794.2111388451
 20
273.3288938271
 30
0.0
 40
2.0
100
AcDbArc
 50
90.0
 51
180.0
  0
LINE
  5
1C4
330
1F
100
AcDbEntity
  8
0
  6
Continuous
 62
     7
370
    25
100
AcDbLine
 10
818.7111388451
 20
275.3288938271
 30
0.0
 11
794.2111388451
 21
275.3288938271
 31
0.0
  0
CIRCLE
  5
1C5
330
1F
100
AcDbEntity
  8
0
  6
Continuous
 62
     7
370
    25
100
AcDbCircle
 10
800.1111388451
 20
267.8288938271
 30
0.0
 40
3.5
  0
CIRCLE
  5
1C6
330
1F
100
AcDbEntity
  8
0
  6
Continuous
 62
     7
370
    25
100
AcDbCircle
 10
800.1111388451
 20
368.8288938271
 30
0.0
 40
2.458750000016497
  0
CIRCLE
  5
1C7
330
1F
100
AcDbEntity
  8
0
  6
Continuous
 62
     7
370
    25
100
AcDbCircle
 10
800.1111388451
 20
368.8288938271
 30
0.0
 40
3.000000000000015
  0
CIRCLE
  5
1C8
330
1F
100
AcDbEntity
  8
0
  6
Continuous
 62
     7
370
    25
100
AcDbCircle
 10
800.1111388451
 20
267.8288938271
 30
0.0
 40
2.458750000016702
  0
CIRCLE
  5
1C9
330
1F
100
AcDbEntity
  8
0
  6
Continuous
 62
     7
370
    25
100
AcDbCircle
 10
800.1111388451
 20
267.8288938271
 30
0.0
 40
3.000000000000015
  0
LINE
  5
1CA
330
1F
100
AcDbEntity
  8
0
  6
Continuous
 62
     7
370
    25
100
AcDbLine
 10
173.5812351183
 20
479.7521437387
 30
0.0
 11
174.0812351183
 21
480.2521437387
 31
0.0
  0
LINE
  5
1CB
330
1F
100
AcDbEntity
  8
0
  6
Continuous
 62
     7
370
    25
100
AcDbLine
 10
174.0812351183
 20
480.2521437387
 30
0.0
 11
174.0812351183
 21
484.2521437387
 31
0.0
  0
LINE
  5
1CC
330
1F
100
AcDbEntity
  8
0
  6
Continuous
 62
     7
370
    25
100
AcDbLine
 10
168.351690434
 20
480.2521437387
 30
0.0
 11
168.851690434
 21
479.7521437387
 31
0.0
  0
LINE
  5
1CD
330
1F
100
AcDbEntity
  8
0
  6
Continuous
 62
     7
370
    25
100
AcDbLine
 10
168.351690434
 20
484.2521437387
 30
0.0
 11
168.351690434
 21
480.2521437387
 31
0.0
  0
LINE
  5
1CE
330
1F
100
AcDbEntity
  8
0
  6
Continuous
 62
     7
370
    25
100
AcDbLine
 10
651.3748974581
 20
480.2521437387
 30
0.0
 11
651.8748974581
 21
479.7521437387
 31
0.0
  0
LINE
  5
1CF
330
1F
100
AcDbEntity
  8
0
  6
Continuous
 62
     7
370
    25
100
AcDbLine
 10
651.3748974581
 20
484.2521437387
 30
0.0
 11
651.3748974581
 21
480.2521437387
 31
0.0
  0
LINE
  5
1D0
330
1F
100
AcDbEntity
  8
0
  6
Continuous
 62
     7
370
    25
100
AcDbLine
 10
656.6069276822
 20
479.7521437387
 30
0.0
 11
657.1069276822
 21
480.2521437387
 31
0.0
  0
LINE
  5
1D1
330
1F
100
AcDbEntity
  8
0
  6
Continuous
 62
     7
370
    25
100
AcDbLine
 10
657.1069276822
 20
480.2521437387
 30
0.0
 11
657.1069276822
 21
484.2521437387
 31
0.0
  0
LINE
  5
1D2
330
1F
100
AcDbEntity
  8
0
  6
Continuous
 62
     7
370
    25
100
AcDbLine
 10
674.4021001725
 20
469.1521437387
 30
0.0
 11
674.2021001725
 21
469.1521437387
 31
0.0
  0
LINE
  5
1D3
330
1F
100
AcDbEntity
  8
0
  6
Continuous
 62
     7
370
    25
100
AcDbLine
 10
674.2021001725
 20
463.1521437387
 30
0.0
 11
674.4021001725
 21
463.1521437387
 31
0.0
  0
LINE
  5
1D4
330
1F
100
AcDbEntity
  8
0
  6
Continuous
 62
     7
370
    25
100
AcDbLine
 10
674.4021001725
 20
463.1521437387
 30
0.0
 11
674.9433501725
 21
463.6933937387
 31
0.0
  0
LINE
  5
1D5
330
1F
100
AcDbEntity
  8
0
  6
Continuous
 62
     7
370
    25
100
AcDbLine
 10
674.9433501725
 20
468.6108937387
 30
0.0
 11
674.4021001725
 21
469.1521437387
 31
0.0
  0
LINE
  5
1D6
330
1F
100
AcDbEntity
  8
0
  6
Continuous
 62
     7
370
    25
100
AcDbLine
 10
151.0846001725
 20
469.1521437387
 30
0.0
 11
150.5433501725
 21
468.6108937387
 31
0.0
  0
LINE
  5
1D7
330
1F
100
AcDbEntity
  8
0
  6
Continuous
 62
     7
370
    25
100
AcDbLine
 10
150.5433501725
 20
463.6933937387
 30
0.0
 11
151.0846001725
 21
463.1521437387
 31
0.0
  0
LINE
  5
1D8
330
1F
100
AcDbEntity
  8
0
  6
Continuous
 62
     7
370
    25
100
AcDbLine
 10
151.0846001725
 20
463.1521437387
 30
0.0
 11
151.2846001725
 21
463.1521437387
 31
0.0
  0
LINE
  5
1D9
330
1F
100
AcDbEntity
  8
0
  6
Continuous
 62
     7
370
    25
100
AcDbLine
 10
151.2846001725
 20
469.1521437387
 30
0.0
 11
151.0846001725
 21
469.1521437387
 31
0.0
  0
ARC
  5
1DA
330
1F
100
AcDbEntity
  8
0
  6
Continuous
 62
     7
370
    25
100
AcDbCircle
 10
664.2433501725
 20
460.3521437386
 30
0.0
 40
0.5000000000001137
100
AcDbArc
 50
180.0
 51
0.0
  0
ARC
  5
1DB
330
1F
100
AcDbEntity
  8
0
  6
Continuous
 62
     7
370
    25
100
AcDbCircle
 10
664.2433501725
 20
471.9521437388
 30
0.0
 40
0.5000000000001137
100
AcDbArc
 50
0.0
 51
180.0
  0
LINE
  5
1DC
330
1F
100
AcDbEntity
  8
0
  6
Continuous
 62
     7
370
    25
100
AcDbLine
 10
659.9709316097
 20
471.5463263508
 30
0.0
 11
659.7433501725
 21
471.1521437387
 31
0.0
  0
LINE
  5
1DD
330
1F
100
AcDbEntity
  8
0
  6
Continuous
 62
     7
370
    25
100
AcDbLine
 10
674.2021001725
 20
469.1521437387
 30
0.0
 11
669.3588965607
 21
469.1521437387
 31
0.0
  0
LINE
  5
1DE
330
1F
100
AcDbEntity
  8
0
  6
Continuous
 62
     7
370
    25
100
AcDbLine
 10
669.3588965607
 20
463.1521437387
 30
0.0
 11
674.2021001725
 21
463.1521437387
 31
0.0
  0
LINE
  5
1DF
330
1F
100
AcDbEntity
  8
0
  6
Continuous
 62
     7
370
    25
100
AcDbLine
 10
674.2021001725
 20
463.1521437387
 30
0.0
 11
674.7433501725
 21
463.6933937387
 31
0.0
  0
LINE
  5
1E0
330
1F
100
AcDbEntity
  8
0
  6
Continuous
 62
     7
370
    25
100
AcDbLine
 10
674.7433501725
 20
468.6108937387
 30
0.0
 11
674.2021001725
 21
469.1521437387
 31
0.0
  0
LINE
  5
1E1
330
1F
100
AcDbEntity
  8
0
  6
Continuous
 62
     7
370
    25
100
AcDbLine
 10
659.7433501725
 20
461.1521437387
 30
0.0
 11
659.9709316097
 21
460.7579611266
 31
0.0
  0
LINE
  5
1E2
330
1F
100
AcDbEntity
  8
0
  6
Continuous
 62
     7
370
    25
100
AcDbLine
 10
158.2433501725
 20
489.3521437387
 30
0.0
 11
161.1827378638
 21
489.3521437387
 31
0.0
  0
LINE
  5
1E3
330
1F
100
AcDbEntity
  8
0
  6
Continuous
 62
     7
370
    25
100
AcDbLine
 10
664.3039624811
 20
489.3521437387
 30
0.0
 11
667.2433501725
 21
489.3521437387
 31
0.0
  0
LINE
  5
1E4
330
1F
100
AcDbEntity
  8
0
  6
Continuous
 62
     7
370
    25
100
AcDbLine
 10
152.2433501725
 20
489.3521437387
 30
0.0
 11
158.2433501725
 21
489.3521437387
 31
0.0
  0
LINE
  5
1E5
330
1F
100
AcDbEntity
  8
0
  6
Continuous
 62
     7
370
    25
100
AcDbLine
 10
667.2433501725
 20
489.3521437387
 30
0.0
 11
673.2433501725
 21
489.3521437387
 31
0.0
  0
ARC
  5
1E6
330
1F
100
AcDbEntity
  8
0
  6
Continuous
 62
     7
370
    25
100
AcDbCircle
 10
161.2433501725
 20
471.9521437388
 30
0.0
 40
0.5
100
AcDbArc
 50
0.0
 51
180.0
  0
ARC
  5
1E7
330
1F
100
AcDbEntity
  8
0
  6
Continuous
 62
     7
370
    25
100
AcDbCircle
 10
161.2433501725
 20
460.3521437386
 30
0.0
 40
0.5
100
AcDbArc
 50
180.0
 51
0.0
  0
LINE
  5
1E8
330
1F
100
AcDbEntity
  8
0
  6
Continuous
 62
     7
370
    25
100
AcDbLine
 10
151.2846001725
 20
463.1521437387
 30
0.0
 11
156.1278037843
 21
463.1521437387
 31
0.0
  0
LINE
  5
1E9
330
1F
100
AcDbEntity
  8
0
  6
Continuous
 62
     7
370
    25
100
AcDbLine
 10
156.1278037843
 20
469.1521437387
 30
0.0
 11
151.2846001725
 21
469.1521437387
 31
0.0
  0
LINE
  5
1EA
330
1F
100
AcDbEntity
  8
0
  6
Continuous
 62
     7
370
    25
100
AcDbLine
 10
151.2846001725
 20
469.1521437387
 30
0.0
 11
150.7433501725
 21
468.6108937387
 31
0.0
  0
LINE
  5
1EB
330
1F
100
AcDbEntity
  8
0
  6
Continuous
 62
     7
370
    25
100
AcDbLine
 10
150.7433501725
 20
463.6933937387
 30
0.0
 11
151.2846001725
 21
463.1521437387
 31
0.0
  0
LINE
  5
1EC
330
1F
100
AcDbEntity
  8
0
  6
Continuous
 62
     7
370
    25
100
AcDbLine
 10
165.7433501725
 20
471.1521437387
 30
0.0
 11
165.4138670767
 21
471.7228252008
 31
0.0
  0
LINE
  5
1ED
330
1F
100
AcDbEntity
  8
0
  6
Continuous
 62
     7
370
    25
100
AcDbLine
 10
165.4138670767
 20
460.5814622766
 30
0.0
 11
165.7433501725
 21
461.1521437387
 31
0.0
  0
ARC
  5
1EE
330
1F
100
AcDbEntity
  8
0
  6
Continuous
 62
     7
370
    25
100
AcDbCircle
 10
158.2433501725
 20
488.7521437387
 30
0.0
 40
3.0
100
AcDbArc
 50
0.0
 51
90.0
  0
LINE
  5
1EF
330
1F
100
AcDbEntity
  8
0
  6
Continuous
 62
     7
370
    25
100
AcDbLine
 10
146.2433501725
 20
491.7521437387
 30
0.0
 11
158.2433501725
 21
491.7521437387
 31
0.0
  0
ARC
  5
1F0
330
1F
100
AcDbEntity
  8
0
  6
Continuous
 62
     7
370
    25
100
AcDbCircle
 10
146.2433501725
 20
488.7521437387
 30
0.0
 40
3.0
100
AcDbArc
 50
90.0
 51
180.0
  0
LINE
  5
1F1
330
1F
100
AcDbEntity
  8
0
  6
Continuous
 62
     7
370
    25
100
AcDbLine
 10
143.2433501725
 20
487.7521437387
 30
0.0
 11
143.2433501725
 21
488.7521437387
 31
0.0
  0
ARC
  5
1F2
330
1F
100
AcDbEntity
  8
0
  6
Continuous
 62
     7
370
    25
100
AcDbCircle
 10
140.2433501725
 20
487.7521437387
 30
0.0
 40
3.0
100
AcDbArc
 50
270.0
 51
0.0
  0
LINE
  5
1F3
330
1F
100
AcDbEntity
  8
0
  6
Continuous
 62
     7
370
    25
100
AcDbLine
 10
116.7140608506
 20
484.7521437387
 30
0.0
 11
140.2433501725
 21
484.7521437387
 31
0.0
  0
LINE
  5
1F4
330
1F
100
AcDbEntity
  8
0
  6
Continuous
 62
     7
370
    25
100
AcDbLine
 10
116.7140608506
 20
494.3521437387
 30
0.0
 11
116.7140608506
 21
484.7521437387
 31
0.0
  0
LINE
  5
1F5
330
1F
100
AcDbEntity
  8
0
  6
Continuous
 62
     7
370
    25
100
AcDbLine
 10
708.7726394944
 20
494.3521437387
 30
0.0
 11
708.7726394944
 21
484.7521437387
 31
0.0
  0
LINE
  5
1F6
330
1F
100
AcDbEntity
  8
0
  6
Continuous
 62
     7
370
    25
100
AcDbLine
 10
685.2433501725
 20
484.7521437387
 30
0.0
 11
708.7726394944
 21
484.7521437387
 31
0.0
  0
ARC
  5
1F7
330
1F
100
AcDbEntity
  8
0
  6
Continuous
 62
     7
370
    25
100
AcDbCircle
 10
685.2433501725
 20
487.7521437387
 30
0.0
 40
3.0
100
AcDbArc
 50
180.0
 51
270.0
  0
LINE
  5
1F8
330
1F
100
AcDbEntity
  8
0
  6
Continuous
 62
     7
370
    25
100
AcDbLine
 10
682.2433501725
 20
487.7521437387
 30
0.0
 11
682.2433501725
 21
488.7521437387
 31
0.0
  0
ARC
  5
1F9
330
1F
100
AcDbEntity
  8
0
  6
Continuous
 62
     7
370
    25
100
AcDbCircle
 10
679.2433501725
 20
488.7521437387
 30
0.0
 40
3.0
100
AcDbArc
 50
0.0
 51
90.0
  0
LINE
  5
1FA
330
1F
100
AcDbEntity
  8
0
  6
Continuous
 62
     7
370
    25
100
AcDbLine
 10
679.2433501725
 20
491.7521437387
 30
0.0
 11
667.2433501725
 21
491.7521437387
 31
0.0
  0
ARC
  5
1FB
330
1F
100
AcDbEntity
  8
0
  6
Continuous
 62
     7
370
    25
100
AcDbCircle
 10
667.2433501725
 20
488.7521437387
 30
0.0
 40
3.0
100
AcDbArc
 50
90.0
 51
180.0
  0
LINE
  5
1FC
330
1F
100
AcDbEntity
  8
0
  6
Continuous
 62
     7
370
    25
100
AcDbLine
 10
664.2433501725
 20
487.7521437387
 30
0.0
 11
664.2433501725
 21
488.7521437387
 31
0.0
  0
ARC
  5
1FD
330
1F
100
AcDbEntity
  8
0
  6
Continuous
 62
     7
370
    25
100
AcDbCircle
 10
661.2433501725
 20
487.7521437387
 30
0.0
 40
3.0
100
AcDbArc
 50
270.0
 51
0.0
  0
LINE
  5
1FE
330
1F
100
AcDbEntity
  8
0
  6
Continuous
 62
     7
370
    25
100
AcDbLine
 10
164.2433501725
 20
484.7521437387
 30
0.0
 11
661.2433501725
 21
484.7521437387
 31
0.0
  0
ARC
  5
1FF
330
1F
100
AcDbEntity
  8
0
  6
Continuous
 62
     7
370
    25
100
AcDbCircle
 10
164.2433501725
 20
487.7521437387
 30
0.0
 40
3.000000000000028
100
AcDbArc
 50
180.0
 51
270.0
  0
LINE
  5
200
330
1F
100
AcDbEntity
  8
0
  6
Continuous
 62
     7
370
    25
100
AcDbLine
 10
161.2433501725
 20
487.7521437387
 30
0.0
 11
161.2433501725
 21
488.7521437387
 31
0.0
  0
SPLINE
  5
201
330
1F
100
AcDbEntity
  8
0
  6
Continuous
 62
     7
370
    25
100
AcDbSpline
210
0.0
220
0.0
230
1.0
 70
     8
 71
     3
 72
    20
 73
    16
 74
     0
 42
0.000000001
 43
0.00000001
 40
0.0
 40
0.0
 40
0.0
 40
0.0
 40
0.1250000000000018
 40
0.1250000000000018
 40
0.2500000000000037
 40
0.2500000000000037
 40
0.3750000000000055
 40
0.3750000000000055
 40
0.5000000000000073
 40
0.5000000000000073
 40
0.7500000000000006
 40
0.7500000000000006
 40
0.8750000000000003
 40
0.8750000000000003
 40
1.0
 40
1.0
 40
1.0
 40
1.0
 10
707.8433501724775
 20
496.7521437387151
 30
0.0
 10
707.8823909033321
 20
496.7521437387151
 30
0.0
 10
707.9209096075318
 20
496.7366071782403
 30
0.0
 10
707.9983163588397
 20
496.6752888262797
 30
0.0
 10
708.0374607768265
 20
496.6288650806929
 30
0.0
 10
708.1146115307417
 20
496.5089142105388
 30
0.0
 10
708.1529391124827
 20
496.4353095662554
 30
0.0
 10
708.2304854329591
 20
496.2605792001598
 30
0.0
 10
708.2694616406279
 20
496.1597285712583
 30
0.0
 10
708.3849564970728
 20
495.8284432912743
 30
0.0
 10
708.4628689407429
 20
495.5607631298905
 30
0.0
 10
708.5783488661438
 20
495.128089103835
 30
0.0
 10
708.6172146620089
 20
494.9765710169839
 30
0.0
 10
708.6949889956774
 20
494.6671452595978
 30
0.0
 10
708.7335987626323
 20
494.510522929904
 30
0.0
 10
708.7726394943587
 20
494.3521437387153
 30
0.0
  0
SPLINE
  5
202
330
1F
100
AcDbEntity
  8
0
  6
Continuous
 62
     7
370
    25
100
AcDbSpline
210
0.0
220
0.0
230
1.0
 70
     8
 71
     3
 72
    20
 73
    16
 74
     0
 42
0.000000001
 43
0.00000001
 40
0.0
 40
0.0
 40
0.0
 40
0.0
 40
0.1249999999999989
 40
0.1249999999999989
 40
0.2499999999999977
 40
0.2499999999999977
 40
0.3749999999999966
 40
0.3749999999999966
 40
0.4999999999999954
 40
0.4999999999999954
 40
0.749999999999993
 40
0.749999999999993
 40
0.8749999999999964
 40
0.8749999999999964
 40
1.0
 40
1.0
 40
1.0
 40
1.0
 10
116.7140608505962
 20
494.3521437387151
 30
0.0
 10
116.7531015814507
 20
494.5105229263659
 30
0.0
 10
116.7916202856505
 20
494.6667686510575
 30
0.0
 10
116.8690270369587
 20
494.9747605004741
 30
0.0
 10
116.908171454945
 20
495.1274046079453
 30
0.0
 10
116.9853222088602
 20
495.4164888971323
 30
0.0
 10
117.0236497906013
 20
495.5542934353164
 30
0.0
 10
117.1011961110779
 20
495.8159121109552
 30
0.0
 10
117.1401723187465
 20
495.9386584176379
 30
0.0
 10
117.2556671751916
 20
496.2699827945856
 30
0.0
 10
117.3335796188615
 20
496.4489939186138
 30
0.0
 10
117.4490595442624
 20
496.6286090179947
 30
0.0
 10
117.4879253401276
 20
496.6748533668625
 30
0.0
 10
117.565699673796
 20
496.7366066728737
 30
0.0
 10
117.6043094407508
 20
496.7521437387151
 30
0.0
 10
117.6433501724775
 20
496.7521437387151
 30
0.0
  0
LINE
  5
203
330
1F
100
AcDbEntity
  8
0
  6
Continuous
 62
     7
370
    25
100
AcDbLine
 10
117.6433501725
 20
496.7521437387
 30
0.0
 11
707.8433501725
 21
496.7521437387
 31
0.0
  0
SPLINE
  5
204
330
1F
100
AcDbEntity
  8
0
  6
Continuous
 62
     7
370
    25
100
AcDbSpline
210
0.0
220
0.0
230
1.0
 70
     8
 71
     3
 72
     9
 73
     5
 74
     0
 42
0.000000001
 43
0.00000001
 40
0.0
 40
0.0
 40
0.0
 40
0.0
 40
0.4825784287292311
 40
1.0
 40
1.0
 40
1.0
 40
1.0
 10
116.8671799405311
 20
494.9646834778932
 30
0.0
 10
116.8033717474696
 20
494.8765491365768
 30
0.0
 10
116.6711482802306
 20
494.6939169755238
 30
0.0
 10
116.652828975774
 20
494.4686840914794
 30
0.0
 10
116.6433501724775
 20
494.3521437387152
 30
0.0
  0
LINE
  5
205
330
1F
100
AcDbEntity
  8
0
  6
Continuous
 62
     7
370
    25
100
AcDbLine
 10
115.2433501725
 20
494.3521437387
 30
0.0
 11
116.6433501725
 21
494.3521437387
 31
0.0
  0
SPLINE
  5
206
330
1F
100
AcDbEntity
  8
0
  6
Continuous
 62
     7
370
    25
100
AcDbSpline
210
0.0
220
0.0
230
1.0
 70
     8
 71
     3
 72
    20
 73
    16
 74
     0
 42
0.000000001
 43
0.00000001
 40
0.0
 40
0.0
 40
0.0
 40
0.0
 40
0.1250000000000091
 40
0.1250000000000091
 40
0.2500000000000182
 40
0.2500000000000182
 40
0.3750000000000273
 40
0.3750000000000273
 40
0.5000000000000364
 40
0.5000000000000364
 40
0.750000000000025
 40
0.750000000000025
 40
0.8750000000000125
 40
0.8750000000000125
 40
1.0
 40
1.0
 40
1.0
 40
1.0
 10
117.6433501724775
 20
496.7521437387152
 30
0.0
 10
117.4849709848267
 20
496.7521437387152
 30
0.0
 10
117.328725260135
 20
496.7366071782404
 30
0.0
 10
117.0207334107184
 20
496.6752888262798
 30
0.0
 10
116.8680893032474
 20
496.6288650806929
 30
0.0
 10
116.5790050140604
 20
496.5089142105388
 30
0.0
 10
116.4412004758762
 20
496.4353095662554
 30
0.0
 10
116.1795818002373
 20
496.2605792001598
 30
0.0
 10
116.0568354935547
 20
496.1597285712583
 30
0.0
 10
115.725511116607
 20
495.8284432912743
 30
0.0
 10
115.5464999925788
 20
495.5607631298904
 30
0.0
 10
115.3668848931978
 20
495.128089103835
 30
0.0
 10
115.3206405443301
 20
494.9765710169838
 30
0.0
 10
115.258887238319
 20
494.6671452595978
 30
0.0
 10
115.2433501724776
 20
494.5105229299039
 30
0.0
 10
115.2433501724775
 20
494.3521437387152
 30
0.0
  0
LINE
  5
207
330
1F
100
AcDbEntity
  8
0
  6
Continuous
 62
     7
370
    25
100
AcDbLine
 10
710.2433501725
 20
494.3521437387
 30
0.0
 11
708.8433501725
 21
494.3521437387
 31
0.0
  0
SPLINE
  5
208
330
1F
100
AcDbEntity
  8
0
  6
Continuous
 62
     7
370
    25
100
AcDbSpline
210
0.0
220
0.0
230
1.0
 70
     8
 71
     3
 72
     9
 73
     5
 74
     0
 42
0.000000001
 43
0.00000001
 40
0.0
 40
0.0
 40
0.0
 40
0.0
 40
0.6784508005728731
 40
0.9999999999999999
 40
0.9999999999999999
 40
0.9999999999999999
 40
0.9999999999999999
 10
708.8433501724775
 20
494.3521437387152
 30
0.0
 10
708.830100602013
 20
494.5028509431685
 30
0.0
 10
708.8105714475728
 20
494.7249852590629
 30
0.0
 10
708.6697237939339
 20
494.8918183639522
 30
0.0
 10
708.6244343436651
 20
494.9454634152672
 30
0.0
  0
SPLINE
  5
209
330
1F
100
AcDbEntity
  8
0
  6
Continuous
 62
     7
370
    25
100
AcDbSpline
210
0.0
220
0.0
230
1.0
 70
     8
 71
     3
 72
    20
 73
    16
 74
     0
 42
0.000000001
 43
0.00000001
 40
0.0
 40
0.0
 40
0.0
 40
0.0
 40
0.1249999999999997
 40
0.1249999999999997
 40
0.2499999999999993
 40
0.2499999999999993
 40
0.374999999999999
 40
0.374999999999999
 40
0.4999999999999987
 40
0.4999999999999987
 40
0.7500000000000007
 40
0.7500000000000007
 40
0.8750000000000003
 40
0.8750000000000003
 40
1.0
 40
1.0
 40
1.0
 40
1.0
 10
710.2433501724774
 20
494.3521437387152
 30
0.0
 10
710.2433501724776
 20
494.5105229263659
 30
0.0
 10
710.2278136120026
 20
494.6667686510576
 30
0.0
 10
710.166495260042
 20
494.9747605004742
 30
0.0
 10
710.1200715144553
 20
495.1274046079454
 30
0.0
 10
710.0001206443012
 20
495.4164888971324
 30
0.0
 10
709.9265160000176
 20
495.5542934353165
 30
0.0
 10
709.751785633922
 20
495.8159121109554
 30
0.0
 10
709.6509350050206
 20
495.9386584176381
 30
0.0
 10
709.3196497250367
 20
496.2699827945857
 30
0.0
 10
709.0519695636526
 20
496.448993918614
 30
0.0
 10
708.6192955375972
 20
496.6286090179948
 30
0.0
 10
708.4677774507462
 20
496.6748533668626
 30
0.0
 10
708.1583516933599
 20
496.7366066728738
 30
0.0
 10
708.0017293636662
 20
496.7521437387152
 30
0.0
 10
707.8433501724775
 20
496.7521437387152
 30
0.0
  0
LINE
  5
20A
330
1F
100
AcDbEntity
  8
0
  6
Continuous
 62
     7
370
    25
100
AcDbLine
 10
115.2433501725
 20
484.7521437387
 30
0.0
 11
116.6433501725
 21
484.7521437387
 31
0.0
  0
LINE
  5
20B
330
1F
100
AcDbEntity
  8
0
  6
Continuous
 62
     7
370
    25
100
AcDbLine
 10
115.2433501725
 20
494.3521437387
 30
0.0
 11
115.2433501725
 21
484.7521437387
 31
0.0
  0
LINE
  5
20C
330
1F
100
AcDbEntity
  8
0
  6
Continuous
 62
     7
370
    25
100
AcDbLine
 10
116.6433501725
 20
494.3521437387
 30
0.0
 11
116.6433501725
 21
484.7521437387
 31
0.0
  0
LINE
  5
20D
330
1F
100
AcDbEntity
  8
0
  6
Continuous
 62
     7
370
    25
100
AcDbLine
 10
710.2433501725
 20
494.3521437387
 30
0.0
 11
710.2433501725
 21
484.7521437387
 31
0.0
  0
LINE
  5
20E
330
1F
100
AcDbEntity
  8
0
  6
Continuous
 62
     7
370
    25
100
AcDbLine
 10
710.2433501725
 20
484.7521437387
 30
0.0
 11
708.8433501725
 21
484.7521437387
 31
0.0
  0
LINE
  5
20F
330
1F
100
AcDbEntity
  8
0
  6
Continuous
 62
     7
370
    25
100
AcDbLine
 10
708.8433501725
 20
494.3521437387
 30
0.0
 11
708.8433501725
 21
484.7521437387
 31
0.0
  0
LINE
  5
210
330
1F
100
AcDbEntity
  8
0
  6
Continuous
 62
     7
370
    25
100
AcDbLine
 10
173.5812351183
 20
479.7521437387
 30
0.0
 11
172.0005729294
 21
479.7521437387
 31
0.0
  0
LINE
  5
211
330
1F
100
AcDbEntity
  8
0
  6
Continuous
 62
     7
370
    25
100
AcDbLine
 10
171.9736855331
 20
480.2521437387
 30
0.0
 11
174.0812351183
 21
480.2521437387
 31
0.0
  0
LINE
  5
212
330
1F
100
AcDbEntity
  8
0
  6
Continuous
 62
     7
370
    25
100
AcDbLine
 10
172.0005729294
 20
479.7521437387
 30
0.0
 11
170.2710282451
 21
479.7521437387
 31
0.0
  0
LINE
  5
213
330
1F
100
AcDbEntity
  8
0
  6
Continuous
 62
     7
370
    25
100
AcDbLine
 10
170.2441408488
 20
480.2521437387
 30
0.0
 11
171.9736855331
 21
480.2521437387
 31
0.0
  0
LINE
  5
214
330
1F
100
AcDbEntity
  8
0
  6
Continuous
 62
     7
370
    25
100
AcDbLine
 10
170.2710282451
 20
479.7521437387
 30
0.0
 11
168.851690434
 21
479.7521437387
 31
0.0
  0
LINE
  5
215
330
1F
100
AcDbEntity
  8
0
  6
Continuous
 62
     7
370
    25
100
AcDbLine
 10
168.351690434
 20
480.2521437387
 30
0.0
 11
170.2441408488
 21
480.2521437387
 31
0.0
  0
LINE
  5
216
330
1F
100
AcDbEntity
  8
0
  6
Continuous
 62
     7
370
    25
100
AcDbLine
 10
655.5509044488
 20
479.7521437387
 30
0.0
 11
652.9528591127
 21
479.7521437387
 31
0.0
  0
LINE
  5
217
330
1F
100
AcDbEntity
  8
0
  6
Continuous
 62
     7
370
    25
100
AcDbLine
 10
652.5210703578
 20
480.2521437387
 30
0.0
 11
655.985130806
 21
480.2521437387
 31
0.0
  0
LINE
  5
218
330
1F
100
AcDbEntity
  8
0
  6
Continuous
 62
     7
370
    25
100
AcDbLine
 10
651.6477424387
 20
480.2521437387
 30
0.0
 11
652.5210703578
 21
480.2521437387
 31
0.0
  0
LINE
  5
219
330
1F
100
AcDbEntity
  8
0
  6
Continuous
 62
     7
370
    25
100
AcDbLine
 10
652.9528591127
 20
479.7521437387
 30
0.0
 11
652.0795311936
 21
479.7521437387
 31
0.0
  0
LINE
  5
21A
330
1F
100
AcDbEntity
  8
0
  6
Continuous
 62
     7
370
    25
100
AcDbLine
 10
655.985130806
 20
480.2521437387
 30
0.0
 11
656.843833111
 21
480.2521437387
 31
0.0
  0
LINE
  5
21B
330
1F
100
AcDbEntity
  8
0
  6
Continuous
 62
     7
370
    25
100
AcDbLine
 10
656.4096067538
 20
479.7521437387
 30
0.0
 11
655.5509044488
 21
479.7521437387
 31
0.0
  0
LINE
  5
21C
330
1F
100
AcDbEntity
  8
0
  6
Continuous
 62
     7
370
    25
100
AcDbLine
 10
651.3748974581
 20
480.2521437387
 30
0.0
 11
651.6477424387
 21
480.2521437387
 31
0.0
  0
LINE
  5
21D
330
1F
100
AcDbEntity
  8
0
  6
Continuous
 62
     7
370
    25
100
AcDbLine
 10
652.0795311936
 20
479.7521437387
 30
0.0
 11
651.8748974581
 21
479.7521437387
 31
0.0
  0
LINE
  5
21E
330
1F
100
AcDbEntity
  8
0
  6
Continuous
 62
     7
370
    25
100
AcDbLine
 10
656.843833111
 20
480.2521437387
 30
0.0
 11
657.1069276822
 21
480.2521437387
 31
0.0
  0
LINE
  5
21F
330
1F
100
AcDbEntity
  8
0
  6
Continuous
 62
     7
370
    25
100
AcDbLine
 10
656.6069276822
 20
479.7521437387
 30
0.0
 11
656.4096067538
 21
479.7521437387
 31
0.0
  0
LINE
  5
220
330
1F
100
AcDbEntity
  8
0
  6
Continuous
 62
     7
370
    25
100
AcDbLine
 10
662.7433501725
 20
476.6521437387
 30
0.0
 11
663.9433501725
 21
476.6521437387
 31
0.0
  0
LINE
  5
221
330
1F
100
AcDbEntity
  8
0
  6
Continuous
 62
     7
370
    25
100
AcDbLine
 10
663.9433501725
 20
457.6521437387
 30
0.0
 11
660.7433501725
 21
457.6521437387
 31
0.0
  0
LINE
  5
222
330
1F
100
AcDbEntity
  8
0
  6
Continuous
 62
     7
370
    25
100
AcDbLine
 10
660.7433501725
 20
457.6521437387
 30
0.0
 11
660.7433501725
 21
436.6521437387
 31
0.0
  0
LINE
  5
223
330
1F
100
AcDbEntity
  8
0
  6
Continuous
 62
     7
370
    25
100
AcDbLine
 10
657.7433501725
 20
433.6521437387
 30
0.0
 11
613.7433501725
 21
433.6521437387
 31
0.0
  0
LINE
  5
224
330
1F
100
AcDbEntity
  8
0
  6
Continuous
 62
     7
370
    25
100
AcDbLine
 10
610.7433501725
 20
436.6521437387
 30
0.0
 11
610.7433501725
 21
452.7821437387
 31
0.0
  0
LINE
  5
225
330
1F
100
AcDbEntity
  8
0
  6
Continuous
 62
     7
370
    25
100
AcDbLine
 10
610.7433501725
 20
452.7821437387
 30
0.0
 11
608.2433501725
 21
452.7821437387
 31
0.0
  0
LINE
  5
226
330
1F
100
AcDbEntity
  8
0
  6
Continuous
 62
     7
370
    25
100
AcDbLine
 10
608.2433501725
 20
452.2900929311
 30
0.0
 11
608.2433501725
 21
452.7821437387
 31
0.0
  0
LINE
  5
227
330
1F
100
AcDbEntity
  8
0
  6
Continuous
 62
     7
370
    25
100
AcDbLine
 10
458.2433501725
 20
452.2900929311
 30
0.0
 11
458.2433501725
 21
452.7821437387
 31
0.0
  0
LINE
  5
228
330
1F
100
AcDbEntity
  8
0
  6
Continuous
 62
     7
370
    25
100
AcDbLine
 10
458.2433501725
 20
452.7821437387
 30
0.0
 11
455.7433501725
 21
452.7821437387
 31
0.0
  0
LINE
  5
229
330
1F
100
AcDbEntity
  8
0
  6
Continuous
 62
     7
370
    25
100
AcDbLine
 10
455.7433501725
 20
452.7821437387
 30
0.0
 11
455.7433501725
 21
436.6521437387
 31
0.0
  0
LINE
  5
22A
330
1F
100
AcDbEntity
  8
0
  6
Continuous
 62
     7
370
    25
100
AcDbLine
 10
369.7433501725
 20
436.6521437387
 30
0.0
 11
369.7433501725
 21
452.7821437387
 31
0.0
  0
LINE
  5
22B
330
1F
100
AcDbEntity
  8
0
  6
Continuous
 62
     7
370
    25
100
AcDbLine
 10
369.7433501725
 20
452.7821437387
 30
0.0
 11
367.2433501725
 21
452.7821437387
 31
0.0
  0
LINE
  5
22C
330
1F
100
AcDbEntity
  8
0
  6
Continuous
 62
     7
370
    25
100
AcDbLine
 10
367.2433501725
 20
452.2900929311
 30
0.0
 11
367.2433501725
 21
452.7821437387
 31
0.0
  0
LINE
  5
22D
330
1F
100
AcDbEntity
  8
0
  6
Continuous
 62
     7
370
    25
100
AcDbLine
 10
217.2433501725
 20
452.2900929311
 30
0.0
 11
217.2433501725
 21
452.7821437387
 31
0.0
  0
LINE
  5
22E
330
1F
100
AcDbEntity
  8
0
  6
Continuous
 62
     7
370
    25
100
AcDbLine
 10
217.2433501725
 20
452.7821437387
 30
0.0
 11
214.7433501725
 21
452.7821437387
 31
0.0
  0
LINE
  5
22F
330
1F
100
AcDbEntity
  8
0
  6
Continuous
 62
     7
370
    25
100
AcDbLine
 10
214.7433501725
 20
452.7821437387
 30
0.0
 11
214.7433501725
 21
436.6521437387
 31
0.0
  0
ARC
  5
230
330
1F
100
AcDbEntity
  8
0
  6
Continuous
 62
     7
370
    25
100
AcDbCircle
 10
211.7433501725
 20
436.6521437387
 30
0.0
 40
3.0
100
AcDbArc
 50
270.0
 51
0.0
  0
LINE
  5
231
330
1F
100
AcDbEntity
  8
0
  6
Continuous
 62
     7
370
    25
100
AcDbLine
 10
164.7433501725
 20
436.6521437387
 30
0.0
 11
164.7433501725
 21
457.6521437387
 31
0.0
  0
LINE
  5
232
330
1F
100
AcDbEntity
  8
0
  6
Continuous
 62
     7
370
    25
100
AcDbLine
 10
164.7433501725
 20
457.6521437387
 30
0.0
 11
161.5433501725
 21
457.6521437387
 31
0.0
  0
LINE
  5
233
330
1F
100
AcDbEntity
  8
0
  6
Continuous
 62
     7
370
    25
100
AcDbLine
 10
161.5433501725
 20
476.6521437387
 30
0.0
 11
162.7433501725
 21
476.6521437387
 31
0.0
  0
LINE
  5
234
330
1F
100
AcDbEntity
  8
0
  6
Continuous
 62
     7
370
    25
100
AcDbLine
 10
162.7433501725
 20
476.6521437387
 30
0.0
 11
162.7433501725
 21
476.8521437387
 31
0.0
  0
LINE
  5
235
330
1F
100
AcDbEntity
  8
0
  6
Continuous
 62
     7
370
    25
100
AcDbLine
 10
662.7433501725
 20
476.8521437387
 30
0.0
 11
662.7433501725
 21
476.6521437387
 31
0.0
  0
ARC
  5
236
330
1F
100
AcDbEntity
  8
0
  6
Continuous
 62
     7
370
    25
100
AcDbCircle
 10
613.7433501725
 20
436.6521437387
 30
0.0
 40
3.000000000000114
100
AcDbArc
 50
180.0
 51
270.0
  0
LINE
  5
237
330
1F
100
AcDbEntity
  8
0
  6
Continuous
 62
     7
370
    25
100
AcDbLine
 10
211.7433501725
 20
433.6521437387
 30
0.0
 11
167.7433501725
 21
433.6521437387
 31
0.0
  0
LINE
  5
238
330
1F
100
AcDbEntity
  8
0
  6
Continuous
 62
     7
370
    25
100
AcDbLine
 10
452.7433501725
 20
433.6521437387
 30
0.0
 11
372.7433501725
 21
433.6521437387
 31
0.0
  0
ARC
  5
239
330
1F
100
AcDbEntity
  8
0
  6
Continuous
 62
     7
370
    25
100
AcDbCircle
 10
372.7433501725
 20
436.6521437387
 30
0.0
 40
3.0
100
AcDbArc
 50
180.0
 51
270.0
  0
ARC
  5
23A
330
1F
100
AcDbEntity
  8
0
  6
Continuous
 62
     7
370
    25
100
AcDbCircle
 10
657.7433501725
 20
436.6521437387
 30
0.0
 40
3.0
100
AcDbArc
 50
270.0
 51
0.0
  0
ARC
  5
23B
330
1F
100
AcDbEntity
  8
0
  6
Continuous
 62
     7
370
    25
100
AcDbCircle
 10
452.7433501725
 20
436.6521437387
 30
0.0
 40
3.0
100
AcDbArc
 50
270.0
 51
0.0
  0
ARC
  5
23C
330
1F
100
AcDbEntity
  8
0
  6
Continuous
 62
     7
370
    25
100
AcDbCircle
 10
167.7433501725
 20
436.6521437387
 30
0.0
 40
3.0
100
AcDbArc
 50
180.0
 51
270.0
  0
LINE
  5
23D
330
1F
100
AcDbEntity
  8
0
  6
Continuous
 62
     7
370
    25
100
AcDbLine
 10
608.2433501725
 20
452.2900929311
 30
0.0
 11
608.2433501725
 21
451.3900929311
 31
0.0
  0
LINE
  5
23E
330
1F
100
AcDbEntity
  8
0
  6
Continuous
 62
     7
370
    25
100
AcDbLine
 10
458.2433501725
 20
451.3900929311
 30
0.0
 11
458.2433501725
 21
452.2900929311
 31
0.0
  0
LINE
  5
23F
330
1F
100
AcDbEntity
  8
0
  6
Continuous
 62
     7
370
    25
100
AcDbLine
 10
217.2433501725
 20
451.3900929311
 30
0.0
 11
217.2433501725
 21
452.2900929311
 31
0.0
  0
LINE
  5
240
330
1F
100
AcDbEntity
  8
0
  6
Continuous
 62
     7
370
    25
100
AcDbLine
 10
367.2433501725
 20
452.2900929311
 30
0.0
 11
367.2433501725
 21
451.3900929311
 31
0.0
  0
LINE
  5
241
330
1F
100
AcDbEntity
  8
0
  6
Continuous
 62
     7
370
    25
100
AcDbLine
 10
663.9433501725
 20
476.6521437387
 30
0.0
 11
664.7433501725
 21
476.6521437387
 31
0.0
  0
LINE
  5
242
330
1F
100
AcDbEntity
  8
0
  6
Continuous
 62
     7
370
    25
100
AcDbLine
 10
665.7433501725
 20
457.6521437387
 30
0.0
 11
665.7433501725
 21
458.2521437387
 31
0.0
  0
LINE
  5
243
330
1F
100
AcDbEntity
  8
0
  6
Continuous
 62
     7
370
    25
100
AcDbLine
 10
665.7433501725
 20
457.6521437387
 30
0.0
 11
663.9433501725
 21
457.6521437387
 31
0.0
  0
LINE
  5
244
330
1F
100
AcDbEntity
  8
0
  6
Continuous
 62
     7
370
    25
100
AcDbLine
 10
161.5433501725
 20
457.6521437387
 30
0.0
 11
159.7433501725
 21
457.6521437387
 31
0.0
  0
LINE
  5
245
330
1F
100
AcDbEntity
  8
0
  6
Continuous
 62
     7
370
    25
100
AcDbLine
 10
159.7433501725
 20
457.6521437387
 30
0.0
 11
159.7433501725
 21
458.2521437387
 31
0.0
  0
LINE
  5
246
330
1F
100
AcDbEntity
  8
0
  6
Continuous
 62
     7
370
    25
100
AcDbLine
 10
160.7433501725
 20
476.6521437387
 30
0.0
 11
161.5433501725
 21
476.6521437387
 31
0.0
  0
LINE
  5
247
330
1F
100
AcDbEntity
  8
0
  6
Continuous
 62
     7
370
    25
100
AcDbLine
 10
162.7433501725
 20
476.8521437387
 30
0.0
 11
162.7433501725
 21
478.6521437387
 31
0.0
  0
LINE
  5
248
330
1F
100
AcDbEntity
  8
0
  6
Continuous
 62
     7
370
    25
100
AcDbLine
 10
662.7433501725
 20
478.6521437387
 30
0.0
 11
662.7433501725
 21
476.8521437387
 31
0.0
  0
LINE
  5
249
330
1F
100
AcDbEntity
  8
0
  6
Continuous
 62
     7
370
    25
100
AcDbLine
 10
458.2433501725
 20
451.3900929311
 30
0.0
 11
458.2433501725
 21
444.7652218006
 31
0.0
  0
LINE
  5
24A
330
1F
100
AcDbEntity
  8
0
  6
Continuous
 62
     7
370
    25
100
AcDbLine
 10
608.2433501725
 20
444.7652218006
 30
0.0
 11
608.2433501725
 21
451.3900929311
 31
0.0
  0
LINE
  5
24B
330
1F
100
AcDbEntity
  8
0
  6
Continuous
 62
     7
370
    25
100
AcDbLine
 10
217.2433501725
 20
451.3900929311
 30
0.0
 11
217.2433501725
 21
444.7652218006
 31
0.0
  0
LINE
  5
24C
330
1F
100
AcDbEntity
  8
0
  6
Continuous
 62
     7
370
    25
100
AcDbLine
 10
367.2433501725
 20
444.7652218006
 30
0.0
 11
367.2433501725
 21
451.3900929311
 31
0.0
  0
LINE
  5
24D
330
1F
100
AcDbEntity
  8
0
  6
Continuous
 62
     7
370
    25
100
AcDbLine
 10
608.2433501725
 20
444.2652218006
 30
0.0
 11
608.2433501725
 21
444.7652218006
 31
0.0
  0
LINE
  5
24E
330
1F
100
AcDbEntity
  8
0
  6
Continuous
 62
     7
370
    25
100
AcDbLine
 10
458.2433501725
 20
444.7652218006
 30
0.0
 11
458.2433501725
 21
444.2652218006
 31
0.0
  0
LINE
  5
24F
330
1F
100
AcDbEntity
  8
0
  6
Continuous
 62
     7
370
    25
100
AcDbLine
 10
367.2433501725
 20
444.2652218006
 30
0.0
 11
367.2433501725
 21
444.7652218006
 31
0.0
  0
LINE
  5
250
330
1F
100
AcDbEntity
  8
0
  6
Continuous
 62
     7
370
    25
100
AcDbLine
 10
217.2433501725
 20
444.7652218006
 30
0.0
 11
217.2433501725
 21
444.2652218006
 31
0.0
  0
ARC
  5
251
330
1F
100
AcDbEntity
  8
0
  6
Continuous
 62
     7
370
    25
100
AcDbCircle
 10
461.2433501725
 20
437.7475303469
 30
0.0
 40
3.000000000000057
100
AcDbArc
 50
180.0
 51
270.0
  0
LINE
  5
252
330
1F
100
AcDbEntity
  8
0
  6
Continuous
 62
     7
370
    25
100
AcDbLine
 10
458.2433501725
 20
437.7475303469
 30
0.0
 11
458.2433501725
 21
444.2652218006
 31
0.0
  0
LINE
  5
253
330
1F
100
AcDbEntity
  8
0
  6
Continuous
 62
     7
370
    25
100
AcDbLine
 10
608.2433501725
 20
444.2652218006
 30
0.0
 11
608.2433501725
 21
437.7475303469
 31
0.0
  0
ARC
  5
254
330
1F
100
AcDbEntity
  8
0
  6
Continuous
 62
     7
370
    25
100
AcDbCircle
 10
605.2433501725
 20
437.7475303469
 30
0.0
 40
3.000000000000114
100
AcDbArc
 50
270.0
 51
0.0
  0
LINE
  5
255
330
1F
100
AcDbEntity
  8
0
  6
Continuous
 62
     7
370
    25
100
AcDbLine
 10
605.2433501725
 20
434.7475303469
 30
0.0
 11
461.2433501725
 21
434.7475303469
 31
0.0
  0
ARC
  5
256
330
1F
100
AcDbEntity
  8
0
  6
Continuous
 62
     7
370
    25
100
AcDbCircle
 10
220.2433501725
 20
437.7475303469
 30
0.0
 40
3.0
100
AcDbArc
 50
180.0
 51
270.0
  0
LINE
  5
257
330
1F
100
AcDbEntity
  8
0
  6
Continuous
 62
     7
370
    25
100
AcDbLine
 10
217.2433501725
 20
437.7475303469
 30
0.0
 11
217.2433501725
 21
444.2652218006
 31
0.0
  0
LINE
  5
258
330
1F
100
AcDbEntity
  8
0
  6
Continuous
 62
     7
370
    25
100
AcDbLine
 10
367.2433501725
 20
444.2652218006
 30
0.0
 11
367.2433501725
 21
437.7475303469
 31
0.0
  0
ARC
  5
259
330
1F
100
AcDbEntity
  8
0
  6
Continuous
 62
     7
370
    25
100
AcDbCircle
 10
364.2433501725
 20
437.7475303469
 30
0.0
 40
3.0
100
AcDbArc
 50
270.0
 51
0.0
  0
LINE
  5
25A
330
1F
100
AcDbEntity
  8
0
  6
Continuous
 62
     7
370
    25
100
AcDbLine
 10
364.2433501725
 20
434.7475303469
 30
0.0
 11
220.2433501725
 21
434.7475303469
 31
0.0
  0
LINE
  5
25B
330
1F
100
AcDbEntity
  8
0
  6
Continuous
 62
     7
370
    25
100
AcDbLine
 10
649.4933501725
 20
484.2521437387
 30
0.0
 11
649.4933501725
 21
484.7521437387
 31
0.0
  0
LINE
  5
25C
330
1F
100
AcDbEntity
  8
0
  6
Continuous
 62
     7
370
    25
100
AcDbLine
 10
658.9933501725
 20
484.2521437387
 30
0.0
 11
649.4933501725
 21
484.2521437387
 31
0.0
  0
LINE
  5
25D
330
1F
100
AcDbEntity
  8
0
  6
Continuous
 62
     7
370
    25
100
AcDbLine
 10
658.9933501725
 20
484.7521437387
 30
0.0
 11
658.9933501725
 21
484.2521437387
 31
0.0
  0
ARC
  5
25E
330
1F
100
AcDbEntity
  8
0
  6
Continuous
 62
     7
370
    25
100
AcDbCircle
 10
659.7567501725
 20
485.4887437387
 30
0.0
 40
1.23660000000001
100
AcDbArc
 50
270.0
 51
323.4399088993
  0
LINE
  5
25F
330
1F
100
AcDbEntity
  8
0
  6
Continuous
 62
     7
370
    25
100
AcDbLine
 10
659.7567501725
 20
484.2521437387
 30
0.0
 11
658.9933501725
 21
484.2521437387
 31
0.0
  0
LINE
  5
260
330
1F
100
AcDbEntity
  8
0
  6
Continuous
 62
     7
370
    25
100
AcDbLine
 10
649.4933501725
 20
484.2521437387
 30
0.0
 11
648.7299501725
 21
484.2521437387
 31
0.0
  0
ARC
  5
261
330
1F
100
AcDbEntity
  8
0
  6
Continuous
 62
     7
370
    25
100
AcDbCircle
 10
648.7299501725
 20
485.4887437387
 30
0.0
 40
1.236600000000117
100
AcDbArc
 50
216.5600911006
 51
270.0
  0
LINE
  5
262
330
1F
100
AcDbEntity
  8
0
  6
Continuous
 62
     7
370
    25
100
AcDbLine
 10
166.4933501725
 20
484.2521437387
 30
0.0
 11
166.4933501725
 21
484.7521437387
 31
0.0
  0
LINE
  5
263
330
1F
100
AcDbEntity
  8
0
  6
Continuous
 62
     7
370
    25
100
AcDbLine
 10
175.9933501725
 20
484.7521437387
 30
0.0
 11
175.9933501725
 21
484.2521437387
 31
0.0
  0
LINE
  5
264
330
1F
100
AcDbEntity
  8
0
  6
Continuous
 62
     7
370
    25
100
AcDbLine
 10
175.9933501725
 20
484.2521437387
 30
0.0
 11
166.4933501725
 21
484.2521437387
 31
0.0
  0
ARC
  5
265
330
1F
100
AcDbEntity
  8
0
  6
Continuous
 62
     7
370
    25
100
AcDbCircle
 10
176.7567501725
 20
485.4887437387
 30
0.0
 40
1.236600000000016
100
AcDbArc
 50
270.0
 51
323.4399088994
  0
LINE
  5
266
330
1F
100
AcDbEntity
  8
0
  6
Continuous
 62
     7
370
    25
100
AcDbLine
 10
176.7567501725
 20
484.2521437387
 30
0.0
 11
175.9933501725
 21
484.2521437387
 31
0.0
  0
ARC
  5
267
330
1F
100
AcDbEntity
  8
0
  6
Continuous
 62
     7
370
    25
100
AcDbCircle
 10
165.7299501725
 20
485.4887437387
 30
0.0
 40
1.236600000000016
100
AcDbArc
 50
216.5600911006
 51
270.0
  0
LINE
  5
268
330
1F
100
AcDbEntity
  8
0
  6
Continuous
 62
     7
370
    25
100
AcDbLine
 10
166.4933501725
 20
484.2521437387
 30
0.0
 11
165.7299501725
 21
484.2521437387
 31
0.0
  0
LINE
  5
269
330
1F
100
AcDbEntity
  8
0
  6
Continuous
 62
     7
370
    25
100
AcDbLine
 10
674.4021001725
 20
463.1521437387
 30
0.0
 11
674.4021001725
 21
463.3521437387
 31
0.0
  0
LINE
  5
26A
330
1F
100
AcDbEntity
  8
0
  6
Continuous
 62
     7
370
    25
100
AcDbLine
 10
674.4021001725
 20
468.9521437387
 30
0.0
 11
674.4021001725
 21
469.1521437387
 31
0.0
  0
LINE
  5
26B
330
1F
100
AcDbEntity
  8
0
  6
Continuous
 62
     7
370
    25
100
AcDbLine
 10
674.9433501725
 20
467.731547076
 30
0.0
 11
674.9433501725
 21
468.6108937387
 31
0.0
  0
LINE
  5
26C
330
1F
100
AcDbEntity
  8
0
  6
Continuous
 62
     7
370
    25
100
AcDbLine
 10
674.9433501725
 20
463.6933937387
 30
0.0
 11
674.9433501725
 21
467.731547076
 31
0.0
  0
LINE
  5
26D
330
1F
100
AcDbEntity
  8
0
  6
Continuous
 62
     7
370
    25
100
AcDbLine
 10
664.2433501725
 20
480.4521437387
 30
0.0
 11
664.2433501725
 21
478.6521437387
 31
0.0
  0
LINE
  5
26E
330
1F
100
AcDbEntity
  8
0
  6
Continuous
 62
     7
370
    25
100
AcDbLine
 10
664.2433501725
 20
478.6521437387
 30
0.0
 11
161.2433501725
 21
478.6521437387
 31
0.0
  0
LINE
  5
26F
330
1F
100
AcDbEntity
  8
0
  6
Continuous
 62
     7
370
    25
100
AcDbLine
 10
161.2433501725
 20
478.6521437387
 30
0.0
 11
161.2433501725
 21
480.4521437387
 31
0.0
  0
LINE
  5
270
330
1F
100
AcDbEntity
  8
0
  6
Continuous
 62
     7
370
    25
100
AcDbLine
 10
664.2433501725
 20
480.4521437387
 30
0.0
 11
664.7433501725
 21
485.8271437387
 31
0.0
  0
LINE
  5
271
330
1F
100
AcDbEntity
  8
0
  6
Continuous
 62
     7
370
    25
100
AcDbLine
 10
160.7433501725
 20
485.8271437387
 30
0.0
 11
161.2433501725
 21
480.4521437387
 31
0.0
  0
LINE
  5
272
330
1F
100
AcDbEntity
  8
0
  6
Continuous
 62
     7
370
    25
100
AcDbLine
 10
150.5433501725
 20
463.9348056614
 30
0.0
 11
150.5433501725
 21
463.6933937387
 31
0.0
  0
LINE
  5
273
330
1F
100
AcDbEntity
  8
0
  6
Continuous
 62
     7
370
    25
100
AcDbLine
 10
150.5433501725
 20
468.6108937387
 30
0.0
 11
150.5433501725
 21
463.9348056614
 31
0.0
  0
LINE
  5
274
330
1F
100
AcDbEntity
  8
0
  6
Continuous
 62
     7
370
    25
100
AcDbLine
 10
151.0846001725
 20
469.1521437387
 30
0.0
 11
151.0846001725
 21
468.9521437387
 31
0.0
  0
LINE
  5
275
330
1F
100
AcDbEntity
  8
0
  6
Continuous
 62
     7
370
    25
100
AcDbLine
 10
151.0846001725
 20
463.3521437387
 30
0.0
 11
151.0846001725
 21
463.1521437387
 31
0.0
  0
LWPOLYLINE
  5
276
330
1F
100
AcDbEntity
  8
0
  6
Continuous
 62
     7
370
    25
100
AcDbPolyline
 90
        9
 70
   128
 43
0.0
 10
666.7954710324
 20
458.2521437387
 10
666.9289206722
 20
458.2905731779
 10
667.0572419172
 20
458.4043846737
 10
667.1755034539
 20
458.5892045141
 10
667.2791605577
 20
458.8379301763
 10
667.3642297444
 20
459.1410032727
 10
667.4274418527
 20
459.486776874
 10
667.4663676768
 20
459.8619630947
 10
667.4795113191
 20
460.2521437387
  0
LINE
  5
277
330
1F
100
AcDbEntity
  8
0
  6
Continuous
 62
     7
370
    25
100
AcDbLine
 10
664.9242723101
 20
458.2521437387
 30
0.0
 11
666.7954710324
 21
458.2521437387
 31
0.0
  0
LINE
  5
278
330
1F
100
AcDbEntity
  8
0
  6
Continuous
 62
     7
370
    25
100
AcDbLine
 10
666.7954710324
 20
474.2521437387
 30
0.0
 11
664.9242723101
 21
474.2521437387
 31
0.0
  0
LWPOLYLINE
  5
279
330
1F
100
AcDbEntity
  8
0
  6
Continuous
 62
     7
370
    25
100
AcDbPolyline
 90
        9
 70
   128
 43
0.0
 10
667.4795113191
 20
472.2521437387
 10
667.4663676768
 20
472.6423243827
 10
667.4274418527
 20
473.0175106034
 10
667.3642297444
 20
473.3632842048
 10
667.2791605577
 20
473.6663573011
 10
667.1755034539
 20
473.9150829633
 10
667.0572419172
 20
474.0999028037
 10
666.9289206722
 20
474.2137142995
 10
666.7954710324
 20
474.2521437387
  0
LINE
  5
27A
330
1F
100
AcDbEntity
  8
0
  6
Continuous
 62
     7
370
    25
100
AcDbLine
 10
667.4795113191
 20
460.2521437387
 30
0.0
 11
667.4795113191
 21
472.2521437387
 31
0.0
  0
LWPOLYLINE
  5
27B
330
1F
100
AcDbEntity
  8
0
  6
Continuous
 62
     7
370
    25
100
AcDbPolyline
 90
        9
 70
   128
 43
0.0
 10
669.3588965607
 20
460.2521437387
 10
669.3457529184
 20
459.8619630947
 10
669.3068270943
 20
459.486776874
 10
669.2436149859
 20
459.1410032727
 10
669.1585457993
 20
458.8379301763
 10
669.0548886955
 20
458.5892045141
 10
668.9366271588
 20
458.4043846737
 10
668.8083059138
 20
458.2905731779
 10
668.674856274
 20
458.2521437387
  0
LINE
  5
27C
330
1F
100
AcDbEntity
  8
0
  6
Continuous
 62
     7
370
    25
100
AcDbLine
 10
668.674856274
 20
458.2521437387
 30
0.0
 11
666.7954710324
 21
458.2521437387
 31
0.0
  0
LINE
  5
27D
330
1F
100
AcDbEntity
  8
0
  6
Continuous
 62
     7
370
    25
100
AcDbLine
 10
669.3588965607
 20
460.2521437387
 30
0.0
 11
669.3588965607
 21
472.2521437387
 31
0.0
  0
LINE
  5
27E
330
1F
100
AcDbEntity
  8
0
  6
Continuous
 62
     7
370
    25
100
AcDbLine
 10
666.7954710324
 20
474.2521437387
 30
0.0
 11
668.674856274
 21
474.2521437387
 31
0.0
  0
LWPOLYLINE
  5
27F
330
1F
100
AcDbEntity
  8
0
  6
Continuous
 62
     7
370
    25
100
AcDbPolyline
 90
        9
 70
   128
 43
0.0
 10
668.674856274
 20
474.2521437387
 10
668.8083059138
 20
474.2137142995
 10
668.9366271588
 20
474.0999028037
 10
669.0548886955
 20
473.9150829633
 10
669.1585457993
 20
473.6663573011
 10
669.2436149859
 20
473.3632842048
 10
669.3068270943
 20
473.0175106034
 10
669.3457529184
 20
472.6423243827
 10
669.3588965607
 20
472.2521437387
  0
LINE
  5
280
330
1F
100
AcDbEntity
  8
0
  6
Continuous
 62
     7
370
    25
100
AcDbLine
 10
664.7485365229
 20
474.2521437387
 30
0.0
 11
664.9242723101
 21
474.2521437387
 31
0.0
  0
LINE
  5
281
330
1F
100
AcDbEntity
  8
0
  6
Continuous
 62
     7
370
    25
100
AcDbLine
 10
664.7433501725
 20
458.2521437387
 30
0.0
 11
664.7433501725
 21
474.2521437387
 31
0.0
  0
LINE
  5
282
330
1F
100
AcDbEntity
  8
0
  6
Continuous
 62
     7
370
    25
100
AcDbLine
 10
664.9242723101
 20
458.2521437387
 30
0.0
 11
664.7433501725
 21
458.2521437387
 31
0.0
  0
LINE
  5
283
330
1F
100
AcDbEntity
  8
0
  6
Continuous
 62
     7
370
    25
100
AcDbLine
 10
664.7485365229
 20
474.2521437387
 30
0.0
 11
664.7433501725
 21
474.2521437387
 31
0.0
  0
LINE
  5
284
330
1F
100
AcDbEntity
  8
0
  6
Continuous
 62
     7
370
    25
100
AcDbLine
 10
664.7433501725
 20
489.2521437387
 30
0.0
 11
664.7433501725
 21
474.2521437387
 31
0.0
  0
LINE
  5
285
330
1F
100
AcDbEntity
  8
0
  6
Continuous
 62
     7
370
    25
100
AcDbLine
 10
666.7433501725
 20
489.2521437387
 30
0.0
 11
666.7433501725
 21
474.2521437387
 31
0.0
  0
LINE
  5
286
330
1F
100
AcDbEntity
  8
0
  6
Continuous
 62
     7
370
    25
100
AcDbLine
 10
664.7433501725
 20
489.2521437387
 30
0.0
 11
664.7383376096
 21
489.3521437387
 31
0.0
  0
LINE
  5
287
330
1F
100
AcDbEntity
  8
0
  6
Continuous
 62
     7
370
    25
100
AcDbLine
 10
666.7433501725
 20
489.2521437387
 30
0.0
 11
666.7416830426
 21
489.3521437387
 31
0.0
  0
LINE
  5
288
330
1F
100
AcDbEntity
  8
0
  6
Continuous
 62
     7
370
    25
100
AcDbLine
 10
158.6912293125
 20
458.2521437387
 30
0.0
 11
156.811844071
 21
458.2521437387
 31
0.0
  0
LWPOLYLINE
  5
289
330
1F
100
AcDbEntity
  8
0
  6
Continuous
 62
     7
370
    25
100
AcDbPolyline
 90
        9
 70
   128
 43
0.0
 10
156.811844071
 20
458.2521437387
 10
156.6783944312
 20
458.2905731779
 10
156.5500731862
 20
458.4043846737
 10
156.4318116495
 20
458.5892045141
 10
156.3281545457
 20
458.8379301763
 10
156.243085359
 20
459.1410032727
 10
156.1798732507
 20
459.486776874
 10
156.1409474266
 20
459.8619630947
 10
156.1278037843
 20
460.2521437387
  0
LWPOLYLINE
  5
28A
330
1F
100
AcDbEntity
  8
0
  6
Continuous
 62
     7
370
    25
100
AcDbPolyline
 90
        9
 70
   128
 43
0.0
 10
158.0071890259
 20
460.2521437387
 10
158.0203326682
 20
459.8619630947
 10
158.0592584923
 20
459.486776874
 10
158.1224706006
 20
459.1410032727
 10
158.2075397872
 20
458.8379301763
 10
158.3111968911
 20
458.5892045141
 10
158.4294584278
 20
458.4043846737
 10
158.5577796727
 20
458.2905731779
 10
158.6912293125
 20
458.2521437387
  0
LINE
  5
28B
330
1F
100
AcDbEntity
  8
0
  6
Continuous
 62
     7
370
    25
100
AcDbLine
 10
158.6912293125
 20
458.2521437387
 30
0.0
 11
160.5624280348
 21
458.2521437387
 31
0.0
  0
LINE
  5
28C
330
1F
100
AcDbEntity
  8
0
  6
Continuous
 62
     7
370
    25
100
AcDbLine
 10
158.0071890259
 20
472.2521437387
 30
0.0
 11
158.0071890259
 21
460.2521437387
 31
0.0
  0
LWPOLYLINE
  5
28D
330
1F
100
AcDbEntity
  8
0
  6
Continuous
 62
     7
370
    25
100
AcDbPolyline
 90
        9
 70
   128
 43
0.0
 10
158.6912293125
 20
474.2521437387
 10
158.5577796727
 20
474.2137142995
 10
158.4294584278
 20
474.0999028037
 10
158.3111968911
 20
473.9150829633
 10
158.2075397872
 20
473.6663573011
 10
158.1224706006
 20
473.3632842048
 10
158.0592584923
 20
473.0175106034
 10
158.0203326682
 20
472.6423243827
 10
158.0071890259
 20
472.2521437387
  0
LINE
  5
28E
330
1F
100
AcDbEntity
  8
0
  6
Continuous
 62
     7
370
    25
100
AcDbLine
 10
160.5624280348
 20
474.2521437387
 30
0.0
 11
158.6912293125
 21
474.2521437387
 31
0.0
  0
LINE
  5
28F
330
1F
100
AcDbEntity
  8
0
  6
Continuous
 62
     7
370
    25
100
AcDbLine
 10
156.1278037843
 20
472.2521437387
 30
0.0
 11
156.1278037843
 21
460.2521437387
 31
0.0
  0
LWPOLYLINE
  5
290
330
1F
100
AcDbEntity
  8
0
  6
Continuous
 62
     7
370
    25
100
AcDbPolyline
 90
        9
 70
   128
 43
0.0
 10
156.1278037843
 20
472.2521437387
 10
156.1409474266
 20
472.6423243827
 10
156.1798732507
 20
473.0175106034
 10
156.243085359
 20
473.3632842048
 10
156.3281545457
 20
473.6663573011
 10
156.4318116495
 20
473.9150829633
 10
156.5500731862
 20
474.0999028037
 10
156.6783944312
 20
474.2137142995
 10
156.811844071
 20
474.2521437387
  0
LINE
  5
291
330
1F
100
AcDbEntity
  8
0
  6
Continuous
 62
     7
370
    25
100
AcDbLine
 10
156.811844071
 20
474.2521437387
 30
0.0
 11
158.6912293125
 21
474.2521437387
 31
0.0
  0
LINE
  5
292
330
1F
100
AcDbEntity
  8
0
  6
Continuous
 62
     7
370
    25
100
AcDbLine
 10
160.5624280348
 20
474.2521437387
 30
0.0
 11
160.7381638221
 21
474.2521437387
 31
0.0
  0
LINE
  5
293
330
1F
100
AcDbEntity
  8
0
  6
Continuous
 62
     7
370
    25
100
AcDbLine
 10
160.7433501725
 20
474.2521437387
 30
0.0
 11
160.7433501725
 21
458.2521437387
 31
0.0
  0
LINE
  5
294
330
1F
100
AcDbEntity
  8
0
  6
Continuous
 62
     7
370
    25
100
AcDbLine
 10
160.7433501725
 20
458.2521437387
 30
0.0
 11
160.5624280348
 21
458.2521437387
 31
0.0
  0
LINE
  5
295
330
1F
100
AcDbEntity
  8
0
  6
Continuous
 62
     7
370
    25
100
AcDbLine
 10
160.7381638221
 20
474.2521437387
 30
0.0
 11
160.7433501725
 21
474.2521437387
 31
0.0
  0
LINE
  5
296
330
1F
100
AcDbEntity
  8
0
  6
Continuous
 62
     7
370
    25
100
AcDbLine
 10
160.7433501725
 20
474.2521437387
 30
0.0
 11
160.7433501725
 21
489.2521437387
 31
0.0
  0
LINE
  5
297
330
1F
100
AcDbEntity
  8
0
  6
Continuous
 62
     7
370
    25
100
AcDbLine
 10
158.7433501725
 20
474.2521437387
 30
0.0
 11
158.7433501725
 21
489.2521437387
 31
0.0
  0
LINE
  5
298
330
1F
100
AcDbEntity
  8
0
  6
Continuous
 62
     7
370
    25
100
AcDbLine
 10
160.7483627354
 20
489.3521437387
 30
0.0
 11
160.7433501725
 21
489.2521437387
 31
0.0
  0
LINE
  5
299
330
1F
100
AcDbEntity
  8
0
  6
Continuous
 62
     7
370
    25
100
AcDbLine
 10
158.7450173024
 20
489.3521437387
 30
0.0
 11
158.7433501725
 21
489.2521437387
 31
0.0
  0
SPLINE
  5
29A
330
1F
100
AcDbEntity
  8
0
  6
Continuous
 62
     7
370
    25
100
AcDbSpline
210
0.0
220
0.0
230
1.0
 70
    24
 71
     3
 72
    19
 73
    15
 74
     0
 42
0.000000001
 43
0.00000001
 40
0.0
 40
0.0
 40
0.0
 40
0.0
 40
0.1260638187928847
 40
0.1939261817305607
 40
0.2632286813759843
 40
0.3325311810214079
 40
0.4003935439590838
 40
0.5264573627519682
 40
0.6525211815448532
 40
0.7203835444825295
 40
0.7896860441279526
 40
0.858988543773376
 40
0.9268509067110522
 40
1.0
 40
1.0
 40
1.0
 40
1.0
 10
663.7433501724774
 20
471.8795320940938
 30
0.0
 10
663.7433501724774
 20
471.6879441831575
 30
0.0
 10
663.7433501724774
 20
471.3932211421662
 30
0.0
 10
663.7433501724774
 20
470.4659666193257
 30
0.0
 10
663.7433501724774
 20
469.5804105787931
 30
0.0
 10
663.7433501724777
 20
468.5440093692578
 30
0.0
 10
663.7433501724773
 20
467.1000559966085
 30
0.0
 10
663.7433501724777
 20
465.2152284138999
 30
0.0
 10
663.7433501724773
 20
463.4422182120733
 30
0.0
 10
663.7433501724777
 20
462.2199145903331
 30
0.0
 10
663.7433501724774
 20
461.4192278751149
 30
0.0
 10
663.7433501724774
 20
460.8337372923418
 30
0.0
 10
663.7433501724774
 20
460.4058511537889
 30
0.0
 10
663.7433501724774
 20
460.4363634056916
 30
0.0
 10
663.7433501724774
 20
460.4521915066176
 30
0.0
  0
SPLINE
  5
29B
330
1F
100
AcDbEntity
  8
0
  6
Continuous
 62
     7
370
    25
100
AcDbSpline
210
0.0
220
0.0
230
1.0
 70
     8
 71
     3
 72
     8
 73
     4
 74
     0
 42
0.000000001
 43
0.00000001
 40
0.0
 40
0.0
 40
0.0
 40
0.0
 40
1.0
 40
1.0
 40
1.0
 40
1.0
 10
659.7433501724846
 20
465.3634459466578
 30
0.0
 10
659.7433501724846
 20
464.3905016308781
 30
0.0
 10
659.917665472864
 20
463.4441863834256
 30
0.0
 10
660.1899321598759
 20
462.5128345623675
 30
0.0
  0
SPLINE
  5
29C
330
1F
100
AcDbEntity
  8
0
  6
Continuous
 62
     7
370
    25
100
AcDbSpline
210
0.0
220
0.0
230
1.0
 70
     8
 71
     3
 72
     8
 73
     4
 74
     0
 42
0.000000001
 43
0.00000001
 40
0.0
 40
0.0
 40
0.0
 40
0.0
 40
1.0
 40
1.0
 40
1.0
 40
1.0
 10
660.189932159876
 20
468.2140573309481
 30
0.0
 10
659.9176654728645
 20
467.2827055098917
 30
0.0
 10
659.7433501724846
 20
466.3363902624357
 30
0.0
 10
659.7433501724846
 20
465.3634459466578
 30
0.0
  0
LINE
  5
29D
330
1F
100
AcDbEntity
  8
0
  6
Continuous
 62
     7
370
    25
100
AcDbLine
 10
663.7433501725
 20
468.214057331
 30
0.0
 11
660.1899321599
 21
468.214057331
 31
0.0
  0
LINE
  5
29E
330
1F
100
AcDbEntity
  8
0
  6
Continuous
 62
     7
370
    25
100
AcDbLine
 10
663.7433501725
 20
462.5128345624
 30
0.0
 11
660.1899321599
 21
462.5128345624
 31
0.0
  0
LINE
  5
29F
330
1F
100
AcDbEntity
  8
0
  6
Continuous
 62
     7
370
    25
100
AcDbLine
 10
659.7433501725
 20
470.0337119191
 30
0.0
 11
659.7433501725
 21
465.3634459467
 31
0.0
  0
SPLINE
  5
2A0
330
1F
100
AcDbEntity
  8
0
  6
Continuous
 62
     7
370
    25
100
AcDbSpline
210
0.0
220
0.0
230
1.0
 70
     8
 71
     3
 72
     8
 73
     4
 74
     0
 42
0.000000001
 43
0.00000001
 40
0.0
 40
0.0
 40
0.0
 40
0.0
 40
1.0
 40
1.0
 40
1.0
 40
1.0
 10
659.7433501724846
 20
470.0337119191275
 30
0.0
 10
659.7433501724846
 20
469.4126442429082
 30
0.0
 10
659.917665472864
 20
468.8085749224197
 30
0.0
 10
660.189932159876
 20
468.2140573309544
 30
0.0
  0
SPLINE
  5
2A1
330
1F
100
AcDbEntity
  8
0
  6
Continuous
 62
     7
370
    25
100
AcDbSpline
210
0.0
220
0.0
230
1.0
 70
     8
 71
     3
 72
     8
 73
     4
 74
     0
 42
0.000000001
 43
0.00000001
 40
0.0
 40
0.0
 40
0.0
 40
0.0
 40
1.0
 40
1.0
 40
1.0
 40
1.0
 10
660.1899321598759
 20
471.8533665073005
 30
0.0
 10
659.9176654728644
 20
471.2588489158364
 30
0.0
 10
659.7433501724846
 20
470.6547795953456
 30
0.0
 10
659.7433501724846
 20
470.0337119191275
 30
0.0
  0
LINE
  5
2A2
330
1F
100
AcDbEntity
  8
0
  6
Continuous
 62
     7
370
    25
100
AcDbLine
 10
663.7433501725
 20
471.8533665073
 30
0.0
 11
660.1899321599
 21
471.8533665073
 31
0.0
  0
LINE
  5
2A3
330
1F
100
AcDbEntity
  8
0
  6
Continuous
 62
     7
370
    25
100
AcDbLine
 10
659.7433501725
 20
465.3634459467
 30
0.0
 11
659.7433501725
 21
461.4818777662
 31
0.0
  0
SPLINE
  5
2A4
330
1F
100
AcDbEntity
  8
0
  6
Continuous
 62
     7
370
    25
100
AcDbSpline
210
0.0
220
0.0
230
1.0
 70
     8
 71
     3
 72
     8
 73
     4
 74
     0
 42
0.000000001
 43
0.00000001
 40
0.0
 40
0.0
 40
0.0
 40
0.0
 40
1.0
 40
1.0
 40
1.0
 40
1.0
 10
660.1899321598759
 20
462.5128345623624
 30
0.0
 10
659.9176654728644
 20
462.1760003327701
 30
0.0
 10
659.7433501724845
 20
461.8337544058048
 30
0.0
 10
659.7433501724845
 20
461.481877766245
 30
0.0
  0
SPLINE
  5
2A5
330
1F
100
AcDbEntity
  8
0
  6
Continuous
 62
     7
370
    25
100
AcDbSpline
210
0.0
220
0.0
230
1.0
 70
     8
 71
     3
 72
     8
 73
     4
 74
     0
 42
0.000000001
 43
0.00000001
 40
0.0
 40
0.0
 40
0.0
 40
0.0
 40
1.0
 40
1.0
 40
1.0
 40
1.0
 10
659.7433501724845
 20
461.481877766245
 30
0.0
 10
659.7433501724845
 20
461.1300011266845
 30
0.0
 10
659.9176654728639
 20
460.7877551997204
 30
0.0
 10
660.1899321598759
 20
460.4509209701274
 30
0.0
  0
LINE
  5
2A6
330
1F
100
AcDbEntity
  8
0
  6
Continuous
 62
     7
370
    25
100
AcDbLine
 10
663.7433501725
 20
460.4509209701
 30
0.0
 11
660.1899321599
 21
460.4509209701
 31
0.0
  0
LINE
  5
2A7
330
1F
100
AcDbEntity
  8
0
  6
Continuous
 62
     7
370
    25
100
AcDbLine
 10
660.0397259296
 20
471.5066079316
 30
0.0
 11
660.1899321599
 21
471.8533665073
 31
0.0
  0
LINE
  5
2A8
330
1F
100
AcDbEntity
  8
0
  6
Continuous
 62
     7
370
    25
100
AcDbLine
 10
659.7433501725
 20
471.1521437387
 30
0.0
 11
659.7433501725
 21
470.0337119191
 31
0.0
  0
LINE
  5
2A9
330
1F
100
AcDbEntity
  8
0
  6
Continuous
 62
     7
370
    25
100
AcDbLine
 10
674.2021001725
 20
463.1521437387
 30
0.0
 11
674.2021001725
 21
469.1521437387
 31
0.0
  0
LINE
  5
2AA
330
1F
100
AcDbEntity
  8
0
  6
Continuous
 62
     7
370
    25
100
AcDbLine
 10
674.7433501725
 20
465.7643015995
 30
0.0
 11
674.7433501725
 21
468.6108937387
 31
0.0
  0
LINE
  5
2AB
330
1F
100
AcDbEntity
  8
0
  6
Continuous
 62
     7
370
    25
100
AcDbLine
 10
674.7433501725
 20
463.6933937387
 30
0.0
 11
674.7433501725
 21
465.7643015995
 31
0.0
  0
LINE
  5
2AC
330
1F
100
AcDbEntity
  8
0
  6
Continuous
 62
     7
370
    25
100
AcDbLine
 10
659.7433501725
 20
461.4818777662
 30
0.0
 11
659.7433501725
 21
461.1521437387
 31
0.0
  0
ARC
  5
2AD
330
1F
100
AcDbEntity
  8
0
  6
Continuous
 62
     7
370
    25
100
AcDbCircle
 10
152.2433501725
 20
495.3521437387
 30
0.0
 40
6.0
100
AcDbArc
 50
216.8698976459
 51
270.0
  0
ARC
  5
2AE
330
1F
100
AcDbEntity
  8
0
  6
Continuous
 62
     7
370
    25
100
AcDbCircle
 10
673.2433501725
 20
495.3521437387
 30
0.0
 40
6.0
100
AcDbArc
 50
270.0
 51
323.1301023541
  0
SPLINE
  5
2AF
330
1F
100
AcDbEntity
  8
0
  6
Continuous
 62
     7
370
    25
100
AcDbSpline
210
0.0
220
0.0
230
1.0
 70
    24
 71
     3
 72
    15
 73
    11
 74
     0
 42
0.000000001
 43
0.00000001
 40
0.0
 40
0.0
 40
0.0
 40
0.0
 40
0.0346967497918683
 40
0.2211884951269672
 40
0.4076802404620664
 40
0.5080720152630805
 40
0.6105942475634838
 40
0.7131164798638873
 40
0.8135082546649011
 40
1.0
 40
1.0
 40
1.0
 40
1.0
 10
161.7433501724774
 20
460.3788949293114
 30
0.0
 10
161.7433501724774
 20
460.37217382568
 30
0.0
 10
161.7433501724774
 20
460.3293274263272
 30
0.0
 10
161.7433501724774
 20
460.8173683890856
 30
0.0
 10
161.7433501724775
 20
461.9132794465543
 30
0.0
 10
161.7433501724774
 20
463.1321765790017
 30
0.0
 10
161.7433501724774
 20
464.2123518068587
 30
0.0
 10
161.7433501724775
 20
465.3728287093244
 30
0.0
 10
161.7433501724773
 20
466.9034036044395
 30
0.0
 10
161.7433501724774
 20
467.9670294930896
 30
0.0
 10
161.7433501724774
 20
468.6584510437727
 30
0.0
  0
SPLINE
  5
2B0
330
1F
100
AcDbEntity
  8
0
  6
Continuous
 62
     7
370
    25
100
AcDbSpline
210
0.0
220
0.0
230
1.0
 70
    24
 71
     3
 72
    12
 73
     8
 74
     0
 42
0.000000001
 43
0.00000001
 40
0.0
 40
0.0
 40
0.0
 40
0.0
 40
0.3344405486782637
 40
0.5144757571369877
 40
0.6983315710265378
 40
0.8821873849160877
 40
1.0
 40
1.0
 40
1.0
 40
1.0
 10
161.7433501724774
 20
468.6584510437727
 30
0.0
 10
161.7433501724774
 20
469.2825965792746
 30
0.0
 10
161.7433501724774
 20
470.2427305947521
 30
0.0
 10
161.7433501724774
 20
471.1506415010474
 30
0.0
 10
161.7433501724774
 20
471.6563588389636
 30
0.0
 10
161.7433501724775
 20
471.9279785731018
 30
0.0
 10
161.7433501724774
 20
471.926118841642
 30
0.0
 10
161.7433501724774
 20
471.9253925481171
 30
0.0
  0
SPLINE
  5
2B1
330
1F
100
AcDbEntity
  8
0
  6
Continuous
 62
     7
370
    25
100
AcDbSpline
210
0.0
220
0.0
230
1.0
 70
     8
 71
     3
 72
     8
 73
     4
 74
     0
 42
0.000000001
 43
0.00000001
 40
0.0
 40
0.0
 40
0.0
 40
0.0
 40
1.0
 40
1.0
 40
1.0
 40
1.0
 10
165.7433501724704
 20
465.7687487110277
 30
0.0
 10
165.7433501724704
 20
466.7511271556005
 30
0.0
 10
165.569034872091
 20
467.7066183237903
 30
0.0
 10
165.2967681850791
 20
468.6470009731178
 30
0.0
  0
SPLINE
  5
2B2
330
1F
100
AcDbEntity
  8
0
  6
Continuous
 62
     7
370
    25
100
AcDbSpline
210
0.0
220
0.0
230
1.0
 70
     8
 71
     3
 72
     8
 73
     4
 74
     0
 42
0.000000001
 43
0.00000001
 40
0.0
 40
0.0
 40
0.0
 40
0.0
 40
1.0
 40
1.0
 40
1.0
 40
1.0
 10
165.2967681850791
 20
462.8904964489378
 30
0.0
 10
165.5690348720905
 20
463.8308790982636
 30
0.0
 10
165.7433501724704
 20
464.7863702664569
 30
0.0
 10
165.7433501724704
 20
465.7687487110277
 30
0.0
  0
LINE
  5
2B3
330
1F
100
AcDbEntity
  8
0
  6
Continuous
 62
     7
370
    25
100
AcDbLine
 10
161.7433501725
 20
462.8904964489
 30
0.0
 11
165.2967681851
 21
462.8904964489
 31
0.0
  0
LINE
  5
2B4
330
1F
100
AcDbEntity
  8
0
  6
Continuous
 62
     7
370
    25
100
AcDbLine
 10
161.7433501725
 20
468.6470009731
 30
0.0
 11
165.2967681851
 21
468.6470009731
 31
0.0
  0
LINE
  5
2B5
330
1F
100
AcDbEntity
  8
0
  6
Continuous
 62
     7
370
    25
100
AcDbLine
 10
165.7433501725
 20
465.768748711
 30
0.0
 11
165.7433501725
 21
470.277824618
 31
0.0
  0
SPLINE
  5
2B6
330
1F
100
AcDbEntity
  8
0
  6
Continuous
 62
     7
370
    25
100
AcDbSpline
210
0.0
220
0.0
230
1.0
 70
     8
 71
     3
 72
     8
 73
     4
 74
     0
 42
0.000000001
 43
0.00000001
 40
0.0
 40
0.0
 40
0.0
 40
0.0
 40
1.0
 40
1.0
 40
1.0
 40
1.0
 10
165.296768185079
 20
468.647000973124
 30
0.0
 10
165.5690348720904
 20
469.1798237141888
 30
0.0
 10
165.7433501724703
 20
469.7212069730834
 30
0.0
 10
165.7433501724703
 20
470.2778246180118
 30
0.0
  0
LINE
  5
2B7
330
1F
100
AcDbEntity
  8
0
  6
Continuous
 62
     7
370
    25
100
AcDbLine
 10
165.7433501725
 20
461.6430678317
 30
0.0
 11
165.7433501725
 21
465.768748711
 31
0.0
  0
SPLINE
  5
2B8
330
1F
100
AcDbEntity
  8
0
  6
Continuous
 62
     7
370
    25
100
AcDbSpline
210
0.0
220
0.0
230
1.0
 70
     8
 71
     3
 72
     8
 73
     4
 74
     0
 42
0.000000001
 43
0.00000001
 40
0.0
 40
0.0
 40
0.0
 40
0.0
 40
1.0
 40
1.0
 40
1.0
 40
1.0
 10
165.7433501724703
 20
461.6430678317303
 30
0.0
 10
165.7433501724703
 20
462.0688286313734
 30
0.0
 10
165.5690348720909
 20
462.4829365406705
 30
0.0
 10
165.296768185079
 20
462.8904964489322
 30
0.0
  0
SPLINE
  5
2B9
330
1F
100
AcDbEntity
  8
0
  6
Continuous
 62
     7
370
    25
100
AcDbSpline
210
0.0
220
0.0
230
1.0
 70
     8
 71
     3
 72
     8
 73
     4
 74
     0
 42
0.000000001
 43
0.00000001
 40
0.0
 40
0.0
 40
0.0
 40
0.0
 40
1.0
 40
1.0
 40
1.0
 40
1.0
 10
165.7433501724703
 20
470.2778246180118
 30
0.0
 10
165.7433501724703
 20
470.8344422629417
 30
0.0
 10
165.5690348720911
 20
471.3758255218335
 30
0.0
 10
165.296768185079
 20
471.9086482628997
 30
0.0
  0
LINE
  5
2BA
330
1F
100
AcDbEntity
  8
0
  6
Continuous
 62
     7
370
    25
100
AcDbLine
 10
165.2967681851
 20
471.9086482629
 30
0.0
 11
161.7433501725
 21
471.9086482629
 31
0.0
  0
SPLINE
  5
2BB
330
1F
100
AcDbEntity
  8
0
  6
Continuous
 62
     7
370
    25
100
AcDbSpline
210
0.0
220
0.0
230
1.0
 70
     8
 71
     3
 72
     8
 73
     4
 74
     0
 42
0.000000001
 43
0.00000001
 40
0.0
 40
0.0
 40
0.0
 40
0.0
 40
1.0
 40
1.0
 40
1.0
 40
1.0
 10
165.2967681850789
 20
460.3956392145283
 30
0.0
 10
165.5690348720904
 20
460.8031991227892
 30
0.0
 10
165.7433501724703
 20
461.2173070320878
 30
0.0
 10
165.7433501724703
 20
461.6430678317303
 30
0.0
  0
LINE
  5
2BC
330
1F
100
AcDbEntity
  8
0
  6
Continuous
 62
     7
370
    25
100
AcDbLine
 10
161.7433501725
 20
460.3956392145
 30
0.0
 11
165.2967681851
 21
460.3956392145
 31
0.0
  0
LINE
  5
2BD
330
1F
100
AcDbEntity
  8
0
  6
Continuous
 62
     7
370
    25
100
AcDbLine
 10
151.2846001725
 20
469.1521437387
 30
0.0
 11
151.2846001725
 21
463.1521437387
 31
0.0
  0
LINE
  5
2BE
330
1F
100
AcDbEntity
  8
0
  6
Continuous
 62
     7
370
    25
100
AcDbLine
 10
150.7433501725
 20
463.9348056614
 30
0.0
 11
150.7433501725
 21
463.6933937387
 31
0.0
  0
LINE
  5
2BF
330
1F
100
AcDbEntity
  8
0
  6
Continuous
 62
     7
370
    25
100
AcDbLine
 10
150.7433501725
 20
468.6108937387
 30
0.0
 11
150.7433501725
 21
463.9348056614
 31
0.0
  0
LINE
  5
2C0
330
1F
100
AcDbEntity
  8
0
  6
Continuous
 62
     7
370
    25
100
AcDbLine
 10
165.2967681851
 20
471.9086482629
 30
0.0
 11
165.3719559406
 21
471.6986277951
 31
0.0
  0
LINE
  5
2C1
330
1F
100
AcDbEntity
  8
0
  6
Continuous
 62
     7
370
    25
100
AcDbLine
 10
165.7433501725
 20
470.277824618
 30
0.0
 11
165.7433501725
 21
471.1521437387
 31
0.0
  0
LINE
  5
2C2
330
1F
100
AcDbEntity
  8
0
  6
Continuous
 62
     7
370
    25
100
AcDbLine
 10
165.7433501725
 20
461.1521437387
 30
0.0
 11
165.7433501725
 21
461.6430678317
 31
0.0
  0
ARC
  5
2C3
330
1F
100
AcDbEntity
  8
0
  6
Continuous
 62
     7
370
    25
100
AcDbCircle
 10
664.4433501725
 20
107.2463019205
 30
0.0
 40
0.5
100
AcDbArc
 50
180.0
 51
0.0
  0
ARC
  5
2C4
330
1F
100
AcDbEntity
  8
0
  6
Continuous
 62
     7
370
    25
100
AcDbCircle
 10
664.4433501725
 20
118.8463019207
 30
0.0
 40
0.5
100
AcDbArc
 50
0.0
 51
180.0
  0
LINE
  5
2C5
330
1F
100
AcDbEntity
  8
0
  6
Continuous
 62
     7
370
    25
100
AcDbLine
 10
674.4021001725
 20
110.0463019206
 30
0.0
 11
674.9433501725
 21
110.5875519206
 31
0.0
  0
LINE
  5
2C6
330
1F
100
AcDbEntity
  8
0
  6
Continuous
 62
     7
370
    25
100
AcDbLine
 10
674.9433501725
 20
115.5050519206
 30
0.0
 11
674.4021001725
 21
116.0463019206
 31
0.0
  0
LINE
  5
2C7
330
1F
100
AcDbEntity
  8
0
  6
Continuous
 62
     7
370
    25
100
AcDbLine
 10
674.4021001725
 20
116.0463019206
 30
0.0
 11
665.7433501725
 21
116.0463019206
 31
0.0
  0
LINE
  5
2C8
330
1F
100
AcDbEntity
  8
0
  6
Continuous
 62
     7
370
    25
100
AcDbLine
 10
665.7433501725
 20
110.0463019206
 30
0.0
 11
674.4021001725
 21
110.0463019206
 31
0.0
  0
LINE
  5
2C9
330
1F
100
AcDbEntity
  8
0
  6
Continuous
 62
     7
370
    25
100
AcDbLine
 10
647.7885647581
 20
104.4181246732
 30
0.0
 11
647.3933501725
 21
104.6463019206
 31
0.0
  0
LINE
  5
2CA
330
1F
100
AcDbEntity
  8
0
  6
Continuous
 62
     7
370
    25
100
AcDbLine
 10
641.0933501725
 20
104.6463019206
 30
0.0
 11
640.6628118775
 21
104.3977305201
 31
0.0
  0
LINE
  5
2CB
330
1F
100
AcDbEntity
  8
0
  6
Continuous
 62
     7
370
    25
100
AcDbLine
 10
640.6628118775
 20
101.6948733211
 30
0.0
 11
641.0933501725
 21
101.4463019206
 31
0.0
  0
LINE
  5
2CC
330
1F
100
AcDbEntity
  8
0
  6
Continuous
 62
     7
370
    25
100
AcDbLine
 10
647.3933501725
 20
101.4463019206
 30
0.0
 11
647.7885647581
 21
101.674479168
 31
0.0
  0
LINE
  5
2CD
330
1F
100
AcDbEntity
  8
0
  6
Continuous
 62
     7
370
    25
100
AcDbLine
 10
334.7885647581
 20
104.4181246732
 30
0.0
 11
334.3933501725
 21
104.6463019206
 31
0.0
  0
LINE
  5
2CE
330
1F
100
AcDbEntity
  8
0
  6
Continuous
 62
     7
370
    25
100
AcDbLine
 10
328.0933501725
 20
104.6463019206
 30
0.0
 11
327.6628118775
 21
104.3977305201
 31
0.0
  0
LINE
  5
2CF
330
1F
100
AcDbEntity
  8
0
  6
Continuous
 62
     7
370
    25
100
AcDbLine
 10
327.6628118775
 20
101.6948733211
 30
0.0
 11
328.0933501725
 21
101.4463019206
 31
0.0
  0
LINE
  5
2D0
330
1F
100
AcDbEntity
  8
0
  6
Continuous
 62
     7
370
    25
100
AcDbLine
 10
334.3933501725
 20
101.4463019206
 30
0.0
 11
334.7885647581
 21
101.674479168
 31
0.0
  0
LINE
  5
2D1
330
1F
100
AcDbEntity
  8
0
  6
Continuous
 62
     7
370
    25
100
AcDbLine
 10
497.7885647581
 20
104.4181246732
 30
0.0
 11
497.3933501725
 21
104.6463019206
 31
0.0
  0
LINE
  5
2D2
330
1F
100
AcDbEntity
  8
0
  6
Continuous
 62
     7
370
    25
100
AcDbLine
 10
491.0933501725
 20
104.6463019206
 30
0.0
 11
490.6628118775
 21
104.3977305201
 31
0.0
  0
LINE
  5
2D3
330
1F
100
AcDbEntity
  8
0
  6
Continuous
 62
     7
370
    25
100
AcDbLine
 10
490.6628118775
 20
101.6948733211
 30
0.0
 11
491.0933501725
 21
101.4463019206
 31
0.0
  0
LINE
  5
2D4
330
1F
100
AcDbEntity
  8
0
  6
Continuous
 62
     7
370
    25
100
AcDbLine
 10
497.3933501725
 20
101.4463019206
 30
0.0
 11
497.7885647581
 21
101.674479168
 31
0.0
  0
LINE
  5
2D5
330
1F
100
AcDbEntity
  8
0
  6
Continuous
 62
     7
370
    25
100
AcDbLine
 10
184.7885647581
 20
104.4181246732
 30
0.0
 11
184.3933501725
 21
104.6463019206
 31
0.0
  0
LINE
  5
2D6
330
1F
100
AcDbEntity
  8
0
  6
Continuous
 62
     7
370
    25
100
AcDbLine
 10
178.0933501725
 20
104.6463019206
 30
0.0
 11
177.6628118775
 21
104.3977305201
 31
0.0
  0
LINE
  5
2D7
330
1F
100
AcDbEntity
  8
0
  6
Continuous
 62
     7
370
    25
100
AcDbLine
 10
177.6628118775
 20
101.6948733211
 30
0.0
 11
178.0933501725
 21
101.4463019206
 31
0.0
  0
LINE
  5
2D8
330
1F
100
AcDbEntity
  8
0
  6
Continuous
 62
     7
370
    25
100
AcDbLine
 10
184.3933501725
 20
101.4463019206
 30
0.0
 11
184.7885647581
 21
101.674479168
 31
0.0
  0
LINE
  5
2D9
330
1F
100
AcDbEntity
  8
0
  6
Continuous
 62
     7
370
    25
100
AcDbLine
 10
160.2433501725
 20
87.9963019206
 30
0.0
 11
665.2433501725
 21
87.9963019206
 31
0.0
  0
LINE
  5
2DA
330
1F
100
AcDbEntity
  8
0
  6
Continuous
 62
     7
370
    25
100
AcDbLine
 10
642.2433501725
 20
109.7463019206
 30
0.0
 11
642.2433501725
 21
104.6463019206
 31
0.0
  0
LINE
  5
2DB
330
1F
100
AcDbEntity
  8
0
  6
Continuous
 62
     7
370
    25
100
AcDbLine
 10
642.2433501725
 20
101.4463019206
 30
0.0
 11
642.2433501725
 21
101.3463019206
 31
0.0
  0
LINE
  5
2DC
330
1F
100
AcDbEntity
  8
0
  6
Continuous
 62
     7
370
    25
100
AcDbLine
 10
646.2433501725
 20
101.3463019206
 30
0.0
 11
646.2433501725
 21
101.4463019206
 31
0.0
  0
LINE
  5
2DD
330
1F
100
AcDbEntity
  8
0
  6
Continuous
 62
     7
370
    25
100
AcDbLine
 10
646.2433501725
 20
104.6463019206
 30
0.0
 11
646.2433501725
 21
109.7463019206
 31
0.0
  0
LINE
  5
2DE
330
1F
100
AcDbEntity
  8
0
  6
Continuous
 62
     7
370
    25
100
AcDbLine
 10
329.2433501725
 20
109.7463019206
 30
0.0
 11
329.2433501725
 21
104.6463019206
 31
0.0
  0
LINE
  5
2DF
330
1F
100
AcDbEntity
  8
0
  6
Continuous
 62
     7
370
    25
100
AcDbLine
 10
329.2433501725
 20
101.4463019206
 30
0.0
 11
329.2433501725
 21
101.3463019206
 31
0.0
  0
LINE
  5
2E0
330
1F
100
AcDbEntity
  8
0
  6
Continuous
 62
     7
370
    25
100
AcDbLine
 10
333.2433501725
 20
101.3463019206
 30
0.0
 11
333.2433501725
 21
101.4463019206
 31
0.0
  0
LINE
  5
2E1
330
1F
100
AcDbEntity
  8
0
  6
Continuous
 62
     7
370
    25
100
AcDbLine
 10
333.2433501725
 20
104.6463019206
 30
0.0
 11
333.2433501725
 21
109.7463019206
 31
0.0
  0
LINE
  5
2E2
330
1F
100
AcDbEntity
  8
0
  6
Continuous
 62
     7
370
    25
100
AcDbLine
 10
492.2433501725
 20
109.7463019206
 30
0.0
 11
492.2433501725
 21
104.6463019206
 31
0.0
  0
LINE
  5
2E3
330
1F
100
AcDbEntity
  8
0
  6
Continuous
 62
     7
370
    25
100
AcDbLine
 10
492.2433501725
 20
101.4463019206
 30
0.0
 11
492.2433501725
 21
101.3463019206
 31
0.0
  0
LINE
  5
2E4
330
1F
100
AcDbEntity
  8
0
  6
Continuous
 62
     7
370
    25
100
AcDbLine
 10
496.2433501725
 20
101.3463019206
 30
0.0
 11
496.2433501725
 21
101.4463019206
 31
0.0
  0
LINE
  5
2E5
330
1F
100
AcDbEntity
  8
0
  6
Continuous
 62
     7
370
    25
100
AcDbLine
 10
496.2433501725
 20
104.6463019206
 30
0.0
 11
496.2433501725
 21
109.7463019206
 31
0.0
  0
LINE
  5
2E6
330
1F
100
AcDbEntity
  8
0
  6
Continuous
 62
     7
370
    25
100
AcDbLine
 10
179.2433501725
 20
109.7463019206
 30
0.0
 11
179.2433501725
 21
104.6463019206
 31
0.0
  0
LINE
  5
2E7
330
1F
100
AcDbEntity
  8
0
  6
Continuous
 62
     7
370
    25
100
AcDbLine
 10
179.2433501725
 20
101.4463019206
 30
0.0
 11
179.2433501725
 21
101.3463019206
 31
0.0
  0
LINE
  5
2E8
330
1F
100
AcDbEntity
  8
0
  6
Continuous
 62
     7
370
    25
100
AcDbLine
 10
183.2433501725
 20
101.3463019206
 30
0.0
 11
183.2433501725
 21
101.4463019206
 31
0.0
  0
LINE
  5
2E9
330
1F
100
AcDbEntity
  8
0
  6
Continuous
 62
     7
370
    25
100
AcDbLine
 10
183.2433501725
 20
104.6463019206
 30
0.0
 11
183.2433501725
 21
109.7463019206
 31
0.0
  0
ARC
  5
2EA
330
1F
100
AcDbEntity
  8
0
  6
Continuous
 62
     7
370
    25
100
AcDbCircle
 10
161.0433501725
 20
118.8463019207
 30
0.0
 40
0.5
100
AcDbArc
 50
0.0
 51
180.0
  0
ARC
  5
2EB
330
1F
100
AcDbEntity
  8
0
  6
Continuous
 62
     7
370
    25
100
AcDbCircle
 10
161.0433501725
 20
107.2463019205
 30
0.0
 40
0.5
100
AcDbArc
 50
180.0
 51
0.0
  0
LINE
  5
2EC
330
1F
100
AcDbEntity
  8
0
  6
Continuous
 62
     7
370
    25
100
AcDbLine
 10
151.0846001725
 20
116.0463019206
 30
0.0
 11
150.5433501725
 21
115.5050519206
 31
0.0
  0
LINE
  5
2ED
330
1F
100
AcDbEntity
  8
0
  6
Continuous
 62
     7
370
    25
100
AcDbLine
 10
150.5433501725
 20
110.5875519206
 30
0.0
 11
151.0846001725
 21
110.0463019206
 31
0.0
  0
LINE
  5
2EE
330
1F
100
AcDbEntity
  8
0
  6
Continuous
 62
     7
370
    25
100
AcDbLine
 10
151.0846001725
 20
110.0463019206
 30
0.0
 11
159.7433501725
 21
110.0463019206
 31
0.0
  0
LINE
  5
2EF
330
1F
100
AcDbEntity
  8
0
  6
Continuous
 62
     7
370
    25
100
AcDbLine
 10
159.7433501725
 20
116.0463019206
 30
0.0
 11
151.0846001725
 21
116.0463019206
 31
0.0
  0
LINE
  5
2F0
330
1F
100
AcDbEntity
  8
0
  6
Continuous
 62
     7
370
    25
100
AcDbLine
 10
165.5433501725
 20
118.0463019206
 30
0.0
 11
165.2138670767
 21
118.6169833827
 31
0.0
  0
LINE
  5
2F1
330
1F
100
AcDbEntity
  8
0
  6
Continuous
 62
     7
370
    25
100
AcDbLine
 10
165.2138670767
 20
107.4756204585
 30
0.0
 11
165.5433501725
 21
108.0463019206
 31
0.0
  0
LINE
  5
2F2
330
1F
100
AcDbEntity
  8
0
  6
Continuous
 62
     7
370
    25
100
AcDbLine
 10
158.2433501725
 20
89.8463019206
 30
0.0
 11
152.2433501725
 21
89.8463019206
 31
0.0
  0
LINE
  5
2F3
330
1F
100
AcDbEntity
  8
0
  6
Continuous
 62
     7
370
    25
100
AcDbLine
 10
667.2433501725
 20
89.8463019206
 30
0.0
 11
665.0712571492
 21
89.8463019206
 31
0.0
  0
LINE
  5
2F4
330
1F
100
AcDbEntity
  8
0
  6
Continuous
 62
     7
370
    25
100
AcDbLine
 10
160.4154431957
 20
89.8463019206
 30
0.0
 11
158.2433501725
 21
89.8463019206
 31
0.0
  0
LINE
  5
2F5
330
1F
100
AcDbEntity
  8
0
  6
Continuous
 62
     7
370
    25
100
AcDbLine
 10
673.2433501725
 20
89.8463019206
 30
0.0
 11
667.2433501725
 21
89.8463019206
 31
0.0
  0
SPLINE
  5
2F6
330
1F
100
AcDbEntity
  8
0
  6
Continuous
 62
     7
370
    25
100
AcDbSpline
210
0.0
220
0.0
230
1.0
 70
    24
 71
     3
 72
     9
 73
     5
 74
     0
 42
0.000000001
 43
0.00000001
 40
0.0
 40
0.0
 40
0.0
 40
0.0
 40
0.5153941859624884
 40
1.0
 40
1.0
 40
1.0
 40
1.0
 10
664.9433501724772
 20
118.7213119206162
 30
0.0
 10
664.9433501724772
 20
118.7650537686716
 30
0.0
 10
664.9433501724772
 20
118.8499244351379
 30
0.0
 10
664.9433501724772
 20
118.8271679998945
 30
0.0
 10
664.9433501724772
 20
118.8161400990688
 30
0.0
  0
SPLINE
  5
2F7
330
1F
100
AcDbEntity
  8
0
  6
Continuous
 62
     7
370
    25
100
AcDbSpline
210
0.0
220
0.0
230
1.0
 70
    24
 71
     3
 72
    17
 73
    13
 74
     0
 42
0.000000001
 43
0.00000001
 40
0.0
 40
0.0
 40
0.0
 40
0.0
 40
0.0359921626376346
 40
0.120593066128042
 40
0.203435925287459
 40
0.3573281084250896
 40
0.5112202915627198
 40
0.5940631507221371
 40
0.6786640542125449
 40
0.7632649577029524
 40
0.8461078168623696
 40
1.0
 40
1.0
 40
1.0
 40
1.0
 10
663.9433501724772
 20
118.8161400990797
 30
0.0
 10
663.9433501724772
 20
118.823291486121
 30
0.0
 10
663.943350172477
 20
118.8472524717127
 30
0.0
 10
663.9433501724772
 20
118.6292475454771
 30
0.0
 10
663.9433501724772
 20
118.05746044839
 30
0.0
 10
663.9433501724772
 20
116.8604438722997
 30
0.0
 10
663.9433501724772
 20
115.2143871124226
 30
0.0
 10
663.9433501724772
 20
113.7291967602088
 30
0.0
 10
663.9433501724772
 20
112.5331686358346
 30
0.0
 10
663.9433501724772
 20
111.3634032230452
 30
0.0
 10
663.9433501724772
 20
109.9414560424614
 30
0.0
 10
663.9433501724772
 20
109.1291887626012
 30
0.0
 10
663.9433501724772
 20
108.6011656031396
 30
0.0
  0
SPLINE
  5
2F8
330
1F
100
AcDbEntity
  8
0
  6
Continuous
 62
     7
370
    25
100
AcDbSpline
210
0.0
220
0.0
230
1.0
 70
     8
 71
     3
 72
     8
 73
     4
 74
     0
 42
0.000000001
 43
0.00000001
 40
0.0
 40
0.0
 40
0.0
 40
0.0
 40
1.0
 40
1.0
 40
1.0
 40
1.0
 10
659.9433501724843
 20
116.2581033182943
 30
0.0
 10
659.9433501724843
 20
115.5029825119863
 30
0.0
 10
660.1176654728638
 20
114.7685290380429
 30
0.0
 10
660.3899321598756
 20
114.0456889672726
 30
0.0
  0
SPLINE
  5
2F9
330
1F
100
AcDbEntity
  8
0
  6
Continuous
 62
     7
370
    25
100
AcDbSpline
210
0.0
220
0.0
230
1.0
 70
     8
 71
     3
 72
     8
 73
     4
 74
     0
 42
0.000000001
 43
0.00000001
 40
0.0
 40
0.0
 40
0.0
 40
0.0
 40
1.0
 40
1.0
 40
1.0
 40
1.0
 10
660.3899321598756
 20
118.4705176693161
 30
0.0
 10
660.1176654728641
 20
117.7476775985468
 30
0.0
 10
659.9433501724843
 20
117.0132241246011
 30
0.0
 10
659.9433501724843
 20
116.2581033182943
 30
0.0
  0
LINE
  5
2FA
330
1F
100
AcDbEntity
  8
0
  6
Continuous
 62
     7
370
    25
100
AcDbLine
 10
660.3899321599
 20
118.4705176693
 30
0.0
 11
663.9433501725
 21
118.4705176693
 31
0.0
  0
LINE
  5
2FB
330
1F
100
AcDbEntity
  8
0
  6
Continuous
 62
     7
370
    25
100
AcDbLine
 10
663.9433501725
 20
114.0456889673
 30
0.0
 11
660.3899321599
 21
114.0456889673
 31
0.0
  0
SPLINE
  5
2FC
330
1F
100
AcDbEntity
  8
0
  6
Continuous
 62
     7
370
    25
100
AcDbSpline
210
0.0
220
0.0
230
1.0
 70
     8
 71
     3
 72
     8
 73
     4
 74
     0
 42
0.000000001
 43
0.00000001
 40
0.0
 40
0.0
 40
0.0
 40
0.0
 40
1.0
 40
1.0
 40
1.0
 40
1.0
 10
659.9433501724842
 20
111.3335810929173
 30
0.0
 10
659.9433501724842
 20
110.407909514297
 30
0.0
 10
660.1176654728636
 20
109.5075731694777
 30
0.0
 10
660.3899321598756
 20
108.6214732185685
 30
0.0
  0
SPLINE
  5
2FD
330
1F
100
AcDbEntity
  8
0
  6
Continuous
 62
     7
370
    25
100
AcDbSpline
210
0.0
220
0.0
230
1.0
 70
     8
 71
     3
 72
     8
 73
     4
 74
     0
 42
0.000000001
 43
0.00000001
 40
0.0
 40
0.0
 40
0.0
 40
0.0
 40
1.0
 40
1.0
 40
1.0
 40
1.0
 10
660.3899321598756
 20
114.045688967266
 30
0.0
 10
660.1176654728641
 20
113.1595890163585
 30
0.0
 10
659.9433501724842
 20
112.2592526715358
 30
0.0
 10
659.9433501724842
 20
111.3335810929173
 30
0.0
  0
LINE
  5
2FE
330
1F
100
AcDbEntity
  8
0
  6
Continuous
 62
     7
370
    25
100
AcDbLine
 10
663.9433501725
 20
108.6214732186
 30
0.0
 11
660.3899321599
 21
108.6214732186
 31
0.0
  0
LINE
  5
2FF
330
1F
100
AcDbEntity
  8
0
  6
Continuous
 62
     7
370
    25
100
AcDbLine
 10
659.9433501725
 20
116.2581033183
 30
0.0
 11
659.9433501725
 21
111.3335810929
 31
0.0
  0
SPLINE
  5
300
330
1F
100
AcDbEntity
  8
0
  6
Continuous
 62
     7
370
    25
100
AcDbSpline
210
0.0
220
0.0
230
1.0
 70
     8
 71
     3
 72
     8
 73
     4
 74
     0
 42
0.000000001
 43
0.00000001
 40
0.0
 40
0.0
 40
0.0
 40
0.0
 40
1.0
 40
1.0
 40
1.0
 40
1.0
 10
660.3899321598756
 20
108.6214732185641
 30
0.0
 10
660.1176654728642
 20
108.4582133384257
 30
0.0
 10
659.9433501724843
 20
108.2923304675492
 30
0.0
 10
659.9433501724843
 20
108.1217796952374
 30
0.0
  0
LINE
  5
301
330
1F
100
AcDbEntity
  8
0
  6
Continuous
 62
     7
370
    25
100
AcDbLine
 10
659.9433501725
 20
111.3335810929
 30
0.0
 11
659.9433501725
 21
108.1217796952
 31
0.0
  0
SPLINE
  5
302
330
1F
100
AcDbEntity
  8
0
  6
Continuous
 62
     7
370
    25
100
AcDbSpline
210
0.0
220
0.0
230
1.0
 70
     8
 71
     3
 72
     8
 73
     4
 74
     0
 42
0.000000001
 43
0.00000001
 40
0.0
 40
0.0
 40
0.0
 40
0.0
 40
1.0
 40
1.0
 40
1.0
 40
1.0
 10
659.9433501724843
 20
117.9708241459917
 30
0.0
 10
659.9433501724843
 20
118.141374918304
 30
0.0
 10
660.1176654728636
 20
118.3072577891796
 30
0.0
 10
660.3899321598756
 20
118.4705176693184
 30
0.0
  0
LINE
  5
303
330
1F
100
AcDbEntity
  8
0
  6
Continuous
 62
     7
370
    25
100
AcDbLine
 10
659.9433501725
 20
116.2581033183
 30
0.0
 11
659.9433501725
 21
118.0416638864
 31
0.0
  0
SPLINE
  5
304
330
1F
100
AcDbEntity
  8
0
  6
Continuous
 62
     7
370
    25
100
AcDbSpline
210
0.0
220
0.0
230
1.0
 70
     8
 71
     3
 72
     8
 73
     4
 74
     0
 42
0.000000001
 43
0.00000001
 40
0.0
 40
0.0
 40
0.0
 40
0.0
 40
1.0
 40
1.0
 40
1.0
 40
1.0
 10
659.9433501724843
 20
108.1217796952374
 30
0.0
 10
659.9433501724843
 20
107.9512289229252
 30
0.0
 10
660.1176654728638
 20
107.7853460520494
 30
0.0
 10
660.3899321598756
 20
107.6220861719107
 30
0.0
  0
LINE
  5
305
330
1F
100
AcDbEntity
  8
0
  6
Continuous
 62
     7
370
    25
100
AcDbLine
 10
663.9433501725
 20
107.6220861719
 30
0.0
 11
660.3899321599
 21
107.6220861719
 31
0.0
  0
LINE
  5
306
330
1F
100
AcDbEntity
  8
0
  6
Continuous
 62
     7
370
    25
100
AcDbLine
 10
674.9433501725
 20
110.5875519206
 30
0.0
 11
674.9433501725
 21
115.5050519206
 31
0.0
  0
LINE
  5
307
330
1F
100
AcDbEntity
  8
0
  6
Continuous
 62
     7
370
    25
100
AcDbLine
 10
674.4021001725
 20
114.9733827592
 30
0.0
 11
674.4021001725
 21
116.0463019206
 31
0.0
  0
LINE
  5
308
330
1F
100
AcDbEntity
  8
0
  6
Continuous
 62
     7
370
    25
100
AcDbLine
 10
674.4021001725
 20
110.0463019206
 30
0.0
 11
674.4021001725
 21
114.9733827592
 31
0.0
  0
ARC
  5
309
330
1F
100
AcDbEntity
  8
0
  6
Continuous
 62
     7
370
    25
100
AcDbCircle
 10
667.2433501725
 20
90.4463019206
 30
0.0
 40
3.000000000000046
100
AcDbArc
 50
227.6305369016
 51
270.0
  0
LINE
  5
30A
330
1F
100
AcDbEntity
  8
0
  6
Continuous
 62
     7
370
    25
100
AcDbLine
 10
679.2433501725
 20
87.4463019206
 30
0.0
 11
667.2433501725
 21
87.4463019206
 31
0.0
  0
ARC
  5
30B
330
1F
100
AcDbEntity
  8
0
  6
Continuous
 62
     7
370
    25
100
AcDbCircle
 10
679.2433501725
 20
90.4463019206
 30
0.0
 40
3.0
100
AcDbArc
 50
270.0
 51
0.0
  0
LINE
  5
30C
330
1F
100
AcDbEntity
  8
0
  6
Continuous
 62
     7
370
    25
100
AcDbLine
 10
682.2433501725
 20
91.4463019206
 30
0.0
 11
682.2433501725
 21
90.4463019206
 31
0.0
  0
ARC
  5
30D
330
1F
100
AcDbEntity
  8
0
  6
Continuous
 62
     7
370
    25
100
AcDbCircle
 10
685.2433501725
 20
91.4463019206
 30
0.0
 40
3.0
100
AcDbArc
 50
90.0
 51
180.0
  0
LINE
  5
30E
330
1F
100
AcDbEntity
  8
0
  6
Continuous
 62
     7
370
    25
100
AcDbLine
 10
708.7726394944
 20
94.4463019206
 30
0.0
 11
685.2433501725
 21
94.4463019206
 31
0.0
  0
LINE
  5
30F
330
1F
100
AcDbEntity
  8
0
  6
Continuous
 62
     7
370
    25
100
AcDbLine
 10
708.7726394944
 20
84.8463019206
 30
0.0
 11
708.7726394944
 21
94.4463019206
 31
0.0
  0
LINE
  5
310
330
1F
100
AcDbEntity
  8
0
  6
Continuous
 62
     7
370
    25
100
AcDbLine
 10
116.7140608506
 20
84.8463019206
 30
0.0
 11
116.7140608506
 21
94.4463019206
 31
0.0
  0
LINE
  5
311
330
1F
100
AcDbEntity
  8
0
  6
Continuous
 62
     7
370
    25
100
AcDbLine
 10
140.2433501725
 20
94.4463019206
 30
0.0
 11
116.7140608506
 21
94.4463019206
 31
0.0
  0
ARC
  5
312
330
1F
100
AcDbEntity
  8
0
  6
Continuous
 62
     7
370
    25
100
AcDbCircle
 10
140.2433501725
 20
91.4463019206
 30
0.0
 40
3.0
100
AcDbArc
 50
0.0
 51
90.0
  0
LINE
  5
313
330
1F
100
AcDbEntity
  8
0
  6
Continuous
 62
     7
370
    25
100
AcDbLine
 10
143.2433501725
 20
91.4463019206
 30
0.0
 11
143.2433501725
 21
90.4463019206
 31
0.0
  0
ARC
  5
314
330
1F
100
AcDbEntity
  8
0
  6
Continuous
 62
     7
370
    25
100
AcDbCircle
 10
146.2433501725
 20
90.4463019206
 30
0.0
 40
3.0
100
AcDbArc
 50
180.0
 51
270.0
  0
LINE
  5
315
330
1F
100
AcDbEntity
  8
0
  6
Continuous
 62
     7
370
    25
100
AcDbLine
 10
146.2433501725
 20
87.4463019206
 30
0.0
 11
158.2433501725
 21
87.4463019206
 31
0.0
  0
ARC
  5
316
330
1F
100
AcDbEntity
  8
0
  6
Continuous
 62
     7
370
    25
100
AcDbCircle
 10
158.2433501725
 20
90.4463019206
 30
0.0
 40
3.000000000000008
100
AcDbArc
 50
270.0
 51
312.3694630984
  0
SPLINE
  5
317
330
1F
100
AcDbEntity
  8
0
  6
Continuous
 62
     7
370
    25
100
AcDbSpline
210
0.0
220
0.0
230
1.0
 70
     8
 71
     3
 72
    20
 73
    16
 74
     0
 42
0.000000001
 43
0.00000001
 40
0.0
 40
0.0
 40
0.0
 40
0.0
 40
0.1249999999999968
 40
0.1249999999999968
 40
0.2499999999999937
 40
0.2499999999999937
 40
0.3749999999999905
 40
0.3749999999999905
 40
0.4999999999999873
 40
0.4999999999999873
 40
0.7499999999999989
 40
0.7499999999999989
 40
0.8749999999999993
 40
0.8749999999999993
 40
1.0
 40
1.0
 40
1.0
 40
1.0
 10
117.6433501724775
 20
82.4463019206162
 30
0.0
 10
117.6043094416229
 20
82.4463019206162
 30
0.0
 10
117.5657907374231
 20
82.46183848109104
 30
0.0
 10
117.4883839861154
 20
82.52315683305162
 30
0.0
 10
117.4492395681286
 20
82.56958057863845
 30
0.0
 10
117.3720888142133
 20
82.68953144879256
 30
0.0
 10
117.3337612324722
 20
82.76313609307597
 30
0.0
 10
117.2562149119957
 20
82.9378664591716
 30
0.0
 10
117.217238704327
 20
83.03871708807314
 30
0.0
 10
117.1017438478821
 20
83.3700023680571
 30
0.0
 10
117.023831404212
 20
83.63768252944098
 30
0.0
 10
116.9083514788111
 20
84.07035655549639
 30
0.0
 10
116.869485682946
 20
84.22187464234754
 30
0.0
 10
116.7917113492775
 20
84.53130039973367
 30
0.0
 10
116.7531015823228
 20
84.68792272942743
 30
0.0
 10
116.7140608505962
 20
84.84630192061617
 30
0.0
  0
SPLINE
  5
318
330
1F
100
AcDbEntity
  8
0
  6
Continuous
 62
     7
370
    25
100
AcDbSpline
210
0.0
220
0.0
230
1.0
 70
     8
 71
     3
 72
    20
 73
    16
 74
     0
 42
0.000000001
 43
0.00000001
 40
0.0
 40
0.0
 40
0.0
 40
0.0
 40
0.1249999999999993
 40
0.1249999999999993
 40
0.2499999999999987
 40
0.2499999999999987
 40
0.374999999999998
 40
0.374999999999998
 40
0.4999999999999973
 40
0.4999999999999973
 40
0.7499999999999987
 40
0.7499999999999987
 40
0.8749999999999993
 40
0.8749999999999993
 40
1.0
 40
1.0
 40
1.0
 40
1.0
 10
708.7726394943587
 20
84.84630192061614
 30
0.0
 10
708.7335987635042
 20
84.68792273296543
 30
0.0
 10
708.6950800593044
 20
84.53167700827377
 30
0.0
 10
708.6176733079966
 20
84.22368515885712
 30
0.0
 10
708.5785288900099
 20
84.07104105138605
 30
0.0
 10
708.5013781360948
 20
83.78195676219899
 30
0.0
 10
708.4630505543538
 20
83.64415222401492
 30
0.0
 10
708.3855042338771
 20
83.38253354837602
 30
0.0
 10
708.3465280262084
 20
83.25978724169339
 30
0.0
 10
708.2310331697636
 20
82.92846286474568
 30
0.0
 10
708.1531207260932
 20
82.74945174071748
 30
0.0
 10
708.0376408006924
 20
82.56983664133658
 30
0.0
 10
707.9987750048275
 20
82.52359229246886
 30
0.0
 10
707.9210006711589
 20
82.46183898645765
 30
0.0
 10
707.8823909042043
 20
82.4463019206162
 30
0.0
 10
707.8433501724775
 20
82.4463019206162
 30
0.0
  0
LINE
  5
319
330
1F
100
AcDbEntity
  8
0
  6
Continuous
 62
     7
370
    25
100
AcDbLine
 10
707.8433501725
 20
82.4463019206
 30
0.0
 11
117.6433501725
 21
82.4463019206
 31
0.0
  0
SPLINE
  5
31A
330
1F
100
AcDbEntity
  8
0
  6
Continuous
 62
     7
370
    25
100
AcDbSpline
210
0.0
220
0.0
230
1.0
 70
     8
 71
     3
 72
     9
 73
     5
 74
     0
 42
0.000000001
 43
0.00000001
 40
0.0
 40
0.0
 40
0.0
 40
0.0
 40
0.4825784287290632
 40
1.0
 40
1.0
 40
1.0
 40
1.0
 10
708.619520404424
 20
84.23376218143835
 30
0.0
 10
708.6833285974853
 20
84.32189652275468
 30
0.0
 10
708.8155520647246
 20
84.50452868380759
 30
0.0
 10
708.833871369181
 20
84.72976156785202
 30
0.0
 10
708.8433501724775
 20
84.84630192061618
 30
0.0
  0
LINE
  5
31B
330
1F
100
AcDbEntity
  8
0
  6
Continuous
 62
     7
370
    25
100
AcDbLine
 10
710.2433501725
 20
84.8463019206
 30
0.0
 11
708.8433501725
 21
84.8463019206
 31
0.0
  0
SPLINE
  5
31C
330
1F
100
AcDbEntity
  8
0
  6
Continuous
 62
     7
370
    25
100
AcDbSpline
210
0.0
220
0.0
230
1.0
 70
     8
 71
     3
 72
    20
 73
    16
 74
     0
 42
0.000000001
 43
0.00000001
 40
0.0
 40
0.0
 40
0.0
 40
0.0
 40
0.1250000000000097
 40
0.1250000000000097
 40
0.2500000000000195
 40
0.2500000000000195
 40
0.3750000000000292
 40
0.3750000000000292
 40
0.500000000000039
 40
0.500000000000039
 40
0.7500000000000289
 40
0.7500000000000289
 40
0.8750000000000145
 40
0.8750000000000145
 40
1.0
 40
1.0
 40
1.0
 40
1.0
 10
707.8433501724775
 20
82.4463019206162
 30
0.0
 10
708.0017293601281
 20
82.4463019206162
 30
0.0
 10
708.1579750848199
 20
82.46183848109104
 30
0.0
 10
708.4659669342365
 20
82.52315683305164
 30
0.0
 10
708.6186110417076
 20
82.56958057863845
 30
0.0
 10
708.9076953308947
 20
82.68953144879256
 30
0.0
 10
709.0454998690788
 20
82.76313609307599
 30
0.0
 10
709.3071185447175
 20
82.93786645917162
 30
0.0
 10
709.4298648514002
 20
83.03871708807316
 30
0.0
 10
709.7611892283479
 20
83.37000236805711
 30
0.0
 10
709.9402003523761
 20
83.637682529441
 30
0.0
 10
710.1198154517572
 20
84.07035655549642
 30
0.0
 10
710.1660598006248
 20
84.22187464234754
 30
0.0
 10
710.227813106636
 20
84.53130039973365
 30
0.0
 10
710.2433501724774
 20
84.68792272942743
 30
0.0
 10
710.2433501724774
 20
84.84630192061618
 30
0.0
  0
SPLINE
  5
31D
330
1F
100
AcDbEntity
  8
0
  6
Continuous
 62
     7
370
    25
100
AcDbSpline
210
0.0
220
0.0
230
1.0
 70
     8
 71
     3
 72
    20
 73
    16
 74
     0
 42
0.000000001
 43
0.00000001
 40
0.0
 40
0.0
 40
0.0
 40
0.0
 40
0.1249999999999994
 40
0.1249999999999994
 40
0.2499999999999988
 40
0.2499999999999988
 40
0.3749999999999982
 40
0.3749999999999982
 40
0.4999999999999975
 40
0.4999999999999975
 40
0.7499999999999988
 40
0.7499999999999988
 40
0.8749999999999993
 40
0.8749999999999993
 40
1.0
 40
1.0
 40
1.0
 40
1.0
 10
115.2433501724775
 20
84.84630192061618
 30
0.0
 10
115.2433501724774
 20
84.68792273296546
 30
0.0
 10
115.2588867329526
 20
84.5316770082738
 30
0.0
 10
115.3202050849133
 20
84.22368515885718
 30
0.0
 10
115.3666288304997
 20
84.07104105138605
 30
0.0
 10
115.4865797006539
 20
83.78195676219897
 30
0.0
 10
115.5601843449373
 20
83.64415222401492
 30
0.0
 10
115.734914711033
 20
83.382533548376
 30
0.0
 10
115.8357653399345
 20
83.25978724169333
 30
0.0
 10
116.1670506199183
 20
82.92846286474564
 30
0.0
 10
116.4347307813023
 20
82.74945174071743
 30
0.0
 10
116.8674048073578
 20
82.56983664133656
 30
0.0
 10
117.0189228942088
 20
82.52359229246885
 30
0.0
 10
117.3283486515949
 20
82.46183898645764
 30
0.0
 10
117.4849709812887
 20
82.4463019206162
 30
0.0
 10
117.6433501724775
 20
82.4463019206162
 30
0.0
  0
LINE
  5
31E
330
1F
100
AcDbEntity
  8
0
  6
Continuous
 62
     7
370
    25
100
AcDbLine
 10
115.2433501725
 20
84.8463019206
 30
0.0
 11
116.6433501725
 21
84.8463019206
 31
0.0
  0
SPLINE
  5
31F
330
1F
100
AcDbEntity
  8
0
  6
Continuous
 62
     7
370
    25
100
AcDbSpline
210
0.0
220
0.0
230
1.0
 70
     8
 71
     3
 72
     9
 73
     5
 74
     0
 42
0.000000001
 43
0.00000001
 40
0.0
 40
0.0
 40
0.0
 40
0.0
 40
0.6784508005729741
 40
1.0
 40
1.0
 40
1.0
 40
1.0
 10
116.6433501724775
 20
84.84630192061618
 30
0.0
 10
116.656599742942
 20
84.69559471616289
 30
0.0
 10
116.6761288973822
 20
84.47346040026851
 30
0.0
 10
116.816976551021
 20
84.3066272953793
 30
0.0
 10
116.8622660012898
 20
84.25298224406426
 30
0.0
  0
LINE
  5
320
330
1F
100
AcDbEntity
  8
0
  6
Continuous
 62
     7
370
    25
100
AcDbLine
 10
708.8433501725
 20
84.8463019206
 30
0.0
 11
708.8433501725
 21
94.4463019206
 31
0.0
  0
LINE
  5
321
330
1F
100
AcDbEntity
  8
0
  6
Continuous
 62
     7
370
    25
100
AcDbLine
 10
710.2433501725
 20
94.4463019206
 30
0.0
 11
708.8433501725
 21
94.4463019206
 31
0.0
  0
LINE
  5
322
330
1F
100
AcDbEntity
  8
0
  6
Continuous
 62
     7
370
    25
100
AcDbLine
 10
710.2433501725
 20
84.8463019206
 30
0.0
 11
710.2433501725
 21
94.4463019206
 31
0.0
  0
LINE
  5
323
330
1F
100
AcDbEntity
  8
0
  6
Continuous
 62
     7
370
    25
100
AcDbLine
 10
115.2433501725
 20
84.8463019206
 30
0.0
 11
115.2433501725
 21
94.4463019206
 31
0.0
  0
LINE
  5
324
330
1F
100
AcDbEntity
  8
0
  6
Continuous
 62
     7
370
    25
100
AcDbLine
 10
115.2433501725
 20
94.4463019206
 30
0.0
 11
116.6433501725
 21
94.4463019206
 31
0.0
  0
LINE
  5
325
330
1F
100
AcDbEntity
  8
0
  6
Continuous
 62
     7
370
    25
100
AcDbLine
 10
116.6433501725
 20
84.8463019206
 30
0.0
 11
116.6433501725
 21
94.4463019206
 31
0.0
  0
LINE
  5
326
330
1F
100
AcDbEntity
  8
0
  6
Continuous
 62
     7
370
    25
100
AcDbLine
 10
664.9433501725
 20
121.5463019206
 30
0.0
 11
665.7433501725
 21
121.5463019206
 31
0.0
  0
LINE
  5
327
330
1F
100
AcDbEntity
  8
0
  6
Continuous
 62
     7
370
    25
100
AcDbLine
 10
665.7433501725
 20
121.5463019206
 30
0.0
 11
665.7433501725
 21
118.5463019206
 31
0.0
  0
LINE
  5
328
330
1F
100
AcDbEntity
  8
0
  6
Continuous
 62
     7
370
    25
100
AcDbLine
 10
664.9433501725
 20
118.5463019206
 30
0.0
 11
664.9433501725
 21
121.5463019206
 31
0.0
  0
LINE
  5
329
330
1F
100
AcDbEntity
  8
0
  6
Continuous
 62
     7
370
    25
100
AcDbLine
 10
159.7433501725
 20
121.5463019206
 30
0.0
 11
160.5433501725
 21
121.5463019206
 31
0.0
  0
LINE
  5
32A
330
1F
100
AcDbEntity
  8
0
  6
Continuous
 62
     7
370
    25
100
AcDbLine
 10
159.7433501725
 20
118.5463019206
 30
0.0
 11
159.7433501725
 21
121.5463019206
 31
0.0
  0
LINE
  5
32B
330
1F
100
AcDbEntity
  8
0
  6
Continuous
 62
     7
370
    25
100
AcDbLine
 10
160.5433501725
 20
121.5463019206
 30
0.0
 11
160.5433501725
 21
118.5463019206
 31
0.0
  0
LINE
  5
32C
330
1F
100
AcDbEntity
  8
0
  6
Continuous
 62
     7
370
    25
100
AcDbLine
 10
665.7433501725
 20
118.5463019206
 30
0.0
 11
665.7433501725
 21
101.5463019206
 31
0.0
  0
LINE
  5
32D
330
1F
100
AcDbEntity
  8
0
  6
Continuous
 62
     7
370
    25
100
AcDbLine
 10
664.9433501725
 20
118.5463019206
 30
0.0
 11
664.9433501725
 21
101.5463019206
 31
0.0
  0
LINE
  5
32E
330
1F
100
AcDbEntity
  8
0
  6
Continuous
 62
     7
370
    25
100
AcDbLine
 10
159.7433501725
 20
101.5463019206
 30
0.0
 11
159.7433501725
 21
118.5463019206
 31
0.0
  0
LINE
  5
32F
330
1F
100
AcDbEntity
  8
0
  6
Continuous
 62
     7
370
    25
100
AcDbLine
 10
160.5433501725
 20
101.5463019206
 30
0.0
 11
160.5433501725
 21
118.5463019206
 31
0.0
  0
LINE
  5
330
330
1F
100
AcDbEntity
  8
0
  6
Continuous
 62
     7
370
    25
100
AcDbLine
 10
160.5433501725
 20
98.5463019206
 30
0.0
 11
159.7433501725
 21
98.5463019206
 31
0.0
  0
LINE
  5
331
330
1F
100
AcDbEntity
  8
0
  6
Continuous
 62
     7
370
    25
100
AcDbLine
 10
159.7433501725
 20
98.5463019206
 30
0.0
 11
159.7433501725
 21
101.5463019206
 31
0.0
  0
LINE
  5
332
330
1F
100
AcDbEntity
  8
0
  6
Continuous
 62
     7
370
    25
100
AcDbLine
 10
160.5433501725
 20
101.5463019206
 30
0.0
 11
160.5433501725
 21
98.5463019206
 31
0.0
  0
LINE
  5
333
330
1F
100
AcDbEntity
  8
0
  6
Continuous
 62
     7
370
    25
100
AcDbLine
 10
665.7433501725
 20
98.5463019206
 30
0.0
 11
664.9433501725
 21
98.5463019206
 31
0.0
  0
LINE
  5
334
330
1F
100
AcDbEntity
  8
0
  6
Continuous
 62
     7
370
    25
100
AcDbLine
 10
665.7433501725
 20
101.5463019206
 30
0.0
 11
665.7433501725
 21
98.5463019206
 31
0.0
  0
LINE
  5
335
330
1F
100
AcDbEntity
  8
0
  6
Continuous
 62
     7
370
    25
100
AcDbLine
 10
664.9433501725
 20
98.5463019206
 30
0.0
 11
664.9433501725
 21
101.5463019206
 31
0.0
  0
LINE
  5
336
330
1F
100
AcDbEntity
  8
0
  6
Continuous
 62
     7
370
    25
100
AcDbLine
 10
662.7433501725
 20
100.5463019206
 30
0.0
 11
662.7433501725
 21
101.3463019206
 31
0.0
  0
LINE
  5
337
330
1F
100
AcDbEntity
  8
0
  6
Continuous
 62
     7
370
    25
100
AcDbLine
 10
162.7433501725
 20
100.5463019206
 30
0.0
 11
162.7433501725
 21
101.3463019206
 31
0.0
  0
LINE
  5
338
330
1F
100
AcDbEntity
  8
0
  6
Continuous
 62
     7
370
    25
100
AcDbLine
 10
662.7433501725
 20
101.3463019206
 30
0.0
 11
162.7433501725
 21
101.3463019206
 31
0.0
  0
LINE
  5
339
330
1F
100
AcDbEntity
  8
0
  6
Continuous
 62
     7
370
    25
100
AcDbLine
 10
217.2433501725
 20
141.4509153124
 30
0.0
 11
217.2433501725
 21
134.9332238588
 31
0.0
  0
LINE
  5
33A
330
1F
100
AcDbEntity
  8
0
  6
Continuous
 62
     7
370
    25
100
AcDbLine
 10
364.2433501725
 20
144.4509153124
 30
0.0
 11
220.2433501725
 21
144.4509153124
 31
0.0
  0
LINE
  5
33B
330
1F
100
AcDbEntity
  8
0
  6
Continuous
 62
     7
370
    25
100
AcDbLine
 10
367.2433501725
 20
134.9332238588
 30
0.0
 11
367.2433501725
 21
141.4509153124
 31
0.0
  0
ARC
  5
33C
330
1F
100
AcDbEntity
  8
0
  6
Continuous
 62
     7
370
    25
100
AcDbCircle
 10
220.2433501725
 20
141.4509153124
 30
0.0
 40
3.0
100
AcDbArc
 50
90.0
 51
180.0
  0
ARC
  5
33D
330
1F
100
AcDbEntity
  8
0
  6
Continuous
 62
     7
370
    25
100
AcDbCircle
 10
364.2433501725
 20
141.4509153124
 30
0.0
 40
3.0
100
AcDbArc
 50
0.0
 51
90.0
  0
LINE
  5
33E
330
1F
100
AcDbEntity
  8
0
  6
Continuous
 62
     7
370
    25
100
AcDbLine
 10
458.2433501725
 20
141.4509153124
 30
0.0
 11
458.2433501725
 21
134.9332238588
 31
0.0
  0
LINE
  5
33F
330
1F
100
AcDbEntity
  8
0
  6
Continuous
 62
     7
370
    25
100
AcDbLine
 10
608.2433501725
 20
134.9332238588
 30
0.0
 11
608.2433501725
 21
141.4509153124
 31
0.0
  0
ARC
  5
340
330
1F
100
AcDbEntity
  8
0
  6
Continuous
 62
     7
370
    25
100
AcDbCircle
 10
461.2433501725
 20
141.4509153124
 30
0.0
 40
3.000000000000057
100
AcDbArc
 50
90.0
 51
180.0
  0
ARC
  5
341
330
1F
100
AcDbEntity
  8
0
  6
Continuous
 62
     7
370
    25
100
AcDbCircle
 10
605.2433501725
 20
141.4509153124
 30
0.0
 40
3.000000000000114
100
AcDbArc
 50
0.0
 51
90.0
  0
LINE
  5
342
330
1F
100
AcDbEntity
  8
0
  6
Continuous
 62
     7
370
    25
100
AcDbLine
 10
605.2433501725
 20
144.4509153124
 30
0.0
 11
461.2433501725
 21
144.4509153124
 31
0.0
  0
LINE
  5
343
330
1F
100
AcDbEntity
  8
0
  6
Continuous
 62
     7
370
    25
100
AcDbLine
 10
217.2433501725
 20
134.0332238588
 30
0.0
 11
217.2433501725
 21
134.9332238588
 31
0.0
  0
LINE
  5
344
330
1F
100
AcDbEntity
  8
0
  6
Continuous
 62
     7
370
    25
100
AcDbLine
 10
367.2433501725
 20
134.9332238588
 30
0.0
 11
367.2433501725
 21
134.0332238588
 31
0.0
  0
LINE
  5
345
330
1F
100
AcDbEntity
  8
0
  6
Continuous
 62
     7
370
    25
100
AcDbLine
 10
608.2433501725
 20
134.9332238588
 30
0.0
 11
608.2433501725
 21
134.0332238588
 31
0.0
  0
LINE
  5
346
330
1F
100
AcDbEntity
  8
0
  6
Continuous
 62
     7
370
    25
100
AcDbLine
 10
458.2433501725
 20
134.0332238588
 30
0.0
 11
458.2433501725
 21
134.9332238588
 31
0.0
  0
LINE
  5
347
330
1F
100
AcDbEntity
  8
0
  6
Continuous
 62
     7
370
    25
100
AcDbLine
 10
217.2433501725
 20
127.4083527282
 30
0.0
 11
217.2433501725
 21
134.0332238588
 31
0.0
  0
LINE
  5
348
330
1F
100
AcDbEntity
  8
0
  6
Continuous
 62
     7
370
    25
100
AcDbLine
 10
367.2433501725
 20
134.0332238588
 30
0.0
 11
367.2433501725
 21
127.4083527282
 31
0.0
  0
LINE
  5
349
330
1F
100
AcDbEntity
  8
0
  6
Continuous
 62
     7
370
    25
100
AcDbLine
 10
608.2433501725
 20
134.0332238588
 30
0.0
 11
608.2433501725
 21
127.4083527282
 31
0.0
  0
LINE
  5
34A
330
1F
100
AcDbEntity
  8
0
  6
Continuous
 62
     7
370
    25
100
AcDbLine
 10
458.2433501725
 20
127.4083527282
 30
0.0
 11
458.2433501725
 21
134.0332238588
 31
0.0
  0
LINE
  5
34B
330
1F
100
AcDbEntity
  8
0
  6
Continuous
 62
     7
370
    25
100
AcDbLine
 10
664.9433501725
 20
121.5463019206
 30
0.0
 11
663.9433501725
 21
121.5463019206
 31
0.0
  0
LINE
  5
34C
330
1F
100
AcDbEntity
  8
0
  6
Continuous
 62
     7
370
    25
100
AcDbLine
 10
663.9433501725
 20
102.5463019206
 30
0.0
 11
664.9433501725
 21
102.5463019206
 31
0.0
  0
LINE
  5
34D
330
1F
100
AcDbEntity
  8
0
  6
Continuous
 62
     7
370
    25
100
AcDbLine
 10
160.5433501725
 20
102.5463019206
 30
0.0
 11
161.5433501725
 21
102.5463019206
 31
0.0
  0
LINE
  5
34E
330
1F
100
AcDbEntity
  8
0
  6
Continuous
 62
     7
370
    25
100
AcDbLine
 10
161.5433501725
 20
121.5463019206
 30
0.0
 11
160.5433501725
 21
121.5463019206
 31
0.0
  0
LINE
  5
34F
330
1F
100
AcDbEntity
  8
0
  6
Continuous
 62
     7
370
    25
100
AcDbLine
 10
162.7433501725
 20
102.3463019206
 30
0.0
 11
162.7433501725
 21
101.3463019206
 31
0.0
  0
LINE
  5
350
330
1F
100
AcDbEntity
  8
0
  6
Continuous
 62
     7
370
    25
100
AcDbLine
 10
662.7433501725
 20
101.3463019206
 30
0.0
 11
662.7433501725
 21
102.3463019206
 31
0.0
  0
LINE
  5
351
330
1F
100
AcDbEntity
  8
0
  6
Continuous
 62
     7
370
    25
100
AcDbLine
 10
367.2433501725
 20
126.9083527282
 30
0.0
 11
367.2433501725
 21
127.4083527282
 31
0.0
  0
LINE
  5
352
330
1F
100
AcDbEntity
  8
0
  6
Continuous
 62
     7
370
    25
100
AcDbLine
 10
217.2433501725
 20
127.4083527282
 30
0.0
 11
217.2433501725
 21
126.9083527282
 31
0.0
  0
LINE
  5
353
330
1F
100
AcDbEntity
  8
0
  6
Continuous
 62
     7
370
    25
100
AcDbLine
 10
608.2433501725
 20
126.9083527282
 30
0.0
 11
608.2433501725
 21
127.4083527282
 31
0.0
  0
LINE
  5
354
330
1F
100
AcDbEntity
  8
0
  6
Continuous
 62
     7
370
    25
100
AcDbLine
 10
458.2433501725
 20
127.4083527282
 30
0.0
 11
458.2433501725
 21
126.9083527282
 31
0.0
  0
LINE
  5
355
330
1F
100
AcDbEntity
  8
0
  6
Continuous
 62
     7
370
    25
100
AcDbLine
 10
162.7433501725
 20
102.5463019206
 30
0.0
 11
162.7433501725
 21
102.3463019206
 31
0.0
  0
LINE
  5
356
330
1F
100
AcDbEntity
  8
0
  6
Continuous
 62
     7
370
    25
100
AcDbLine
 10
161.5433501725
 20
102.5463019206
 30
0.0
 11
162.7433501725
 21
102.5463019206
 31
0.0
  0
LINE
  5
357
330
1F
100
AcDbEntity
  8
0
  6
Continuous
 62
     7
370
    25
100
AcDbLine
 10
164.7433501725
 20
121.5463019206
 30
0.0
 11
161.5433501725
 21
121.5463019206
 31
0.0
  0
LINE
  5
358
330
1F
100
AcDbEntity
  8
0
  6
Continuous
 62
     7
370
    25
100
AcDbLine
 10
164.7433501725
 20
142.5463019206
 30
0.0
 11
164.7433501725
 21
121.5463019206
 31
0.0
  0
ARC
  5
359
330
1F
100
AcDbEntity
  8
0
  6
Continuous
 62
     7
370
    25
100
AcDbCircle
 10
167.7433501725
 20
142.5463019206
 30
0.0
 40
3.0
100
AcDbArc
 50
90.0
 51
180.0
  0
LINE
  5
35A
330
1F
100
AcDbEntity
  8
0
  6
Continuous
 62
     7
370
    25
100
AcDbLine
 10
211.7433501725
 20
145.5463019206
 30
0.0
 11
167.7433501725
 21
145.5463019206
 31
0.0
  0
ARC
  5
35B
330
1F
100
AcDbEntity
  8
0
  6
Continuous
 62
     7
370
    25
100
AcDbCircle
 10
211.7433501725
 20
142.5463019206
 30
0.0
 40
3.0
100
AcDbArc
 50
0.0
 51
90.0
  0
LINE
  5
35C
330
1F
100
AcDbEntity
  8
0
  6
Continuous
 62
     7
370
    25
100
AcDbLine
 10
214.7433501725
 20
142.5463019206
 30
0.0
 11
214.7433501725
 21
126.4163019206
 31
0.0
  0
LINE
  5
35D
330
1F
100
AcDbEntity
  8
0
  6
Continuous
 62
     7
370
    25
100
AcDbLine
 10
214.7433501725
 20
126.4163019206
 30
0.0
 11
217.2433501725
 21
126.4163019206
 31
0.0
  0
LINE
  5
35E
330
1F
100
AcDbEntity
  8
0
  6
Continuous
 62
     7
370
    25
100
AcDbLine
 10
217.2433501725
 20
126.9083527282
 30
0.0
 11
217.2433501725
 21
126.4163019206
 31
0.0
  0
LINE
  5
35F
330
1F
100
AcDbEntity
  8
0
  6
Continuous
 62
     7
370
    25
100
AcDbLine
 10
367.2433501725
 20
126.9083527282
 30
0.0
 11
367.2433501725
 21
126.4163019206
 31
0.0
  0
LINE
  5
360
330
1F
100
AcDbEntity
  8
0
  6
Continuous
 62
     7
370
    25
100
AcDbLine
 10
367.2433501725
 20
126.4163019206
 30
0.0
 11
369.7433501725
 21
126.4163019206
 31
0.0
  0
LINE
  5
361
330
1F
100
AcDbEntity
  8
0
  6
Continuous
 62
     7
370
    25
100
AcDbLine
 10
369.7433501725
 20
126.4163019206
 30
0.0
 11
369.7433501725
 21
142.5463019206
 31
0.0
  0
ARC
  5
362
330
1F
100
AcDbEntity
  8
0
  6
Continuous
 62
     7
370
    25
100
AcDbCircle
 10
372.7433501725
 20
142.5463019206
 30
0.0
 40
3.0
100
AcDbArc
 50
90.0
 51
180.0
  0
LINE
  5
363
330
1F
100
AcDbEntity
  8
0
  6
Continuous
 62
     7
370
    25
100
AcDbLine
 10
452.7433501725
 20
145.5463019206
 30
0.0
 11
372.7433501725
 21
145.5463019206
 31
0.0
  0
ARC
  5
364
330
1F
100
AcDbEntity
  8
0
  6
Continuous
 62
     7
370
    25
100
AcDbCircle
 10
452.7433501725
 20
142.5463019206
 30
0.0
 40
3.0
100
AcDbArc
 50
0.0
 51
90.0
  0
LINE
  5
365
330
1F
100
AcDbEntity
  8
0
  6
Continuous
 62
     7
370
    25
100
AcDbLine
 10
455.7433501725
 20
142.5463019206
 30
0.0
 11
455.7433501725
 21
126.4163019206
 31
0.0
  0
LINE
  5
366
330
1F
100
AcDbEntity
  8
0
  6
Continuous
 62
     7
370
    25
100
AcDbLine
 10
455.7433501725
 20
126.4163019206
 30
0.0
 11
458.2433501725
 21
126.4163019206
 31
0.0
  0
LINE
  5
367
330
1F
100
AcDbEntity
  8
0
  6
Continuous
 62
     7
370
    25
100
AcDbLine
 10
458.2433501725
 20
126.9083527282
 30
0.0
 11
458.2433501725
 21
126.4163019206
 31
0.0
  0
LINE
  5
368
330
1F
100
AcDbEntity
  8
0
  6
Continuous
 62
     7
370
    25
100
AcDbLine
 10
608.2433501725
 20
126.9083527282
 30
0.0
 11
608.2433501725
 21
126.4163019206
 31
0.0
  0
LINE
  5
369
330
1F
100
AcDbEntity
  8
0
  6
Continuous
 62
     7
370
    25
100
AcDbLine
 10
608.2433501725
 20
126.4163019206
 30
0.0
 11
610.7433501725
 21
126.4163019206
 31
0.0
  0
LINE
  5
36A
330
1F
100
AcDbEntity
  8
0
  6
Continuous
 62
     7
370
    25
100
AcDbLine
 10
610.7433501725
 20
126.4163019206
 30
0.0
 11
610.7433501725
 21
142.5463019206
 31
0.0
  0
ARC
  5
36B
330
1F
100
AcDbEntity
  8
0
  6
Continuous
 62
     7
370
    25
100
AcDbCircle
 10
613.7433501725
 20
142.5463019206
 30
0.0
 40
3.000000000000114
100
AcDbArc
 50
90.0
 51
180.0
  0
LINE
  5
36C
330
1F
100
AcDbEntity
  8
0
  6
Continuous
 62
     7
370
    25
100
AcDbLine
 10
657.7433501725
 20
145.5463019206
 30
0.0
 11
613.7433501725
 21
145.5463019206
 31
0.0
  0
ARC
  5
36D
330
1F
100
AcDbEntity
  8
0
  6
Continuous
 62
     7
370
    25
100
AcDbCircle
 10
657.7433501725
 20
142.5463019206
 30
0.0
 40
3.0
100
AcDbArc
 50
0.0
 51
90.0
  0
LINE
  5
36E
330
1F
100
AcDbEntity
  8
0
  6
Continuous
 62
     7
370
    25
100
AcDbLine
 10
660.7433501725
 20
121.5463019206
 30
0.0
 11
660.7433501725
 21
142.5463019206
 31
0.0
  0
LINE
  5
36F
330
1F
100
AcDbEntity
  8
0
  6
Continuous
 62
     7
370
    25
100
AcDbLine
 10
663.9433501725
 20
121.5463019206
 30
0.0
 11
660.7433501725
 21
121.5463019206
 31
0.0
  0
LINE
  5
370
330
1F
100
AcDbEntity
  8
0
  6
Continuous
 62
     7
370
    25
100
AcDbLine
 10
662.7433501725
 20
102.5463019206
 30
0.0
 11
663.9433501725
 21
102.5463019206
 31
0.0
  0
LINE
  5
371
330
1F
100
AcDbEntity
  8
0
  6
Continuous
 62
     7
370
    25
100
AcDbLine
 10
662.7433501725
 20
102.3463019206
 30
0.0
 11
662.7433501725
 21
102.5463019206
 31
0.0
  0
SPLINE
  5
372
330
1F
100
AcDbEntity
  8
0
  6
Continuous
 62
     7
370
    25
100
AcDbSpline
210
0.0
220
0.0
230
1.0
 70
     8
 71
     3
 72
    12
 73
     8
 74
     0
 42
0.000000001
 43
0.00000001
 40
0.0
 40
0.0
 40
0.0
 40
0.0
 40
0.4999999999999887
 40
0.4999999999999887
 40
0.7499999999999943
 40
0.7499999999999943
 40
1.0
 40
1.0
 40
1.0
 40
1.0
 10
647.3790898953345
 20
104.1316219352312
 30
0.0
 10
646.7625595054142
 20
104.3221162246547
 30
0.0
 10
646.1367916329644
 20
104.443790637717
 30
0.0
 10
645.1737299235796
 20
104.4444468282483
 30
0.0
 10
644.8530368884499
 20
104.4146128264539
 30
0.0
 10
644.2230786384539
 20
104.3056829563463
 30
0.0
 10
643.911849370423
 20
104.2269877692834
 30
0.0
 10
643.6032000401384
 20
104.1316219352307
 30
0.0
  0
LINE
  5
373
330
1F
100
AcDbEntity
  8
0
  6
Continuous
 62
     7
370
    25
100
AcDbLine
 10
647.3790898953
 20
104.1316219352
 30
0.0
 11
647.3790898953
 21
101.960981906
 31
0.0
  0
SPLINE
  5
374
330
1F
100
AcDbEntity
  8
0
  6
Continuous
 62
     7
370
    25
100
AcDbSpline
210
0.0
220
0.0
230
1.0
 70
     8
 71
     3
 72
    12
 73
     8
 74
     0
 42
0.000000001
 43
0.00000001
 40
0.0
 40
0.0
 40
0.0
 40
0.0
 40
0.5000000000000077
 40
0.5000000000000077
 40
0.7500000000000038
 40
0.7500000000000038
 40
1.0
 40
1.0
 40
1.0
 40
1.0
 10
643.6032000401383
 20
101.9609819060012
 30
0.0
 10
644.2197304300586
 20
101.7704876165777
 30
0.0
 10
644.8454983025083
 20
101.6488132035153
 30
0.0
 10
645.8085600118932
 20
101.648157012984
 30
0.0
 10
646.129253047023
 20
101.6779910147785
 30
0.0
 10
646.7592112970189
 20
101.786920884886
 30
0.0
 10
647.0704405650497
 20
101.8656160719489
 30
0.0
 10
647.3790898953345
 20
101.9609819060017
 30
0.0
  0
LINE
  5
375
330
1F
100
AcDbEntity
  8
0
  6
Continuous
 62
     7
370
    25
100
AcDbLine
 10
643.6032000401
 20
104.1316219352
 30
0.0
 11
643.6032000401
 21
101.960981906
 31
0.0
  0
SPLINE
  5
376
330
1F
100
AcDbEntity
  8
0
  6
Continuous
 62
     7
370
    25
100
AcDbSpline
210
0.0
220
0.0
230
1.0
 70
     8
 71
     3
 72
    14
 73
    10
 74
     0
 42
0.000000001
 43
0.00000001
 40
0.0
 40
0.0
 40
0.0
 40
0.0
 40
0.25
 40
0.25
 40
0.5
 40
0.5
 40
0.75
 40
0.75
 40
1.0
 40
1.0
 40
1.0
 40
1.0
 10
647.3790898953343
 20
104.1316219352302
 30
0.0
 10
647.4311476042252
 20
104.2264965445408
 30
0.0
 10
647.4844811425531
 20
104.3061014694165
 30
0.0
 10
647.5914131501813
 20
104.4149380843107
 30
0.0
 10
647.6451665166289
 20
104.4442616900013
 30
0.0
 10
647.7533455680525
 20
104.4441969082556
 30
0.0
 10
647.8081742646406
 20
104.4140407149293
 30
0.0
 10
647.9150812473005
 20
104.3044555135636
 30
0.0
 10
647.9675027622728
 20
104.2259125397614
 30
0.0
 10
648.019240027675
 20
104.1316219352302
 30
0.0
  0
SPLINE
  5
377
330
1F
100
AcDbEntity
  8
0
  6
Continuous
 62
     7
370
    25
100
AcDbSpline
210
0.0
220
0.0
230
1.0
 70
     8
 71
     3
 72
    12
 73
     8
 74
     0
 42
0.000000001
 43
0.00000001
 40
0.0
 40
0.0
 40
0.0
 40
0.0
 40
0.5000000000000078
 40
0.5000000000000078
 40
0.7500000000000039
 40
0.7500000000000039
 40
1.0
 40
1.0
 40
1.0
 40
1.0
 10
643.6032000401385
 20
104.1316219352312
 30
0.0
 10
643.0911938884336
 20
104.3221162246547
 30
0.0
 10
642.5715163421654
 20
104.443790637717
 30
0.0
 10
641.7717284846028
 20
104.4444468282483
 30
0.0
 10
641.5054045377549
 20
104.4146128264539
 30
0.0
 10
640.9822470347534
 20
104.3056829563463
 30
0.0
 10
640.7237824036051
 20
104.2269877692834
 30
0.0
 10
640.4674603172831
 20
104.1316219352307
 30
0.0
  0
SPLINE
  5
378
330
1F
100
AcDbEntity
  8
0
  6
Continuous
 62
     7
370
    25
100
AcDbSpline
210
0.0
220
0.0
230
1.0
 70
     8
 71
     3
 72
     9
 73
     5
 74
     0
 42
0.000000001
 43
0.00000001
 40
0.0
 40
0.0
 40
0.0
 40
0.0
 40
0.3722348086954455
 40
1.0
 40
1.0
 40
1.0
 40
1.0
 10
640.4674603172831
 20
104.1316219352302
 30
0.0
 10
640.4954265509548
 20
104.1835462440037
 30
0.0
 10
640.5705571755457
 20
104.3230396700902
 30
0.0
 10
640.6491010337023
 20
104.3310483961954
 30
0.0
 10
640.6984081338438
 20
104.3360759956709
 30
0.0
  0
LINE
  5
379
330
1F
100
AcDbEntity
  8
0
  6
Continuous
 62
     7
370
    25
100
AcDbLine
 10
647.3933501725
 20
104.6463019206
 30
0.0
 11
641.0933501725
 21
104.6463019206
 31
0.0
  0
SPLINE
  5
37A
330
1F
100
AcDbEntity
  8
0
  6
Continuous
 62
     7
370
    25
100
AcDbSpline
210
0.0
220
0.0
230
1.0
 70
     8
 71
     3
 72
     9
 73
     5
 74
     0
 42
0.000000001
 43
0.00000001
 40
0.0
 40
0.0
 40
0.0
 40
0.0
 40
0.6277651913045446
 40
1.0
 40
1.0
 40
1.0
 40
1.0
 10
640.6984081338438
 20
101.7565278455615
 30
0.0
 10
640.6491010337023
 20
101.761555445037
 30
0.0
 10
640.5705571755457
 20
101.7695641711421
 30
0.0
 10
640.4954265509548
 20
101.9090575972286
 30
0.0
 10
640.4674603172831
 20
101.9609819060022
 30
0.0
  0
SPLINE
  5
37B
330
1F
100
AcDbEntity
  8
0
  6
Continuous
 62
     7
370
    25
100
AcDbSpline
210
0.0
220
0.0
230
1.0
 70
     8
 71
     3
 72
    12
 73
     8
 74
     0
 42
0.000000001
 43
0.00000001
 40
0.0
 40
0.0
 40
0.0
 40
0.0
 40
0.4999999999999921
 40
0.4999999999999921
 40
0.749999999999996
 40
0.749999999999996
 40
1.0
 40
1.0
 40
1.0
 40
1.0
 10
640.467460317283
 20
101.9609819060012
 30
0.0
 10
640.9794664689879
 20
101.7704876165777
 30
0.0
 10
641.4991440152561
 20
101.6488132035153
 30
0.0
 10
642.2989318728187
 20
101.6481570129841
 30
0.0
 10
642.5652558196666
 20
101.6779910147785
 30
0.0
 10
643.0884133226681
 20
101.7869208848861
 30
0.0
 10
643.3468779538165
 20
101.8656160719489
 30
0.0
 10
643.6032000401385
 20
101.9609819060017
 30
0.0
  0
SPLINE
  5
37C
330
1F
100
AcDbEntity
  8
0
  6
Continuous
 62
     7
370
    25
100
AcDbSpline
210
0.0
220
0.0
230
1.0
 70
     8
 71
     3
 72
    14
 73
    10
 74
     0
 42
0.000000001
 43
0.00000001
 40
0.0
 40
0.0
 40
0.0
 40
0.0
 40
0.25
 40
0.25
 40
0.5
 40
0.5
 40
0.75
 40
0.75
 40
1.0
 40
1.0
 40
1.0
 40
1.0
 10
647.3790898953343
 20
101.9609819060022
 30
0.0
 10
647.4311476042252
 20
101.8661072966916
 30
0.0
 10
647.4844811425531
 20
101.7865023718158
 30
0.0
 10
647.5914131501813
 20
101.6776657569216
 30
0.0
 10
647.6451665166289
 20
101.6483421512311
 30
0.0
 10
647.7533455680525
 20
101.6484069329767
 30
0.0
 10
647.8081742646406
 20
101.678563126303
 30
0.0
 10
647.9150812473005
 20
101.7881483276688
 30
0.0
 10
647.9675027622728
 20
101.8666913014709
 30
0.0
 10
648.019240027675
 20
101.9609819060022
 30
0.0
  0
LINE
  5
37D
330
1F
100
AcDbEntity
  8
0
  6
Continuous
 62
     7
370
    25
100
AcDbLine
 10
647.3933501725
 20
101.4463019206
 30
0.0
 11
641.0933501725
 21
101.4463019206
 31
0.0
  0
LINE
  5
37E
330
1F
100
AcDbEntity
  8
0
  6
Continuous
 62
     7
370
    25
100
AcDbLine
 10
640.4674603173
 20
104.1316219352
 30
0.0
 11
640.4674603173
 21
101.960981906
 31
0.0
  0
LINE
  5
37F
330
1F
100
AcDbEntity
  8
0
  6
Continuous
 62
     7
370
    25
100
AcDbLine
 10
648.0192400277
 20
104.1316219352
 30
0.0
 11
648.0192400277
 21
101.960981906
 31
0.0
  0
SPLINE
  5
380
330
1F
100
AcDbEntity
  8
0
  6
Continuous
 62
     7
370
    25
100
AcDbSpline
210
0.0
220
0.0
230
1.0
 70
     8
 71
     3
 72
    12
 73
     8
 74
     0
 42
0.000000001
 43
0.00000001
 40
0.0
 40
0.0
 40
0.0
 40
0.0
 40
0.5000000000000029
 40
0.5000000000000029
 40
0.7500000000000014
 40
0.7500000000000014
 40
1.0
 40
1.0
 40
1.0
 40
1.0
 10
334.3790898953345
 20
104.1316219352312
 30
0.0
 10
333.7625595054141
 20
104.3221162246547
 30
0.0
 10
333.1367916329643
 20
104.4437906377171
 30
0.0
 10
332.1737299235795
 20
104.4444468282483
 30
0.0
 10
331.8530368884498
 20
104.4146128264539
 30
0.0
 10
331.2230786384538
 20
104.3056829563463
 30
0.0
 10
330.9118493704229
 20
104.2269877692834
 30
0.0
 10
330.6032000401383
 20
104.1316219352307
 30
0.0
  0
LINE
  5
381
330
1F
100
AcDbEntity
  8
0
  6
Continuous
 62
     7
370
    25
100
AcDbLine
 10
334.3790898953
 20
104.1316219352
 30
0.0
 11
334.3790898953
 21
101.960981906
 31
0.0
  0
SPLINE
  5
382
330
1F
100
AcDbEntity
  8
0
  6
Continuous
 62
     7
370
    25
100
AcDbSpline
210
0.0
220
0.0
230
1.0
 70
     8
 71
     3
 72
    12
 73
     8
 74
     0
 42
0.000000001
 43
0.00000001
 40
0.0
 40
0.0
 40
0.0
 40
0.0
 40
0.5000000000000029
 40
0.5000000000000029
 40
0.7500000000000014
 40
0.7500000000000014
 40
1.0
 40
1.0
 40
1.0
 40
1.0
 10
330.6032000401382
 20
101.9609819060012
 30
0.0
 10
331.2197304300585
 20
101.7704876165777
 30
0.0
 10
331.8454983025082
 20
101.6488132035153
 30
0.0
 10
332.8085600118932
 20
101.6481570129841
 30
0.0
 10
333.1292530470229
 20
101.6779910147785
 30
0.0
 10
333.7592112970189
 20
101.7869208848861
 30
0.0
 10
334.0704405650498
 20
101.8656160719489
 30
0.0
 10
334.3790898953344
 20
101.9609819060017
 30
0.0
  0
LINE
  5
383
330
1F
100
AcDbEntity
  8
0
  6
Continuous
 62
     7
370
    25
100
AcDbLine
 10
330.6032000401
 20
104.1316219352
 30
0.0
 11
330.6032000401
 21
101.960981906
 31
0.0
  0
SPLINE
  5
384
330
1F
100
AcDbEntity
  8
0
  6
Continuous
 62
     7
370
    25
100
AcDbSpline
210
0.0
220
0.0
230
1.0
 70
     8
 71
     3
 72
    14
 73
    10
 74
     0
 42
0.000000001
 43
0.00000001
 40
0.0
 40
0.0
 40
0.0
 40
0.0
 40
0.25
 40
0.25
 40
0.5
 40
0.5
 40
0.75
 40
0.75
 40
1.0
 40
1.0
 40
1.0
 40
1.0
 10
334.3790898953343
 20
104.1316219352302
 30
0.0
 10
334.4311476042251
 20
104.2264965445408
 30
0.0
 10
334.4844811425532
 20
104.3061014694166
 30
0.0
 10
334.5914131501813
 20
104.4149380843108
 30
0.0
 10
334.6451665166288
 20
104.4442616900013
 30
0.0
 10
334.7533455680526
 20
104.4441969082557
 30
0.0
 10
334.8081742646406
 20
104.4140407149293
 30
0.0
 10
334.9150812473003
 20
104.3044555135636
 30
0.0
 10
334.9675027622727
 20
104.2259125397614
 30
0.0
 10
335.0192400276749
 20
104.1316219352302
 30
0.0
  0
SPLINE
  5
385
330
1F
100
AcDbEntity
  8
0
  6
Continuous
 62
     7
370
    25
100
AcDbSpline
210
0.0
220
0.0
230
1.0
 70
     8
 71
     3
 72
    12
 73
     8
 74
     0
 42
0.000000001
 43
0.00000001
 40
0.0
 40
0.0
 40
0.0
 40
0.0
 40
0.4999999999999968
 40
0.4999999999999968
 40
0.7499999999999983
 40
0.7499999999999983
 40
1.0
 40
1.0
 40
1.0
 40
1.0
 10
330.6032000401385
 20
104.1316219352312
 30
0.0
 10
330.0911938884336
 20
104.3221162246547
 30
0.0
 10
329.5715163421653
 20
104.4437906377171
 30
0.0
 10
328.7717284846028
 20
104.4444468282483
 30
0.0
 10
328.5054045377548
 20
104.4146128264539
 30
0.0
 10
327.9822470347533
 20
104.3056829563463
 30
0.0
 10
327.723782403605
 20
104.2269877692834
 30
0.0
 10
327.467460317283
 20
104.1316219352307
 30
0.0
  0
SPLINE
  5
386
330
1F
100
AcDbEntity
  8
0
  6
Continuous
 62
     7
370
    25
100
AcDbSpline
210
0.0
220
0.0
230
1.0
 70
     8
 71
     3
 72
     9
 73
     5
 74
     0
 42
0.000000001
 43
0.00000001
 40
0.0
 40
0.0
 40
0.0
 40
0.0
 40
0.3722348086954455
 40
0.9999999999999999
 40
0.9999999999999999
 40
0.9999999999999999
 40
0.9999999999999999
 10
327.467460317283
 20
104.1316219352302
 30
0.0
 10
327.4954265509547
 20
104.1835462440038
 30
0.0
 10
327.5705571755456
 20
104.3230396700903
 30
0.0
 10
327.6491010337023
 20
104.3310483961954
 30
0.0
 10
327.6984081338438
 20
104.3360759956709
 30
0.0
  0
LINE
  5
387
330
1F
100
AcDbEntity
  8
0
  6
Continuous
 62
     7
370
    25
100
AcDbLine
 10
334.3933501725
 20
104.6463019206
 30
0.0
 11
328.0933501725
 21
104.6463019206
 31
0.0
  0
SPLINE
  5
388
330
1F
100
AcDbEntity
  8
0
  6
Continuous
 62
     7
370
    25
100
AcDbSpline
210
0.0
220
0.0
230
1.0
 70
     8
 71
     3
 72
     9
 73
     5
 74
     0
 42
0.000000001
 43
0.00000001
 40
0.0
 40
0.0
 40
0.0
 40
0.0
 40
0.6277651913045473
 40
1.0
 40
1.0
 40
1.0
 40
1.0
 10
327.6984081338438
 20
101.7565278455615
 30
0.0
 10
327.6491010337023
 20
101.761555445037
 30
0.0
 10
327.5705571755456
 20
101.7695641711421
 30
0.0
 10
327.4954265509547
 20
101.9090575972286
 30
0.0
 10
327.467460317283
 20
101.9609819060022
 30
0.0
  0
SPLINE
  5
389
330
1F
100
AcDbEntity
  8
0
  6
Continuous
 62
     7
370
    25
100
AcDbSpline
210
0.0
220
0.0
230
1.0
 70
     8
 71
     3
 72
    12
 73
     8
 74
     0
 42
0.000000001
 43
0.00000001
 40
0.0
 40
0.0
 40
0.0
 40
0.0
 40
0.5000000000000032
 40
0.5000000000000032
 40
0.7500000000000016
 40
0.7500000000000016
 40
1.0
 40
1.0
 40
1.0
 40
1.0
 10
327.4674603172829
 20
101.9609819060012
 30
0.0
 10
327.9794664689878
 20
101.7704876165777
 30
0.0
 10
328.4991440152561
 20
101.6488132035153
 30
0.0
 10
329.2989318728186
 20
101.6481570129841
 30
0.0
 10
329.5652558196667
 20
101.6779910147785
 30
0.0
 10
330.088413322668
 20
101.7869208848861
 30
0.0
 10
330.3468779538163
 20
101.8656160719489
 30
0.0
 10
330.6032000401385
 20
101.9609819060017
 30
0.0
  0
SPLINE
  5
38A
330
1F
100
AcDbEntity
  8
0
  6
Continuous
 62
     7
370
    25
100
AcDbSpline
210
0.0
220
0.0
230
1.0
 70
     8
 71
     3
 72
    14
 73
    10
 74
     0
 42
0.000000001
 43
0.00000001
 40
0.0
 40
0.0
 40
0.0
 40
0.0
 40
0.25
 40
0.25
 40
0.5
 40
0.5
 40
0.75
 40
0.75
 40
1.0
 40
1.0
 40
1.0
 40
1.0
 10
334.3790898953343
 20
101.9609819060022
 30
0.0
 10
334.4311476042251
 20
101.8661072966916
 30
0.0
 10
334.4844811425532
 20
101.7865023718158
 30
0.0
 10
334.5914131501813
 20
101.6776657569216
 30
0.0
 10
334.6451665166288
 20
101.6483421512311
 30
0.0
 10
334.7533455680525
 20
101.6484069329767
 30
0.0
 10
334.8081742646405
 20
101.678563126303
 30
0.0
 10
334.9150812473003
 20
101.7881483276688
 30
0.0
 10
334.9675027622727
 20
101.8666913014709
 30
0.0
 10
335.0192400276749
 20
101.9609819060022
 30
0.0
  0
LINE
  5
38B
330
1F
100
AcDbEntity
  8
0
  6
Continuous
 62
     7
370
    25
100
AcDbLine
 10
334.3933501725
 20
101.4463019206
 30
0.0
 11
328.0933501725
 21
101.4463019206
 31
0.0
  0
LINE
  5
38C
330
1F
100
AcDbEntity
  8
0
  6
Continuous
 62
     7
370
    25
100
AcDbLine
 10
327.4674603173
 20
104.1316219352
 30
0.0
 11
327.4674603173
 21
101.960981906
 31
0.0
  0
LINE
  5
38D
330
1F
100
AcDbEntity
  8
0
  6
Continuous
 62
     7
370
    25
100
AcDbLine
 10
335.0192400277
 20
104.1316219352
 30
0.0
 11
335.0192400277
 21
101.960981906
 31
0.0
  0
SPLINE
  5
38E
330
1F
100
AcDbEntity
  8
0
  6
Continuous
 62
     7
370
    25
100
AcDbSpline
210
0.0
220
0.0
230
1.0
 70
     8
 71
     3
 72
    14
 73
    10
 74
     0
 42
0.000000001
 43
0.00000001
 40
0.0
 40
0.0
 40
0.0
 40
0.0
 40
0.25
 40
0.25
 40
0.5
 40
0.5
 40
0.75
 40
0.75
 40
1.0
 40
1.0
 40
1.0
 40
1.0
 10
497.3790898953343
 20
104.1316219352302
 30
0.0
 10
497.4311476042251
 20
104.2264965445408
 30
0.0
 10
497.4844811425532
 20
104.3061014694165
 30
0.0
 10
497.5914131501813
 20
104.4149380843107
 30
0.0
 10
497.6451665166289
 20
104.4442616900012
 30
0.0
 10
497.7533455680526
 20
104.4441969082556
 30
0.0
 10
497.8081742646406
 20
104.4140407149293
 30
0.0
 10
497.9150812473005
 20
104.3044555135636
 30
0.0
 10
497.9675027622728
 20
104.2259125397614
 30
0.0
 10
498.0192400276749
 20
104.1316219352302
 30
0.0
  0
SPLINE
  5
38F
330
1F
100
AcDbEntity
  8
0
  6
Continuous
 62
     7
370
    25
100
AcDbSpline
210
0.0
220
0.0
230
1.0
 70
     8
 71
     3
 72
    12
 73
     8
 74
     0
 42
0.000000001
 43
0.00000001
 40
0.0
 40
0.0
 40
0.0
 40
0.0
 40
0.5000000000000029
 40
0.5000000000000029
 40
0.7500000000000014
 40
0.7500000000000014
 40
1.0
 40
1.0
 40
1.0
 40
1.0
 10
497.3790898953345
 20
104.1316219352312
 30
0.0
 10
496.7625595054142
 20
104.3221162246547
 30
0.0
 10
496.1367916329644
 20
104.443790637717
 30
0.0
 10
495.1737299235796
 20
104.4444468282483
 30
0.0
 10
494.8530368884498
 20
104.4146128264539
 30
0.0
 10
494.2230786384538
 20
104.3056829563463
 30
0.0
 10
493.9118493704229
 20
104.2269877692834
 30
0.0
 10
493.6032000401383
 20
104.1316219352307
 30
0.0
  0
SPLINE
  5
390
330
1F
100
AcDbEntity
  8
0
  6
Continuous
 62
     7
370
    25
100
AcDbSpline
210
0.0
220
0.0
230
1.0
 70
     8
 71
     3
 72
    12
 73
     8
 74
     0
 42
0.000000001
 43
0.00000001
 40
0.0
 40
0.0
 40
0.0
 40
0.0
 40
0.4999999999999968
 40
0.4999999999999968
 40
0.7499999999999983
 40
0.7499999999999983
 40
1.0
 40
1.0
 40
1.0
 40
1.0
 10
493.6032000401385
 20
104.1316219352312
 30
0.0
 10
493.0911938884336
 20
104.3221162246547
 30
0.0
 10
492.5715163421654
 20
104.443790637717
 30
0.0
 10
491.7717284846028
 20
104.4444468282483
 30
0.0
 10
491.5054045377548
 20
104.4146128264539
 30
0.0
 10
490.9822470347534
 20
104.3056829563463
 30
0.0
 10
490.723782403605
 20
104.2269877692834
 30
0.0
 10
490.467460317283
 20
104.1316219352307
 30
0.0
  0
SPLINE
  5
391
330
1F
100
AcDbEntity
  8
0
  6
Continuous
 62
     7
370
    25
100
AcDbSpline
210
0.0
220
0.0
230
1.0
 70
     8
 71
     3
 72
     9
 73
     5
 74
     0
 42
0.000000001
 43
0.00000001
 40
0.0
 40
0.0
 40
0.0
 40
0.0
 40
0.3722348086954455
 40
0.9999999999999999
 40
0.9999999999999999
 40
0.9999999999999999
 40
0.9999999999999999
 10
490.467460317283
 20
104.1316219352302
 30
0.0
 10
490.4954265509548
 20
104.1835462440038
 30
0.0
 10
490.5705571755457
 20
104.3230396700902
 30
0.0
 10
490.6491010337023
 20
104.3310483961954
 30
0.0
 10
490.6984081338438
 20
104.3360759956709
 30
0.0
  0
LINE
  5
392
330
1F
100
AcDbEntity
  8
0
  6
Continuous
 62
     7
370
    25
100
AcDbLine
 10
497.3933501725
 20
104.6463019206
 30
0.0
 11
491.0933501725
 21
104.6463019206
 31
0.0
  0
LINE
  5
393
330
1F
100
AcDbEntity
  8
0
  6
Continuous
 62
     7
370
    25
100
AcDbLine
 10
497.3790898953
 20
104.1316219352
 30
0.0
 11
497.3790898953
 21
101.960981906
 31
0.0
  0
SPLINE
  5
394
330
1F
100
AcDbEntity
  8
0
  6
Continuous
 62
     7
370
    25
100
AcDbSpline
210
0.0
220
0.0
230
1.0
 70
     8
 71
     3
 72
    12
 73
     8
 74
     0
 42
0.000000001
 43
0.00000001
 40
0.0
 40
0.0
 40
0.0
 40
0.0
 40
0.5000000000000029
 40
0.5000000000000029
 40
0.7500000000000014
 40
0.7500000000000014
 40
1.0
 40
1.0
 40
1.0
 40
1.0
 10
493.6032000401382
 20
101.9609819060012
 30
0.0
 10
494.2197304300586
 20
101.7704876165777
 30
0.0
 10
494.8454983025084
 20
101.6488132035153
 30
0.0
 10
495.8085600118932
 20
101.648157012984
 30
0.0
 10
496.1292530470229
 20
101.6779910147785
 30
0.0
 10
496.7592112970189
 20
101.786920884886
 30
0.0
 10
497.0704405650498
 20
101.8656160719489
 30
0.0
 10
497.3790898953344
 20
101.9609819060017
 30
0.0
  0
LINE
  5
395
330
1F
100
AcDbEntity
  8
0
  6
Continuous
 62
     7
370
    25
100
AcDbLine
 10
493.6032000401
 20
104.1316219352
 30
0.0
 11
493.6032000401
 21
101.960981906
 31
0.0
  0
SPLINE
  5
396
330
1F
100
AcDbEntity
  8
0
  6
Continuous
 62
     7
370
    25
100
AcDbSpline
210
0.0
220
0.0
230
1.0
 70
     8
 71
     3
 72
     9
 73
     5
 74
     0
 42
0.000000001
 43
0.00000001
 40
0.0
 40
0.0
 40
0.0
 40
0.0
 40
0.6277651913045473
 40
1.0
 40
1.0
 40
1.0
 40
1.0
 10
490.6984081338438
 20
101.7565278455615
 30
0.0
 10
490.6491010337023
 20
101.761555445037
 30
0.0
 10
490.5705571755457
 20
101.7695641711421
 30
0.0
 10
490.4954265509548
 20
101.9090575972286
 30
0.0
 10
490.467460317283
 20
101.9609819060022
 30
0.0
  0
SPLINE
  5
397
330
1F
100
AcDbEntity
  8
0
  6
Continuous
 62
     7
370
    25
100
AcDbSpline
210
0.0
220
0.0
230
1.0
 70
     8
 71
     3
 72
    12
 73
     8
 74
     0
 42
0.000000001
 43
0.00000001
 40
0.0
 40
0.0
 40
0.0
 40
0.0
 40
0.5000000000000032
 40
0.5000000000000032
 40
0.7500000000000016
 40
0.7500000000000016
 40
1.0
 40
1.0
 40
1.0
 40
1.0
 10
490.4674603172829
 20
101.9609819060012
 30
0.0
 10
490.9794664689878
 20
101.7704876165777
 30
0.0
 10
491.4991440152561
 20
101.6488132035153
 30
0.0
 10
492.2989318728186
 20
101.6481570129841
 30
0.0
 10
492.5652558196667
 20
101.6779910147785
 30
0.0
 10
493.0884133226681
 20
101.7869208848861
 30
0.0
 10
493.3468779538164
 20
101.8656160719489
 30
0.0
 10
493.6032000401385
 20
101.9609819060017
 30
0.0
  0
SPLINE
  5
398
330
1F
100
AcDbEntity
  8
0
  6
Continuous
 62
     7
370
    25
100
AcDbSpline
210
0.0
220
0.0
230
1.0
 70
     8
 71
     3
 72
    14
 73
    10
 74
     0
 42
0.000000001
 43
0.00000001
 40
0.0
 40
0.0
 40
0.0
 40
0.0
 40
0.25
 40
0.25
 40
0.5
 40
0.5
 40
0.75
 40
0.75
 40
1.0
 40
1.0
 40
1.0
 40
1.0
 10
497.3790898953343
 20
101.9609819060022
 30
0.0
 10
497.4311476042251
 20
101.8661072966916
 30
0.0
 10
497.4844811425532
 20
101.7865023718158
 30
0.0
 10
497.5914131501813
 20
101.6776657569216
 30
0.0
 10
497.6451665166289
 20
101.6483421512311
 30
0.0
 10
497.7533455680526
 20
101.6484069329767
 30
0.0
 10
497.8081742646406
 20
101.678563126303
 30
0.0
 10
497.9150812473005
 20
101.7881483276688
 30
0.0
 10
497.9675027622728
 20
101.8666913014709
 30
0.0
 10
498.0192400276749
 20
101.9609819060022
 30
0.0
  0
LINE
  5
399
330
1F
100
AcDbEntity
  8
0
  6
Continuous
 62
     7
370
    25
100
AcDbLine
 10
497.3933501725
 20
101.4463019206
 30
0.0
 11
491.0933501725
 21
101.4463019206
 31
0.0
  0
LINE
  5
39A
330
1F
100
AcDbEntity
  8
0
  6
Continuous
 62
     7
370
    25
100
AcDbLine
 10
490.4674603173
 20
104.1316219352
 30
0.0
 11
490.4674603173
 21
101.960981906
 31
0.0
  0
LINE
  5
39B
330
1F
100
AcDbEntity
  8
0
  6
Continuous
 62
     7
370
    25
100
AcDbLine
 10
498.0192400277
 20
104.1316219352
 30
0.0
 11
498.0192400277
 21
101.960981906
 31
0.0
  0
SPLINE
  5
39C
330
1F
100
AcDbEntity
  8
0
  6
Continuous
 62
     7
370
    25
100
AcDbSpline
210
0.0
220
0.0
230
1.0
 70
     8
 71
     3
 72
    14
 73
    10
 74
     0
 42
0.000000001
 43
0.00000001
 40
0.0
 40
0.0
 40
0.0
 40
0.0
 40
0.25
 40
0.25
 40
0.5
 40
0.5
 40
0.75
 40
0.75
 40
1.0
 40
1.0
 40
1.0
 40
1.0
 10
184.3790898953343
 20
104.1316219352302
 30
0.0
 10
184.4311476042252
 20
104.2264965445408
 30
0.0
 10
184.4844811425532
 20
104.3061014694166
 30
0.0
 10
184.5914131501814
 20
104.4149380843108
 30
0.0
 10
184.6451665166288
 20
104.4442616900013
 30
0.0
 10
184.7533455680525
 20
104.4441969082557
 30
0.0
 10
184.8081742646405
 20
104.4140407149293
 30
0.0
 10
184.9150812473004
 20
104.3044555135636
 30
0.0
 10
184.9675027622727
 20
104.2259125397615
 30
0.0
 10
185.0192400276749
 20
104.1316219352302
 30
0.0
  0
SPLINE
  5
39D
330
1F
100
AcDbEntity
  8
0
  6
Continuous
 62
     7
370
    25
100
AcDbSpline
210
0.0
220
0.0
230
1.0
 70
     8
 71
     3
 72
    12
 73
     8
 74
     0
 42
0.000000001
 43
0.00000001
 40
0.0
 40
0.0
 40
0.0
 40
0.0
 40
0.4999999999999887
 40
0.4999999999999887
 40
0.7499999999999943
 40
0.7499999999999943
 40
1.0
 40
1.0
 40
1.0
 40
1.0
 10
184.3790898953344
 20
104.1316219352312
 30
0.0
 10
183.7625595054142
 20
104.3221162246547
 30
0.0
 10
183.1367916329644
 20
104.4437906377171
 30
0.0
 10
182.1737299235795
 20
104.4444468282483
 30
0.0
 10
181.8530368884498
 20
104.4146128264539
 30
0.0
 10
181.2230786384538
 20
104.3056829563463
 30
0.0
 10
180.9118493704229
 20
104.2269877692835
 30
0.0
 10
180.6032000401383
 20
104.1316219352307
 30
0.0
  0
SPLINE
  5
39E
330
1F
100
AcDbEntity
  8
0
  6
Continuous
 62
     7
370
    25
100
AcDbSpline
210
0.0
220
0.0
230
1.0
 70
     8
 71
     3
 72
    12
 73
     8
 74
     0
 42
0.000000001
 43
0.00000001
 40
0.0
 40
0.0
 40
0.0
 40
0.0
 40
0.5000000000000078
 40
0.5000000000000078
 40
0.7500000000000039
 40
0.7500000000000039
 40
1.0
 40
1.0
 40
1.0
 40
1.0
 10
180.6032000401385
 20
104.1316219352312
 30
0.0
 10
180.0911938884336
 20
104.3221162246547
 30
0.0
 10
179.5715163421653
 20
104.4437906377171
 30
0.0
 10
178.7717284846028
 20
104.4444468282483
 30
0.0
 10
178.5054045377548
 20
104.4146128264539
 30
0.0
 10
177.9822470347533
 20
104.3056829563463
 30
0.0
 10
177.7237824036051
 20
104.2269877692834
 30
0.0
 10
177.467460317283
 20
104.1316219352307
 30
0.0
  0
SPLINE
  5
39F
330
1F
100
AcDbEntity
  8
0
  6
Continuous
 62
     7
370
    25
100
AcDbSpline
210
0.0
220
0.0
230
1.0
 70
     8
 71
     3
 72
     9
 73
     5
 74
     0
 42
0.000000001
 43
0.00000001
 40
0.0
 40
0.0
 40
0.0
 40
0.0
 40
0.3722348086954467
 40
1.0
 40
1.0
 40
1.0
 40
1.0
 10
177.467460317283
 20
104.1316219352302
 30
0.0
 10
177.4954265509548
 20
104.1835462440038
 30
0.0
 10
177.5705571755456
 20
104.3230396700903
 30
0.0
 10
177.6491010337022
 20
104.3310483961954
 30
0.0
 10
177.6984081338438
 20
104.3360759956709
 30
0.0
  0
LINE
  5
3A0
330
1F
100
AcDbEntity
  8
0
  6
Continuous
 62
     7
370
    25
100
AcDbLine
 10
184.3933501725
 20
104.6463019206
 30
0.0
 11
178.0933501725
 21
104.6463019206
 31
0.0
  0
LINE
  5
3A1
330
1F
100
AcDbEntity
  8
0
  6
Continuous
 62
     7
370
    25
100
AcDbLine
 10
184.3790898953
 20
104.1316219352
 30
0.0
 11
184.3790898953
 21
101.960981906
 31
0.0
  0
SPLINE
  5
3A2
330
1F
100
AcDbEntity
  8
0
  6
Continuous
 62
     7
370
    25
100
AcDbSpline
210
0.0
220
0.0
230
1.0
 70
     8
 71
     3
 72
    12
 73
     8
 74
     0
 42
0.000000001
 43
0.00000001
 40
0.0
 40
0.0
 40
0.0
 40
0.0
 40
0.5000000000000077
 40
0.5000000000000077
 40
0.7500000000000038
 40
0.7500000000000038
 40
1.0
 40
1.0
 40
1.0
 40
1.0
 10
180.6032000401382
 20
101.9609819060012
 30
0.0
 10
181.2197304300585
 20
101.7704876165777
 30
0.0
 10
181.8454983025083
 20
101.6488132035153
 30
0.0
 10
182.8085600118931
 20
101.6481570129841
 30
0.0
 10
183.1292530470229
 20
101.6779910147785
 30
0.0
 10
183.7592112970189
 20
101.7869208848861
 30
0.0
 10
184.0704405650498
 20
101.8656160719489
 30
0.0
 10
184.3790898953344
 20
101.9609819060017
 30
0.0
  0
LINE
  5
3A3
330
1F
100
AcDbEntity
  8
0
  6
Continuous
 62
     7
370
    25
100
AcDbLine
 10
180.6032000401
 20
104.1316219352
 30
0.0
 11
180.6032000401
 21
101.960981906
 31
0.0
  0
SPLINE
  5
3A4
330
1F
100
AcDbEntity
  8
0
  6
Continuous
 62
     7
370
    25
100
AcDbSpline
210
0.0
220
0.0
230
1.0
 70
     8
 71
     3
 72
     9
 73
     5
 74
     0
 42
0.000000001
 43
0.00000001
 40
0.0
 40
0.0
 40
0.0
 40
0.0
 40
0.6277651913045479
 40
1.0
 40
1.0
 40
1.0
 40
1.0
 10
177.6984081338438
 20
101.7565278455615
 30
0.0
 10
177.6491010337024
 20
101.761555445037
 30
0.0
 10
177.5705571755457
 20
101.7695641711421
 30
0.0
 10
177.4954265509548
 20
101.9090575972286
 30
0.0
 10
177.467460317283
 20
101.9609819060022
 30
0.0
  0
SPLINE
  5
3A5
330
1F
100
AcDbEntity
  8
0
  6
Continuous
 62
     7
370
    25
100
AcDbSpline
210
0.0
220
0.0
230
1.0
 70
     8
 71
     3
 72
    12
 73
     8
 74
     0
 42
0.000000001
 43
0.00000001
 40
0.0
 40
0.0
 40
0.0
 40
0.0
 40
0.4999999999999921
 40
0.4999999999999921
 40
0.749999999999996
 40
0.749999999999996
 40
1.0
 40
1.0
 40
1.0
 40
1.0
 10
177.467460317283
 20
101.9609819060012
 30
0.0
 10
177.9794664689879
 20
101.7704876165777
 30
0.0
 10
178.4991440152561
 20
101.6488132035153
 30
0.0
 10
179.2989318728186
 20
101.6481570129841
 30
0.0
 10
179.5652558196667
 20
101.6779910147785
 30
0.0
 10
180.088413322668
 20
101.7869208848861
 30
0.0
 10
180.3468779538163
 20
101.865616071949
 30
0.0
 10
180.6032000401384
 20
101.9609819060017
 30
0.0
  0
SPLINE
  5
3A6
330
1F
100
AcDbEntity
  8
0
  6
Continuous
 62
     7
370
    25
100
AcDbSpline
210
0.0
220
0.0
230
1.0
 70
     8
 71
     3
 72
    14
 73
    10
 74
     0
 42
0.000000001
 43
0.00000001
 40
0.0
 40
0.0
 40
0.0
 40
0.0
 40
0.25
 40
0.25
 40
0.5
 40
0.5
 40
0.75
 40
0.75
 40
1.0
 40
1.0
 40
1.0
 40
1.0
 10
184.3790898953343
 20
101.9609819060022
 30
0.0
 10
184.4311476042252
 20
101.8661072966916
 30
0.0
 10
184.4844811425532
 20
101.7865023718158
 30
0.0
 10
184.5914131501814
 20
101.6776657569216
 30
0.0
 10
184.6451665166288
 20
101.6483421512311
 30
0.0
 10
184.7533455680525
 20
101.6484069329767
 30
0.0
 10
184.8081742646405
 20
101.6785631263031
 30
0.0
 10
184.9150812473004
 20
101.7881483276688
 30
0.0
 10
184.9675027622727
 20
101.866691301471
 30
0.0
 10
185.0192400276749
 20
101.9609819060022
 30
0.0
  0
LINE
  5
3A7
330
1F
100
AcDbEntity
  8
0
  6
Continuous
 62
     7
370
    25
100
AcDbLine
 10
184.3933501725
 20
101.4463019206
 30
0.0
 11
178.0933501725
 21
101.4463019206
 31
0.0
  0
LINE
  5
3A8
330
1F
100
AcDbEntity
  8
0
  6
Continuous
 62
     7
370
    25
100
AcDbLine
 10
177.4674603173
 20
104.1316219352
 30
0.0
 11
177.4674603173
 21
101.960981906
 31
0.0
  0
LINE
  5
3A9
330
1F
100
AcDbEntity
  8
0
  6
Continuous
 62
     7
370
    25
100
AcDbLine
 10
185.0192400277
 20
104.1316219352
 30
0.0
 11
185.0192400277
 21
101.960981906
 31
0.0
  0
LINE
  5
3AA
330
1F
100
AcDbEntity
  8
0
  6
Continuous
 62
     7
370
    25
100
AcDbLine
 10
664.2433501725
 20
98.7463019206
 30
0.0
 11
665.164280405
 21
88.8463019206
 31
0.0
  0
LINE
  5
3AB
330
1F
100
AcDbEntity
  8
0
  6
Continuous
 62
     7
370
    25
100
AcDbLine
 10
160.3224199399
 20
88.8463019206
 30
0.0
 11
161.2433501725
 21
98.7463019206
 31
0.0
  0
LINE
  5
3AC
330
1F
100
AcDbEntity
  8
0
  6
Continuous
 62
     7
370
    25
100
AcDbLine
 10
161.2433501725
 20
100.5463019206
 30
0.0
 11
664.2433501725
 21
100.5463019206
 31
0.0
  0
LINE
  5
3AD
330
1F
100
AcDbEntity
  8
0
  6
Continuous
 62
     7
370
    25
100
AcDbLine
 10
664.2433501725
 20
100.5463019206
 30
0.0
 11
664.2433501725
 21
98.7463019206
 31
0.0
  0
LINE
  5
3AE
330
1F
100
AcDbEntity
  8
0
  6
Continuous
 62
     7
370
    25
100
AcDbLine
 10
161.2433501725
 20
98.7463019206
 30
0.0
 11
161.2433501725
 21
100.5463019206
 31
0.0
  0
LINE
  5
3AF
330
1F
100
AcDbEntity
  8
0
  6
Continuous
 62
     7
370
    25
100
AcDbLine
 10
160.2433501725
 20
87.9963019206
 30
0.0
 11
160.3224199399
 21
88.8463019206
 31
0.0
  0
LINE
  5
3B0
330
1F
100
AcDbEntity
  8
0
  6
Continuous
 62
     7
370
    25
100
AcDbLine
 10
665.164280405
 20
88.8463019206
 30
0.0
 11
665.2433501725
 21
87.9963019206
 31
0.0
  0
LINE
  5
3B1
330
1F
100
AcDbEntity
  8
0
  6
Continuous
 62
     7
370
    25
100
AcDbLine
 10
643.9265580143
 20
109.7463019206
 30
0.0
 11
646.2433501725
 21
109.7463019206
 31
0.0
  0
LINE
  5
3B2
330
1F
100
AcDbEntity
  8
0
  6
Continuous
 62
     7
370
    25
100
AcDbLine
 10
642.2433501725
 20
109.7463019206
 30
0.0
 11
643.9265580143
 21
109.7463019206
 31
0.0
  0
LINE
  5
3B3
330
1F
100
AcDbEntity
  8
0
  6
Continuous
 62
     7
370
    25
100
AcDbLine
 10
330.9265580143
 20
109.7463019206
 30
0.0
 11
333.2433501725
 21
109.7463019206
 31
0.0
  0
LINE
  5
3B4
330
1F
100
AcDbEntity
  8
0
  6
Continuous
 62
     7
370
    25
100
AcDbLine
 10
329.2433501725
 20
109.7463019206
 30
0.0
 11
330.9265580143
 21
109.7463019206
 31
0.0
  0
LINE
  5
3B5
330
1F
100
AcDbEntity
  8
0
  6
Continuous
 62
     7
370
    25
100
AcDbLine
 10
493.9265580143
 20
109.7463019206
 30
0.0
 11
496.2433501725
 21
109.7463019206
 31
0.0
  0
LINE
  5
3B6
330
1F
100
AcDbEntity
  8
0
  6
Continuous
 62
     7
370
    25
100
AcDbLine
 10
492.2433501725
 20
109.7463019206
 30
0.0
 11
493.9265580143
 21
109.7463019206
 31
0.0
  0
LINE
  5
3B7
330
1F
100
AcDbEntity
  8
0
  6
Continuous
 62
     7
370
    25
100
AcDbLine
 10
180.9265580143
 20
109.7463019206
 30
0.0
 11
183.2433501725
 21
109.7463019206
 31
0.0
  0
LINE
  5
3B8
330
1F
100
AcDbEntity
  8
0
  6
Continuous
 62
     7
370
    25
100
AcDbLine
 10
179.2433501725
 20
109.7463019206
 30
0.0
 11
180.9265580143
 21
109.7463019206
 31
0.0
  0
LINE
  5
3B9
330
1F
100
AcDbEntity
  8
0
  6
Continuous
 62
     7
370
    25
100
AcDbLine
 10
665.7433501725
 20
120.9463019206
 30
0.0
 11
666.7433501725
 21
120.9463019206
 31
0.0
  0
LINE
  5
3BA
330
1F
100
AcDbEntity
  8
0
  6
Continuous
 62
     7
370
    25
100
AcDbLine
 10
666.7433501725
 20
120.9463019206
 30
0.0
 11
666.7433501725
 21
118.9463019206
 31
0.0
  0
LINE
  5
3BB
330
1F
100
AcDbEntity
  8
0
  6
Continuous
 62
     7
370
    25
100
AcDbLine
 10
666.7433501725
 20
118.9463019206
 30
0.0
 11
666.7433501725
 21
116.0463019206
 31
0.0
  0
LINE
  5
3BC
330
1F
100
AcDbEntity
  8
0
  6
Continuous
 62
     7
370
    25
100
AcDbLine
 10
666.7433501725
 20
110.0463019206
 30
0.0
 11
666.7433501725
 21
89.9463019206
 31
0.0
  0
LINE
  5
3BD
330
1F
100
AcDbEntity
  8
0
  6
Continuous
 62
     7
370
    25
100
AcDbLine
 10
664.7433501725
 20
102.5463019206
 30
0.0
 11
664.7433501725
 21
93.3713019206
 31
0.0
  0
LINE
  5
3BE
330
1F
100
AcDbEntity
  8
0
  6
Continuous
 62
     7
370
    25
100
AcDbLine
 10
666.7416830426
 20
89.8463019206
 30
0.0
 11
666.7433501725
 21
89.9463019206
 31
0.0
  0
LINE
  5
3BF
330
1F
100
AcDbEntity
  8
0
  6
Continuous
 62
     7
370
    25
100
AcDbLine
 10
666.7433501725
 20
104.9463019206
 30
0.0
 11
666.8036575517
 21
104.9463019206
 31
0.0
  0
LINE
  5
3C0
330
1F
100
AcDbEntity
  8
0
  6
Continuous
 62
     7
370
    25
100
AcDbLine
 10
666.8036575517
 20
120.9463019206
 30
0.0
 11
666.7433501725
 21
120.9463019206
 31
0.0
  0
LINE
  5
3C1
330
1F
100
AcDbEntity
  8
0
  6
Continuous
 62
     7
370
    25
100
AcDbLine
 10
666.8036575517
 20
120.9463019206
 30
0.0
 11
668.674856274
 21
120.9463019206
 31
0.0
  0
LWPOLYLINE
  5
3C2
330
1F
100
AcDbEntity
  8
0
  6
Continuous
 62
     7
370
    25
100
AcDbPolyline
 90
        9
 70
   128
 43
0.0
 10
669.3588965607
 20
118.9463019206
 10
669.3457529184
 20
119.3364825646
 10
669.3068270943
 20
119.7116687853
 10
669.2436149859
 20
120.0574423867
 10
669.1585457993
 20
120.360515483
 10
669.0548886955
 20
120.6092411452
 10
668.9366271588
 20
120.7940609856
 10
668.8083059138
 20
120.9078724814
 10
668.674856274
 20
120.9463019206
  0
LINE
  5
3C3
330
1F
100
AcDbEntity
  8
0
  6
Continuous
 62
     7
370
    25
100
AcDbLine
 10
669.3588965607
 20
118.9463019206
 30
0.0
 11
669.3588965607
 21
116.0463019206
 31
0.0
  0
LINE
  5
3C4
330
1F
100
AcDbEntity
  8
0
  6
Continuous
 62
     7
370
    25
100
AcDbLine
 10
669.3588965607
 20
110.0463019206
 30
0.0
 11
669.3588965607
 21
106.9463019206
 31
0.0
  0
LWPOLYLINE
  5
3C5
330
1F
100
AcDbEntity
  8
0
  6
Continuous
 62
     7
370
    25
100
AcDbPolyline
 90
        9
 70
   128
 43
0.0
 10
668.674856274
 20
104.9463019206
 10
668.8083059138
 20
104.9847313598
 10
668.9366271588
 20
105.0985428556
 10
669.0548886955
 20
105.283362696
 10
669.1585457993
 20
105.5320883582
 10
669.2436149859
 20
105.8351614546
 10
669.3068270943
 20
106.1809350559
 10
669.3457529184
 20
106.5561212766
 10
669.3588965607
 20
106.9463019206
  0
LINE
  5
3C6
330
1F
100
AcDbEntity
  8
0
  6
Continuous
 62
     7
370
    25
100
AcDbLine
 10
668.674856274
 20
104.9463019206
 30
0.0
 11
666.8036575517
 21
104.9463019206
 31
0.0
  0
LINE
  5
3C7
330
1F
100
AcDbEntity
  8
0
  6
Continuous
 62
     7
370
    25
100
AcDbLine
 10
158.7433501725
 20
120.9463019206
 30
0.0
 11
159.7433501725
 21
120.9463019206
 31
0.0
  0
LINE
  5
3C8
330
1F
100
AcDbEntity
  8
0
  6
Continuous
 62
     7
370
    25
100
AcDbLine
 10
158.7433501725
 20
118.9463019206
 30
0.0
 11
158.7433501725
 21
120.9463019206
 31
0.0
  0
LINE
  5
3C9
330
1F
100
AcDbEntity
  8
0
  6
Continuous
 62
     7
370
    25
100
AcDbLine
 10
158.7433501725
 20
89.9463019206
 30
0.0
 11
158.7433501725
 21
110.0463019206
 31
0.0
  0
LINE
  5
3CA
330
1F
100
AcDbEntity
  8
0
  6
Continuous
 62
     7
370
    25
100
AcDbLine
 10
158.7433501725
 20
116.0463019206
 30
0.0
 11
158.7433501725
 21
118.9463019206
 31
0.0
  0
LINE
  5
3CB
330
1F
100
AcDbEntity
  8
0
  6
Continuous
 62
     7
370
    25
100
AcDbLine
 10
160.7433501725
 20
93.3713019206
 30
0.0
 11
160.7433501725
 21
102.5463019206
 31
0.0
  0
LINE
  5
3CC
330
1F
100
AcDbEntity
  8
0
  6
Continuous
 62
     7
370
    25
100
AcDbLine
 10
158.7433501725
 20
89.9463019206
 30
0.0
 11
158.7450173024
 21
89.8463019206
 31
0.0
  0
LINE
  5
3CD
330
1F
100
AcDbEntity
  8
0
  6
Continuous
 62
     7
370
    25
100
AcDbLine
 10
158.6830427933
 20
104.9463019206
 30
0.0
 11
158.7433501725
 21
104.9463019206
 31
0.0
  0
LINE
  5
3CE
330
1F
100
AcDbEntity
  8
0
  6
Continuous
 62
     7
370
    25
100
AcDbLine
 10
158.7433501725
 20
120.9463019206
 30
0.0
 11
158.6830427933
 21
120.9463019206
 31
0.0
  0
LWPOLYLINE
  5
3CF
330
1F
100
AcDbEntity
  8
0
  6
Continuous
 62
     7
370
    25
100
AcDbPolyline
 90
        9
 70
   128
 43
0.0
 10
156.811844071
 20
120.9463019206
 10
156.6783944312
 20
120.9078724814
 10
156.5500731862
 20
120.7940609856
 10
156.4318116495
 20
120.6092411452
 10
156.3281545457
 20
120.360515483
 10
156.243085359
 20
120.0574423867
 10
156.1798732507
 20
119.7116687853
 10
156.1409474266
 20
119.3364825646
 10
156.1278037843
 20
118.9463019206
  0
LINE
  5
3D0
330
1F
100
AcDbEntity
  8
0
  6
Continuous
 62
     7
370
    25
100
AcDbLine
 10
156.811844071
 20
120.9463019206
 30
0.0
 11
158.6830427933
 21
120.9463019206
 31
0.0
  0
LINE
  5
3D1
330
1F
100
AcDbEntity
  8
0
  6
Continuous
 62
     7
370
    25
100
AcDbLine
 10
158.6830427933
 20
104.9463019206
 30
0.0
 11
156.811844071
 21
104.9463019206
 31
0.0
  0
LWPOLYLINE
  5
3D2
330
1F
100
AcDbEntity
  8
0
  6
Continuous
 62
     7
370
    25
100
AcDbPolyline
 90
        9
 70
   128
 43
0.0
 10
156.1278037843
 20
106.9463019206
 10
156.1409474266
 20
106.5561212766
 10
156.1798732507
 20
106.1809350559
 10
156.243085359
 20
105.8351614546
 10
156.3281545457
 20
105.5320883582
 10
156.4318116495
 20
105.283362696
 10
156.5500731862
 20
105.0985428556
 10
156.6783944312
 20
104.9847313598
 10
156.811844071
 20
104.9463019206
  0
LINE
  5
3D3
330
1F
100
AcDbEntity
  8
0
  6
Continuous
 62
     7
370
    25
100
AcDbLine
 10
156.1278037843
 20
106.9463019206
 30
0.0
 11
156.1278037843
 21
110.0463019206
 31
0.0
  0
LINE
  5
3D4
330
1F
100
AcDbEntity
  8
0
  6
Continuous
 62
     7
370
    25
100
AcDbLine
 10
156.1278037843
 20
116.0463019206
 30
0.0
 11
156.1278037843
 21
118.9463019206
 31
0.0
  0
SPLINE
  5
3D5
330
1F
100
AcDbEntity
  8
0
  6
Continuous
 62
     7
370
    25
100
AcDbSpline
210
0.0
220
0.0
230
1.0
 70
    24
 71
     3
 72
     9
 73
     5
 74
     0
 42
0.000000001
 43
0.00000001
 40
0.0
 40
0.0
 40
0.0
 40
0.0
 40
0.7059102712400938
 40
1.0
 40
1.0
 40
1.0
 40
1.0
 10
160.5433501724775
 20
118.8195507300062
 30
0.0
 10
160.5433501724775
 20
118.8298034993028
 30
0.0
 10
160.5433501724775
 20
118.8443276813614
 30
0.0
 10
160.5433501724775
 20
118.7492757247531
 30
0.0
 10
160.5433501724775
 20
118.7213219206161
 30
0.0
  0
SPLINE
  5
3D6
330
1F
100
AcDbEntity
  8
0
  6
Continuous
 62
     7
370
    25
100
AcDbSpline
210
0.0
220
0.0
230
1.0
 70
    24
 71
     3
 72
    12
 73
     8
 74
     0
 42
0.000000001
 43
0.00000001
 40
0.0
 40
0.0
 40
0.0
 40
0.0
 40
0.3344405486782616
 40
0.5144757571369847
 40
0.6983315710265335
 40
0.8821873849160835
 40
1.0
 40
1.0
 40
1.0
 40
1.0
 10
161.5433501724775
 20
115.5526092256728
 30
0.0
 10
161.5433501724775
 20
116.1767547611746
 30
0.0
 10
161.5433501724775
 20
117.1368887766522
 30
0.0
 10
161.5433501724775
 20
118.0447996829475
 30
0.0
 10
161.5433501724775
 20
118.5505170208636
 30
0.0
 10
161.5433501724775
 20
118.8221367550018
 30
0.0
 10
161.5433501724775
 20
118.8202770235421
 30
0.0
 10
161.5433501724775
 20
118.8195507300172
 30
0.0
  0
SPLINE
  5
3D7
330
1F
100
AcDbEntity
  8
0
  6
Continuous
 62
     7
370
    25
100
AcDbSpline
210
0.0
220
0.0
230
1.0
 70
    24
 71
     3
 72
    15
 73
    11
 74
     0
 42
0.000000001
 43
0.00000001
 40
0.0
 40
0.0
 40
0.0
 40
0.0
 40
0.0346967497918661
 40
0.2211884951269648
 40
0.407680240462064
 40
0.5080720152630789
 40
0.6105942475634826
 40
0.7131164798638865
 40
0.8135082546649008
 40
1.0
 40
1.0
 40
1.0
 40
1.0
 10
161.5433501724775
 20
107.2730531112115
 30
0.0
 10
161.5433501724775
 20
107.26633200758
 30
0.0
 10
161.5433501724776
 20
107.2234856082273
 30
0.0
 10
161.5433501724775
 20
107.7115265709857
 30
0.0
 10
161.5433501724774
 20
108.8074376284543
 30
0.0
 10
161.5433501724775
 20
110.0263347609018
 30
0.0
 10
161.5433501724775
 20
111.1065099887587
 30
0.0
 10
161.5433501724775
 20
112.2669868912244
 30
0.0
 10
161.5433501724774
 20
113.7975617863396
 30
0.0
 10
161.5433501724775
 20
114.8611876749896
 30
0.0
 10
161.5433501724775
 20
115.5526092256728
 30
0.0
  0
LINE
  5
3D8
330
1F
100
AcDbEntity
  8
0
  6
Continuous
 62
     7
370
    25
100
AcDbLine
 10
165.5433501725
 20
112.6629068929
 30
0.0
 11
165.5433501725
 21
117.1719827999
 31
0.0
  0
SPLINE
  5
3D9
330
1F
100
AcDbEntity
  8
0
  6
Continuous
 62
     7
370
    25
100
AcDbSpline
210
0.0
220
0.0
230
1.0
 70
     8
 71
     3
 72
     8
 73
     4
 74
     0
 42
0.000000001
 43
0.00000001
 40
0.0
 40
0.0
 40
0.0
 40
0.0
 40
1.0
 40
1.0
 40
1.0
 40
1.0
 10
165.5433501724704
 20
112.6629068929279
 30
0.0
 10
165.5433501724704
 20
113.6452853375006
 30
0.0
 10
165.369034872091
 20
114.6007765056904
 30
0.0
 10
165.096768185079
 20
115.541159155018
 30
0.0
  0
SPLINE
  5
3DA
330
1F
100
AcDbEntity
  8
0
  6
Continuous
 62
     7
370
    25
100
AcDbSpline
210
0.0
220
0.0
230
1.0
 70
     8
 71
     3
 72
     8
 73
     4
 74
     0
 42
0.000000001
 43
0.00000001
 40
0.0
 40
0.0
 40
0.0
 40
0.0
 40
1.0
 40
1.0
 40
1.0
 40
1.0
 10
165.096768185079
 20
115.541159155024
 30
0.0
 10
165.3690348720904
 20
116.0739818960889
 30
0.0
 10
165.5433501724703
 20
116.6153651549835
 30
0.0
 10
165.5433501724703
 20
117.1719827999119
 30
0.0
  0
SPLINE
  5
3DB
330
1F
100
AcDbEntity
  8
0
  6
Continuous
 62
     7
370
    25
100
AcDbSpline
210
0.0
220
0.0
230
1.0
 70
     8
 71
     3
 72
     8
 73
     4
 74
     0
 42
0.000000001
 43
0.00000001
 40
0.0
 40
0.0
 40
0.0
 40
0.0
 40
1.0
 40
1.0
 40
1.0
 40
1.0
 10
165.0967681850791
 20
109.7846546308379
 30
0.0
 10
165.3690348720905
 20
110.7250372801637
 30
0.0
 10
165.5433501724704
 20
111.6805284483569
 30
0.0
 10
165.5433501724704
 20
112.6629068929279
 30
0.0
  0
LINE
  5
3DC
330
1F
100
AcDbEntity
  8
0
  6
Continuous
 62
     7
370
    25
100
AcDbLine
 10
161.5433501725
 20
109.7846546308
 30
0.0
 11
165.0967681851
 21
109.7846546308
 31
0.0
  0
LINE
  5
3DD
330
1F
100
AcDbEntity
  8
0
  6
Continuous
 62
     7
370
    25
100
AcDbLine
 10
161.5433501725
 20
115.541159155
 30
0.0
 11
165.0967681851
 21
115.541159155
 31
0.0
  0
LINE
  5
3DE
330
1F
100
AcDbEntity
  8
0
  6
Continuous
 62
     7
370
    25
100
AcDbLine
 10
165.5433501725
 20
108.5372260136
 30
0.0
 11
165.5433501725
 21
112.6629068929
 31
0.0
  0
SPLINE
  5
3DF
330
1F
100
AcDbEntity
  8
0
  6
Continuous
 62
     7
370
    25
100
AcDbSpline
210
0.0
220
0.0
230
1.0
 70
     8
 71
     3
 72
     8
 73
     4
 74
     0
 42
0.000000001
 43
0.00000001
 40
0.0
 40
0.0
 40
0.0
 40
0.0
 40
1.0
 40
1.0
 40
1.0
 40
1.0
 10
165.5433501724703
 20
108.5372260136303
 30
0.0
 10
165.5433501724703
 20
108.9629868132736
 30
0.0
 10
165.3690348720909
 20
109.3770947225706
 30
0.0
 10
165.096768185079
 20
109.7846546308323
 30
0.0
  0
SPLINE
  5
3E0
330
1F
100
AcDbEntity
  8
0
  6
Continuous
 62
     7
370
    25
100
AcDbSpline
210
0.0
220
0.0
230
1.0
 70
     8
 71
     3
 72
     8
 73
     4
 74
     0
 42
0.000000001
 43
0.00000001
 40
0.0
 40
0.0
 40
0.0
 40
0.0
 40
1.0
 40
1.0
 40
1.0
 40
1.0
 10
165.5433501724703
 20
117.1719827999119
 30
0.0
 10
165.5433501724703
 20
117.7286004448414
 30
0.0
 10
165.3690348720909
 20
118.269983703734
 30
0.0
 10
165.096768185079
 20
118.8028064447998
 30
0.0
  0
LINE
  5
3E1
330
1F
100
AcDbEntity
  8
0
  6
Continuous
 62
     7
370
    25
100
AcDbLine
 10
161.5433501725
 20
118.8028064448
 30
0.0
 11
165.0967681851
 21
118.8028064448
 31
0.0
  0
SPLINE
  5
3E2
330
1F
100
AcDbEntity
  8
0
  6
Continuous
 62
     7
370
    25
100
AcDbSpline
210
0.0
220
0.0
230
1.0
 70
     8
 71
     3
 72
     8
 73
     4
 74
     0
 42
0.000000001
 43
0.00000001
 40
0.0
 40
0.0
 40
0.0
 40
0.0
 40
1.0
 40
1.0
 40
1.0
 40
1.0
 10
165.096768185079
 20
107.2897973964283
 30
0.0
 10
165.3690348720905
 20
107.6973573046894
 30
0.0
 10
165.5433501724703
 20
108.1114652139877
 30
0.0
 10
165.5433501724703
 20
108.5372260136303
 30
0.0
  0
LINE
  5
3E3
330
1F
100
AcDbEntity
  8
0
  6
Continuous
 62
     7
370
    25
100
AcDbLine
 10
165.0967681851
 20
107.2897973964
 30
0.0
 11
161.5433501725
 21
107.2897973964
 31
0.0
  0
LINE
  5
3E4
330
1F
100
AcDbEntity
  8
0
  6
Continuous
 62
     7
370
    25
100
AcDbLine
 10
150.5433501725
 20
115.5050519206
 30
0.0
 11
150.5433501725
 21
110.5875519206
 31
0.0
  0
LINE
  5
3E5
330
1F
100
AcDbEntity
  8
0
  6
Continuous
 62
     7
370
    25
100
AcDbLine
 10
151.0846001725
 20
110.3408563764
 30
0.0
 11
151.0846001725
 21
110.0463019206
 31
0.0
  0
LINE
  5
3E6
330
1F
100
AcDbEntity
  8
0
  6
Continuous
 62
     7
370
    25
100
AcDbLine
 10
151.0846001725
 20
116.0463019206
 30
0.0
 11
151.0846001725
 21
110.3408563764
 31
0.0
  0
LINE
  5
3E7
330
1F
100
AcDbEntity
  8
0
  6
Continuous
 62
     7
370
    25
100
AcDbLine
 10
165.0967681851
 20
118.8028064448
 30
0.0
 11
165.1719559406
 21
118.592785977
 31
0.0
  0
LINE
  5
3E8
330
1F
100
AcDbEntity
  8
0
  6
Continuous
 62
     7
370
    25
100
AcDbLine
 10
165.5433501725
 20
117.1719827999
 30
0.0
 11
165.5433501725
 21
118.0463019206
 31
0.0
  0
LINE
  5
3E9
330
1F
100
AcDbEntity
  8
0
  6
Continuous
 62
     7
370
    25
100
AcDbLine
 10
165.5433501725
 20
108.0463019206
 30
0.0
 11
165.5433501725
 21
108.5372260136
 31
0.0
  0
ARC
  5
3EA
330
1F
100
AcDbEntity
  8
0
  6
Continuous
 62
     7
370
    25
100
AcDbCircle
 10
152.2433501725
 20
83.8463019206
 30
0.0
 40
6.0
100
AcDbArc
 50
90.0
 51
143.1301023542
  0
ARC
  5
3EB
330
1F
100
AcDbEntity
  8
0
  6
Continuous
 62
     7
370
    25
100
AcDbCircle
 10
673.2433501725
 20
83.8463019206
 30
0.0
 40
6.0
100
AcDbArc
 50
36.8698976458
 51
90.0
  0
LINE
  5
3EC
330
1F
100
AcDbEntity
  8
0
  6
Continuous
 62
     7
370
    25
100
AcDbLine
 10
28.3478010018
 20
347.6075204992
 30
0.0
 11
27.9848632235
 21
346.9788938271
 31
0.0
  0
LINE
  5
3ED
330
1F
100
AcDbEntity
  8
0
  6
Continuous
 62
     7
370
    25
100
AcDbLine
 10
27.9848632235
 20
340.6788938271
 30
0.0
 11
28.3478010018
 21
340.050267155
 31
0.0
  0
ARC
  5
3EE
330
1F
100
AcDbEntity
  8
0
  6
Continuous
 62
     7
370
    25
100
AcDbCircle
 10
31.2130664538
 20
343.8288938271
 30
0.0
 40
8.000000000000007
100
AcDbArc
 50
195.2747479997
 51
210.0
  0
ARC
  5
3EF
330
1F
100
AcDbEntity
  8
0
  6
Continuous
 62
     7
370
    25
100
AcDbCircle
 10
31.2130664538
 20
343.8288938271
 30
0.0
 40
8.000000000000007
100
AcDbArc
 50
150.0
 51
164.7252520003
  0
LINE
  5
3F0
330
1F
100
AcDbEntity
  8
0
  6
Continuous
 62
     7
370
    25
100
AcDbLine
 10
26.2848632235
 20
347.8288938271
 30
0.0
 11
24.2848632235
 21
347.8288938271
 31
0.0
  0
LINE
  5
3F1
330
1F
100
AcDbEntity
  8
0
  6
Continuous
 62
     7
370
    25
100
AcDbLine
 10
24.2848632235
 20
339.8288938271
 30
0.0
 11
26.2848632235
 21
339.8288938271
 31
0.0
  0
LINE
  5
3F2
330
1F
100
AcDbEntity
  8
0
  6
Continuous
 62
     7
370
    25
100
AcDbLine
 10
27.9848632235
 20
345.8288938271
 30
0.0
 11
27.8848632235
 21
345.8288938271
 31
0.0
  0
LINE
  5
3F3
330
1F
100
AcDbEntity
  8
0
  6
Continuous
 62
     7
370
    25
100
AcDbLine
 10
27.8848632235
 20
341.8288938271
 30
0.0
 11
27.9848632235
 21
341.8288938271
 31
0.0
  0
CIRCLE
  5
3F4
330
1F
100
AcDbEntity
  8
0
  6
Continuous
 62
     7
370
    25
100
AcDbCircle
 10
39.5848632235
 20
368.8288938271
 30
0.0
 40
2.45875000001659
  0
CIRCLE
  5
3F5
330
1F
100
AcDbEntity
  8
0
  6
Continuous
 62
     7
370
    25
100
AcDbCircle
 10
39.5848632235
 20
368.8288938271
 30
0.0
 40
3.000000000000008
  0
LINE
  5
3F6
330
1F
100
AcDbEntity
  8
0
  6
Continuous
 62
     7
370
    25
100
AcDbLine
 10
20.9848632235
 20
196.2996045052
 30
0.0
 11
20.9848632235
 21
339.358183149
 31
0.0
  0
LINE
  5
3F7
330
1F
100
AcDbEntity
  8
0
  6
Continuous
 62
     7
370
    25
100
AcDbLine
 10
11.3848632235
 20
339.358183149
 30
0.0
 11
20.9848632235
 21
339.358183149
 31
0.0
  0
LINE
  5
3F8
330
1F
100
AcDbEntity
  8
0
  6
Continuous
 62
     7
370
    25
100
AcDbLine
 10
11.3848632235
 20
196.2996045052
 30
0.0
 11
20.9848632235
 21
196.2996045052
 31
0.0
  0
SPLINE
  5
3F9
330
1F
100
AcDbEntity
  8
0
  6
Continuous
 62
     7
370
    25
100
AcDbSpline
210
0.0
220
0.0
230
1.0
 70
     8
 71
     3
 72
    20
 73
    16
 74
     0
 42
0.000000001
 43
0.00000001
 40
0.0
 40
0.0
 40
0.0
 40
0.0
 40
0.1250000000000097
 40
0.1250000000000097
 40
0.2500000000000195
 40
0.2500000000000195
 40
0.3750000000000292
 40
0.3750000000000292
 40
0.500000000000039
 40
0.500000000000039
 40
0.7500000000000289
 40
0.7500000000000289
 40
0.8750000000000145
 40
0.8750000000000145
 40
1.0
 40
1.0
 40
1.0
 40
1.0
 10
8.984863223474942
 20
338.4288938270936
 30
0.0
 10
8.984863223474942
 20
338.4679345579481
 30
0.0
 10
9.000399783949787
 20
338.5064532621479
 30
0.0
 10
9.06171813591039
 20
338.5838600134558
 30
0.0
 10
9.108141881497195
 20
338.6230044314426
 30
0.0
 10
9.228092751651324
 20
338.7001551853577
 30
0.0
 10
9.301697395934735
 20
338.7384827670987
 30
0.0
 10
9.476427762030372
 20
338.8160290875753
 30
0.0
 10
9.577278390931918
 20
338.8550052952439
 30
0.0
 10
9.90856367091586
 20
338.970500151689
 30
0.0
 10
10.17624383229975
 20
339.0484125953591
 30
0.0
 10
10.60891785835516
 20
339.1638925207599
 30
0.0
 10
10.7604359452063
 20
339.202758316625
 30
0.0
 10
11.06986170259241
 20
339.2805326502935
 30
0.0
 10
11.22648403228619
 20
339.3191424172483
 30
0.0
 10
11.38486322347493
 20
339.3581831489749
 30
0.0
  0
SPLINE
  5
3FA
330
1F
100
AcDbEntity
  8
0
  6
Continuous
 62
     7
370
    25
100
AcDbSpline
210
0.0
220
0.0
230
1.0
 70
     8
 71
     3
 72
    20
 73
    16
 74
     0
 42
0.000000001
 43
0.00000001
 40
0.0
 40
0.0
 40
0.0
 40
0.0
 40
0.1249999999999997
 40
0.1249999999999997
 40
0.2499999999999993
 40
0.2499999999999993
 40
0.374999999999999
 40
0.374999999999999
 40
0.4999999999999987
 40
0.4999999999999987
 40
0.7500000000000007
 40
0.7500000000000007
 40
0.8750000000000003
 40
0.8750000000000003
 40
1.0
 40
1.0
 40
1.0
 40
1.0
 10
11.38486322347493
 20
196.2996045052124
 30
0.0
 10
11.22648403582422
 20
196.338645236067
 30
0.0
 10
11.07023831113256
 20
196.3771639402668
 30
0.0
 10
10.76224646171593
 20
196.4545706915747
 30
0.0
 10
10.60960235424479
 20
196.4937151095614
 30
0.0
 10
10.32051806505773
 20
196.5708658634765
 30
0.0
 10
10.1827135268737
 20
196.6091934452176
 30
0.0
 10
9.9210948512348
 20
196.6867397656942
 30
0.0
 10
9.798348544552114
 20
196.7257159733628
 30
0.0
 10
9.467024167604421
 20
196.8412108298079
 30
0.0
 10
9.28801304357619
 20
196.9191232734779
 30
0.0
 10
9.108397944195316
 20
197.0346031988788
 30
0.0
 10
9.06215359532761
 20
197.0734689947438
 30
0.0
 10
9.000400289316396
 20
197.1512433284124
 30
0.0
 10
8.984863223474942
 20
197.1898530953671
 30
0.0
 10
8.984863223474942
 20
197.2288938270938
 30
0.0
  0
LINE
  5
3FB
330
1F
100
AcDbEntity
  8
0
  6
Continuous
 62
     7
370
    25
100
AcDbLine
 10
8.9848632235
 20
197.2288938271
 30
0.0
 11
8.9848632235
 21
338.4288938271
 31
0.0
  0
SPLINE
  5
3FC
330
1F
100
AcDbEntity
  8
0
  6
Continuous
 62
     7
370
    25
100
AcDbSpline
210
0.0
220
0.0
230
1.0
 70
     8
 71
     3
 72
    20
 73
    16
 74
     0
 42
0.000000001
 43
0.00000001
 40
0.0
 40
0.0
 40
0.0
 40
0.0
 40
0.1250000000000018
 40
0.1250000000000018
 40
0.2500000000000037
 40
0.2500000000000037
 40
0.3750000000000055
 40
0.3750000000000055
 40
0.5000000000000073
 40
0.5000000000000073
 40
0.7500000000000006
 40
0.7500000000000006
 40
0.8750000000000003
 40
0.8750000000000003
 40
1.0
 40
1.0
 40
1.0
 40
1.0
 10
8.984863223475019
 20
197.2288938270939
 30
0.0
 10
8.984863223475005
 20
197.0705146394432
 30
0.0
 10
9.000399783949856
 20
196.9142689147515
 30
0.0
 10
9.06171813591044
 20
196.6062770653348
 30
0.0
 10
9.108141881497236
 20
196.4536329578637
 30
0.0
 10
9.228092751651353
 20
196.1645486686766
 30
0.0
 10
9.30169739593475
 20
196.0267441304925
 30
0.0
 10
9.476427762030383
 20
195.7651254548536
 30
0.0
 10
9.577278390931934
 20
195.642379148171
 30
0.0
 10
9.90856367091588
 20
195.3110547712233
 30
0.0
 10
10.17624383229973
 20
195.1320436471951
 30
0.0
 10
10.60891785835516
 20
194.9524285478142
 30
0.0
 10
10.76043594520629
 20
194.9061841989464
 30
0.0
 10
11.06986170259239
 20
194.8444308929352
 30
0.0
 10
11.22648403228616
 20
194.8288938270937
 30
0.0
 10
11.3848632234749
 20
194.8288938270938
 30
0.0
  0
SPLINE
  5
3FD
330
1F
100
AcDbEntity
  8
0
  6
Continuous
 62
     7
370
    25
100
AcDbSpline
210
0.0
220
0.0
230
1.0
 70
     8
 71
     3
 72
     9
 73
     5
 74
     0
 42
0.000000001
 43
0.00000001
 40
0.0
 40
0.0
 40
0.0
 40
0.0
 40
0.4258694941521824
 40
1.0
 40
1.0
 40
1.0
 40
1.0
 10
10.82847179646601
 20
196.4189723897709
 30
0.0
 10
10.8988759730708
 20
196.3690507649264
 30
0.0
 10
11.06419463893332
 20
196.251827940728
 30
0.0
 10
11.26790620118966
 20
196.2372585555664
 30
0.0
 10
11.38486322347494
 20
196.2288938270938
 30
0.0
  0
LINE
  5
3FE
330
1F
100
AcDbEntity
  8
0
  6
Continuous
 62
     7
370
    25
100
AcDbLine
 10
11.3848632235
 20
194.8288938271
 30
0.0
 11
11.3848632235
 21
196.2288938271
 31
0.0
  0
SPLINE
  5
3FF
330
1F
100
AcDbEntity
  8
0
  6
Continuous
 62
     7
370
    25
100
AcDbSpline
210
0.0
220
0.0
230
1.0
 70
     8
 71
     3
 72
    20
 73
    16
 74
     0
 42
0.000000001
 43
0.00000001
 40
0.0
 40
0.0
 40
0.0
 40
0.0
 40
0.1249999999999993
 40
0.1249999999999993
 40
0.2499999999999987
 40
0.2499999999999987
 40
0.374999999999998
 40
0.374999999999998
 40
0.4999999999999973
 40
0.4999999999999973
 40
0.7499999999999987
 40
0.7499999999999987
 40
0.8749999999999993
 40
0.8749999999999993
 40
1.0
 40
1.0
 40
1.0
 40
1.0
 10
11.38486322347489
 20
340.8288938270935
 30
0.0
 10
11.22648403582419
 20
340.8288938270935
 30
0.0
 10
11.07023831113253
 20
340.8133572666187
 30
0.0
 10
10.76224646171589
 20
340.7520389146581
 30
0.0
 10
10.6096023542448
 20
340.7056151690713
 30
0.0
 10
10.32051806505774
 20
340.5856642989172
 30
0.0
 10
10.18271352687368
 20
340.5120596546338
 30
0.0
 10
9.921094851234775
 20
340.3373292885381
 30
0.0
 10
9.798348544552152
 20
340.2364786596366
 30
0.0
 10
9.46702416760444
 20
339.9051933796526
 30
0.0
 10
9.288013043576226
 20
339.6375132182687
 30
0.0
 10
9.108397944195337
 20
339.2048391922134
 30
0.0
 10
9.062153595327617
 20
339.0533211053622
 30
0.0
 10
9.000400289316396
 20
338.7438953479761
 30
0.0
 10
8.98486322347495
 20
338.5872730182824
 30
0.0
 10
8.984863223474942
 20
338.4288938270936
 30
0.0
  0
LINE
  5
400
330
1F
100
AcDbEntity
  8
0
  6
Continuous
 62
     7
370
    25
100
AcDbLine
 10
11.3848632235
 20
340.8288938271
 30
0.0
 11
11.3848632235
 21
339.4288938271
 31
0.0
  0
SPLINE
  5
401
330
1F
100
AcDbEntity
  8
0
  6
Continuous
 62
     7
370
    25
100
AcDbSpline
210
0.0
220
0.0
230
1.0
 70
     8
 71
     3
 72
     9
 73
     5
 74
     0
 42
0.000000001
 43
0.00000001
 40
0.0
 40
0.0
 40
0.0
 40
0.0
 40
0.7584558214378169
 40
0.9999999999999999
 40
0.9999999999999999
 40
0.9999999999999999
 40
0.9999999999999999
 10
11.38486322347491
 20
339.4288938270935
 30
0.0
 10
11.23315544553865
 20
339.4178392912601
 30
0.0
 10
11.03313354096855
 20
339.4032642355732
 30
0.0
 10
10.88257944957711
 20
339.2801678519735
 30
0.0
 10
10.84621398524279
 20
339.250434637113
 30
0.0
  0
LINE
  5
402
330
1F
100
AcDbEntity
  8
0
  6
Continuous
 62
     7
370
    25
100
AcDbLine
 10
11.3848632235
 20
339.4288938271
 30
0.0
 11
20.9848632235
 21
339.4288938271
 31
0.0
  0
LINE
  5
403
330
1F
100
AcDbEntity
  8
0
  6
Continuous
 62
     7
370
    25
100
AcDbLine
 10
11.3848632235
 20
340.8288938271
 30
0.0
 11
20.9848632235
 21
340.8288938271
 31
0.0
  0
LINE
  5
404
330
1F
100
AcDbEntity
  8
0
  6
Continuous
 62
     7
370
    25
100
AcDbLine
 10
20.9848632235
 20
340.8288938271
 30
0.0
 11
20.9848632235
 21
339.4288938271
 31
0.0
  0
LINE
  5
405
330
1F
100
AcDbEntity
  8
0
  6
Continuous
 62
     7
370
    25
100
AcDbLine
 10
11.3848632235
 20
196.2288938271
 30
0.0
 11
20.9848632235
 21
196.2288938271
 31
0.0
  0
LINE
  5
406
330
1F
100
AcDbEntity
  8
0
  6
Continuous
 62
     7
370
    25
100
AcDbLine
 10
20.9848632235
 20
194.8288938271
 30
0.0
 11
20.9848632235
 21
196.2288938271
 31
0.0
  0
LINE
  5
407
330
1F
100
AcDbEntity
  8
0
  6
Continuous
 62
     7
370
    25
100
AcDbLine
 10
11.3848632235
 20
194.8288938271
 30
0.0
 11
20.9848632235
 21
194.8288938271
 31
0.0
  0
ARC
  5
408
330
1F
100
AcDbEntity
  8
0
  6
Continuous
 62
     7
370
    25
100
AcDbCircle
 10
45.0848632235
 20
372.3288938271
 30
0.0
 40
3.000000000000007
100
AcDbArc
 50
0.0
 51
90.0
  0
LINE
  5
409
330
1F
100
AcDbEntity
  8
0
  6
Continuous
 62
     7
370
    25
100
AcDbLine
 10
48.0848632235
 20
338.1288938271
 30
0.0
 11
48.0848632235
 21
372.3288938271
 31
0.0
  0
LINE
  5
40A
330
1F
100
AcDbEntity
  8
0
  6
Continuous
 62
     7
370
    25
100
AcDbLine
 10
29.0848632235
 20
355.3288938271
 30
0.0
 11
29.0848632235
 21
338.1288938271
 31
0.0
  0
LINE
  5
40B
330
1F
100
AcDbEntity
  8
0
  6
Continuous
 62
     7
370
    25
100
AcDbLine
 10
25.0848632235
 20
355.3288938271
 30
0.0
 11
29.0848632235
 21
355.3288938271
 31
0.0
  0
LINE
  5
40C
330
1F
100
AcDbEntity
  8
0
  6
Continuous
 62
     7
370
    25
100
AcDbLine
 10
25.0848632235
 20
372.3288938271
 30
0.0
 11
25.0848632235
 21
355.3288938271
 31
0.0
  0
ARC
  5
40D
330
1F
100
AcDbEntity
  8
0
  6
Continuous
 62
     7
370
    25
100
AcDbCircle
 10
28.0848632235
 20
372.3288938271
 30
0.0
 40
3.0
100
AcDbArc
 50
90.0
 51
180.0
  0
LINE
  5
40E
330
1F
100
AcDbEntity
  8
0
  6
Continuous
 62
     7
370
    25
100
AcDbLine
 10
45.0848632235
 20
375.3288938271
 30
0.0
 11
28.0848632235
 21
375.3288938271
 31
0.0
  0
CIRCLE
  5
40F
330
1F
100
AcDbEntity
  8
0
  6
Continuous
 62
     7
370
    25
100
AcDbCircle
 10
39.5848632235
 20
368.8288938271
 30
0.0
 40
3.250000000000057
  0
CIRCLE
  5
410
330
1F
100
AcDbEntity
  8
0
  6
Continuous
 62
     7
370
    25
100
AcDbCircle
 10
39.5848632235
 20
343.8288938271
 30
0.0
 40
3.249999999999943
  0
LINE
  5
411
330
1F
100
AcDbEntity
  8
0
  6
Continuous
 62
     7
370
    25
100
AcDbLine
 10
29.0848632235
 20
336.3288938271
 30
0.0
 11
29.0848632235
 21
338.1288938271
 31
0.0
  0
LINE
  5
412
330
1F
100
AcDbEntity
  8
0
  6
Continuous
 62
     7
370
    25
100
AcDbLine
 10
48.0848632235
 20
338.1288938271
 30
0.0
 11
48.0848632235
 21
336.3288938271
 31
0.0
  0
LINE
  5
413
330
1F
100
AcDbEntity
  8
0
  6
Continuous
 62
     7
370
    25
100
AcDbLine
 10
48.0848632235
 20
336.3288938271
 30
0.0
 11
29.0848632235
 21
336.3288938271
 31
0.0
  0
LINE
  5
414
330
1F
100
AcDbEntity
  8
0
  6
Continuous
 62
     7
370
    25
100
AcDbLine
 10
27.0848632235
 20
348.3288938271
 30
0.0
 11
27.8848632235
 21
348.3288938271
 31
0.0
  0
LINE
  5
415
330
1F
100
AcDbEntity
  8
0
  6
Continuous
 62
     7
370
    25
100
AcDbLine
 10
27.8848632235
 20
338.1288938271
 30
0.0
 11
27.8848632235
 21
348.3288938271
 31
0.0
  0
LINE
  5
416
330
1F
100
AcDbEntity
  8
0
  6
Continuous
 62
     7
370
    25
100
AcDbLine
 10
28.8848632235
 20
336.3288938271
 30
0.0
 11
29.0848632235
 21
336.3288938271
 31
0.0
  0
LINE
  5
417
330
1F
100
AcDbEntity
  8
0
  6
Continuous
 62
     7
370
    25
100
AcDbLine
 10
28.8848632235
 20
337.1288938271
 30
0.0
 11
29.0848632235
 21
337.1288938271
 31
0.0
  0
ARC
  5
418
330
1F
100
AcDbEntity
  8
0
  6
Continuous
 62
     7
370
    25
100
AcDbCircle
 10
28.8848632235
 20
338.1288938271
 30
0.0
 40
1.0
100
AcDbArc
 50
180.0
 51
270.0
  0
ARC
  5
419
330
1F
100
AcDbEntity
  8
0
  6
Continuous
 62
     7
370
    25
100
AcDbCircle
 10
28.8848632235
 20
338.1288938271
 30
0.0
 40
1.800000000000011
100
AcDbArc
 50
180.0
 51
270.0
  0
LINE
  5
41A
330
1F
100
AcDbEntity
  8
0
  6
Continuous
 62
     7
370
    25
100
AcDbLine
 10
72.0848632235
 20
337.1288938271
 30
0.0
 11
72.0848632235
 21
336.3288938271
 31
0.0
  0
LINE
  5
41B
330
1F
100
AcDbEntity
  8
0
  6
Continuous
 62
     7
370
    25
100
AcDbLine
 10
72.0848632235
 20
336.3288938271
 30
0.0
 11
69.0848632235
 21
336.3288938271
 31
0.0
  0
LINE
  5
41C
330
1F
100
AcDbEntity
  8
0
  6
Continuous
 62
     7
370
    25
100
AcDbLine
 10
69.0848632235
 20
337.1288938271
 30
0.0
 11
72.0848632235
 21
337.1288938271
 31
0.0
  0
LINE
  5
41D
330
1F
100
AcDbEntity
  8
0
  6
Continuous
 62
     7
370
    25
100
AcDbLine
 10
48.0848632235
 20
336.3288938271
 30
0.0
 11
69.0848632235
 21
336.3288938271
 31
0.0
  0
LINE
  5
41E
330
1F
100
AcDbEntity
  8
0
  6
Continuous
 62
     7
370
    25
100
AcDbLine
 10
48.0848632235
 20
337.1288938271
 30
0.0
 11
69.0848632235
 21
337.1288938271
 31
0.0
  0
LINE
  5
41F
330
1F
100
AcDbEntity
  8
0
  6
Continuous
 62
     7
370
    25
100
AcDbLine
 10
70.9894766153
 20
341.3288938271
 30
0.0
 11
70.9894766153
 21
340.5288938271
 31
0.0
  0
LINE
  5
420
330
1F
100
AcDbEntity
  8
0
  6
Continuous
 62
     7
370
    25
100
AcDbLine
 10
70.9894766153
 20
340.5288938271
 30
0.0
 11
67.9894766153
 21
340.5288938271
 31
0.0
  0
LINE
  5
421
330
1F
100
AcDbEntity
  8
0
  6
Continuous
 62
     7
370
    25
100
AcDbLine
 10
67.9894766153
 20
341.3288938271
 30
0.0
 11
70.9894766153
 21
341.3288938271
 31
0.0
  0
LINE
  5
422
330
1F
100
AcDbEntity
  8
0
  6
Continuous
 62
     7
370
    25
100
AcDbLine
 10
61.4717851616
 20
340.5288938271
 30
0.0
 11
67.9894766153
 21
340.5288938271
 31
0.0
  0
LINE
  5
423
330
1F
100
AcDbEntity
  8
0
  6
Continuous
 62
     7
370
    25
100
AcDbLine
 10
61.4717851616
 20
341.3288938271
 30
0.0
 11
67.9894766153
 21
341.3288938271
 31
0.0
  0
LINE
  5
424
330
1F
100
AcDbEntity
  8
0
  6
Continuous
 62
     7
370
    25
100
AcDbLine
 10
60.9717851616
 20
340.3949192309
 30
0.0
 11
55.3148632235
 21
337.1288938271
 31
0.0
  0
LINE
  5
425
330
1F
100
AcDbEntity
  8
0
  6
Continuous
 62
     7
370
    25
100
AcDbLine
 10
60.5717851616
 20
341.0877395539
 30
0.0
 11
53.946914031
 21
337.2628684233
 31
0.0
  0
ARC
  5
426
330
1F
100
AcDbEntity
  8
0
  6
Continuous
 62
     7
370
    25
100
AcDbCircle
 10
61.4717851616
 20
339.5288938271
 30
0.0
 40
1.800000000000011
100
AcDbArc
 50
90.0
 51
120.0
  0
ARC
  5
427
330
1F
100
AcDbEntity
  8
0
  6
Continuous
 62
     7
370
    25
100
AcDbCircle
 10
61.4717851616
 20
339.5288938271
 30
0.0
 40
0.9999999999999432
100
AcDbArc
 50
90.0
 51
120.0
  0
ARC
  5
428
330
1F
100
AcDbEntity
  8
0
  6
Continuous
 62
     7
370
    25
100
AcDbCircle
 10
53.446914031
 20
338.1288938271
 30
0.0
 40
0.9999999999999432
100
AcDbArc
 50
270.0
 51
300.0
  0
CIRCLE
  5
429
330
1F
100
AcDbEntity
  8
0
  6
Continuous
 62
     7
370
    25
100
AcDbCircle
 10
39.5848632235
 20
343.8288938271
 30
0.0
 40
2.458750000016595
  0
CIRCLE
  5
42A
330
1F
100
AcDbEntity
  8
0
  6
Continuous
 62
     7
370
    25
100
AcDbCircle
 10
39.5848632235
 20
343.8288938271
 30
0.0
 40
3.000000000000003
  0
LINE
  5
42B
330
1F
100
AcDbEntity
  8
0
  6
Continuous
 62
     7
370
    25
100
AcDbLine
 10
29.0848632235
 20
342.3880645052
 30
0.0
 11
28.4995432089
 21
342.3880645052
 31
0.0
  0
SPLINE
  5
42C
330
1F
100
AcDbEntity
  8
0
  6
Continuous
 62
     7
370
    25
100
AcDbSpline
210
0.0
220
0.0
230
1.0
 70
     8
 71
     3
 72
    14
 73
    10
 74
     0
 42
0.000000001
 43
0.00000001
 40
0.0
 40
0.0
 40
0.0
 40
0.0
 40
0.25
 40
0.25
 40
0.5
 40
0.5
 40
0.75
 40
0.75
 40
1.0
 40
1.0
 40
1.0
 40
1.0
 10
28.49954320886092
 20
346.3784957026501
 30
0.0
 10
28.40466859955031
 20
346.0539894733614
 30
0.0
 10
28.32506367467456
 20
345.721530250967
 30
0.0
 10
28.21622705978033
 20
345.0549603360589
 30
0.0
 10
28.18690345408983
 20
344.7198840787837
 30
0.0
 10
28.18696823583542
 20
344.045540608556
 30
0.0
 10
28.21712442916179
 20
343.703761187877
 30
0.0
 10
28.3267096305275
 20
343.0373472682723
 30
0.0
 10
28.40525260432967
 20
342.7105732223195
 30
0.0
 10
28.49954320886093
 20
342.3880645052232
 30
0.0
  0
LINE
  5
42D
330
1F
100
AcDbEntity
  8
0
  6
Continuous
 62
     7
370
    25
100
AcDbLine
 10
29.0848632235
 20
346.3784957027
 30
0.0
 11
28.4995432089
 21
346.3784957027
 31
0.0
  0
SPLINE
  5
42E
330
1F
100
AcDbEntity
  8
0
  6
Continuous
 62
     7
370
    25
100
AcDbSpline
210
0.0
220
0.0
230
1.0
 70
     8
 71
     3
 72
    12
 73
     8
 74
     0
 42
0.000000001
 43
0.00000001
 40
0.0
 40
0.0
 40
0.0
 40
0.0
 40
0.4999999999999921
 40
0.4999999999999921
 40
0.749999999999996
 40
0.749999999999996
 40
1.0
 40
1.0
 40
1.0
 40
1.0
 10
28.49954320885994
 20
342.3880645052233
 30
0.0
 10
28.30904891943642
 20
341.9717634215687
 30
0.0
 10
28.18737450637406
 20
341.5492248935803
 30
0.0
 10
28.18671831584282
 20
340.8989347541195
 30
0.0
 10
28.21655231763721
 20
340.682392536205
 30
0.0
 10
28.32548218774481
 20
340.2570245309647
 30
0.0
 10
28.40417737480768
 20
340.0468725519795
 30
0.0
 10
28.49954320886043
 20
339.8384626296668
 30
0.0
  0
LINE
  5
42F
330
1F
100
AcDbEntity
  8
0
  6
Continuous
 62
     7
370
    25
100
AcDbLine
 10
28.4995432089
 20
339.8384626297
 30
0.0
 11
28.4016681716
 21
340.08136738
 31
0.0
  0
SPLINE
  5
430
330
1F
100
AcDbEntity
  8
0
  6
Continuous
 62
     7
370
    25
100
AcDbSpline
210
0.0
220
0.0
230
1.0
 70
     8
 71
     3
 72
    12
 73
     8
 74
     0
 42
0.000000001
 43
0.00000001
 40
0.0
 40
0.0
 40
0.0
 40
0.0
 40
0.5000000000000077
 40
0.5000000000000077
 40
0.7500000000000038
 40
0.7500000000000038
 40
1.0
 40
1.0
 40
1.0
 40
1.0
 10
28.49954320885994
 20
347.8193250245206
 30
0.0
 10
28.30904891943642
 20
347.5840652320775
 30
0.0
 10
28.18737450637405
 20
347.345280539227
 30
0.0
 10
28.18671831584281
 20
346.97778900667
 30
0.0
 10
28.21655231763722
 20
346.8554168120206
 30
0.0
 10
28.3254821877448
 20
346.6150331268611
 30
0.0
 10
28.40417737480767
 20
346.4962721797996
 30
0.0
 10
28.49954320886042
 20
346.37849570265
 30
0.0
  0
LINE
  5
431
330
1F
100
AcDbEntity
  8
0
  6
Continuous
 62
     7
370
    25
100
AcDbLine
 10
27.9848632235
 20
340.6788938271
 30
0.0
 11
27.9848632235
 21
346.9788938271
 31
0.0
  0
LINE
  5
432
330
1F
100
AcDbEntity
  8
0
  6
Continuous
 62
     7
370
    25
100
AcDbLine
 10
29.0848632235
 20
339.8384626297
 30
0.0
 11
28.4995432089
 21
339.8384626297
 31
0.0
  0
LINE
  5
433
330
1F
100
AcDbEntity
  8
0
  6
Continuous
 62
     7
370
    25
100
AcDbLine
 10
29.0848632235
 20
347.8193250245
 30
0.0
 11
28.4995432089
 21
347.8193250245
 31
0.0
  0
LINE
  5
434
330
1F
100
AcDbEntity
  8
0
  6
Continuous
 62
     7
370
    25
100
AcDbLine
 10
25.2848632235
 20
353.8288938271
 30
0.0
 11
15.3848632235
 21
353.8288938271
 31
0.0
  0
LINE
  5
435
330
1F
100
AcDbEntity
  8
0
  6
Continuous
 62
     7
370
    25
100
AcDbLine
 10
25.2848632235
 20
353.0288938271
 30
0.0
 11
25.2848632235
 21
353.8288938271
 31
0.0
  0
LINE
  5
436
330
1F
100
AcDbEntity
  8
0
  6
Continuous
 62
     7
370
    25
100
AcDbLine
 10
15.3848632235
 20
353.0288938271
 30
0.0
 11
25.2848632235
 21
353.0288938271
 31
0.0
  0
LINE
  5
437
330
1F
100
AcDbEntity
  8
0
  6
Continuous
 62
     7
370
    25
100
AcDbLine
 10
15.3848632235
 20
353.0288938271
 30
0.0
 11
15.3848632235
 21
352.9288938271
 31
0.0
  0
LINE
  5
438
330
1F
100
AcDbEntity
  8
0
  6
Continuous
 62
     7
370
    25
100
AcDbLine
 10
15.3848632235
 20
352.9288938271
 30
0.0
 11
20.5348632235
 21
352.9288938271
 31
0.0
  0
LINE
  5
439
330
1F
100
AcDbEntity
  8
0
  6
Continuous
 62
     7
370
    25
100
AcDbLine
 10
20.5348632235
 20
352.1288938271
 30
0.0
 11
20.5348632235
 21
352.9288938271
 31
0.0
  0
LINE
  5
43A
330
1F
100
AcDbEntity
  8
0
  6
Continuous
 62
     7
370
    25
100
AcDbLine
 10
15.3848632235
 20
352.1288938271
 30
0.0
 11
20.5348632235
 21
352.1288938271
 31
0.0
  0
ARC
  5
43B
330
1F
100
AcDbEntity
  8
0
  6
Continuous
 62
     7
370
    25
100
AcDbCircle
 10
15.3848632235
 20
352.9788938271
 30
0.0
 40
0.8500000000000227
100
AcDbArc
 50
90.0
 51
270.0
  0
LINE
  5
43C
330
1F
100
AcDbEntity
  8
0
  6
Continuous
 62
     7
370
    25
100
AcDbLine
 10
25.2848632235
 20
334.6288938271
 30
0.0
 11
20.9848632235
 21
334.6288938271
 31
0.0
  0
LINE
  5
43D
330
1F
100
AcDbEntity
  8
0
  6
Continuous
 62
     7
370
    25
100
AcDbLine
 10
25.2848632235
 20
333.8288938271
 30
0.0
 11
25.2848632235
 21
334.6288938271
 31
0.0
  0
LINE
  5
43E
330
1F
100
AcDbEntity
  8
0
  6
Continuous
 62
     7
370
    25
100
AcDbLine
 10
25.2848632235
 20
333.8288938271
 30
0.0
 11
20.9848632235
 21
333.8288938271
 31
0.0
  0
LINE
  5
43F
330
1F
100
AcDbEntity
  8
0
  6
Continuous
 62
     7
370
    25
100
AcDbLine
 10
27.0848632235
 20
335.6288938271
 30
0.0
 11
27.0848632235
 21
352.0288938271
 31
0.0
  0
ARC
  5
440
330
1F
100
AcDbEntity
  8
0
  6
Continuous
 62
     7
370
    25
100
AcDbCircle
 10
25.2848632235
 20
335.6288938271
 30
0.0
 40
1.800000000000068
100
AcDbArc
 50
270.0
 51
0.0
  0
LINE
  5
441
330
1F
100
AcDbEntity
  8
0
  6
Continuous
 62
     7
370
    25
100
AcDbLine
 10
26.2848632235
 20
335.6288938271
 30
0.0
 11
26.2848632235
 21
352.0288938271
 31
0.0
  0
ARC
  5
442
330
1F
100
AcDbEntity
  8
0
  6
Continuous
 62
     7
370
    25
100
AcDbCircle
 10
25.2848632235
 20
352.0288938271
 30
0.0
 40
1.000000000000057
100
AcDbArc
 50
360.0
 51
90.0
  0
ARC
  5
443
330
1F
100
AcDbEntity
  8
0
  6
Continuous
 62
     7
370
    25
100
AcDbCircle
 10
25.2848632235
 20
335.6288938271
 30
0.0
 40
1.000000000000028
100
AcDbArc
 50
270.0
 51
0.0
  0
ARC
  5
444
330
1F
100
AcDbEntity
  8
0
  6
Continuous
 62
     7
370
    25
100
AcDbCircle
 10
25.2848632235
 20
352.0288938271
 30
0.0
 40
1.800000000000011
100
AcDbArc
 50
0.0
 51
90.0
  0
LWPOLYLINE
  5
445
330
1F
100
AcDbEntity
  8
0
  6
Continuous
 62
     7
370
    25
100
AcDbPolyline
 90
        3
 70
   128
 43
0.0
 10
23.278819107
 20
344.5526752306
 10
23.2744185819
 20
344.5099799009
 10
23.2581937332
 20
344.326281572
  0
ARC
  5
446
330
1F
100
AcDbEntity
  8
0
  6
Continuous
 62
     7
370
    25
100
AcDbCircle
 10
23.7825866576
 20
344.6394094095
 30
0.0
 40
0.6107675350077337
100
AcDbArc
 50
210.8424581413
 51
243.3898036633
  0
ARC
  5
447
330
1F
100
AcDbEntity
  8
0
  6
Continuous
 62
     7
370
    25
100
AcDbCircle
 10
32.6655205791
 20
343.4978964582
 30
0.0
 40
9.175815043672694
100
AcDbArc
 50
177.932732127
 51
179.6562101044
  0
ARC
  5
448
330
1F
100
AcDbEntity
  8
0
  6
Continuous
 62
     7
370
    25
100
AcDbCircle
 10
31.0218431212
 20
343.734756552
 30
0.0
 40
7.786288415097156
100
AcDbArc
 50
184.3702527064
 51
195.2299003794
  0
ARC
  5
449
330
1F
100
AcDbEntity
  8
0
  6
Continuous
 62
     7
370
    25
100
AcDbCircle
 10
23.7301347885
 20
341.7843927108
 30
0.0
 40
0.2406805056720842
100
AcDbArc
 50
156.7420981705
 51
203.2579018295
  0
ARC
  5
44A
330
1F
100
AcDbEntity
  8
0
  6
Continuous
 62
     7
370
    25
100
AcDbCircle
 10
31.0218431212
 20
343.9248318469
 30
0.0
 40
7.786288415097857
100
AcDbArc
 50
184.3702527064
 51
195.2299003794
  0
ARC
  5
44B
330
1F
100
AcDbEntity
  8
0
  6
Continuous
 62
     7
370
    25
100
AcDbCircle
 10
23.7825866576
 20
343.0183782446
 30
0.0
 40
0.6107675350087294
100
AcDbArc
 50
116.6101963367
 51
149.1575418587
  0
ARC
  5
44C
330
1F
100
AcDbEntity
  8
0
  6
Continuous
 62
     7
370
    25
100
AcDbCircle
 10
32.5886487991
 20
344.1568753397
 30
0.0
 40
9.098942710247764
100
AcDbArc
 50
176.2668736478
 51
183.7331263522
  0
ARC
  5
44D
330
1F
100
AcDbEntity
  8
0
  6
Continuous
 62
     7
370
    25
100
AcDbCircle
 10
23.7825866576
 20
344.2032290294
 30
0.0
 40
0.6107675350081401
100
AcDbArc
 50
116.6101963367
 51
149.1575418587
  0
ARC
  5
44E
330
1F
100
AcDbEntity
  8
0
  6
Continuous
 62
     7
370
    25
100
AcDbCircle
 10
31.0218431212
 20
343.9230311022
 30
0.0
 40
7.786288415096246
100
AcDbArc
 50
164.7700996206
 51
175.6297472936
  0
ARC
  5
44F
330
1F
100
AcDbEntity
  8
0
  6
Continuous
 62
     7
370
    25
100
AcDbCircle
 10
23.6420970021
 20
345.8944962039
 30
0.0
 40
0.1522432420610191
100
AcDbArc
 50
150.9451665855
 51
179.1449116561
  0
LINE
  5
450
330
1F
100
AcDbEntity
  8
0
  6
Continuous
 62
     7
370
    25
100
AcDbLine
 10
24.2848632235
 20
347.8288938271
 30
0.0
 11
24.2848632235
 21
339.8288938271
 31
0.0
  0
LINE
  5
451
330
1F
100
AcDbEntity
  8
0
  6
Continuous
 62
     7
370
    25
100
AcDbLine
 10
23.2581937332
 20
344.516356867
 30
0.0
 11
23.4967493911
 21
344.516356867
 31
0.0
  0
LINE
  5
452
330
1F
100
AcDbEntity
  8
0
  6
Continuous
 62
     7
370
    25
100
AcDbLine
 10
23.2581937332
 20
343.1414307872
 30
0.0
 11
23.2750607249
 21
343.1414307872
 31
0.0
  0
LINE
  5
453
330
1F
100
AcDbEntity
  8
0
  6
Continuous
 62
     7
370
    25
100
AcDbLine
 10
23.2581937332
 20
344.326281572
 30
0.0
 11
23.4912440496
 21
344.326281572
 31
0.0
  0
ARC
  5
454
330
1F
100
AcDbEntity
  8
0
  6
Continuous
 62
     7
370
    25
100
AcDbCircle
 10
45.5433521127
 20
255.0843670035
 30
0.0
 40
1.942508566655271
100
AcDbArc
 50
268.2745645851
 51
358.1637932023
  0
LINE
  5
455
330
1F
100
AcDbEntity
  8
0
  6
Continuous
 62
     7
370
    25
100
AcDbLine
 10
47.4848632235
 20
255.0221244276
 30
0.0
 11
47.4848632235
 21
254.338084141
 31
0.0
  0
ARC
  5
456
330
1F
100
AcDbEntity
  8
0
  6
Continuous
 62
     7
370
    25
100
AcDbCircle
 10
45.5433521127
 20
254.4003267168
 30
0.0
 40
1.942508566655295
100
AcDbArc
 50
268.2745645851
 51
358.1637932023
  0
LINE
  5
457
330
1F
100
AcDbEntity
  8
0
  6
Continuous
 62
     7
370
    25
100
AcDbLine
 10
47.4848632235
 20
260.1632006645
 30
0.0
 11
47.4848632235
 21
255.0221244276
 31
0.0
  0
LINE
  5
458
330
1F
100
AcDbEntity
  8
0
  6
Continuous
 62
     7
370
    25
100
AcDbLine
 10
45.4848632235
 20
253.142739186
 30
0.0
 11
33.4848632235
 21
253.142739186
 31
0.0
  0
ARC
  5
459
330
1F
100
AcDbEntity
  8
0
  6
Continuous
 62
     7
370
    25
100
AcDbCircle
 10
33.4263743343
 20
255.0843670035
 30
0.0
 40
1.942508566655272
100
AcDbArc
 50
181.8362067977
 51
271.7254354149
  0
LINE
  5
45A
330
1F
100
AcDbEntity
  8
0
  6
Continuous
 62
     7
370
    25
100
AcDbLine
 10
31.4848632235
 20
255.0221244276
 30
0.0
 11
31.4848632235
 21
260.1632006645
 31
0.0
  0
LINE
  5
45B
330
1F
100
AcDbEntity
  8
0
  6
Continuous
 62
     7
370
    25
100
AcDbLine
 10
45.4848632235
 20
252.4586988994
 30
0.0
 11
33.4848632235
 21
252.4586988994
 31
0.0
  0
LINE
  5
45C
330
1F
100
AcDbEntity
  8
0
  6
Continuous
 62
     7
370
    25
100
AcDbLine
 10
31.4848632235
 20
254.338084141
 30
0.0
 11
31.4848632235
 21
255.0221244276
 31
0.0
  0
ARC
  5
45D
330
1F
100
AcDbEntity
  8
0
  6
Continuous
 62
     7
370
    25
100
AcDbCircle
 10
33.4263743343
 20
254.4003267168
 30
0.0
 40
1.942508566655271
100
AcDbArc
 50
181.8362067977
 51
271.7254354149
  0
LINE
  5
45E
330
1F
100
AcDbEntity
  8
0
  6
Continuous
 62
     7
370
    25
100
AcDbLine
 10
47.4848632235
 20
260.1632006645
 30
0.0
 11
47.4848632235
 21
260.5052208078
 31
0.0
  0
LINE
  5
45F
330
1F
100
AcDbEntity
  8
0
  6
Continuous
 62
     7
370
    25
100
AcDbLine
 10
31.4848632235
 20
260.5052208078
 30
0.0
 11
31.4848632235
 21
260.1632006645
 31
0.0
  0
LINE
  5
460
330
1F
100
AcDbEntity
  8
0
  6
Continuous
 62
     7
370
    25
100
AcDbLine
 10
20.9848632235
 20
260.3288938271
 30
0.0
 11
31.4848632235
 21
260.3288938271
 31
0.0
  0
CIRCLE
  5
461
330
1F
100
AcDbEntity
  8
0
  6
Continuous
 62
     7
370
    25
100
AcDbCircle
 10
39.5848632235
 20
267.8288938271
 30
0.0
 40
3.499999999999993
  0
LINE
  5
462
330
1F
100
AcDbEntity
  8
0
  6
Continuous
 62
     7
370
    25
100
AcDbLine
 10
47.4848632235
 20
260.5052208078
 30
0.0
 11
47.4848632235
 21
273.3288938271
 31
0.0
  0
ARC
  5
463
330
1F
100
AcDbEntity
  8
0
  6
Continuous
 62
     7
370
    25
100
AcDbCircle
 10
45.4848632235
 20
273.3288938271
 30
0.0
 40
2.000000000000007
100
AcDbArc
 50
0.0
 51
90.0
  0
LINE
  5
464
330
1F
100
AcDbEntity
  8
0
  6
Continuous
 62
     7
370
    25
100
AcDbLine
 10
45.4848632235
 20
275.3288938271
 30
0.0
 11
20.9848632235
 21
275.3288938271
 31
0.0
  0
CIRCLE
  5
465
330
1F
100
AcDbEntity
  8
0
  6
Continuous
 62
     7
370
    25
100
AcDbCircle
 10
39.5848632235
 20
267.8288938271
 30
0.0
 40
2.458750000016646
  0
CIRCLE
  5
466
330
1F
100
AcDbEntity
  8
0
  6
Continuous
 62
     7
370
    25
100
AcDbCircle
 10
39.5848632235
 20
267.8288938271
 30
0.0
 40
2.999999999999996
  0
ENDSEC
  0
SECTION
  2
OBJECTS
  0
DICTIONARY
  5
C
330
0
100
AcDbDictionary
281
     1
  3
ACAD_GROUP
350
D
  3
ACAD_LAYOUT
350
1A
  3
ACAD_MLINESTYLE
350
17
  3
ACAD_PLOTSETTINGS
350
19
  3
ACAD_PLOTSTYLENAME
350
E
  3
ACAD_SCALELIST
350
47
  0
DICTIONARY
  5
D
102
{ACAD_REACTORS
330
C
102
}
330
C
100
AcDbDictionary
281
     1
  0
DICTIONARY
  5
1A
102
{ACAD_REACTORS
330
C
102
}
330
C
100
AcDbDictionary
281
     1
  3
Layout1
350
1E
  3
Layout2
350
26
  3
Model
350
22
  0
DICTIONARY
  5
17
102
{ACAD_REACTORS
330
C
102
}
330
C
100
AcDbDictionary
281
     1
  3
Standard
350
18
  0
DICTIONARY
  5
19
102
{ACAD_REACTORS
330
C
102
}
330
C
100
AcDbDictionary
281
     1
  0
ACDBDICTIONARYWDFLT
  5
E
102
{ACAD_REACTORS
330
C
102
}
330
C
100
AcDbDictionary
281
     1
  3
Normal
350
F
100
AcDbDictionaryWithDefault
340
F
  0
DICTIONARY
  5
47
102
{ACAD_REACTORS
330
C
102
}
330
C
100
AcDbDictionary
281
     1
  3
A0
350
48
  3
A1
350
49
  3
A2
350
4A
  3
A3
350
4B
  3
A4
350
4C
  3
A5
350
4D
  3
A6
350
4E
  3
A7
350
4F
  3
A8
350
50
  3
A9
350
51
  3
B0
350
52
  3
B1
350
53
  3
B2
350
54
  3
B3
350
55
  3
B4
350
56
  3
B5
350
57
  3
B6
350
58
  3
B7
350
59
  3
B8
350
5A
  3
B9
350
5B
  3
C0
350
5C
  3
C1
350
5D
  3
C2
350
5E
  3
C3
350
5F
  3
C4
350
60
  3
C5
350
61
  3
C6
350
62
  3
C7
350
63
  3
C8
350
64
  3
C9
350
65
  3
D0
350
66
  3
D1
350
67
  3
D2
350
68
  0
LAYOUT
  5
1E
102
{ACAD_REACTORS
330
1A
102
}
330
1A
100
AcDbPlotSettings
  1

  2
none_device
  4

  6

 40
0.0
 41
0.0
 42
0.0
 43
0.0
 44
0.0
 45
0.0
 46
0.0
 47
0.0
 48
0.0
 49
0.0
140
0.0
141
0.0
142
1.0
143
1.0
 70
   688
 72
     1
 73
     0
 74
     5
  7

 75
    16
147
1.0
148
0.0
149
0.0
100
AcDbLayout
  1
Layout1
 70
     1
 71
     1
 10
0.0
 20
0.0
 11
420.0
 21
297.0
 12
0.0
 22
0.0
 32
0.0
 14
1.0000000000E+20
 24
1.0000000000E+20
 34
1.0000000000E+20
 15
-1.0000000000E+20
 25
-1.0000000000E+20
 35
-1.0000000000E+20
146
0.0
 13
0.0
 23
0.0
 33
0.0
 16
1.0
 26
0.0
 36
0.0
 17
0.0
 27
1.0
 37
0.0
 76
     0
330
1B
  0
LAYOUT
  5
26
102
{ACAD_REACTORS
330
1A
102
}
330
1A
100
AcDbPlotSettings
  1

  2
none_device
  4

  6

 40
0.0
 41
0.0
 42
0.0
 43
0.0
 44
0.0
 45
0.0
 46
0.0
 47
0.0
 48
0.0
 49
0.0
140
0.0
141
0.0
142
1.0
143
1.0
 70
   688
 72
     1
 73
     0
 74
     5
  7

 75
    16
147
1.0
148
0.0
149
0.0
100
AcDbLayout
  1
Layout2
 70
     1
 71
     2
 10
0.0
 20
0.0
 11
0.0
 21
0.0
 12
0.0
 22
0.0
 32
0.0
 14
0.0
 24
0.0
 34
0.0
 15
0.0
 25
0.0
 35
0.0
146
0.0
 13
0.0
 23
0.0
 33
0.0
 16
1.0
 26
0.0
 36
0.0
 17
0.0
 27
1.0
 37
0.0
 76
     0
330
23
  0
LAYOUT
  5
22
102
{ACAD_REACTORS
330
1A
102
}
330
1A
100
AcDbPlotSettings
  1

  2
none_device
  4
Letter_(8.50_x_11.00_Inches)
  6

 40
6.35
 41
6.35
 42
6.35000508
 43
6.35000508
 44
215.9
 45
279.4
 46
0.0
 47
0.0
 48
0.0
 49
0.0
140
0.0
141
0.0
142
1.0
143
1.0
 70
  1712
 72
     1
 73
     0
 74
     0
  7

 75
     0
147
1.0
148
0.0
149
0.0
100
AcDbLayout
  1
Model
 70
     1
 71
     0
 10
0.0
 20
0.0
 11
841.0
 21
594.0
 12
0.0
 22
0.0
 32
0.0
 14
0.0
 24
0.0
 34
0.0
 15
841.0
 25
594.0
 35
0.0
146
0.0
 13
0.0
 23
0.0
 33
0.0
 16
1.0
 26
0.0
 36
0.0
 17
0.0
 27
1.0
 37
0.0
 76
     0
330
1F
331
29
  0
MLINESTYLE
  5
18
102
{ACAD_REACTORS
330
17
102
}
330
17
100
AcDbMlineStyle
  2
Standard
 70
     0
  3

 62
   256
 51
90.0
 52
90.0
 71
     2
 49
0.5
 62
   256
  6
BYLAYER
 49
-0.5
 62
   256
  6
BYLAYER
  0
ACDBPLACEHOLDER
  5
F
102
{ACAD_REACTORS
330
E
102
}
330
E
  0
SCALE
  5
48
102
{ACAD_REACTORS
330
47
102
}
330
47
100
AcDbScale
 70
     0
300
1:1
140
1.0
141
1.0
290
     1
  0
SCALE
  5
49
102
{ACAD_REACTORS
330
47
102
}
330
47
100
AcDbScale
 70
     0
300
1:2
140
1.0
141
2.0
290
     0
  0
SCALE
  5
4A
102
{ACAD_REACTORS
330
47
102
}
330
47
100
AcDbScale
 70
     0
300
1:4
140
1.0
141
4.0
290
     0
  0
SCALE
  5
4B
102
{ACAD_REACTORS
330
47
102
}
330
47
100
AcDbScale
 70
     0
300
1:5
140
1.0
141
5.0
290
     0
  0
SCALE
  5
4C
102
{ACAD_REACTORS
330
47
102
}
330
47
100
AcDbScale
 70
     0
300
1:8
140
1.0
141
8.0
290
     0
  0
SCALE
  5
4D
102
{ACAD_REACTORS
330
47
102
}
330
47
100
AcDbScale
 70
     0
300
1:10
140
1.0
141
10.0
290
     0
  0
SCALE
  5
4E
102
{ACAD_REACTORS
330
47
102
}
330
47
100
AcDbScale
 70
     0
300
1:16
140
1.0
141
16.0
290
     0
  0
SCALE
  5
4F
102
{ACAD_REACTORS
330
47
102
}
330
47
100
AcDbScale
 70
     0
300
1:20
140
1.0
141
20.0
290
     0
  0
SCALE
  5
50
102
{ACAD_REACTORS
330
47
102
}
330
47
100
AcDbScale
 70
     0
300
1:30
140
1.0
141
30.0
290
     0
  0
SCALE
  5
51
102
{ACAD_REACTORS
330
47
102
}
330
47
100
AcDbScale
 70
     0
300
1:40
140
1.0
141
40.0
290
     0
  0
SCALE
  5
52
102
{ACAD_REACTORS
330
47
102
}
330
47
100
AcDbScale
 70
     0
300
1:50
140
1.0
141
50.0
290
     0
  0
SCALE
  5
53
102
{ACAD_REACTORS
330
47
102
}
330
47
100
AcDbScale
 70
     0
300
1:100
140
1.0
141
100.0
290
     0
  0
SCALE
  5
54
102
{ACAD_REACTORS
330
47
102
}
330
47
100
AcDbScale
 70
     0
300
2:1
140
2.0
141
1.0
290
     0
  0
SCALE
  5
55
102
{ACAD_REACTORS
330
47
102
}
330
47
100
AcDbScale
 70
     0
300
4:1
140
4.0
141
1.0
290
     0
  0
SCALE
  5
56
102
{ACAD_REACTORS
330
47
102
}
330
47
100
AcDbScale
 70
     0
300
8:1
140
8.0
141
1.0
290
     0
  0
SCALE
  5
57
102
{ACAD_REACTORS
330
47
102
}
330
47
100
AcDbScale
 70
     0
300
10:1
140
10.0
141
1.0
290
     0
  0
SCALE
  5
58
102
{ACAD_REACTORS
330
47
102
}
330
47
100
AcDbScale
 70
     0
300
100:1
140
100.0
141
1.0
290
     0
  0
SCALE
  5
59
102
{ACAD_REACTORS
330
47
102
}
330
47
100
AcDbScale
 70
     0
300
1/128" = 1'-0"
140
0.0078125
141
12.0
290
     0
  0
SCALE
  5
5A
102
{ACAD_REACTORS
330
47
102
}
330
47
100
AcDbScale
 70
     0
300
1/64" = 1'-0"
140
0.015625
141
12.0
290
     0
  0
SCALE
  5
5B
102
{ACAD_REACTORS
330
47
102
}
330
47
100
AcDbScale
 70
     0
300
1/32" = 1'-0"
140
0.03125
141
12.0
290
     0
  0
SCALE
  5
5C
102
{ACAD_REACTORS
330
47
102
}
330
47
100
AcDbScale
 70
     0
300
1/16" = 1'-0"
140
0.0625
141
12.0
290
     0
  0
SCALE
  5
5D
102
{ACAD_REACTORS
330
47
102
}
330
47
100
AcDbScale
 70
     0
300
3/32" = 1'-0"
140
0.09375
141
12.0
290
     0
  0
SCALE
  5
5E
102
{ACAD_REACTORS
330
47
102
}
330
47
100
AcDbScale
 70
     0
300
1/8" = 1'-0"
140
0.125
141
12.0
290
     0
  0
SCALE
  5
5F
102
{ACAD_REACTORS
330
47
102
}
330
47
100
AcDbScale
 70
     0
300
3/16" = 1'-0"
140
0.1875
141
12.0
290
     0
  0
SCALE
  5
60
102
{ACAD_REACTORS
330
47
102
}
330
47
100
AcDbScale
 70
     0
300
1/4" = 1'-0"
140
0.25
141
12.0
290
     0
  0
SCALE
  5
61
102
{ACAD_REACTORS
330
47
102
}
330
47
100
AcDbScale
 70
     0
300
3/8" = 1'-0"
140
0.375
141
12.0
290
     0
  0
SCALE
  5
62
102
{ACAD_REACTORS
330
47
102
}
330
47
100
AcDbScale
 70
     0
300
1/2" = 1'-0"
140
0.5
141
12.0
290
     0
  0
SCALE
  5
63
102
{ACAD_REACTORS
330
47
102
}
330
47
100
AcDbScale
 70
     0
300
3/4" = 1'-0"
140
0.75
141
12.0
290
     0
  0
SCALE
  5
64
102
{ACAD_REACTORS
330
47
102
}
330
47
100
AcDbScale
 70
     0
300
1" = 1'-0"
140
1.0
141
12.0
290
     0
  0
SCALE
  5
65
102
{ACAD_REACTORS
330
47
102
}
330
47
100
AcDbScale
 70
     0
300
1-1/2" = 1'-0"
140
1.5
141
12.0
290
     0
  0
SCALE
  5
66
102
{ACAD_REACTORS
330
47
102
}
330
47
100
AcDbScale
 70
     0
300
3" = 1'-0"
140
3.0
141
12.0
290
     0
  0
SCALE
  5
67
102
{ACAD_REACTORS
330
47
102
}
330
47
100
AcDbScale
 70
     0
300
6" = 1'-0"
140
6.0
141
12.0
290
     0
  0
SCALE
  5
68
102
{ACAD_REACTORS
330
47
102
}
330
47
100
AcDbScale
 70
     0
300
1'-0" = 1'-0"
140
12.0
141
12.0
290
     0
  0
ENDSEC
  0
EOF
