ISO-10303-21;
HEADER;
FILE_DESCRIPTION (( 'STEP AP214' ),
    '1' );
FILE_NAME ('EPCX2.5_3.STEP',
    '2024-10-31T13:31:00',
    ( '' ),
    ( '' ),
    'SwSTEP 2.0',
    'SolidWorks 2022',
    '' );
FILE_SCHEMA (( 'AUTOMOTIVE_DESIGN' ));
ENDSEC;

DATA;
#1 = LINE ( 'NONE', #265, #57 ) ;
#2 = DIRECTION ( 'NONE',  ( -1.000000000000000000, 0.000000000000000000, 0.000000000000000000 ) ) ;
#3 = CARTESIAN_POINT ( 'NONE',  ( 0.000000000000000000, 30.24999999041749987, -30.49999988744960078 ) ) ;
#4 = ORIENTED_EDGE ( 'NONE', *, *, #275, .F. ) ;
#5 = DIRECTION ( 'NONE',  ( -1.000000000000000000, 0.000000000000000000, 0.000000000000000000 ) ) ;
#6 = VERTEX_POINT ( 'NONE', #46 ) ;
#7 = VECTOR ( 'NONE', #26, 1000.000000000000000 ) ;
#8 = CARTESIAN_POINT ( 'NONE',  ( -1.500000000000000000, 31.09999999481220101, -10.67175006960849970 ) ) ;
#9 = ORIENTED_EDGE ( 'NONE', *, *, #276, .T. ) ;
#10 = DIRECTION ( 'NONE',  ( 1.000000000000000000, 0.000000000000000000, 0.000000000000000000 ) ) ;
#11 = FACE_OUTER_BOUND ( 'NONE', #124, .T. ) ;
#12 = DIRECTION ( 'NONE',  ( 0.000000000000000000, 0.1736481461211959454, -0.9848077585745715901 ) ) ;
#13 = ADVANCED_FACE ( 'NONE', ( #11 ), #113, .F. ) ;
#14 = CARTESIAN_POINT ( 'NONE',  ( 0.000000000000000000, 0.000000000000000000, 0.000000000000000000 ) ) ;
#15 = CIRCLE ( 'NONE', #208, 0.3000000173331920372 ) ;
#16 = FACE_OUTER_BOUND ( 'NONE', #127, .T. ) ;
#17 = PRESENTATION_STYLE_ASSIGNMENT (( #150 ) ) ;
#18 = EDGE_CURVE ( 'NONE', #383, #74, #234, .T. ) ;
#19 =( LENGTH_UNIT ( ) NAMED_UNIT ( * ) SI_UNIT ( .MILLI., .METRE. ) );
#20 = VECTOR ( 'NONE', #334, 1000.000000000000000 ) ;
#21 = VECTOR ( 'NONE', #402, 1000.000000000000114 ) ;
#22 = MANIFOLD_SOLID_BREP ( 'EPCX2.5_3.stp<1>', #214 ) ;
#23 = CARTESIAN_POINT ( 'NONE',  ( -1.500000000000000000, 28.96790130087759962, 5.456292039433509969E-06 ) ) ;
#24 = PLANE ( 'NONE',  #180 ) ;
#25 = ORIENTED_EDGE ( 'NONE', *, *, #347, .F. ) ;
#26 = DIRECTION ( 'NONE',  ( 1.000000000000000000, 0.000000000000000000, 0.000000000000000000 ) ) ;
#27 = VECTOR ( 'NONE', #200, 1000.000000000000000 ) ;
#28 = VECTOR ( 'NONE', #73, 1000.000000000000114 ) ;
#29 = DIRECTION ( 'NONE',  ( 0.000000000000000000, -0.7071067842749766408, -0.7071067780981183937 ) ) ;
#30 = FACE_OUTER_BOUND ( 'NONE', #259, .T. ) ;
#31 = ADVANCED_FACE ( 'NONE', ( #213 ), #314, .T. ) ;
#32 = ORIENTED_EDGE ( 'NONE', *, *, #121, .T. ) ;
#33 = EDGE_CURVE ( 'NONE', #69, #6, #83, .T. ) ;
#34 = DIRECTION ( 'NONE',  ( 1.000000000000000000, 0.000000000000000000, 0.000000000000000000 ) ) ;
#35 = ORIENTED_EDGE ( 'NONE', *, *, #111, .F. ) ;
#36 = ORIENTED_EDGE ( 'NONE', *, *, #91, .F. ) ;
#37 = DIRECTION ( 'NONE',  ( 0.000000000000000000, -1.000000000000000000, 7.210142260343829843E-13 ) ) ;
#38 = ORIENTED_EDGE ( 'NONE', *, *, #217, .F. ) ;
#39 = UNCERTAINTY_MEASURE_WITH_UNIT (LENGTH_MEASURE( 1.000000000000000082E-05 ), #282, 'distance_accuracy_value', 'NONE');
#40 = DIRECTION ( 'NONE',  ( -0.000000000000000000, -0.9848077585745717011, -0.1736481461211959731 ) ) ;
#41 = VERTEX_POINT ( 'NONE', #313 ) ;
#42 = VECTOR ( 'NONE', #248, 1000.000000000000114 ) ;
#43 =( GEOMETRIC_REPRESENTATION_CONTEXT ( 3 ) GLOBAL_UNCERTAINTY_ASSIGNED_CONTEXT ( ( #272 ) ) GLOBAL_UNIT_ASSIGNED_CONTEXT ( ( #135, #211, #376 ) ) REPRESENTATION_CONTEXT ( 'NONE', 'WORKASPACE' ) );
#44 = FACE_OUTER_BOUND ( 'NONE', #403, .T. ) ;
#45 = APPLICATION_CONTEXT ( 'automotive_design' ) ;
#46 = CARTESIAN_POINT ( 'NONE',  ( 0.000000000000000000, 30.25000001079800072, -11.52175004619759946 ) ) ;
#47 = APPLICATION_PROTOCOL_DEFINITION ( 'draft international standard', 'automotive_design', 1998, #293 ) ;
#48 = ORIENTED_EDGE ( 'NONE', *, *, #80, .T. ) ;
#49 = PRODUCT_CONTEXT ( 'NONE', #293, 'mechanical' ) ;
#50 = DIRECTION ( 'NONE',  ( 0.000000000000000000, 0.000000000000000000, 1.000000000000000000 ) ) ;
#51 = APPLICATION_PROTOCOL_DEFINITION ( 'draft international standard', 'automotive_design', 1998, #45 ) ;
#52 = LINE ( 'NONE', #285, #289 ) ;
#53 = SHAPE_DEFINITION_REPRESENTATION ( #129, #167 ) ;
#54 = LINE ( 'NONE', #251, #186 ) ;
#55 = DIRECTION ( 'NONE',  ( 1.000000000000000000, 0.000000000000000000, 0.000000000000000000 ) ) ;
#56 = DIRECTION ( 'NONE',  ( 1.000000000000000000, 0.000000000000000000, 0.000000000000000000 ) ) ;
#57 = VECTOR ( 'NONE', #299, 1000.000000000000000 ) ;
#58 = DIRECTION ( 'NONE',  ( -0.000000000000000000, 0.7071067796167060937, 0.7071067827563890518 ) ) ;
#59 = ORIENTED_EDGE ( 'NONE', *, *, #409, .T. ) ;
#60 = CARTESIAN_POINT ( 'NONE',  ( 0.000000000000000000, 24.09838732276059758, -30.49999994651900082 ) ) ;
#61 = VERTEX_POINT ( 'NONE', #218 ) ;
#62 = DIRECTION ( 'NONE',  ( 0.000000000000000000, -0.7071067780981185047, 0.7071067842749765298 ) ) ;
#63 = ORIENTED_EDGE ( 'NONE', *, *, #164, .T. ) ;
#64 = AXIS2_PLACEMENT_3D ( 'NONE', #238, #34, #365 ) ;
#65 = CARTESIAN_POINT ( 'NONE',  ( -1.500000000000000000, -30.33786545423589942, -11.43388451655990146 ) ) ;
#66 = EDGE_CURVE ( 'NONE', #204, #41, #192, .T. ) ;
#67 = VERTEX_POINT ( 'NONE', #247 ) ;
#68 = CARTESIAN_POINT ( 'NONE',  ( -2.168404344971009854E-16, -31.10000000518780183, -10.67174996899210093 ) ) ;
#69 = VERTEX_POINT ( 'NONE', #116 ) ;
#70 = LINE ( 'NONE', #336, #268 ) ;
#71 = ORIENTED_EDGE ( 'NONE', *, *, #275, .T. ) ;
#72 = AXIS2_PLACEMENT_3D ( 'NONE', #287, #62, #123 ) ;
#73 = DIRECTION ( 'NONE',  ( 0.000000000000000000, 0.1736481461211959454, -0.9848077585745715901 ) ) ;
#74 = VERTEX_POINT ( 'NONE', #119 ) ;
#75 = LINE ( 'NONE', #140, #173 ) ;
#76 = ORIENTED_EDGE ( 'NONE', *, *, #331, .F. ) ;
#77 = DIRECTION ( 'NONE',  ( 1.000000000000000000, 0.000000000000000000, 0.000000000000000000 ) ) ;
#78 = VERTEX_POINT ( 'NONE', #345 ) ;
#79 = STYLED_ITEM ( 'NONE', ( #17 ), #22 ) ;
#80 = EDGE_CURVE ( 'NONE', #353, #383, #149, .T. ) ;
#81 = ADVANCED_FACE ( 'NONE', ( #16 ), #372, .F. ) ;
#82 = ORIENTED_EDGE ( 'NONE', *, *, #171, .F. ) ;
#83 = LINE ( 'NONE', #281, #374 ) ;
#84 = DIRECTION ( 'NONE',  ( 1.000000000000000000, 0.000000000000000000, 0.000000000000000000 ) ) ;
#85 = CIRCLE ( 'NONE', #64, 0.3000000173331770492 ) ;
#86 = FILL_AREA_STYLE ('',( #151 ) ) ;
#87 =( NAMED_UNIT ( * ) SI_UNIT ( $, .STERADIAN. ) SOLID_ANGLE_UNIT ( ) );
#88 = CARTESIAN_POINT ( 'NONE',  ( -2.168404344971009854E-16, 24.09838732276059758, -30.49999994651900082 ) ) ;
#89 =( GEOMETRIC_REPRESENTATION_CONTEXT ( 3 ) GLOBAL_UNCERTAINTY_ASSIGNED_CONTEXT ( ( #209 ) ) GLOBAL_UNIT_ASSIGNED_CONTEXT ( ( #19, #346, #87 ) ) REPRESENTATION_CONTEXT ( 'NONE', 'WORKASPACE' ) );
#90 = CYLINDRICAL_SURFACE ( 'NONE', #207, 0.3000000173331920927 ) ;
#91 = EDGE_CURVE ( 'NONE', #101, #262, #54, .T. ) ;
#92 = ORIENTED_EDGE ( 'NONE', *, *, #276, .F. ) ;
#93 = CARTESIAN_POINT ( 'NONE',  ( 0.000000000000000000, 3.000000010291270058, -30.49999994651900082 ) ) ;
#94 = DIRECTION ( 'NONE',  ( 0.000000000000000000, 1.110039285250179995E-09, -1.000000000000000000 ) ) ;
#95 = ORIENTED_EDGE ( 'NONE', *, *, #318, .F. ) ;
#96 = LINE ( 'NONE', #350, #236 ) ;
#97 = VERTEX_POINT ( 'NONE', #120 ) ;
#98 = VECTOR ( 'NONE', #363, 1000.000000000000000 ) ;
#99 = FACE_OUTER_BOUND ( 'NONE', #320, .T. ) ;
#100 = CYLINDRICAL_SURFACE ( 'NONE', #220, 0.3000000173331770492 ) ;
#101 = VERTEX_POINT ( 'NONE', #176 ) ;
#102 = CARTESIAN_POINT ( 'NONE',  ( 0.000000000000000000, -30.25000008806389928, -11.52174988234179942 ) ) ;
#103 = ORIENTED_EDGE ( 'NONE', *, *, #212, .F. ) ;
#104 = EDGE_CURVE ( 'NONE', #78, #97, #184, .T. ) ;
#105 = VECTOR ( 'NONE', #94, 1000.000000000000000 ) ;
#106 = CARTESIAN_POINT ( 'NONE',  ( 0.000000000000000000, -30.25000008806389928, -11.52174988234179942 ) ) ;
#107 = ORIENTED_EDGE ( 'NONE', *, *, #422, .F. ) ;
#108 = CARTESIAN_POINT ( 'NONE',  ( 0.000000000000000000, 28.96790130087759962, 5.456292039433509969E-06 ) ) ;
#109 = ORIENTED_EDGE ( 'NONE', *, *, #18, .T. ) ;
#110 = PRODUCT_DEFINITION_CONTEXT ( 'detailed design', #45, 'design' ) ;
#111 = EDGE_CURVE ( 'NONE', #67, #390, #52, .T. ) ;
#112 = DIRECTION ( 'NONE',  ( -1.000000000000000000, 0.000000000000000000, 0.000000000000000000 ) ) ;
#113 = PLANE ( 'NONE',  #117 ) ;
#114 = DIRECTION ( 'NONE',  ( 1.000000000000000000, 0.000000000000000000, 0.000000000000000000 ) ) ;
#115 = PRESENTATION_STYLE_ASSIGNMENT (( #177 ) ) ;
#116 = CARTESIAN_POINT ( 'NONE',  ( 0.000000000000000000, 30.24999999041749987, -30.49999988744960078 ) ) ;
#117 = AXIS2_PLACEMENT_3D ( 'NONE', #243, #141, #2 ) ;
#118 = AXIS2_PLACEMENT_3D ( 'NONE', #93, #288, #321 ) ;
#119 = CARTESIAN_POINT ( 'NONE',  ( 0.000000000000000000, -29.26199604173620017, -0.2479096850719890444 ) ) ;
#120 = CARTESIAN_POINT ( 'NONE',  ( -1.500000000000000000, -31.10000000518780183, -10.67174996899210093 ) ) ;
#121 = EDGE_CURVE ( 'NONE', #257, #237, #148, .T. ) ;
#122 = PRODUCT_DEFINITION ( 'UNKNOWN', '', #199, #110 ) ;
#123 = DIRECTION ( 'NONE',  ( -1.000000000000000000, 0.000000000000000000, 0.000000000000000000 ) ) ;
#124 = EDGE_LOOP ( 'NONE', ( #195, #191, #291, #82 ) ) ;
#125 = CARTESIAN_POINT ( 'NONE',  ( -1.500000000000000000, -28.96655297157810338, -0.3000000173123060221 ) ) ;
#126 = AXIS2_PLACEMENT_3D ( 'NONE', #317, #56, #187 ) ;
#127 = EDGE_LOOP ( 'NONE', ( #264, #38, #418, #175, #356, #327, #369, #330, #9, #36 ) ) ;
#128 = CARTESIAN_POINT ( 'NONE',  ( -2.168404344971009854E-16, 30.33786547603440198, -11.43388458172869981 ) ) ;
#129 = PRODUCT_DEFINITION_SHAPE ( 'NONE', 'NONE',  #122 ) ;
#130 = CARTESIAN_POINT ( 'NONE',  ( -1.500000000000000000, -31.04295746067700179, -10.34824556682920083 ) ) ;
#131 = ORIENTED_EDGE ( 'NONE', *, *, #91, .T. ) ;
#132 = CARTESIAN_POINT ( 'NONE',  ( 0.000000000000000000, 29.02536903475199992, -2.092770401418420079E-11 ) ) ;
#133 = VECTOR ( 'NONE', #389, 1000.000000000000000 ) ;
#134 = ORIENTED_EDGE ( 'NONE', *, *, #409, .F. ) ;
#135 =( LENGTH_UNIT ( ) NAMED_UNIT ( * ) SI_UNIT ( .MILLI., .METRE. ) );
#136 = ORIENTED_EDGE ( 'NONE', *, *, #33, .F. ) ;
#137 = LINE ( 'NONE', #102, #322 ) ;
#138 = ADVANCED_FACE ( 'NONE', ( #181 ), #312, .F. ) ;
#139 = ORIENTED_EDGE ( 'NONE', *, *, #144, .F. ) ;
#140 = CARTESIAN_POINT ( 'NONE',  ( 0.000000000000000000, -30.25000008875499802, -10.89914322391170032 ) ) ;
#141 = DIRECTION ( 'NONE',  ( -0.000000000000000000, -7.210142260343829843E-13, -1.000000000000000000 ) ) ;
#142 = COLOUR_RGB ( '',0.7843137254901960675, 0.7843137254901960675, 0.7843137254901960675 ) ;
#143 = ORIENTED_EDGE ( 'NONE', *, *, #392, .F. ) ;
#144 = EDGE_CURVE ( 'NONE', #390, #61, #246, .T. ) ;
#145 = CARTESIAN_POINT ( 'NONE',  ( -1.500000000000000000, -29.26199531610840054, -0.2479055698315719980 ) ) ;
#146 = VERTEX_POINT ( 'NONE', #295 ) ;
#147 = FILL_AREA_STYLE_COLOUR ( '', #142 ) ;
#148 = LINE ( 'NONE', #88, #329 ) ;
#149 = LINE ( 'NONE', #280, #42 ) ;
#150 = SURFACE_STYLE_USAGE ( .BOTH. , #342 ) ;
#151 = FILL_AREA_STYLE_COLOUR ( '', #283 ) ;
#152 = AXIS2_PLACEMENT_3D ( 'NONE', #14, #340, #371 ) ;
#153 = DIRECTION ( 'NONE',  ( 0.000000000000000000, 1.073871750922139989E-09, 1.000000000000000000 ) ) ;
#154 = ADVANCED_FACE ( 'NONE', ( #382 ), #24, .F. ) ;
#155 = CARTESIAN_POINT ( 'NONE',  ( -1.500000000000000000, 30.33786547603440198, -11.43388458172869981 ) ) ;
#156 = DIRECTION ( 'NONE',  ( -1.000000000000000000, 0.000000000000000000, 0.000000000000000000 ) ) ;
#157 = CARTESIAN_POINT ( 'NONE',  ( -1.500000000000000000, -30.25000006755229975, -30.49999988745059909 ) ) ;
#158 = VECTOR ( 'NONE', #29, 1000.000000000000114 ) ;
#159 = CARTESIAN_POINT ( 'NONE',  ( 0.000000000000000000, 24.24699873790650173, -30.50000000001899636 ) ) ;
#160 = PLANE ( 'NONE',  #72 ) ;
#161 = ORIENTED_EDGE ( 'NONE', *, *, #212, .T. ) ;
#162 = LINE ( 'NONE', #328, #404 ) ;
#163 = VERTEX_POINT ( 'NONE', #157 ) ;
#164 = EDGE_CURVE ( 'NONE', #163, #101, #260, .T. ) ;
#165 = CARTESIAN_POINT ( 'NONE',  ( -1.500000000000000000, 31.04295744623070163, -10.34824564029699978 ) ) ;
#166 = ORIENTED_EDGE ( 'NONE', *, *, #256, .T. ) ;
#167 = ADVANCED_BREP_SHAPE_REPRESENTATION ( 'EPCX2.5_3', ( #22, #152 ), #43 ) ;
#168 = CARTESIAN_POINT ( 'NONE',  ( -1.500000000000000000, 28.96655296655089984, -0.3000000173540610104 ) ) ;
#169 = ORIENTED_EDGE ( 'NONE', *, *, #361, .T. ) ;
#170 = LINE ( 'NONE', #332, #249 ) ;
#171 = EDGE_CURVE ( 'NONE', #395, #274, #253, .T. ) ;
#172 = ORIENTED_EDGE ( 'NONE', *, *, #331, .T. ) ;
#173 = VECTOR ( 'NONE', #240, 1000.000000000000000 ) ;
#174 = CARTESIAN_POINT ( 'NONE',  ( -1.500000000000000000, -31.04295746067700179, -10.34824556682920083 ) ) ;
#175 = ORIENTED_EDGE ( 'NONE', *, *, #347, .T. ) ;
#176 = CARTESIAN_POINT ( 'NONE',  ( -1.500000000000000000, 30.24999999041749987, -30.49999988744960078 ) ) ;
#177 = SURFACE_STYLE_USAGE ( .BOTH. , #183 ) ;
#178 = DIRECTION ( 'NONE',  ( 0.000000000000000000, -1.000000000000000000, 0.000000000000000000 ) ) ;
#179 = MECHANICAL_DESIGN_GEOMETRIC_PRESENTATION_REPRESENTATION (  '', ( #79 ), #89 ) ;
#180 = AXIS2_PLACEMENT_3D ( 'NONE', #65, #58, #190 ) ;
#181 = FACE_OUTER_BOUND ( 'NONE', #239, .T. ) ;
#182 = DIRECTION ( 'NONE',  ( 0.000000000000000000, -0.7071067827563889407, 0.7071067796167060937 ) ) ;
#183 = SURFACE_SIDE_STYLE ('',( #277 ) ) ;
#184 = LINE ( 'NONE', #309, #419 ) ;
#185 = EDGE_CURVE ( 'NONE', #274, #204, #323, .T. ) ;
#186 = VECTOR ( 'NONE', #153, 1000.000000000000000 ) ;
#187 = DIRECTION ( 'NONE',  ( 0.000000000000000000, 0.000000000000000000, 1.000000000000000000 ) ) ;
#188 = DIRECTION ( 'NONE',  ( 0.000000000000000000, -1.000000000000000000, 7.210142260343829843E-13 ) ) ;
#189 = EDGE_LOOP ( 'NONE', ( #169, #139, #35, #415 ) ) ;
#190 = DIRECTION ( 'NONE',  ( 1.000000000000000000, 0.000000000000000000, 0.000000000000000000 ) ) ;
#191 = ORIENTED_EDGE ( 'NONE', *, *, #324, .T. ) ;
#192 = CIRCLE ( 'NONE', #226, 0.3000000173331920372 ) ;
#193 = PLANE ( 'NONE',  #344 ) ;
#194 = CARTESIAN_POINT ( 'NONE',  ( -1.500000000000000000, 3.000000010291270058, -30.49999994651900082 ) ) ;
#195 = ORIENTED_EDGE ( 'NONE', *, *, #422, .T. ) ;
#196 = CARTESIAN_POINT ( 'NONE',  ( 0.000000000000000000, -27.74999999303840070, -30.49999988745050317 ) ) ;
#197 = ADVANCED_FACE ( 'NONE', ( #99 ), #193, .F. ) ;
#198 = ADVANCED_FACE ( 'NONE', ( #221 ), #417, .F. ) ;
#199 = PRODUCT_DEFINITION_FORMATION_WITH_SPECIFIED_SOURCE ( 'ANY', '', #286, .NOT_KNOWN. ) ;
#200 = DIRECTION ( 'NONE',  ( 0.000000000000000000, 0.1736481482361909856, 0.9848077582016410148 ) ) ;
#201 = LINE ( 'NONE', #196, #98 ) ;
#202 = ORIENTED_EDGE ( 'NONE', *, *, #217, .T. ) ;
#203 = CARTESIAN_POINT ( 'NONE',  ( 0.000000000000000000, -30.25000006755229975, -30.49999988745059909 ) ) ;
#204 = VERTEX_POINT ( 'NONE', #411 ) ;
#205 = DIRECTION ( 'NONE',  ( 1.000000000000000000, 0.000000000000000000, 0.000000000000000000 ) ) ;
#206 = ORIENTED_EDGE ( 'NONE', *, *, #229, .T. ) ;
#207 = AXIS2_PLACEMENT_3D ( 'NONE', #125, #230, #255 ) ;
#208 = AXIS2_PLACEMENT_3D ( 'NONE', #413, #261, #379 ) ;
#209 = UNCERTAINTY_MEASURE_WITH_UNIT (LENGTH_MEASURE( 1.000000000000000082E-05 ), #19, 'distance_accuracy_value', 'NONE');
#210 = ORIENTED_EDGE ( 'NONE', *, *, #216, .F. ) ;
#211 =( NAMED_UNIT ( * ) PLANE_ANGLE_UNIT ( ) SI_UNIT ( $, .RADIAN. ) );
#212 = EDGE_CURVE ( 'NONE', #97, #383, #384, .T. ) ;
#213 = FACE_OUTER_BOUND ( 'NONE', #307, .T. ) ;
#214 = CLOSED_SHELL ( 'NONE', ( #231, #198, #338, #348, #245, #308, #154, #138, #13, #197, #31, #81 ) ) ;
#215 = AXIS2_PLACEMENT_3D ( 'NONE', #165, #40, #5 ) ;
#216 = EDGE_CURVE ( 'NONE', #274, #74, #15, .T. ) ;
#217 = EDGE_CURVE ( 'NONE', #78, #163, #355, .T. ) ;
#218 = CARTESIAN_POINT ( 'NONE',  ( -2.168404344971009854E-16, 31.09999999481220101, -10.67175006960849970 ) ) ;
#219 = CARTESIAN_POINT ( 'NONE',  ( 0.000000000000000000, -30.25000008875499802, -10.89914322391170032 ) ) ;
#220 = AXIS2_PLACEMENT_3D ( 'NONE', #168, #233, #357 ) ;
#221 = FACE_OUTER_BOUND ( 'NONE', #386, .T. ) ;
#222 = ORIENTED_EDGE ( 'NONE', *, *, #104, .F. ) ;
#223 = DIRECTION ( 'NONE',  ( 0.000000000000000000, 0.1736481482361909856, 0.9848077582016410148 ) ) ;
#224 = LINE ( 'NONE', #128, #158 ) ;
#225 = ORIENTED_EDGE ( 'NONE', *, *, #406, .T. ) ;
#226 = AXIS2_PLACEMENT_3D ( 'NONE', #407, #55, #50 ) ;
#227 = LINE ( 'NONE', #155, #21 ) ;
#228 = ORIENTED_EDGE ( 'NONE', *, *, #18, .F. ) ;
#229 = EDGE_CURVE ( 'NONE', #61, #6, #224, .T. ) ;
#230 = DIRECTION ( 'NONE',  ( 1.000000000000000000, 0.000000000000000000, 0.000000000000000000 ) ) ;
#231 = ADVANCED_FACE ( 'NONE', ( #30 ), #90, .T. ) ;
#232 = VERTEX_POINT ( 'NONE', #258 ) ;
#233 = DIRECTION ( 'NONE',  ( -1.000000000000000000, 0.000000000000000000, 0.000000000000000000 ) ) ;
#234 = LINE ( 'NONE', #360, #27 ) ;
#235 = CARTESIAN_POINT ( 'NONE',  ( 0.000000000000000000, 30.25000001146659656, -10.89914318495799783 ) ) ;
#236 = VECTOR ( 'NONE', #385, 999.9999999999998863 ) ;
#237 = VERTEX_POINT ( 'NONE', #60 ) ;
#238 = CARTESIAN_POINT ( 'NONE',  ( 0.000000000000000000, 28.96655296655089984, -0.3000000173540610104 ) ) ;
#239 = EDGE_LOOP ( 'NONE', ( #134, #202, #95, #401 ) ) ;
#240 = DIRECTION ( 'NONE',  ( 0.000000000000000000, 1.110039285250179995E-09, -1.000000000000000000 ) ) ;
#241 = ORIENTED_EDGE ( 'NONE', *, *, #367, .F. ) ;
#242 = FILL_AREA_STYLE ('',( #147 ) ) ;
#243 = CARTESIAN_POINT ( 'NONE',  ( 0.000000000000000000, 29.02536903475199992, -2.092770401418420079E-11 ) ) ;
#244 =( GEOMETRIC_REPRESENTATION_CONTEXT ( 3 ) GLOBAL_UNCERTAINTY_ASSIGNED_CONTEXT ( ( #39 ) ) GLOBAL_UNIT_ASSIGNED_CONTEXT ( ( #282, #279, #410 ) ) REPRESENTATION_CONTEXT ( 'NONE', 'WORKASPACE' ) );
#245 = ADVANCED_FACE ( 'NONE', ( #354 ), #160, .F. ) ;
#246 = LINE ( 'NONE', #310, #7 ) ;
#247 = CARTESIAN_POINT ( 'NONE',  ( -1.500000000000000000, 29.26199603683529560, -0.2479096858299290329 ) ) ;
#248 = DIRECTION ( 'NONE',  ( 0.000000000000000000, -0.7071067827563889407, 0.7071067796167060937 ) ) ;
#249 = VECTOR ( 'NONE', #37, 1000.000000000000000 ) ;
#250 = PRODUCT_RELATED_PRODUCT_CATEGORY ( 'part', '', ( #286 ) ) ;
#251 = CARTESIAN_POINT ( 'NONE',  ( -1.500000000000000000, 30.25000001146659656, -10.89914318495799783 ) ) ;
#252 = CARTESIAN_POINT ( 'NONE',  ( -1.500000000000000000, -27.75000007032739902, -27.50000000001930189 ) ) ;
#253 = LINE ( 'NONE', #132, #421 ) ;
#254 = EDGE_LOOP ( 'NONE', ( #131, #358, #136, #341 ) ) ;
#255 = DIRECTION ( 'NONE',  ( 0.000000000000000000, 0.000000000000000000, -1.000000000000000000 ) ) ;
#256 = EDGE_CURVE ( 'NONE', #67, #269, #362, .T. ) ;
#257 = VERTEX_POINT ( 'NONE', #159 ) ;
#258 = CARTESIAN_POINT ( 'NONE',  ( 0.000000000000000000, -30.25000006755229975, -30.49999988745059909 ) ) ;
#259 = EDGE_LOOP ( 'NONE', ( #366, #210, #296, #364 ) ) ;
#260 = LINE ( 'NONE', #194, #133 ) ;
#261 = DIRECTION ( 'NONE',  ( 1.000000000000000000, 0.000000000000000000, 0.000000000000000000 ) ) ;
#262 = VERTEX_POINT ( 'NONE', #292 ) ;
#263 = FACE_OUTER_BOUND ( 'NONE', #254, .T. ) ;
#264 = ORIENTED_EDGE ( 'NONE', *, *, #164, .F. ) ;
#265 = CARTESIAN_POINT ( 'NONE',  ( 0.000000000000000000, 28.96655296655119827, -2.088529679229200233E-11 ) ) ;
#266 = ORIENTED_EDGE ( 'NONE', *, *, #406, .F. ) ;
#267 = DIRECTION ( 'NONE',  ( -1.000000000000000000, 0.000000000000000000, 0.000000000000000000 ) ) ;
#268 = VECTOR ( 'NONE', #10, 1000.000000000000000 ) ;
#269 = VERTEX_POINT ( 'NONE', #23 ) ;
#270 = PLANE ( 'NONE',  #215 ) ;
#271 = EDGE_LOOP ( 'NONE', ( #48, #103, #222, #59 ) ) ;
#272 = UNCERTAINTY_MEASURE_WITH_UNIT (LENGTH_MEASURE( 1.000000000000000082E-05 ), #135, 'distance_accuracy_value', 'NONE');
#273 = FACE_OUTER_BOUND ( 'NONE', #189, .T. ) ;
#274 = VERTEX_POINT ( 'NONE', #416 ) ;
#275 = EDGE_CURVE ( 'NONE', #257, #69, #96, .T. ) ;
#276 = EDGE_CURVE ( 'NONE', #390, #262, #227, .T. ) ;
#277 = SURFACE_STYLE_FILL_AREA ( #242 ) ;
#278 = DIRECTION ( 'NONE',  ( 0.000000000000000000, -0.9999999999999351630, 3.599994823855831300E-07 ) ) ;
#279 =( NAMED_UNIT ( * ) PLANE_ANGLE_UNIT ( ) SI_UNIT ( $, .RADIAN. ) );
#280 = CARTESIAN_POINT ( 'NONE',  ( -2.168404344971009854E-16, -30.33786545423589942, -11.43388451655990146 ) ) ;
#281 = CARTESIAN_POINT ( 'NONE',  ( 0.000000000000000000, 30.25000001146659656, -10.89914318495799783 ) ) ;
#282 =( LENGTH_UNIT ( ) NAMED_UNIT ( * ) SI_UNIT ( .MILLI., .METRE. ) );
#283 = COLOUR_RGB ( '',0.7843137254901960675, 0.7843137254901960675, 0.7843137254901960675 ) ;
#284 = VECTOR ( 'NONE', #267, 1000.000000000000000 ) ;
#285 = CARTESIAN_POINT ( 'NONE',  ( -1.500000000000000000, 31.04295744623070163, -10.34824564029699978 ) ) ;
#286 = PRODUCT ( 'EPCX2.5_3', 'EPCX2.5_3', '', ( #49 ) ) ;
#287 = CARTESIAN_POINT ( 'NONE',  ( -1.500000000000000000, 30.33786547603440198, -11.43388458172869981 ) ) ;
#288 = DIRECTION ( 'NONE',  ( 0.000000000000000000, 0.000000000000000000, 1.000000000000000000 ) ) ;
#289 = VECTOR ( 'NONE', #12, 1000.000000000000114 ) ;
#290 = CARTESIAN_POINT ( 'NONE',  ( -1.500000000000000000, -30.25000008875499802, -10.89914322391170032 ) ) ;
#291 = ORIENTED_EDGE ( 'NONE', *, *, #185, .F. ) ;
#292 = CARTESIAN_POINT ( 'NONE',  ( -1.500000000000000000, 30.25000001079800072, -11.52175004619759946 ) ) ;
#293 = APPLICATION_CONTEXT ( 'automotive_design' ) ;
#294 = EDGE_CURVE ( 'NONE', #353, #232, #75, .T. ) ;
#295 = CARTESIAN_POINT ( 'NONE',  ( 0.000000000000000000, 29.26199603682919914, -0.2479096857952090283 ) ) ;
#296 = ORIENTED_EDGE ( 'NONE', *, *, #185, .T. ) ;
#297 = LINE ( 'NONE', #145, #311 ) ;
#298 = ORIENTED_EDGE ( 'NONE', *, *, #399, .F. ) ;
#299 = DIRECTION ( 'NONE',  ( -1.000000000000000000, 0.000000000000000000, 0.000000000000000000 ) ) ;
#300 = ORIENTED_EDGE ( 'NONE', *, *, #80, .F. ) ;
#301 = LINE ( 'NONE', #3, #284 ) ;
#302 = ORIENTED_EDGE ( 'NONE', *, *, #420, .F. ) ;
#303 = DIRECTION ( 'NONE',  ( 1.000000000000000000, 0.000000000000000000, 0.000000000000000000 ) ) ;
#304 = AXIS2_PLACEMENT_3D ( 'NONE', #219, #405, #114 ) ;
#305 = ORIENTED_EDGE ( 'NONE', *, *, #216, .T. ) ;
#306 = DIRECTION ( 'NONE',  ( 0.000000000000000000, 0.1736481482361909856, 0.9848077582016410148 ) ) ;
#307 = EDGE_LOOP ( 'NONE', ( #172, #398, #71, #351, #325, #370, #225, #339, #305, #228, #300, #333 ) ) ;
#308 = ADVANCED_FACE ( 'NONE', ( #263 ), #368, .F. ) ;
#309 = CARTESIAN_POINT ( 'NONE',  ( -1.500000000000000000, -30.33786545423589942, -11.43388451655990146 ) ) ;
#310 = CARTESIAN_POINT ( 'NONE',  ( -1.500000000000000000, 31.09999999481220101, -10.67175006960849970 ) ) ;
#311 = VECTOR ( 'NONE', #205, 1000.000000000000000 ) ;
#312 = PLANE ( 'NONE',  #304 ) ;
#313 = CARTESIAN_POINT ( 'NONE',  ( -1.500000000000000000, -29.26199604173620017, -0.2479096850719890444 ) ) ;
#314 = PLANE ( 'NONE',  #380 ) ;
#315 = PRESENTATION_LAYER_ASSIGNMENT (  '', '', ( #79 ) ) ;
#316 = STYLED_ITEM ( 'NONE', ( #115 ), #167 ) ;
#317 = CARTESIAN_POINT ( 'NONE',  ( -1.500000000000000000, 28.96655296655089984, -0.3000000173540610104 ) ) ;
#318 = EDGE_CURVE ( 'NONE', #232, #163, #400, .T. ) ;
#319 = DIRECTION ( 'NONE',  ( 0.000000000000000000, 0.9848077582016410148, -0.1736481482361909856 ) ) ;
#320 = EDGE_LOOP ( 'NONE', ( #109, #302, #25, #161 ) ) ;
#321 = DIRECTION ( 'NONE',  ( 0.000000000000000000, -1.000000000000000000, 0.000000000000000000 ) ) ;
#322 = VECTOR ( 'NONE', #303, 1000.000000000000000 ) ;
#323 = LINE ( 'NONE', #326, #349 ) ;
#324 = EDGE_CURVE ( 'NONE', #269, #204, #170, .T. ) ;
#325 = ORIENTED_EDGE ( 'NONE', *, *, #229, .F. ) ;
#326 = CARTESIAN_POINT ( 'NONE',  ( -1.500000000000000000, -28.96655297157780140, 2.088529674745600201E-11 ) ) ;
#327 = ORIENTED_EDGE ( 'NONE', *, *, #324, .F. ) ;
#328 = CARTESIAN_POINT ( 'NONE',  ( -1.500000000000000000, 30.25000001079800072, -11.52175004619759946 ) ) ;
#329 = VECTOR ( 'NONE', #278, 1000.000000000000114 ) ;
#330 = ORIENTED_EDGE ( 'NONE', *, *, #111, .T. ) ;
#331 = EDGE_CURVE ( 'NONE', #232, #237, #201, .T. ) ;
#332 = CARTESIAN_POINT ( 'NONE',  ( -1.500000000000000000, 29.02536903475199992, -2.092770401418420079E-11 ) ) ;
#333 = ORIENTED_EDGE ( 'NONE', *, *, #294, .T. ) ;
#334 = DIRECTION ( 'NONE',  ( -1.000000000000000000, 0.000000000000000000, 0.000000000000000000 ) ) ;
#335 = EDGE_LOOP ( 'NONE', ( #206, #241, #92, #393 ) ) ;
#336 = CARTESIAN_POINT ( 'NONE',  ( -1.500000000000000000, 29.26199531119319985, -0.2479055705078279659 ) ) ;
#337 = PRESENTATION_LAYER_ASSIGNMENT (  '', '', ( #316 ) ) ;
#338 = ADVANCED_FACE ( 'NONE', ( #44 ), #100, .T. ) ;
#339 = ORIENTED_EDGE ( 'NONE', *, *, #171, .T. ) ;
#340 = DIRECTION ( 'NONE',  ( -0.000000000000000000, 0.000000000000000000, 1.000000000000000000 ) ) ;
#341 = ORIENTED_EDGE ( 'NONE', *, *, #392, .T. ) ;
#342 = SURFACE_SIDE_STYLE ('',( #373 ) ) ;
#343 = DIRECTION ( 'NONE',  ( 0.000000000000000000, -1.000000000000000000, 0.000000000000000000 ) ) ;
#344 = AXIS2_PLACEMENT_3D ( 'NONE', #130, #319, #223 ) ;
#345 = CARTESIAN_POINT ( 'NONE',  ( -1.500000000000000000, -30.25000008806389928, -11.52174988234179942 ) ) ;
#346 =( NAMED_UNIT ( * ) PLANE_ANGLE_UNIT ( ) SI_UNIT ( $, .RADIAN. ) );
#347 = EDGE_CURVE ( 'NONE', #97, #41, #391, .T. ) ;
#348 = ADVANCED_FACE ( 'NONE', ( #273 ), #270, .F. ) ;
#349 = VECTOR ( 'NONE', #156, 1000.000000000000000 ) ;
#350 = CARTESIAN_POINT ( 'NONE',  ( 0.000000000000000000, 24.24699873790650173, -30.50000000001899636 ) ) ;
#351 = ORIENTED_EDGE ( 'NONE', *, *, #33, .T. ) ;
#352 = CARTESIAN_POINT ( 'NONE',  ( -1.500000000000000000, -31.10000000518780183, -10.67174996899210093 ) ) ;
#353 = VERTEX_POINT ( 'NONE', #106 ) ;
#354 = FACE_OUTER_BOUND ( 'NONE', #335, .T. ) ;
#355 = LINE ( 'NONE', #290, #105 ) ;
#356 = ORIENTED_EDGE ( 'NONE', *, *, #66, .F. ) ;
#357 = DIRECTION ( 'NONE',  ( 0.000000000000000000, 0.000000000000000000, 1.000000000000000000 ) ) ;
#358 = ORIENTED_EDGE ( 'NONE', *, *, #367, .T. ) ;
#359 = CARTESIAN_POINT ( 'NONE',  ( -2.168404344971009854E-16, 31.04295744623070163, -10.34824564029699978 ) ) ;
#360 = CARTESIAN_POINT ( 'NONE',  ( -2.168404344971009854E-16, -31.04295746067700179, -10.34824556682920083 ) ) ;
#361 = EDGE_CURVE ( 'NONE', #146, #61, #394, .T. ) ;
#362 = CIRCLE ( 'NONE', #126, 0.3000000173331770492 ) ;
#363 = DIRECTION ( 'NONE',  ( 0.000000000000000000, 1.000000000000000000, 1.785247471960830246E-14 ) ) ;
#364 = ORIENTED_EDGE ( 'NONE', *, *, #66, .T. ) ;
#365 = DIRECTION ( 'NONE',  ( 0.000000000000000000, 0.000000000000000000, 1.000000000000000000 ) ) ;
#366 = ORIENTED_EDGE ( 'NONE', *, *, #420, .T. ) ;
#367 = EDGE_CURVE ( 'NONE', #262, #6, #162, .T. ) ;
#368 = PLANE ( 'NONE',  #396 ) ;
#369 = ORIENTED_EDGE ( 'NONE', *, *, #256, .F. ) ;
#370 = ORIENTED_EDGE ( 'NONE', *, *, #361, .F. ) ;
#371 = DIRECTION ( 'NONE',  ( -0.000000000000000000, -1.000000000000000000, -0.000000000000000000 ) ) ;
#372 = PLANE ( 'NONE',  #387 ) ;
#373 = SURFACE_STYLE_FILL_AREA ( #86 ) ;
#374 = VECTOR ( 'NONE', #378, 1000.000000000000000 ) ;
#375 = MECHANICAL_DESIGN_GEOMETRIC_PRESENTATION_REPRESENTATION (  '', ( #316 ), #244 ) ;
#376 =( NAMED_UNIT ( * ) SI_UNIT ( $, .STERADIAN. ) SOLID_ANGLE_UNIT ( ) );
#377 = DIRECTION ( 'NONE',  ( 1.000000000000000000, 0.000000000000000000, 0.000000000000000000 ) ) ;
#378 = DIRECTION ( 'NONE',  ( 0.000000000000000000, 1.073871750922139989E-09, 1.000000000000000000 ) ) ;
#379 = DIRECTION ( 'NONE',  ( 0.000000000000000000, 0.000000000000000000, 1.000000000000000000 ) ) ;
#380 = AXIS2_PLACEMENT_3D ( 'NONE', #408, #377, #343 ) ;
#381 = VECTOR ( 'NONE', #306, 1000.000000000000000 ) ;
#382 = FACE_OUTER_BOUND ( 'NONE', #271, .T. ) ;
#383 = VERTEX_POINT ( 'NONE', #68 ) ;
#384 = LINE ( 'NONE', #352, #388 ) ;
#385 = DIRECTION ( 'NONE',  ( 0.000000000000000000, 0.9999999999999996669, -2.844883335757139043E-08 ) ) ;
#386 = EDGE_LOOP ( 'NONE', ( #63, #143, #4, #32, #76, #412 ) ) ;
#387 = AXIS2_PLACEMENT_3D ( 'NONE', #252, #84, #178 ) ;
#388 = VECTOR ( 'NONE', #414, 1000.000000000000000 ) ;
#389 = DIRECTION ( 'NONE',  ( 0.000000000000000000, 1.000000000000000000, 0.000000000000000000 ) ) ;
#390 = VERTEX_POINT ( 'NONE', #8 ) ;
#391 = LINE ( 'NONE', #174, #381 ) ;
#392 = EDGE_CURVE ( 'NONE', #69, #101, #301, .T. ) ;
#393 = ORIENTED_EDGE ( 'NONE', *, *, #144, .T. ) ;
#394 = LINE ( 'NONE', #359, #28 ) ;
#395 = VERTEX_POINT ( 'NONE', #108 ) ;
#396 = AXIS2_PLACEMENT_3D ( 'NONE', #235, #397, #112 ) ;
#397 = DIRECTION ( 'NONE',  ( 0.000000000000000000, -1.000000000000000000, 1.073871750922139989E-09 ) ) ;
#398 = ORIENTED_EDGE ( 'NONE', *, *, #121, .F. ) ;
#399 = EDGE_CURVE ( 'NONE', #67, #146, #70, .T. ) ;
#400 = LINE ( 'NONE', #203, #20 ) ;
#401 = ORIENTED_EDGE ( 'NONE', *, *, #294, .F. ) ;
#402 = DIRECTION ( 'NONE',  ( 0.000000000000000000, -0.7071067842749766408, -0.7071067780981183937 ) ) ;
#403 = EDGE_LOOP ( 'NONE', ( #266, #298, #166, #107 ) ) ;
#404 = VECTOR ( 'NONE', #77, 1000.000000000000000 ) ;
#405 = DIRECTION ( 'NONE',  ( -0.000000000000000000, 1.000000000000000000, 1.110039285250179995E-09 ) ) ;
#406 = EDGE_CURVE ( 'NONE', #146, #395, #85, .T. ) ;
#407 = CARTESIAN_POINT ( 'NONE',  ( -1.500000000000000000, -28.96655297157810338, -0.3000000173123060221 ) ) ;
#408 = CARTESIAN_POINT ( 'NONE',  ( 0.000000000000000000, -27.75000007032739902, -27.50000000001930189 ) ) ;
#409 = EDGE_CURVE ( 'NONE', #78, #353, #137, .T. ) ;
#410 =( NAMED_UNIT ( * ) SI_UNIT ( $, .STERADIAN. ) SOLID_ANGLE_UNIT ( ) );
#411 = CARTESIAN_POINT ( 'NONE',  ( -1.500000000000000000, -28.96655297157780140, 2.088529674745600201E-11 ) ) ;
#412 = ORIENTED_EDGE ( 'NONE', *, *, #318, .T. ) ;
#413 = CARTESIAN_POINT ( 'NONE',  ( 0.000000000000000000, -28.96655297157810338, -0.3000000173123060221 ) ) ;
#414 = DIRECTION ( 'NONE',  ( 1.000000000000000000, 0.000000000000000000, 0.000000000000000000 ) ) ;
#415 = ORIENTED_EDGE ( 'NONE', *, *, #399, .T. ) ;
#416 = CARTESIAN_POINT ( 'NONE',  ( 0.000000000000000000, -28.96655297157780140, 2.088529674745600201E-11 ) ) ;
#417 = PLANE ( 'NONE',  #118 ) ;
#418 = ORIENTED_EDGE ( 'NONE', *, *, #104, .T. ) ;
#419 = VECTOR ( 'NONE', #182, 1000.000000000000114 ) ;
#420 = EDGE_CURVE ( 'NONE', #41, #74, #297, .T. ) ;
#421 = VECTOR ( 'NONE', #188, 1000.000000000000000 ) ;
#422 = EDGE_CURVE ( 'NONE', #395, #269, #1, .T. ) ;
ENDSEC;
END-ISO-10303-21;
