  0
SECTION
  2
HEADER
  9
$ACADVER
  1
AC1015
  9
$ACADMAINTVER
 70
     6
  9
$DWGCODEPAGE
  3
ANSI_1251
  9
$INSBASE
 10
0.0
 20
0.0
 30
0.0
  9
$EXTMIN
 10
0.0
 20
0.0
 30
0.0
  9
$EXTMAX
 10
210.0
 20
148.0
 30
0.0
  9
$LIMMIN
 10
0.0
 20
0.0
  9
$LIMMAX
 10
210.0
 20
148.0
  9
$ORTHOMODE
 70
     0
  9
$REGENMODE
 70
     1
  9
$FILLMODE
 70
     1
  9
$QTEXTMODE
 70
     0
  9
$MIRRTEXT
 70
     1
  9
$LTSCALE
 40
1.0
  9
$ATTMODE
 70
     1
  9
$TEXTSIZE
 40
3.5
  9
$TRACEWID
 40
1.0
  9
$TEXTSTYLE
  7
Standard
  9
$CLAYER
  8
0
  9
$CELTYPE
  6
ByLayer
  9
$CECOLOR
 62
   256
  9
$CELTSCALE
 40
1.0
  9
$DISPSILH
 70
     0
  9
$DIMSCALE
 40
1.0
  9
$DIMASZ
 40
3.302
  9
$DIMEXO
 40
0.0
  9
$DIMDLI
 40
3.75
  9
$DIMRND
 40
0.0
  9
$DIMDLE
 40
0.0
  9
$DIMEXE
 40
1.0
  9
$DIMTP
 40
0.0
  9
$DIMTM
 40
0.0
  9
$DIMTXT
 40
3.5
  9
$DIMCEN
 40
2.5
  9
$DIMTSZ
 40
0.0
  9
$DIMTOL
 70
     0
  9
$DIMLIM
 70
     0
  9
$DIMTIH
 70
     1
  9
$DIMTOH
 70
     1
  9
$DIMSE1
 70
     0
  9
$DIMSE2
 70
     0
  9
$DIMTAD
 70
     1
  9
$DIMZIN
 70
     1
  9
$DIMBLK
  1

  9
$DIMASO
 70
     1
  9
$DIMSHO
 70
     1
  9
$DIMPOST
  1

  9
$DIMAPOST
  1

  9
$DIMALT
 70
     0
  9
$DIMALTD
 70
     3
  9
$DIMALTF
 40
0.0393700787
  9
$DIMLFAC
 40
1.0
  9
$DIMTOFL
 70
     1
  9
$DIMTVP
 40
0.0
  9
$DIMTIX
 70
     0
  9
$DIMSOXD
 70
     0
  9
$DIMSAH
 70
     0
  9
$DIMBLK1
  1

  9
$DIMBLK2
  1

  9
$DIMSTYLE
  2
ISO-25
  9
$DIMCLRD
 70
     0
  9
$DIMCLRE
 70
     0
  9
$DIMCLRT
 70
     0
  9
$DIMTFAC
 40
1.0
  9
$DIMGAP
 40
1.524
  9
$DIMJUST
 70
     0
  9
$DIMSD1
 70
     0
  9
$DIMSD2
 70
     0
  9
$DIMTOLJ
 70
     0
  9
$DIMTZIN
 70
     1
  9
$DIMALTZ
 70
     0
  9
$DIMALTTZ
 70
     0
  9
$DIMUPT
 70
     0
  9
$DIMDEC
 70
     2
  9
$DIMTDEC
 70
     2
  9
$DIMALTU
 70
     2
  9
$DIMALTTD
 70
     3
  9
$DIMTXSTY
  7
Standard
  9
$DIMAUNIT
 70
     0
  9
$DIMADEC
 70
     2
  9
$DIMALTRND
 40
0.0
  9
$DIMAZIN
 70
     0
  9
$DIMDSEP
 70
    44
  9
$DIMATFIT
 70
     3
  9
$DIMFRAC
 70
     0
  9
$DIMLDRBLK
  1

  9
$DIMLUNIT
 70
     2
  9
$DIMLWD
 70
    -2
  9
$DIMLWE
 70
    -2
  9
$DIMTMOVE
 70
     0
  9
$LUNITS
 70
     2
  9
$LUPREC
 70
     2
  9
$SKETCHINC
 40
1.0
  9
$FILLETRAD
 40
0.0
  9
$AUNITS
 70
     0
  9
$AUPREC
 70
     2
  9
$MENU
  1
.
  9
$ELEVATION
 40
0.0
  9
$PELEVATION
 40
0.0
  9
$THICKNESS
 40
0.0
  9
$LIMCHECK
 70
     0
  9
$CHAMFERA
 40
0.0
  9
$CHAMFERB
 40
0.0
  9
$CHAMFERC
 40
0.0
  9
$CHAMFERD
 40
0.0
  9
$SKPOLY
 70
     0
  9
$TDCREATE
 40
2459912.516146644
  9
$TDUCREATE
 40
2459912.391146644
  9
$TDUPDATE
 40
2459912.516147616
  9
$TDUUPDATE
 40
2459912.391147616
  9
$TDINDWG
 40
0.0000000116
  9
$TDUSRTIMER
 40
0.0000000116
  9
$USRTIMER
 70
     1
  9
$ANGBASE
 50
0.0
  9
$ANGDIR
 70
     0
  9
$PDMODE
 70
     0
  9
$PDSIZE
 40
-1.0
  9
$PLINEWID
 40
0.0
  9
$SPLFRAME
 70
     0
  9
$SPLINETYPE
 70
     6
  9
$SPLINESEGS
 70
     8
  9
$HANDSEED
  5
19E
  9
$SURFTAB1
 70
     6
  9
$SURFTAB2
 70
     6
  9
$SURFTYPE
 70
     6
  9
$SURFU
 70
     6
  9
$SURFV
 70
     6
  9
$UCSBASE
  2

  9
$UCSNAME
  2

  9
$UCSORG
 10
0.0
 20
0.0
 30
0.0
  9
$UCSXDIR
 10
1.0
 20
0.0
 30
0.0
  9
$UCSYDIR
 10
0.0
 20
1.0
 30
0.0
  9
$UCSORTHOREF
  2

  9
$UCSORTHOVIEW
 70
     0
  9
$UCSORGTOP
 10
0.0
 20
0.0
 30
0.0
  9
$UCSORGBOTTOM
 10
0.0
 20
0.0
 30
0.0
  9
$UCSORGLEFT
 10
0.0
 20
0.0
 30
0.0
  9
$UCSORGRIGHT
 10
0.0
 20
0.0
 30
0.0
  9
$UCSORGFRONT
 10
0.0
 20
0.0
 30
0.0
  9
$UCSORGBACK
 10
0.0
 20
0.0
 30
0.0
  9
$PUCSBASE
  2

  9
$PUCSNAME
  2

  9
$PUCSORG
 10
0.0
 20
0.0
 30
0.0
  9
$PUCSXDIR
 10
1.0
 20
0.0
 30
0.0
  9
$PUCSYDIR
 10
0.0
 20
1.0
 30
0.0
  9
$PUCSORTHOREF
  2

  9
$PUCSORTHOVIEW
 70
     0
  9
$PUCSORGTOP
 10
0.0
 20
0.0
 30
0.0
  9
$PUCSORGBOTTOM
 10
0.0
 20
0.0
 30
0.0
  9
$PUCSORGLEFT
 10
0.0
 20
0.0
 30
0.0
  9
$PUCSORGRIGHT
 10
0.0
 20
0.0
 30
0.0
  9
$PUCSORGFRONT
 10
0.0
 20
0.0
 30
0.0
  9
$PUCSORGBACK
 10
0.0
 20
0.0
 30
0.0
  9
$USERI1
 70
     0
  9
$USERI2
 70
     0
  9
$USERI3
 70
     0
  9
$USERI4
 70
     0
  9
$USERI5
 70
     0
  9
$USERR1
 40
0.0
  9
$USERR2
 40
0.0
  9
$USERR3
 40
0.0
  9
$USERR4
 40
0.0
  9
$USERR5
 40
0.0
  9
$WORLDVIEW
 70
     1
  9
$SHADEDGE
 70
     3
  9
$SHADEDIF
 70
    70
  9
$TILEMODE
 70
     1
  9
$MAXACTVP
 70
    64
  9
$PINSBASE
 10
0.0
 20
0.0
 30
0.0
  9
$PLIMCHECK
 70
     0
  9
$PEXTMIN
 10
1.0000000000E+20
 20
1.0000000000E+20
 30
1.0000000000E+20
  9
$PEXTMAX
 10
-1.0000000000E+20
 20
-1.0000000000E+20
 30
-1.0000000000E+20
  9
$PLIMMIN
 10
0.0
 20
0.0
  9
$PLIMMAX
 10
420.0
 20
297.0
  9
$UNITMODE
 70
     0
  9
$VISRETAIN
 70
     1
  9
$PLINEGEN
 70
     0
  9
$PSLTSCALE
 70
     1
  9
$TREEDEPTH
 70
  3020
  9
$CMLSTYLE
  2
Standard
  9
$CMLJUST
 70
     0
  9
$CMLSCALE
 40
20.0
  9
$PROXYGRAPHICS
 70
     1
  9
$MEASUREMENT
 70
     1
  9
$CELWEIGHT
370
    -1
  9
$ENDCAPS
280
     0
  9
$JOINSTYLE
280
     0
  9
$LWDISPLAY
290
     1
  9
$INSUNITS
 70
     4
  9
$HYPERLINKBASE
  1

  9
$STYLESHEET
  1

  9
$XEDIT
290
     1
  9
$CEPSNTYPE
380
     0
  9
$PSTYLEMODE
290
     1
  9
$FINGERPRINTGUID
  2
{35ef58c4-e7c7-443d-9ac6-a76fe1a378cb}
  9
$VERSIONGUID
  2
{FAEB1C32-E019-11D5-929B-00C0DF256EC4}
  9
$EXTNAMES
290
     1
  9
$PSVPSCALE
 40
0.0
  9
$OLESTARTUP
290
     0
  0
ENDSEC
  0
SECTION
  2
CLASSES
  0
CLASS
  1
ACDBDICTIONARYWDFLT
  2
AcDbDictionaryWithDefault
  3
ObjectDBX Classes
 90
        0
280
     0
281
     0
  0
CLASS
  1
VISUALSTYLE
  2
AcDbVisualStyle
  3
ObjectDBX Classes
 90
     4095
280
     0
281
     0
  0
CLASS
  1
MATERIAL
  2
AcDbMaterial
  3
ObjectDBX Classes
 90
     1153
280
     0
281
     0
  0
CLASS
  1
SCALE
  2
AcDbScale
  3
ObjectDBX Classes
 90
     1153
280
     0
281
     0
  0
CLASS
  1
TABLESTYLE
  2
AcDbTableStyle
  3
ObjectDBX Classes
 90
     4095
280
     0
281
     0
  0
CLASS
  1
MLEADERSTYLE
  2
AcDbMLeaderStyle
  3
ACDB_MLEADERSTYLE_CLASS
 90
     4095
280
     0
281
     0
  0
CLASS
  1
SUN
  2
AcDbSun
  3
SCENEOE
 90
     1153
280
     0
281
     0
  0
CLASS
  1
ACDBPLACEHOLDER
  2
AcDbPlaceHolder
  3
ObjectDBX Classes
 90
        0
280
     0
281
     0
  0
CLASS
  1
LAYOUT
  2
AcDbLayout
  3
ObjectDBX Classes
 90
        0
280
     0
281
     0
  0
ENDSEC
  0
SECTION
  2
TABLES
  0
TABLE
  2
VPORT
  5
8
330
0
100
AcDbSymbolTable
 70
     1
  0
VPORT
  5
29
330
8
100
AcDbSymbolTableRecord
100
AcDbViewportTableRecord
  2
*Active
 70
     0
 10
0.0
 20
0.0
 11
1.0
 21
1.0
 12
105.0
 22
74.0
 13
0.0
 23
0.0
 14
10.0
 24
10.0
 15
10.0
 25
10.0
 16
0.0
 26
0.0
 36
1.0
 17
0.0
 27
0.0
 37
0.0
 40
148.0
 41
1.4189189189
 42
50.0
 43
0.0
 44
0.0
 50
0.0
 51
0.0
 71
     0
 72
  2000
 73
     1
 74
     3
 75
     0
 76
     0
 77
     0
 78
     0
281
     0
 65
     1
110
0.0
120
0.0
130
0.0
111
1.0
121
0.0
131
0.0
112
0.0
122
1.0
132
0.0
 79
     0
146
0.0
  0
ENDTAB
  0
TABLE
  2
LTYPE
  5
5
330
0
100
AcDbSymbolTable
 70
     6
  0
LTYPE
  5
14
330
5
100
AcDbSymbolTableRecord
100
AcDbLinetypeTableRecord
  2
ByBlock
 70
     0
  3

 72
    65
 73
     0
 40
0.0
  0
LTYPE
  5
15
330
5
100
AcDbSymbolTableRecord
100
AcDbLinetypeTableRecord
  2
ByLayer
 70
     0
  3

 72
    65
 73
     0
 40
0.0
  0
LTYPE
  5
16
330
5
100
AcDbSymbolTableRecord
100
AcDbLinetypeTableRecord
  2
Continuous
 70
     0
  3
Solid line
 72
    65
 73
     0
 40
0.0
  0
LTYPE
  5
5E
330
5
100
AcDbSymbolTableRecord
100
AcDbLinetypeTableRecord
  2
HIDDEN
 70
     0
  3
Hidden __ __ __ __ __ __ __ __ __ __ __ __ __ __
 72
    65
 73
     2
 40
1.905
 49
1.27
 74
     0
 49
-0.635
 74
     0
  0
LTYPE
  5
5F
330
5
100
AcDbSymbolTableRecord
100
AcDbLinetypeTableRecord
  2
PHANTOM
 70
     0
  3
Phantom ______  __  __  ______  __  __  ______
 72
    65
 73
     6
 40
12.7
 49
6.35
 74
     0
 49
-1.27
 74
     0
 49
1.27
 74
     0
 49
-1.27
 74
     0
 49
1.27
 74
     0
 49
-1.27
 74
     0
  0
LTYPE
  5
60
330
5
100
AcDbSymbolTableRecord
100
AcDbLinetypeTableRecord
  2
CENTER
 70
     0
  3
Center ____ _ ____ _ ____ _ ____ _ ____ _ ____
 72
    65
 73
     4
 40
10.16
 49
6.35
 74
     0
 49
-1.27
 74
     0
 49
1.27
 74
     0
 49
-1.27
 74
     0
  0
LTYPE
  5
61
330
5
100
AcDbSymbolTableRecord
100
AcDbLinetypeTableRecord
  2
CENTERX2
 70
     0
  3
Center (2x) ________  __  ________  __  _____
 72
    65
 73
     4
 40
20.32
 49
12.7
 74
     0
 49
-2.54
 74
     0
 49
2.54
 74
     0
 49
-2.54
 74
     0
  0
LTYPE
  5
62
330
5
100
AcDbSymbolTableRecord
100
AcDbLinetypeTableRecord
  2
DOT2
 70
     0
  3
Dot (.5x) ........................................
 72
    65
 73
     2
 40
0.635
 49
0.0
 74
     0
 49
-0.635
 74
     0
  0
ENDTAB
  0
TABLE
  2
LAYER
  5
2
330
0
100
AcDbSymbolTable
 70
     1
  0
LAYER
  5
10
330
2
100
AcDbSymbolTableRecord
100
AcDbLayerTableRecord
  2
0
 70
     0
 62
     7
  6
Continuous
370
    -3
390
F
  0
ENDTAB
  0
TABLE
  2
STYLE
  5
3
330
0
100
AcDbSymbolTable
 70
     1
  0
STYLE
  5
11
330
3
100
AcDbSymbolTableRecord
100
AcDbTextStyleTableRecord
  2
Standard
 70
     0
 40
0.0
 41
1.0
 50
0.0
 71
     0
 42
3.5
  3
txt
  4

  0
ENDTAB
  0
TABLE
  2
VIEW
  5
6
330
0
100
AcDbSymbolTable
 70
     0
  0
ENDTAB
  0
TABLE
  2
UCS
  5
7
330
0
100
AcDbSymbolTable
 70
     0
  0
ENDTAB
  0
TABLE
  2
APPID
  5
9
330
0
100
AcDbSymbolTable
 70
     1
  0
APPID
  5
12
330
9
100
AcDbSymbolTableRecord
100
AcDbRegAppTableRecord
  2
ACAD
 70
     0
  0
ENDTAB
  0
TABLE
  2
DIMSTYLE
  5
A
330
0
100
AcDbSymbolTable
 70
     1
100
AcDbDimStyleTable
  0
DIMSTYLE
105
27
330
A
100
AcDbSymbolTableRecord
100
AcDbDimStyleTableRecord
  2
ISO-25
 70
     0
 41
2.5
 42
0.625
 43
3.75
 44
1.25
 73
     0
 74
     0
 77
     1
 78
     8
140
2.5
141
2.5
143
0.0393700787
147
0.625
171
     3
172
     1
178
     0
271
     2
272
     2
274
     3
278
    44
283
     0
284
     8
340
11
  0
ENDTAB
  0
TABLE
  2
BLOCK_RECORD
  5
1
330
0
100
AcDbSymbolTable
 70
     3
  0
BLOCK_RECORD
  5
1F
330
1
100
AcDbSymbolTableRecord
100
AcDbBlockTableRecord
  2
*Model_Space
340
22
  0
BLOCK_RECORD
  5
1B
330
1
100
AcDbSymbolTableRecord
100
AcDbBlockTableRecord
  2
*Paper_Space
340
1E
  0
BLOCK_RECORD
  5
23
330
1
100
AcDbSymbolTableRecord
100
AcDbBlockTableRecord
  2
*Paper_Space0
340
26
  0
BLOCK_RECORD
  5
A0
330
1
100
AcDbSymbolTableRecord
100
AcDbBlockTableRecord
  2
SW_CENTERMARKSYMBOL_0
340
0
102
{BLKREFS
331
AB
102
}
  0
BLOCK_RECORD
  5
E0
330
1
100
AcDbSymbolTableRecord
100
AcDbBlockTableRecord
  2
SW_CENTERMARKSYMBOL_1
340
0
102
{BLKREFS
331
EB
102
}
  0
ENDTAB
  0
ENDSEC
  0
SECTION
  2
BLOCKS
  0
BLOCK
  5
20
330
1F
100
AcDbEntity
  8
0
100
AcDbBlockBegin
  2
*Model_Space
 70
     0
 10
0.0
 20
0.0
 30
0.0
  3
*Model_Space
  1

  0
ENDBLK
  5
21
330
1F
100
AcDbEntity
  8
0
100
AcDbBlockEnd
  0
BLOCK
  5
1C
330
1B
100
AcDbEntity
 67
     1
  8
0
100
AcDbBlockBegin
  2
*Paper_Space
 70
     0
 10
0.0
 20
0.0
 30
0.0
  3
*Paper_Space
  1

  0
ENDBLK
  5
1D
330
1B
100
AcDbEntity
 67
     1
  8
0
100
AcDbBlockEnd
  0
BLOCK
  5
24
330
23
100
AcDbEntity
  8
0
100
AcDbBlockBegin
  2
*Paper_Space0
 70
     0
 10
0.0
 20
0.0
 30
0.0
  3
*Paper_Space0
  1

  0
ENDBLK
  5
25
330
23
100
AcDbEntity
  8
0
100
AcDbBlockEnd
  0
BLOCK
  5
A1
330
A0
100
AcDbEntity
  8
0
100
AcDbBlockBegin
  2
SW_CENTERMARKSYMBOL_0
 70
     0
 10
0.0
 20
0.0
 30
0.0
  3
SW_CENTERMARKSYMBOL_0
  1

  0
LINE
  5
A3
330
A0
100
AcDbEntity
  8
0
  6
Continuous
 62
     0
370
    18
100
AcDbLine
 10
0.0
 20
0.0
 30
0.0
 11
0.0
 21
2.5
 31
0.0
  0
LINE
  5
A4
330
A0
100
AcDbEntity
  8
0
  6
Continuous
 62
     0
370
    18
100
AcDbLine
 10
0.0
 20
0.0
 30
0.0
 11
-2.5
 21
0.0
 31
0.0
  0
LINE
  5
A5
330
A0
100
AcDbEntity
  8
0
  6
Continuous
 62
     0
370
    18
100
AcDbLine
 10
0.0
 20
0.0
 30
0.0
 11
0.0
 21
-2.5
 31
0.0
  0
LINE
  5
A6
330
A0
100
AcDbEntity
  8
0
  6
Continuous
 62
     0
370
    18
100
AcDbLine
 10
0.0
 20
0.0
 30
0.0
 11
2.5
 21
0.0
 31
0.0
  0
LINE
  5
A7
330
A0
100
AcDbEntity
  8
0
  6
Continuous
 62
     0
370
    18
100
AcDbLine
 10
0.0
 20
2.5
 30
0.0
 11
0.0
 21
4.5
 31
0.0
  0
LINE
  5
A8
330
A0
100
AcDbEntity
  8
0
  6
Continuous
 62
     0
370
    18
100
AcDbLine
 10
-2.5
 20
0.0
 30
0.0
 11
-4.5
 21
0.0
 31
0.0
  0
LINE
  5
A9
330
A0
100
AcDbEntity
  8
0
  6
Continuous
 62
     0
370
    18
100
AcDbLine
 10
0.0
 20
-2.5
 30
0.0
 11
0.0
 21
-4.5
 31
0.0
  0
LINE
  5
AA
330
A0
100
AcDbEntity
  8
0
  6
Continuous
 62
     0
370
    18
100
AcDbLine
 10
2.5
 20
0.0
 30
0.0
 11
4.5
 21
0.0
 31
0.0
  0
ENDBLK
  5
A2
330
A0
100
AcDbEntity
  8
0
100
AcDbBlockEnd
  0
BLOCK
  5
E1
330
E0
100
AcDbEntity
  8
0
100
AcDbBlockBegin
  2
SW_CENTERMARKSYMBOL_1
 70
     0
 10
0.0
 20
0.0
 30
0.0
  3
SW_CENTERMARKSYMBOL_1
  1

  0
LINE
  5
E3
330
E0
100
AcDbEntity
  8
0
  6
Continuous
 62
     0
370
    18
100
AcDbLine
 10
0.0
 20
0.0
 30
0.0
 11
0.0
 21
2.5
 31
0.0
  0
LINE
  5
E4
330
E0
100
AcDbEntity
  8
0
  6
Continuous
 62
     0
370
    18
100
AcDbLine
 10
0.0
 20
0.0
 30
0.0
 11
-2.5
 21
0.0
 31
0.0
  0
LINE
  5
E5
330
E0
100
AcDbEntity
  8
0
  6
Continuous
 62
     0
370
    18
100
AcDbLine
 10
0.0
 20
0.0
 30
0.0
 11
0.0
 21
-2.5
 31
0.0
  0
LINE
  5
E6
330
E0
100
AcDbEntity
  8
0
  6
Continuous
 62
     0
370
    18
100
AcDbLine
 10
0.0
 20
0.0
 30
0.0
 11
2.5
 21
0.0
 31
0.0
  0
LINE
  5
E7
330
E0
100
AcDbEntity
  8
0
  6
Continuous
 62
     0
370
    18
100
AcDbLine
 10
0.0
 20
2.5
 30
0.0
 11
0.0
 21
4.5
 31
0.0
  0
LINE
  5
E8
330
E0
100
AcDbEntity
  8
0
  6
Continuous
 62
     0
370
    18
100
AcDbLine
 10
-2.5
 20
0.0
 30
0.0
 11
-4.5
 21
0.0
 31
0.0
  0
LINE
  5
E9
330
E0
100
AcDbEntity
  8
0
  6
Continuous
 62
     0
370
    18
100
AcDbLine
 10
0.0
 20
-2.5
 30
0.0
 11
0.0
 21
-4.5
 31
0.0
  0
LINE
  5
EA
330
E0
100
AcDbEntity
  8
0
  6
Continuous
 62
     0
370
    18
100
AcDbLine
 10
2.5
 20
0.0
 30
0.0
 11
4.5
 21
0.0
 31
0.0
  0
ENDBLK
  5
E2
330
E0
100
AcDbEntity
  8
0
100
AcDbBlockEnd
  0
ENDSEC
  0
SECTION
  2
ENTITIES
  0
LINE
  5
63
330
1F
100
AcDbEntity
  8
0
  6
Continuous
 62
     7
370
    25
100
AcDbLine
 10
64.8674262135
 20
65.5576633108
 30
0.0
 11
62.4674262135
 21
65.9426633108
 31
0.0
  0
LINE
  5
64
330
1F
100
AcDbEntity
  8
0
  6
Continuous
 62
     7
370
    25
100
AcDbLine
 10
64.8674262135
 20
63.2576633108
 30
0.0
 11
64.8674262135
 21
57.4576633108
 31
0.0
  0
LINE
  5
65
330
1F
100
AcDbEntity
  8
0
  6
Continuous
 62
     7
370
    25
100
AcDbLine
 10
64.8674262135
 20
67.4576633108
 30
0.0
 11
64.8674262135
 21
65.5576633108
 31
0.0
  0
LINE
  5
66
330
1F
100
AcDbEntity
  8
0
  6
Continuous
 62
     7
370
    25
100
AcDbLine
 10
84.3674262135
 20
65.9576633108
 30
0.0
 11
86.8674262135
 21
65.5576633108
 31
0.0
  0
LINE
  5
67
330
1F
100
AcDbEntity
  8
0
  6
Continuous
 62
     7
370
    25
100
AcDbLine
 10
84.3674262135
 20
62.8576633108
 30
0.0
 11
84.3674262135
 21
65.9576633108
 31
0.0
  0
LINE
  5
68
330
1F
100
AcDbEntity
  8
0
  6
Continuous
 62
     7
370
    25
100
AcDbLine
 10
86.8674262135
 20
63.2576633108
 30
0.0
 11
84.3674262135
 21
62.8576633108
 31
0.0
  0
LINE
  5
69
330
1F
100
AcDbEntity
  8
0
  6
Continuous
 62
     7
370
    25
100
AcDbLine
 10
86.8674262135
 20
57.4576633108
 30
0.0
 11
86.8674262135
 21
63.2576633108
 31
0.0
  0
LINE
  5
6A
330
1F
100
AcDbEntity
  8
0
  6
Continuous
 62
     7
370
    25
100
AcDbLine
 10
62.4674262135
 20
62.8739248683
 30
0.0
 11
64.8674262135
 21
63.2576633108
 31
0.0
  0
LINE
  5
6B
330
1F
100
AcDbEntity
  8
0
  6
Continuous
 62
     7
370
    25
100
AcDbLine
 10
62.4674262135
 20
65.9426633108
 30
0.0
 11
62.4674262135
 21
62.8739248683
 31
0.0
  0
LINE
  5
6C
330
1F
100
AcDbEntity
  8
0
  6
Continuous
 62
     7
370
    25
100
AcDbLine
 10
86.8674262135
 20
65.5576633108
 30
0.0
 11
86.8674262135
 21
67.4576633108
 31
0.0
  0
LINE
  5
6D
330
1F
100
AcDbEntity
  8
0
  6
Continuous
 62
     7
370
    25
100
AcDbLine
 10
70.3674262135
 20
67.4576633108
 30
0.0
 11
64.8674262135
 21
67.4576633108
 31
0.0
  0
LINE
  5
6E
330
1F
100
AcDbEntity
  8
0
  6
Continuous
 62
     7
370
    25
100
AcDbLine
 10
81.3674262135
 20
63.4576633108
 30
0.0
 11
81.3674262135
 21
67.4576633108
 31
0.0
  0
LINE
  5
6F
330
1F
100
AcDbEntity
  8
0
  6
Continuous
 62
     7
370
    25
100
AcDbLine
 10
70.3674262135
 20
63.4576633108
 30
0.0
 11
70.3674262135
 21
67.4576633108
 31
0.0
  0
LINE
  5
70
330
1F
100
AcDbEntity
  8
0
  6
Continuous
 62
     7
370
    25
100
AcDbLine
 10
64.8674262135
 20
57.4576633108
 30
0.0
 11
86.8674262135
 21
57.4576633108
 31
0.0
  0
LINE
  5
71
330
1F
100
AcDbEntity
  8
0
  6
Continuous
 62
     7
370
    25
100
AcDbLine
 10
70.3674262135
 20
63.4576633108
 30
0.0
 11
81.3674262135
 21
63.4576633108
 31
0.0
  0
LINE
  5
72
330
1F
100
AcDbEntity
  8
0
  6
Continuous
 62
     7
370
    25
100
AcDbLine
 10
86.8674262135
 20
67.4576633108
 30
0.0
 11
81.3674262135
 21
67.4576633108
 31
0.0
  0
SPLINE
  5
73
330
1F
100
AcDbEntity
  8
0
  6
Continuous
 62
     7
370
    25
100
AcDbSpline
210
0.0
220
0.0
230
1.0
 70
     8
 71
     3
 72
    20
 73
    16
 74
     0
 42
0.00000001
 43
0.00000001
 40
0.0
 40
0.0
 40
0.0
 40
0.0
 40
0.1250000000000002
 40
0.1250000000000002
 40
0.2500000000000003
 40
0.2500000000000003
 40
0.3750000000000005
 40
0.3750000000000005
 40
0.5000000000000008
 40
0.5000000000000008
 40
0.7500000000000001
 40
0.7500000000000001
 40
0.875
 40
0.875
 40
1.0
 40
1.0
 40
1.0
 40
1.0
 10
84.86742621353083
 20
75.4576633108289
 30
0.0
 10
84.86742621353083
 20
75.6572932234982
 30
0.0
 10
84.86079680426947
 20
75.85331543655437
 30
0.0
 10
84.83556508793565
 20
76.23852201529658
 30
0.0
 10
84.8166411498851
 20
76.42975598853916
 30
0.0
 10
84.7697910650281
 20
76.79232139511491
 30
0.0
 10
84.74200488113148
 20
76.96404601428326
 30
0.0
 10
84.68068981279603
 20
77.28897980629492
 30
0.0
 10
84.64716473742989
 20
77.44163231149693
 30
0.0
 10
84.54731640079366
 20
77.85334119227596
 30
0.0
 10
84.479539040352
 20
78.07614228372461
 30
0.0
 10
84.40669544541015
 20
78.30144791129143
 30
0.0
 10
84.38674881277296
 20
78.35987759597418
 30
0.0
 10
84.35975777744864
 20
78.43793341861182
 30
0.0
 10
84.3527075877694
 20
78.45766331082892
 30
0.0
 10
84.3527075877694
 20
78.45766331082892
 30
0.0
  0
SPLINE
  5
74
330
1F
100
AcDbEntity
  8
0
  6
Continuous
 62
     7
370
    25
100
AcDbSpline
210
0.0
220
0.0
230
1.0
 70
     8
 71
     3
 72
    20
 73
    16
 74
     0
 42
0.00000001
 43
0.00000001
 40
0.0
 40
0.0
 40
0.0
 40
0.0
 40
0.1250000000000002
 40
0.1250000000000002
 40
0.2500000000000004
 40
0.2500000000000004
 40
0.3750000000000006
 40
0.3750000000000006
 40
0.5000000000000006
 40
0.5000000000000006
 40
0.7500000000000007
 40
0.7500000000000007
 40
0.8750000000000003
 40
0.8750000000000003
 40
1.0
 40
1.0
 40
1.0
 40
1.0
 10
83.36742621353083
 20
75.4576633108289
 30
0.0
 10
83.36742621353083
 20
75.65729153581267
 30
0.0
 10
83.35937598066307
 20
75.85539240867404
 30
0.0
 10
83.32886854602822
 20
76.24148603780318
 30
0.0
 10
83.30604150122443
 20
76.43270210229633
 30
0.0
 10
83.24943264913725
 20
76.79545216854933
 30
0.0
 10
83.21587358074895
 20
76.96695631469872
 30
0.0
 10
83.14176914241148
 20
77.2911242548769
 30
0.0
 10
83.10127930963712
 20
77.4430310366108
 30
0.0
 10
82.98029305292997
 20
77.85315654093165
 30
0.0
 10
82.8976571707378
 20
78.07529586348737
 30
0.0
 10
82.80814162530925
 20
78.30072617432731
 30
0.0
 10
82.78347751514373
 20
78.35939559843501
 30
0.0
 10
82.75005825475364
 20
78.43779620394129
 30
0.0
 10
82.74128975596459
 20
78.45766331082892
 30
0.0
 10
82.74128975596459
 20
78.45766331082892
 30
0.0
  0
LINE
  5
75
330
1F
100
AcDbEntity
  8
0
  6
Continuous
 62
     7
370
    25
100
AcDbLine
 10
84.3527075878
 20
78.4576633108
 30
0.0
 11
82.741289756
 21
78.4576633108
 31
0.0
  0
LINE
  5
76
330
1F
100
AcDbEntity
  8
0
  6
Continuous
 62
     7
370
    25
100
AcDbLine
 10
67.3821448393
 20
78.4576633108
 30
0.0
 11
68.9935626711
 21
78.4576633108
 31
0.0
  0
SPLINE
  5
77
330
1F
100
AcDbEntity
  8
0
  6
Continuous
 62
     7
370
    25
100
AcDbSpline
210
0.0
220
0.0
230
1.0
 70
     8
 71
     3
 72
    20
 73
    16
 74
     0
 42
0.00000001
 43
0.00000001
 40
0.0
 40
0.0
 40
0.0
 40
0.0
 40
0.1250000000000002
 40
0.1250000000000002
 40
0.2500000000000003
 40
0.2500000000000003
 40
0.3750000000000005
 40
0.3750000000000005
 40
0.5000000000000008
 40
0.5000000000000008
 40
0.7500000000000001
 40
0.7500000000000001
 40
0.875
 40
0.875
 40
1.0
 40
1.0
 40
1.0
 40
1.0
 10
66.86742621353083
 20
75.4576633108289
 30
0.0
 10
66.86742621353083
 20
75.6572932234982
 30
0.0
 10
66.8740556227922
 20
75.85331543655437
 30
0.0
 10
66.89928733912602
 20
76.23852201529658
 30
0.0
 10
66.91821127717657
 20
76.42975598853916
 30
0.0
 10
66.96506136203357
 20
76.79232139511491
 30
0.0
 10
66.99284754593019
 20
76.96404601428326
 30
0.0
 10
67.05416261426564
 20
77.28897980629492
 30
0.0
 10
67.08768768963178
 20
77.44163231149693
 30
0.0
 10
67.187536026268
 20
77.85334119227596
 30
0.0
 10
67.25531338670967
 20
78.07614228372461
 30
0.0
 10
67.32815698165152
 20
78.30144791129143
 30
0.0
 10
67.3481036142887
 20
78.35987759597418
 30
0.0
 10
67.37509464961303
 20
78.43793341861182
 30
0.0
 10
67.38214483929227
 20
78.45766331082892
 30
0.0
 10
67.38214483929227
 20
78.45766331082892
 30
0.0
  0
SPLINE
  5
78
330
1F
100
AcDbEntity
  8
0
  6
Continuous
 62
     7
370
    25
100
AcDbSpline
210
0.0
220
0.0
230
1.0
 70
     8
 71
     3
 72
    20
 73
    16
 74
     0
 42
0.00000001
 43
0.00000001
 40
0.0
 40
0.0
 40
0.0
 40
0.0
 40
0.1250000000000001
 40
0.1250000000000001
 40
0.2500000000000002
 40
0.2500000000000002
 40
0.3750000000000002
 40
0.3750000000000002
 40
0.5000000000000003
 40
0.5000000000000003
 40
0.7500000000000004
 40
0.7500000000000004
 40
0.8750000000000002
 40
0.8750000000000002
 40
1.0
 40
1.0
 40
1.0
 40
1.0
 10
68.36742621353083
 20
75.4576633108289
 30
0.0
 10
68.36742621353083
 20
75.65729153581267
 30
0.0
 10
68.37547644639861
 20
75.85539240867404
 30
0.0
 10
68.40598388103345
 20
76.2414860378032
 30
0.0
 10
68.42881092583723
 20
76.43270210229635
 30
0.0
 10
68.48541977792442
 20
76.79545216854933
 30
0.0
 10
68.51897884631272
 20
76.96695631469873
 30
0.0
 10
68.59308328465019
 20
77.2911242548769
 30
0.0
 10
68.63357311742455
 20
77.4430310366108
 30
0.0
 10
68.7545593741317
 20
77.85315654093166
 30
0.0
 10
68.83719525632387
 20
78.07529586348737
 30
0.0
 10
68.92671080175242
 20
78.30072617432731
 30
0.0
 10
68.95137491191794
 20
78.35939559843501
 30
0.0
 10
68.98479417230803
 20
78.43779620394129
 30
0.0
 10
68.99356267109708
 20
78.45766331082892
 30
0.0
 10
68.99356267109708
 20
78.45766331082892
 30
0.0
  0
LINE
  5
79
330
1F
100
AcDbEntity
  8
0
  6
Continuous
 62
     7
370
    25
100
AcDbLine
 10
68.8327815837
 20
83.3265052588
 30
0.0
 11
67.3555699542
 21
83.0660329923
 31
0.0
  0
LINE
  5
7A
330
1F
100
AcDbEntity
  8
0
  6
Continuous
 62
     7
370
    25
100
AcDbLine
 10
69.5167518208
 20
79.4475172878
 30
0.0
 11
68.8327815837
 21
83.3265052588
 31
0.0
  0
LINE
  5
7B
330
1F
100
AcDbEntity
  8
0
  6
Continuous
 62
     7
370
    25
100
AcDbLine
 10
67.3555699542
 20
83.0660329923
 30
0.0
 11
67.9443730204
 21
79.7267648673
 31
0.0
  0
ARC
  5
7C
330
1F
100
AcDbEntity
  8
0
  6
Continuous
 62
     7
370
    25
100
AcDbCircle
 10
75.8674262135
 20
75.4576633108
 30
0.0
 40
9.000000000000007
100
AcDbArc
 50
151.683313293
 51
160.5287793655
  0
ARC
  5
7D
330
1F
100
AcDbEntity
  8
0
  6
Continuous
 62
     7
370
    25
100
AcDbCircle
 10
75.8674262135
 20
75.4576633108
 30
0.0
 40
7.500000000000005
100
AcDbArc
 50
147.8606308006
 51
156.4218215218
  0
LINE
  5
7E
330
1F
100
AcDbEntity
  8
0
  6
Continuous
 62
     7
370
    25
100
AcDbLine
 10
82.9020708434
 20
83.3265052588
 30
0.0
 11
82.2181006063
 21
79.4475172878
 31
0.0
  0
LINE
  5
7F
330
1F
100
AcDbEntity
  8
0
  6
Continuous
 62
     7
370
    25
100
AcDbLine
 10
84.3792824729
 20
83.0660329923
 30
0.0
 11
82.9020708434
 21
83.3265052588
 31
0.0
  0
LINE
  5
80
330
1F
100
AcDbEntity
  8
0
  6
Continuous
 62
     7
370
    25
100
AcDbLine
 10
83.7904794066
 20
79.7267648673
 30
0.0
 11
84.3792824729
 21
83.0660329923
 31
0.0
  0
ARC
  5
81
330
1F
100
AcDbEntity
  8
0
  6
Continuous
 62
     7
370
    25
100
AcDbCircle
 10
75.8674262135
 20
75.4576633108
 30
0.0
 40
9.000000000000007
100
AcDbArc
 50
19.4712206345
 51
28.316686707
  0
ARC
  5
82
330
1F
100
AcDbEntity
  8
0
  6
Continuous
 62
     7
370
    25
100
AcDbCircle
 10
75.8674262135
 20
75.4576633108
 30
0.0
 40
7.500000000000005
100
AcDbArc
 50
23.5781784782
 51
32.1393691994
  0
LINE
  5
83
330
1F
100
AcDbEntity
  8
0
  6
Continuous
 62
     7
370
    25
100
AcDbLine
 10
84.8674262135
 20
67.4576633108
 30
0.0
 11
84.8674262135
 21
75.4576633108
 31
0.0
  0
LINE
  5
84
330
1F
100
AcDbEntity
  8
0
  6
Continuous
 62
     7
370
    25
100
AcDbLine
 10
82.8674262135
 20
67.4576633108
 30
0.0
 11
82.8674262135
 21
72.7650809073
 31
0.0
  0
ARC
  5
85
330
1F
100
AcDbEntity
  8
0
  6
Continuous
 62
     7
370
    25
100
AcDbCircle
 10
75.8674262135
 20
75.4576633108
 30
0.0
 40
7.499999999999997
100
AcDbArc
 50
338.9605302187
 51
0.0
  0
LINE
  5
86
330
1F
100
AcDbEntity
  8
0
  6
Continuous
 62
     7
370
    25
100
AcDbLine
 10
68.8674262135
 20
67.4576633108
 30
0.0
 11
68.8674262135
 21
72.7650809073
 31
0.0
  0
LINE
  5
87
330
1F
100
AcDbEntity
  8
0
  6
Continuous
 62
     7
370
    25
100
AcDbLine
 10
66.8674262135
 20
67.4576633108
 30
0.0
 11
66.8674262135
 21
75.4576633108
 31
0.0
  0
ARC
  5
88
330
1F
100
AcDbEntity
  8
0
  6
Continuous
 62
     7
370
    25
100
AcDbCircle
 10
75.8674262135
 20
75.4576633108
 30
0.0
 40
7.5
100
AcDbArc
 50
180.0
 51
201.0394697813
  0
LINE
  5
89
330
1F
100
AcDbEntity
  8
0
  6
Continuous
 62
     7
370
    25
100
AcDbLine
 10
65.8674262135
 20
70.5459581579
 30
0.0
 11
65.8674262135
 21
67.4576633108
 31
0.0
  0
LINE
  5
8A
330
1F
100
AcDbEntity
  8
0
  6
Continuous
 62
     7
370
    25
100
AcDbLine
 10
66.9577139126
 20
76.7292869639
 30
0.0
 11
65.8674262135
 21
70.5459581579
 31
0.0
  0
LINE
  5
8B
330
1F
100
AcDbEntity
  8
0
  6
Continuous
 62
     7
370
    25
100
AcDbLine
 10
85.8674262135
 20
67.4576633108
 30
0.0
 11
85.8674262135
 21
70.5459581579
 31
0.0
  0
LINE
  5
8C
330
1F
100
AcDbEntity
  8
0
  6
Continuous
 62
     7
370
    25
100
AcDbLine
 10
85.8674262135
 20
70.5459581579
 30
0.0
 11
84.7771385144
 21
76.7292869639
 31
0.0
  0
LINE
  5
8D
330
1F
100
AcDbEntity
  8
0
  6
Continuous
 62
     7
370
    25
100
AcDbLine
 10
69.4530222481
 20
67.4576633108
 30
0.0
 11
69.4530222481
 21
79.3442327195
 31
0.0
  0
LINE
  5
8E
330
1F
100
AcDbEntity
  8
0
  6
Continuous
 62
     7
370
    25
100
AcDbLine
 10
82.2818301789
 20
79.3442327195
 30
0.0
 11
82.2818301789
 21
67.4576633108
 31
0.0
  0
LINE
  5
8F
330
1F
100
AcDbEntity
  8
0
  6
Continuous
 62
     7
370
    25
100
AcDbLine
 10
89.2674262135
 20
62.8739248683
 30
0.0
 11
89.2674262135
 21
65.9426633108
 31
0.0
  0
LINE
  5
90
330
1F
100
AcDbEntity
  8
0
  6
Continuous
 62
     7
370
    25
100
AcDbLine
 10
89.2674262135
 20
65.9426633108
 30
0.0
 11
86.8674262135
 21
65.5576633108
 31
0.0
  0
LINE
  5
91
330
1F
100
AcDbEntity
  8
0
  6
Continuous
 62
     7
370
    25
100
AcDbLine
 10
86.8674262135
 20
63.2576633108
 30
0.0
 11
89.2674262135
 21
62.8739248683
 31
0.0
  0
LINE
  5
92
330
1F
100
AcDbEntity
  8
0
  6
Continuous
 62
     7
370
    25
100
AcDbLine
 10
78.3674262135
 20
63.4576633108
 30
0.0
 11
78.3674262135
 21
67.4576633108
 31
0.0
  0
LINE
  5
93
330
1F
100
AcDbEntity
  8
0
  6
Continuous
 62
     7
370
    25
100
AcDbLine
 10
73.3674262135
 20
63.4576633108
 30
0.0
 11
73.3674262135
 21
67.4576633108
 31
0.0
  0
LINE
  5
94
330
1F
100
AcDbEntity
  8
0
  6
Continuous
 62
     7
370
    25
100
AcDbLine
 10
78.3674262135
 20
67.4576633108
 30
0.0
 11
73.3674262135
 21
67.4576633108
 31
0.0
  0
LINE
  5
95
330
1F
100
AcDbEntity
  8
0
  6
Continuous
 62
     7
370
    25
100
AcDbLine
 10
64.8674262135
 20
41.9556440818
 30
0.0
 11
86.8674262135
 21
41.9556440818
 31
0.0
  0
LINE
  5
96
330
1F
100
AcDbEntity
  8
0
  6
Continuous
 62
     7
370
    25
100
AcDbLine
 10
86.8674262135
 20
27.9556440818
 30
0.0
 11
86.8674262135
 21
41.9556440818
 31
0.0
  0
LINE
  5
97
330
1F
100
AcDbEntity
  8
0
  6
Continuous
 62
     7
370
    25
100
AcDbLine
 10
86.8674262135
 20
27.9556440818
 30
0.0
 11
64.8674262135
 21
27.9556440818
 31
0.0
  0
LINE
  5
98
330
1F
100
AcDbEntity
  8
0
  6
Continuous
 62
     7
370
    25
100
AcDbLine
 10
64.8674262135
 20
27.9556440818
 30
0.0
 11
64.8674262135
 21
41.9556440818
 31
0.0
  0
CIRCLE
  5
99
330
1F
100
AcDbEntity
  8
0
  6
Continuous
 62
     7
370
    25
100
AcDbCircle
 10
75.8674262135
 20
34.9556440818
 30
0.0
 40
2.0
  0
LINE
  5
9A
330
1F
100
AcDbEntity
  8
0
  6
Continuous
 62
     7
370
    25
100
AcDbLine
 10
89.2674262135
 20
34.9556440818
 30
0.0
 11
89.2674262135
 21
27.9556440818
 31
0.0
  0
LINE
  5
9B
330
1F
100
AcDbEntity
  8
0
  6
Continuous
 62
     7
370
    25
100
AcDbLine
 10
86.8674262135
 20
34.9556440818
 30
0.0
 11
89.2674262135
 21
34.9556440818
 31
0.0
  0
LINE
  5
9C
330
1F
100
AcDbEntity
  8
0
  6
Continuous
 62
     7
370
    25
100
AcDbLine
 10
89.2674262135
 20
27.9556440818
 30
0.0
 11
86.8674262135
 21
27.9556440818
 31
0.0
  0
LINE
  5
9D
330
1F
100
AcDbEntity
  8
0
  6
Continuous
 62
     7
370
    25
100
AcDbLine
 10
62.4674262135
 20
34.9556440818
 30
0.0
 11
62.4674262135
 21
41.9556440818
 31
0.0
  0
LINE
  5
9E
330
1F
100
AcDbEntity
  8
0
  6
Continuous
 62
     7
370
    25
100
AcDbLine
 10
62.4674262135
 20
34.9556440818
 30
0.0
 11
64.8674262135
 21
34.9556440818
 31
0.0
  0
LINE
  5
9F
330
1F
100
AcDbEntity
  8
0
  6
Continuous
 62
     7
370
    25
100
AcDbLine
 10
62.4674262135
 20
41.9556440818
 30
0.0
 11
64.8674262135
 21
41.9556440818
 31
0.0
  0
INSERT
  5
AB
330
1F
100
AcDbEntity
  8
0
  6
Continuous
 62
     7
370
    18
100
AcDbBlockReference
  2
SW_CENTERMARKSYMBOL_0
 10
75.8674262135
 20
34.9556440818
 30
0.0
  0
LINE
  5
AC
330
1F
100
AcDbEntity
  8
0
  6
Continuous
 62
     7
370
    25
100
AcDbLine
 10
82.9020708434
 20
109.1652525394
 30
0.0
 11
82.9020708434
 21
96.1652525394
 31
0.0
  0
LINE
  5
AD
330
1F
100
AcDbEntity
  8
0
  6
Continuous
 62
     7
370
    25
100
AcDbLine
 10
82.9020708434
 20
109.1652525394
 30
0.0
 11
84.3792824729
 21
109.1652525394
 31
0.0
  0
LINE
  5
AE
330
1F
100
AcDbEntity
  8
0
  6
Continuous
 62
     7
370
    25
100
AcDbLine
 10
84.3792824729
 20
109.1652525394
 30
0.0
 11
84.3792824729
 21
96.1652525394
 31
0.0
  0
LINE
  5
AF
330
1F
100
AcDbEntity
  8
0
  6
Continuous
 62
     7
370
    25
100
AcDbLine
 10
84.3792824729
 20
96.1652525394
 30
0.0
 11
82.9020708434
 21
96.1652525394
 31
0.0
  0
LINE
  5
B0
330
1F
100
AcDbEntity
  8
0
  6
Continuous
 62
     7
370
    25
100
AcDbLine
 10
82.9020708434
 20
96.1652525394
 30
0.0
 11
82.2181006063
 21
96.1652525394
 31
0.0
  0
LINE
  5
B1
330
1F
100
AcDbEntity
  8
0
  6
Continuous
 62
     7
370
    25
100
AcDbLine
 10
82.2181006063
 20
109.1652525394
 30
0.0
 11
82.2181006063
 21
96.1652525394
 31
0.0
  0
LINE
  5
B2
330
1F
100
AcDbEntity
  8
0
  6
Continuous
 62
     7
370
    25
100
AcDbLine
 10
82.9020708434
 20
109.1652525394
 30
0.0
 11
82.2181006063
 21
109.1652525394
 31
0.0
  0
LINE
  5
B3
330
1F
100
AcDbEntity
  8
0
  6
Continuous
 62
     7
370
    25
100
AcDbLine
 10
68.8327815837
 20
96.1652525394
 30
0.0
 11
67.3555699542
 21
96.1652525394
 31
0.0
  0
LINE
  5
B4
330
1F
100
AcDbEntity
  8
0
  6
Continuous
 62
     7
370
    25
100
AcDbLine
 10
67.3555699542
 20
109.1652525394
 30
0.0
 11
67.3555699542
 21
96.1652525394
 31
0.0
  0
LINE
  5
B5
330
1F
100
AcDbEntity
  8
0
  6
Continuous
 62
     7
370
    25
100
AcDbLine
 10
68.8327815837
 20
109.1652525394
 30
0.0
 11
68.8327815837
 21
96.1652525394
 31
0.0
  0
LINE
  5
B6
330
1F
100
AcDbEntity
  8
0
  6
Continuous
 62
     7
370
    25
100
AcDbLine
 10
67.3555699542
 20
109.1652525394
 30
0.0
 11
68.8327815837
 21
109.1652525394
 31
0.0
  0
LINE
  5
B7
330
1F
100
AcDbEntity
  8
0
  6
Continuous
 62
     7
370
    25
100
AcDbLine
 10
69.5167518208
 20
109.1652525394
 30
0.0
 11
69.5167518208
 21
96.1652525394
 31
0.0
  0
LINE
  5
B8
330
1F
100
AcDbEntity
  8
0
  6
Continuous
 62
     7
370
    25
100
AcDbLine
 10
69.5167518208
 20
96.1652525394
 30
0.0
 11
68.8327815837
 21
96.1652525394
 31
0.0
  0
LINE
  5
B9
330
1F
100
AcDbEntity
  8
0
  6
Continuous
 62
     7
370
    25
100
AcDbLine
 10
69.5167518208
 20
109.1652525394
 30
0.0
 11
68.8327815837
 21
109.1652525394
 31
0.0
  0
SPLINE
  5
BA
330
1F
100
AcDbEntity
  8
0
  6
Continuous
 62
     7
370
    25
100
AcDbSpline
210
0.0
220
0.0
230
1.0
 70
     8
 71
     3
 72
    16
 73
    12
 74
     0
 42
0.00000001
 43
0.00000001
 40
0.0
 40
0.0
 40
0.0
 40
0.0
 40
0.082522346779146
 40
0.2001191574573974
 40
0.3209084131148497
 40
0.4426846612653342
 40
0.567808595173515
 40
0.6925388707081842
 40
0.8211365476322338
 40
0.9098329386086366
 40
1.0
 40
1.0
 40
1.0
 40
1.0
 10
84.37928247290476
 20
108.5313160740091
 30
0.0
 10
84.38758454253575
 20
108.4211926363117
 30
0.0
 10
84.40771730953223
 20
108.154140008406
 30
0.0
 10
84.46633902984102
 20
107.7547108928122
 30
0.0
 10
84.54328721615627
 20
107.3423783130972
 30
0.0
 10
84.6294516930521
 20
106.9722978420593
 30
0.0
 10
84.71384620968799
 20
106.6585293247111
 30
0.0
 10
84.78821750297497
 20
106.4096272228949
 30
0.0
 10
84.83672697353853
 20
106.258090572038
 30
0.0
 10
84.86302929723178
 20
106.1783960579918
 30
0.0
 10
84.86595256276784
 20
106.1696576621874
 30
0.0
 10
84.86742621353083
 20
106.1652525393939
 30
0.0
  0
LINE
  5
BB
330
1F
100
AcDbEntity
  8
0
  6
Continuous
 62
     7
370
    25
100
AcDbLine
 10
84.8674262135
 20
106.1652525394
 30
0.0
 11
84.8674262135
 21
103.6652525394
 31
0.0
  0
LINE
  5
BC
330
1F
100
AcDbEntity
  8
0
  6
Continuous
 62
     7
370
    25
100
AcDbLine
 10
84.7771385144
 20
103.6652525394
 30
0.0
 11
84.7771385144
 21
101.6652525394
 31
0.0
  0
LINE
  5
BD
330
1F
100
AcDbEntity
  8
0
  6
Continuous
 62
     7
370
    25
100
AcDbLine
 10
84.8674262135
 20
101.6652525394
 30
0.0
 11
84.8674262135
 21
99.1652525394
 31
0.0
  0
SPLINE
  5
BE
330
1F
100
AcDbEntity
  8
0
  6
Continuous
 62
     7
370
    25
100
AcDbSpline
210
0.0
220
0.0
230
1.0
 70
     8
 71
     3
 72
    16
 73
    12
 74
     0
 42
0.00000001
 43
0.00000001
 40
0.0
 40
0.0
 40
0.0
 40
0.0
 40
0.1185130045111645
 40
0.2405747855396419
 40
0.3590582978631233
 40
0.4807847505858974
 40
0.6029927137059228
 40
0.7285450689237133
 40
0.8540417755653587
 40
0.9834181098154992
 40
1.0
 40
1.0
 40
1.0
 40
1.0
 10
84.86742621353083
 20
99.16525253939392
 30
0.0
 10
84.86489677019132
 20
99.15770673534401
 30
0.0
 10
84.85976214136771
 20
99.14238917421626
 30
0.0
 10
84.81949313554468
 20
99.01954607360366
 30
0.0
 10
84.75934710157637
 20
98.82635720676696
 30
0.0
 10
84.68329115534286
 20
98.56260304651815
 30
0.0
 10
84.59806434163082
 20
98.2301491820334
 30
0.0
 10
84.51220694589564
 20
97.83721094319954
 30
0.0
 10
84.43711740014551
 20
97.38623130522666
 30
0.0
 10
84.39270257141162
 20
97.04011008385724
 30
0.0
 10
84.3806515540096
 20
96.84509891427882
 30
0.0
 10
84.37928247290476
 20
96.82294426138945
 30
0.0
  0
LINE
  5
BF
330
1F
100
AcDbEntity
  8
0
  6
Continuous
 62
     7
370
    25
100
AcDbLine
 10
66.9577139126
 20
103.6652525394
 30
0.0
 11
66.9577139126
 21
101.6652525394
 31
0.0
  0
LINE
  5
C0
330
1F
100
AcDbEntity
  8
0
  6
Continuous
 62
     7
370
    25
100
AcDbLine
 10
66.8674262135
 20
106.1652525394
 30
0.0
 11
66.8674262135
 21
103.6652525394
 31
0.0
  0
SPLINE
  5
C1
330
1F
100
AcDbEntity
  8
0
  6
Continuous
 62
     7
370
    25
100
AcDbSpline
210
0.0
220
0.0
230
1.0
 70
     8
 71
     3
 72
    16
 73
    12
 74
     0
 42
0.00000001
 43
0.00000001
 40
0.0
 40
0.0
 40
0.0
 40
0.0
 40
0.0825223467791794
 40
0.2001191574574265
 40
0.3209084131148745
 40
0.4426846612653546
 40
0.5678085951735308
 40
0.6925388707081954
 40
0.8211365476322403
 40
0.9098329386086399
 40
1.0
 40
1.0
 40
1.0
 40
1.0
 10
67.35556995415692
 20
108.5313160740093
 30
0.0
 10
67.34726788452593
 20
108.4211926363118
 30
0.0
 10
67.32713511752945
 20
108.154140008406
 30
0.0
 10
67.26851339722064
 20
107.7547108928122
 30
0.0
 10
67.1915652109054
 20
107.3423783130972
 30
0.0
 10
67.10540073400956
 20
106.9722978420593
 30
0.0
 10
67.02100621737368
 20
106.6585293247111
 30
0.0
 10
66.94663492408667
 20
106.4096272228949
 30
0.0
 10
66.89812545352314
 20
106.258090572038
 30
0.0
 10
66.87182312982988
 20
106.1783960579918
 30
0.0
 10
66.86889986429382
 20
106.1696576621874
 30
0.0
 10
66.86742621353083
 20
106.1652525393939
 30
0.0
  0
SPLINE
  5
C2
330
1F
100
AcDbEntity
  8
0
  6
Continuous
 62
     7
370
    25
100
AcDbSpline
210
0.0
220
0.0
230
1.0
 70
     8
 71
     3
 72
    16
 73
    12
 74
     0
 42
0.00000001
 43
0.00000001
 40
0.0
 40
0.0
 40
0.0
 40
0.0
 40
0.118513004511159
 40
0.2405747855396305
 40
0.3590582978631064
 40
0.4807847505858747
 40
0.6029927137058942
 40
0.7285450689236789
 40
0.8540417755653184
 40
0.9834181098154527
 40
1.0
 40
1.0
 40
1.0
 40
1.0
 10
66.86742621353083
 20
99.16525253939392
 30
0.0
 10
66.86995565687035
 20
99.15770673534401
 30
0.0
 10
66.87509028569396
 20
99.14238917421626
 30
0.0
 10
66.91535929151699
 20
99.01954607360366
 30
0.0
 10
66.9755053254853
 20
98.82635720676696
 30
0.0
 10
67.05156127171881
 20
98.56260304651815
 30
0.0
 10
67.13678808543085
 20
98.2301491820334
 30
0.0
 10
67.22264548116601
 20
97.83721094319954
 30
0.0
 10
67.29773502691614
 20
97.38623130522666
 30
0.0
 10
67.34214985565006
 20
97.04011008385717
 30
0.0
 10
67.35420087305206
 20
96.8450989142787
 30
0.0
 10
67.35556995415692
 20
96.82294426138925
 30
0.0
  0
LINE
  5
C3
330
1F
100
AcDbEntity
  8
0
  6
Continuous
 62
     7
370
    25
100
AcDbLine
 10
66.8674262135
 20
101.6652525394
 30
0.0
 11
66.8674262135
 21
99.1652525394
 31
0.0
  0
LINE
  5
C4
330
1F
100
AcDbEntity
  8
0
  6
Continuous
 62
     7
370
    25
100
AcDbLine
 10
66.9577139126
 20
103.6652525394
 30
0.0
 11
65.8674262135
 21
103.6652525394
 31
0.0
  0
LINE
  5
C5
330
1F
100
AcDbEntity
  8
0
  6
Continuous
 62
     7
370
    25
100
AcDbLine
 10
66.9577139126
 20
101.6652525394
 30
0.0
 11
65.8674262135
 21
101.6652525394
 31
0.0
  0
LINE
  5
C6
330
1F
100
AcDbEntity
  8
0
  6
Continuous
 62
     7
370
    25
100
AcDbLine
 10
65.8674262135
 20
103.6652525394
 30
0.0
 11
65.8674262135
 21
101.6652525394
 31
0.0
  0
LINE
  5
C7
330
1F
100
AcDbEntity
  8
0
  6
Continuous
 62
     7
370
    25
100
AcDbLine
 10
85.8674262135
 20
103.6652525394
 30
0.0
 11
85.8674262135
 21
101.6652525394
 31
0.0
  0
LINE
  5
C8
330
1F
100
AcDbEntity
  8
0
  6
Continuous
 62
     7
370
    25
100
AcDbLine
 10
85.8674262135
 20
101.6652525394
 30
0.0
 11
84.7771385144
 21
101.6652525394
 31
0.0
  0
LINE
  5
C9
330
1F
100
AcDbEntity
  8
0
  6
Continuous
 62
     7
370
    25
100
AcDbLine
 10
85.8674262135
 20
103.6652525394
 30
0.0
 11
84.7771385144
 21
103.6652525394
 31
0.0
  0
LINE
  5
CA
330
1F
100
AcDbEntity
  8
0
  6
Continuous
 62
     7
370
    25
100
AcDbLine
 10
70.3674262135
 20
109.6652525394
 30
0.0
 11
70.3674262135
 21
95.6652525394
 31
0.0
  0
LINE
  5
CB
330
1F
100
AcDbEntity
  8
0
  6
Continuous
 62
     7
370
    25
100
AcDbLine
 10
70.3674262135
 20
95.6652525394
 30
0.0
 11
64.8674262135
 21
95.6652525394
 31
0.0
  0
LINE
  5
CC
330
1F
100
AcDbEntity
  8
0
  6
Continuous
 62
     7
370
    25
100
AcDbLine
 10
64.8674262135
 20
109.6652525394
 30
0.0
 11
64.8674262135
 21
95.6652525394
 31
0.0
  0
LINE
  5
CD
330
1F
100
AcDbEntity
  8
0
  6
Continuous
 62
     7
370
    25
100
AcDbLine
 10
64.8674262135
 20
109.6652525394
 30
0.0
 11
70.3674262135
 21
109.6652525394
 31
0.0
  0
LINE
  5
CE
330
1F
100
AcDbEntity
  8
0
  6
Continuous
 62
     7
370
    25
100
AcDbLine
 10
86.8674262135
 20
95.6652525394
 30
0.0
 11
81.3674262135
 21
95.6652525394
 31
0.0
  0
LINE
  5
CF
330
1F
100
AcDbEntity
  8
0
  6
Continuous
 62
     7
370
    25
100
AcDbLine
 10
81.3674262135
 20
109.6652525394
 30
0.0
 11
81.3674262135
 21
95.6652525394
 31
0.0
  0
LINE
  5
D0
330
1F
100
AcDbEntity
  8
0
  6
Continuous
 62
     7
370
    25
100
AcDbLine
 10
86.8674262135
 20
109.6652525394
 30
0.0
 11
86.8674262135
 21
95.6652525394
 31
0.0
  0
LINE
  5
D1
330
1F
100
AcDbEntity
  8
0
  6
Continuous
 62
     7
370
    25
100
AcDbLine
 10
81.3674262135
 20
109.6652525394
 30
0.0
 11
86.8674262135
 21
109.6652525394
 31
0.0
  0
LINE
  5
D2
330
1F
100
AcDbEntity
  8
0
  6
Continuous
 62
     7
370
    25
100
AcDbLine
 10
78.3674262135
 20
108.1652525394
 30
0.0
 11
73.3674262135
 21
108.1652525394
 31
0.0
  0
LINE
  5
D3
330
1F
100
AcDbEntity
  8
0
  6
Continuous
 62
     7
370
    25
100
AcDbLine
 10
73.3674262135
 20
108.1652525394
 30
0.0
 11
73.3674262135
 21
109.6652525394
 31
0.0
  0
LINE
  5
D4
330
1F
100
AcDbEntity
  8
0
  6
Continuous
 62
     7
370
    25
100
AcDbLine
 10
78.3674262135
 20
109.6652525394
 30
0.0
 11
78.3674262135
 21
108.1652525394
 31
0.0
  0
LINE
  5
D5
330
1F
100
AcDbEntity
  8
0
  6
Continuous
 62
     7
370
    25
100
AcDbLine
 10
78.3674262135
 20
109.6652525394
 30
0.0
 11
73.3674262135
 21
109.6652525394
 31
0.0
  0
LINE
  5
D6
330
1F
100
AcDbEntity
  8
0
  6
Continuous
 62
     7
370
    25
100
AcDbLine
 10
89.2674262135
 20
102.6652525394
 30
0.0
 11
89.2674262135
 21
109.6652525394
 31
0.0
  0
LINE
  5
D7
330
1F
100
AcDbEntity
  8
0
  6
Continuous
 62
     7
370
    25
100
AcDbLine
 10
89.2674262135
 20
102.6652525394
 30
0.0
 11
86.8674262135
 21
102.6652525394
 31
0.0
  0
LINE
  5
D8
330
1F
100
AcDbEntity
  8
0
  6
Continuous
 62
     7
370
    25
100
AcDbLine
 10
86.8674262135
 20
109.6652525394
 30
0.0
 11
89.2674262135
 21
109.6652525394
 31
0.0
  0
LINE
  5
D9
330
1F
100
AcDbEntity
  8
0
  6
Continuous
 62
     7
370
    25
100
AcDbLine
 10
62.4674262135
 20
102.6652525394
 30
0.0
 11
62.4674262135
 21
95.6652525394
 31
0.0
  0
LINE
  5
DA
330
1F
100
AcDbEntity
  8
0
  6
Continuous
 62
     7
370
    25
100
AcDbLine
 10
64.8674262135
 20
102.6652525394
 30
0.0
 11
62.4674262135
 21
102.6652525394
 31
0.0
  0
LINE
  5
DB
330
1F
100
AcDbEntity
  8
0
  6
Continuous
 62
     7
370
    25
100
AcDbLine
 10
64.8674262135
 20
95.6652525394
 30
0.0
 11
62.4674262135
 21
95.6652525394
 31
0.0
  0
CIRCLE
  5
DC
330
1F
100
AcDbEntity
  8
0
  6
Continuous
 62
     7
370
    25
100
AcDbCircle
 10
75.8674262135
 20
102.6652525394
 30
0.0
 40
2.0
  0
LINE
  5
DD
330
1F
100
AcDbEntity
  8
0
  6
Continuous
 62
     7
370
    25
100
AcDbLine
 10
70.3674262135
 20
95.6652525394
 30
0.0
 11
81.3674262135
 21
95.6652525394
 31
0.0
  0
LINE
  5
DE
330
1F
100
AcDbEntity
  8
0
  6
Continuous
 62
     7
370
    25
100
AcDbLine
 10
78.3674262135
 20
109.6652525394
 30
0.0
 11
81.3674262135
 21
109.6652525394
 31
0.0
  0
LINE
  5
DF
330
1F
100
AcDbEntity
  8
0
  6
Continuous
 62
     7
370
    25
100
AcDbLine
 10
70.3674262135
 20
109.6652525394
 30
0.0
 11
73.3674262135
 21
109.6652525394
 31
0.0
  0
INSERT
  5
EB
330
1F
100
AcDbEntity
  8
0
  6
Continuous
 62
     7
370
    18
100
AcDbBlockReference
  2
SW_CENTERMARKSYMBOL_1
 10
75.8674262135
 20
102.6652525394
 30
0.0
  0
LINE
  5
EC
330
1F
100
AcDbEntity
  8
0
  6
Continuous
 62
     7
370
    25
100
AcDbLine
 10
116.321018557
 20
62.8739248683
 30
0.0
 11
123.321018557
 21
62.8739248683
 31
0.0
  0
LINE
  5
ED
330
1F
100
AcDbEntity
  8
0
  6
Continuous
 62
     7
370
    25
100
AcDbLine
 10
116.321018557
 20
62.8739248683
 30
0.0
 11
116.321018557
 21
65.9426633108
 31
0.0
  0
LINE
  5
EE
330
1F
100
AcDbEntity
  8
0
  6
Continuous
 62
     7
370
    25
100
AcDbLine
 10
123.321018557
 20
65.9426633108
 30
0.0
 11
123.321018557
 21
62.8739248683
 31
0.0
  0
LINE
  5
EF
330
1F
100
AcDbEntity
  8
0
  6
Continuous
 62
     7
370
    25
100
AcDbLine
 10
116.321018557
 20
65.9426633108
 30
0.0
 11
123.321018557
 21
65.9426633108
 31
0.0
  0
LINE
  5
F0
330
1F
100
AcDbEntity
  8
0
  6
Continuous
 62
     7
370
    25
100
AcDbLine
 10
109.321018557
 20
57.4576633108
 30
0.0
 11
109.321018557
 21
63.2576633108
 31
0.0
  0
LINE
  5
F1
330
1F
100
AcDbEntity
  8
0
  6
Continuous
 62
     7
370
    25
100
AcDbLine
 10
109.321018557
 20
63.2576633108
 30
0.0
 11
116.321018557
 21
63.2576633108
 31
0.0
  0
LINE
  5
F2
330
1F
100
AcDbEntity
  8
0
  6
Continuous
 62
     7
370
    25
100
AcDbLine
 10
123.321018557
 20
57.4576633108
 30
0.0
 11
109.321018557
 21
57.4576633108
 31
0.0
  0
LINE
  5
F3
330
1F
100
AcDbEntity
  8
0
  6
Continuous
 62
     7
370
    25
100
AcDbLine
 10
123.321018557
 20
62.8739248683
 30
0.0
 11
123.321018557
 21
57.4576633108
 31
0.0
  0
LINE
  5
F4
330
1F
100
AcDbEntity
  8
0
  6
Continuous
 62
     7
370
    25
100
AcDbLine
 10
109.321018557
 20
65.5576633108
 30
0.0
 11
109.321018557
 21
67.4576633108
 31
0.0
  0
LINE
  5
F5
330
1F
100
AcDbEntity
  8
0
  6
Continuous
 62
     7
370
    25
100
AcDbLine
 10
123.321018557
 20
67.4576633108
 30
0.0
 11
109.321018557
 21
67.4576633108
 31
0.0
  0
LINE
  5
F6
330
1F
100
AcDbEntity
  8
0
  6
Continuous
 62
     7
370
    25
100
AcDbLine
 10
109.321018557
 20
65.5576633108
 30
0.0
 11
116.321018557
 21
65.5576633108
 31
0.0
  0
LINE
  5
F7
330
1F
100
AcDbEntity
  8
0
  6
Continuous
 62
     7
370
    25
100
AcDbLine
 10
123.321018557
 20
67.4576633108
 30
0.0
 11
123.321018557
 21
65.9426633108
 31
0.0
  0
LINE
  5
F8
330
1F
100
AcDbEntity
  8
0
  6
Continuous
 62
     7
370
    25
100
AcDbLine
 10
117.321018557
 20
70.5459581579
 30
0.0
 11
117.321018557
 21
76.7292869639
 31
0.0
  0
LINE
  5
F9
330
1F
100
AcDbEntity
  8
0
  6
Continuous
 62
     7
370
    25
100
AcDbLine
 10
117.321018557
 20
70.5459581579
 30
0.0
 11
115.321018557
 21
70.5459581579
 31
0.0
  0
LINE
  5
FA
330
1F
100
AcDbEntity
  8
0
  6
Continuous
 62
     7
370
    25
100
AcDbLine
 10
115.321018557
 20
70.5459581579
 30
0.0
 11
115.321018557
 21
76.7292869639
 31
0.0
  0
LINE
  5
FB
330
1F
100
AcDbEntity
  8
0
  6
Continuous
 62
     7
370
    25
100
AcDbLine
 10
117.321018557
 20
76.7292869639
 30
0.0
 11
115.321018557
 21
76.7292869639
 31
0.0
  0
LINE
  5
FC
330
1F
100
AcDbEntity
  8
0
  6
Continuous
 62
     7
370
    25
100
AcDbLine
 10
115.321018557
 20
67.4576633108
 30
0.0
 11
115.321018557
 21
70.5459581579
 31
0.0
  0
LINE
  5
FD
330
1F
100
AcDbEntity
  8
0
  6
Continuous
 62
     7
370
    25
100
AcDbLine
 10
117.321018557
 20
67.4576633108
 30
0.0
 11
117.321018557
 21
70.5459581579
 31
0.0
  0
LINE
  5
FE
330
1F
100
AcDbEntity
  8
0
  6
Continuous
 62
     7
370
    25
100
AcDbLine
 10
109.821018557
 20
78.4576633108
 30
0.0
 11
109.821018557
 21
79.7267648673
 31
0.0
  0
LINE
  5
FF
330
1F
100
AcDbEntity
  8
0
  6
Continuous
 62
     7
370
    25
100
AcDbLine
 10
122.821018557
 20
79.7267648673
 30
0.0
 11
109.821018557
 21
79.7267648673
 31
0.0
  0
LINE
  5
100
330
1F
100
AcDbEntity
  8
0
  6
Continuous
 62
     7
370
    25
100
AcDbLine
 10
122.821018557
 20
78.4576633108
 30
0.0
 11
122.821018557
 21
79.7267648673
 31
0.0
  0
SPLINE
  5
101
330
1F
100
AcDbEntity
  8
0
  6
Continuous
 62
     7
370
    25
100
AcDbSpline
210
0.0
220
0.0
230
1.0
 70
     8
 71
     3
 72
    20
 73
    16
 74
     0
 42
0.00000001
 43
0.00000001
 40
0.0
 40
0.0
 40
0.0
 40
0.0
 40
0.1250000000000002
 40
0.1250000000000002
 40
0.2500000000000003
 40
0.2500000000000003
 40
0.3750000000000005
 40
0.3750000000000005
 40
0.5000000000000008
 40
0.5000000000000008
 40
0.7500000000000001
 40
0.7500000000000001
 40
0.875
 40
0.875
 40
1.0
 40
1.0
 40
1.0
 40
1.0
 10
112.8210185570124
 20
75.4576633108289
 30
0.0
 10
112.8210185570124
 20
75.6572932234982
 30
0.0
 10
112.8012935067107
 20
75.85331543655437
 30
0.0
 10
112.7242648545297
 20
76.23852201529658
 30
0.0
 10
112.6659437294868
 20
76.42975598853916
 30
0.0
 10
112.5149471397864
 20
76.79232139511491
 30
0.0
 10
112.4227554911317
 20
76.96404601428326
 30
0.0
 10
112.205238307174
 20
77.28897980629492
 30
0.0
 10
112.0796753524804
 20
77.44163231149693
 30
0.0
 10
111.668011125933
 20
77.85334119227596
 30
0.0
 10
111.336186690432
 20
78.07614228372461
 30
0.0
 10
110.7961753634692
 20
78.30144791129143
 30
0.0
 10
110.6061435701245
 20
78.35987759597418
 30
0.0
 10
110.2175776670721
 20
78.43793341861182
 30
0.0
 10
110.0206565321432
 20
78.45766331082892
 30
0.0
 10
109.8210185570124
 20
78.45766331082892
 30
0.0
  0
SPLINE
  5
102
330
1F
100
AcDbEntity
  8
0
  6
Continuous
 62
     7
370
    25
100
AcDbSpline
210
0.0
220
0.0
230
1.0
 70
     8
 71
     3
 72
    20
 73
    16
 74
     0
 42
0.00000001
 43
0.00000001
 40
0.0
 40
0.0
 40
0.0
 40
0.0
 40
0.1249999999999996
 40
0.1249999999999996
 40
0.2499999999999992
 40
0.2499999999999992
 40
0.3749999999999988
 40
0.3749999999999988
 40
0.4999999999999984
 40
0.4999999999999984
 40
0.7499999999999992
 40
0.7499999999999992
 40
0.8749999999999996
 40
0.8749999999999996
 40
1.0
 40
1.0
 40
1.0
 40
1.0
 10
122.8210185570124
 20
78.45766331082892
 30
0.0
 10
122.621375580385
 20
78.45766331082892
 30
0.0
 10
122.4253764562819
 20
78.43793635924368
 30
0.0
 10
122.0402645682286
 20
78.36093445282997
 30
0.0
 10
121.8491094310473
 20
78.30264296125468
 30
0.0
 10
121.486748753988
 20
78.15177553069063
 30
0.0
 10
121.3151097274551
 20
78.05966897793256
 30
0.0
 10
120.9902545929428
 20
77.84230127128377
 30
0.0
 10
120.8376555844322
 20
77.71685080152476
 30
0.0
 10
120.4258707666015
 20
77.30533597084316
 30
0.0
 10
120.2027865844511
 20
76.97331819250954
 30
0.0
 10
119.9772903365901
 20
76.43300781611929
 30
0.0
 10
119.9188226824155
 20
76.24286550829552
 30
0.0
 10
119.8407470216224
 20
75.85422977534418
 30
0.0
 10
119.8210185570124
 20
75.65729194925697
 30
0.0
 10
119.8210185570124
 20
75.4576633108289
 30
0.0
  0
LINE
  5
103
330
1F
100
AcDbEntity
  8
0
  6
Continuous
 62
     7
370
    25
100
AcDbLine
 10
119.821018557
 20
67.4576633108
 30
0.0
 11
119.821018557
 21
75.4576633108
 31
0.0
  0
LINE
  5
104
330
1F
100
AcDbEntity
  8
0
  6
Continuous
 62
     7
370
    25
100
AcDbLine
 10
112.821018557
 20
67.4576633108
 30
0.0
 11
112.821018557
 21
75.4576633108
 31
0.0
  0
LINE
  5
105
330
1F
100
AcDbEntity
  8
0
  6
Continuous
 62
     7
370
    25
100
AcDbLine
 10
122.821018557
 20
83.3265052588
 30
0.0
 11
109.821018557
 21
83.3265052588
 31
0.0
  0
LINE
  5
106
330
1F
100
AcDbEntity
  8
0
  6
Continuous
 62
     7
370
    25
100
AcDbLine
 10
122.821018557
 20
83.0660329923
 30
0.0
 11
109.821018557
 21
83.0660329923
 31
0.0
  0
LINE
  5
107
330
1F
100
AcDbEntity
  8
0
  6
Continuous
 62
     7
370
    25
100
AcDbLine
 10
109.821018557
 20
83.0660329923
 30
0.0
 11
109.821018557
 21
83.3265052588
 31
0.0
  0
LINE
  5
108
330
1F
100
AcDbEntity
  8
0
  6
Continuous
 62
     7
370
    25
100
AcDbLine
 10
122.821018557
 20
83.3265052588
 30
0.0
 11
122.821018557
 21
83.0660329923
 31
0.0
  0
LINE
  5
109
330
1F
100
AcDbEntity
  8
0
  6
Continuous
 62
     7
370
    25
100
AcDbLine
 10
109.821018557
 20
79.7267648673
 30
0.0
 11
109.821018557
 21
83.0660329923
 31
0.0
  0
LINE
  5
10A
330
1F
100
AcDbEntity
  8
0
  6
Continuous
 62
     7
370
    25
100
AcDbLine
 10
122.821018557
 20
79.7267648673
 30
0.0
 11
122.821018557
 21
83.0660329923
 31
0.0
  0
LINE
  5
10B
330
1F
100
AcDbEntity
  8
0
  6
Continuous
 62
     7
370
    25
100
AcDbLine
 10
109.321018557
 20
63.2576633108
 30
0.0
 11
109.321018557
 21
65.5576633108
 31
0.0
  0
LINE
  5
10C
330
1F
100
AcDbEntity
  8
0
  6
Continuous
 62
     7
370
    25
100
AcDbLine
 10
51.0711401425
 20
65.9426633108
 30
0.0
 11
51.0711401425
 21
62.8739248683
 31
0.0
  0
LINE
  5
10D
330
1F
100
AcDbEntity
  8
0
  6
Continuous
 62
     7
370
    25
100
AcDbLine
 10
44.0711401425
 20
62.8739248683
 30
0.0
 11
51.0711401425
 21
62.8739248683
 31
0.0
  0
LINE
  5
10E
330
1F
100
AcDbEntity
  8
0
  6
Continuous
 62
     7
370
    25
100
AcDbLine
 10
44.0711401425
 20
65.9426633108
 30
0.0
 11
51.0711401425
 21
65.9426633108
 31
0.0
  0
LINE
  5
10F
330
1F
100
AcDbEntity
  8
0
  6
Continuous
 62
     7
370
    25
100
AcDbLine
 10
44.0711401425
 20
65.9426633108
 30
0.0
 11
44.0711401425
 21
62.8739248683
 31
0.0
  0
LINE
  5
110
330
1F
100
AcDbEntity
  8
0
  6
Continuous
 62
     7
370
    25
100
AcDbLine
 10
37.0711401425
 20
57.4576633108
 30
0.0
 11
37.0711401425
 21
63.2576633108
 31
0.0
  0
LINE
  5
111
330
1F
100
AcDbEntity
  8
0
  6
Continuous
 62
     7
370
    25
100
AcDbLine
 10
44.0711401425
 20
63.2576633108
 30
0.0
 11
37.0711401425
 21
63.2576633108
 31
0.0
  0
LINE
  5
112
330
1F
100
AcDbEntity
  8
0
  6
Continuous
 62
     7
370
    25
100
AcDbLine
 10
37.0711401425
 20
57.4576633108
 30
0.0
 11
51.0711401425
 21
57.4576633108
 31
0.0
  0
LINE
  5
113
330
1F
100
AcDbEntity
  8
0
  6
Continuous
 62
     7
370
    25
100
AcDbLine
 10
51.0711401425
 20
62.8739248683
 30
0.0
 11
51.0711401425
 21
57.4576633108
 31
0.0
  0
LINE
  5
114
330
1F
100
AcDbEntity
  8
0
  6
Continuous
 62
     7
370
    25
100
AcDbLine
 10
37.0711401425
 20
65.5576633108
 30
0.0
 11
37.0711401425
 21
67.4576633108
 31
0.0
  0
LINE
  5
115
330
1F
100
AcDbEntity
  8
0
  6
Continuous
 62
     7
370
    25
100
AcDbLine
 10
37.0711401425
 20
67.4576633108
 30
0.0
 11
51.0711401425
 21
67.4576633108
 31
0.0
  0
LINE
  5
116
330
1F
100
AcDbEntity
  8
0
  6
Continuous
 62
     7
370
    25
100
AcDbLine
 10
44.0711401425
 20
65.5576633108
 30
0.0
 11
37.0711401425
 21
65.5576633108
 31
0.0
  0
LINE
  5
117
330
1F
100
AcDbEntity
  8
0
  6
Continuous
 62
     7
370
    25
100
AcDbLine
 10
51.0711401425
 20
67.4576633108
 30
0.0
 11
51.0711401425
 21
65.9426633108
 31
0.0
  0
LINE
  5
118
330
1F
100
AcDbEntity
  8
0
  6
Continuous
 62
     7
370
    25
100
AcDbLine
 10
43.0711401425
 20
70.5459581579
 30
0.0
 11
45.0711401425
 21
70.5459581579
 31
0.0
  0
LINE
  5
119
330
1F
100
AcDbEntity
  8
0
  6
Continuous
 62
     7
370
    25
100
AcDbLine
 10
45.0711401425
 20
70.5459581579
 30
0.0
 11
45.0711401425
 21
67.4576633108
 31
0.0
  0
LINE
  5
11A
330
1F
100
AcDbEntity
  8
0
  6
Continuous
 62
     7
370
    25
100
AcDbLine
 10
43.0711401425
 20
70.5459581579
 30
0.0
 11
43.0711401425
 21
67.4576633108
 31
0.0
  0
LINE
  5
11B
330
1F
100
AcDbEntity
  8
0
  6
Continuous
 62
     7
370
    25
100
AcDbLine
 10
43.0711401425
 20
76.7292869639
 30
0.0
 11
45.0711401425
 21
76.7292869639
 31
0.0
  0
LINE
  5
11C
330
1F
100
AcDbEntity
  8
0
  6
Continuous
 62
     7
370
    25
100
AcDbLine
 10
45.0711401425
 20
76.7292869639
 30
0.0
 11
45.0711401425
 21
70.5459581579
 31
0.0
  0
LINE
  5
11D
330
1F
100
AcDbEntity
  8
0
  6
Continuous
 62
     7
370
    25
100
AcDbLine
 10
43.0711401425
 20
76.7292869639
 30
0.0
 11
43.0711401425
 21
70.5459581579
 31
0.0
  0
SPLINE
  5
11E
330
1F
100
AcDbEntity
  8
0
  6
Continuous
 62
     7
370
    25
100
AcDbSpline
210
0.0
220
0.0
230
1.0
 70
     8
 71
     3
 72
    20
 73
    16
 74
     0
 42
0.00000001
 43
0.00000001
 40
0.0
 40
0.0
 40
0.0
 40
0.0
 40
0.1249999999999996
 40
0.1249999999999996
 40
0.2499999999999992
 40
0.2499999999999992
 40
0.3749999999999988
 40
0.3749999999999988
 40
0.4999999999999984
 40
0.4999999999999984
 40
0.7499999999999992
 40
0.7499999999999992
 40
0.8749999999999996
 40
0.8749999999999996
 40
1.0
 40
1.0
 40
1.0
 40
1.0
 10
37.57114014251782
 20
78.45766331082892
 30
0.0
 10
37.77078311914518
 20
78.45766331082892
 30
0.0
 10
37.96678224324823
 20
78.43793635924368
 30
0.0
 10
38.35189413130161
 20
78.36093445282997
 30
0.0
 10
38.54304926848292
 20
78.30264296125468
 30
0.0
 10
38.90540994554222
 20
78.15177553069063
 30
0.0
 10
39.07704897207512
 20
78.05966897793256
 30
0.0
 10
39.40190410658742
 20
77.84230127128377
 30
0.0
 10
39.55450311509797
 20
77.71685080152476
 30
0.0
 10
39.96628793292867
 20
77.30533597084316
 30
0.0
 10
40.18937211507905
 20
76.97331819250954
 30
0.0
 10
40.41486836294008
 20
76.43300781611929
 30
0.0
 10
40.47333601711473
 20
76.24286550829552
 30
0.0
 10
40.55141167790777
 20
75.85422977534418
 30
0.0
 10
40.57114014251782
 20
75.65729194925697
 30
0.0
 10
40.57114014251781
 20
75.4576633108289
 30
0.0
  0
LINE
  5
11F
330
1F
100
AcDbEntity
  8
0
  6
Continuous
 62
     7
370
    25
100
AcDbLine
 10
37.5711401425
 20
79.7267648673
 30
0.0
 11
37.5711401425
 21
78.4576633108
 31
0.0
  0
LINE
  5
120
330
1F
100
AcDbEntity
  8
0
  6
Continuous
 62
     7
370
    25
100
AcDbLine
 10
37.5711401425
 20
79.7267648673
 30
0.0
 11
50.5711401425
 21
79.7267648673
 31
0.0
  0
LINE
  5
121
330
1F
100
AcDbEntity
  8
0
  6
Continuous
 62
     7
370
    25
100
AcDbLine
 10
50.5711401425
 20
79.7267648673
 30
0.0
 11
50.5711401425
 21
78.4576633108
 31
0.0
  0
SPLINE
  5
122
330
1F
100
AcDbEntity
  8
0
  6
Continuous
 62
     7
370
    25
100
AcDbSpline
210
0.0
220
0.0
230
1.0
 70
     8
 71
     3
 72
    20
 73
    16
 74
     0
 42
0.00000001
 43
0.00000001
 40
0.0
 40
0.0
 40
0.0
 40
0.0
 40
0.1250000000000002
 40
0.1250000000000002
 40
0.2500000000000003
 40
0.2500000000000003
 40
0.3750000000000005
 40
0.3750000000000005
 40
0.5000000000000008
 40
0.5000000000000008
 40
0.7500000000000001
 40
0.7500000000000001
 40
0.875
 40
0.875
 40
1.0
 40
1.0
 40
1.0
 40
1.0
 10
47.57114014251782
 20
75.4576633108289
 30
0.0
 10
47.57114014251782
 20
75.6572932234982
 30
0.0
 10
47.59086519281944
 20
75.85331543655437
 30
0.0
 10
47.66789384500052
 20
76.23852201529658
 30
0.0
 10
47.72621497004337
 20
76.42975598853916
 30
0.0
 10
47.87721155974383
 20
76.79232139511491
 30
0.0
 10
47.9694032083985
 20
76.96404601428326
 30
0.0
 10
48.18692039235613
 20
77.28897980629492
 30
0.0
 10
48.31248334704978
 20
77.44163231149693
 30
0.0
 10
48.72414757359717
 20
77.85334119227596
 30
0.0
 10
49.05597200909817
 20
78.07614228372461
 30
0.0
 10
49.59598333606099
 20
78.30144791129143
 30
0.0
 10
49.78601512940565
 20
78.35987759597418
 30
0.0
 10
50.17458103245812
 20
78.43793341861182
 30
0.0
 10
50.37150216738702
 20
78.45766331082892
 30
0.0
 10
50.57114014251782
 20
78.45766331082892
 30
0.0
  0
LINE
  5
123
330
1F
100
AcDbEntity
  8
0
  6
Continuous
 62
     7
370
    25
100
AcDbLine
 10
40.5711401425
 20
67.4576633108
 30
0.0
 11
40.5711401425
 21
75.4576633108
 31
0.0
  0
LINE
  5
124
330
1F
100
AcDbEntity
  8
0
  6
Continuous
 62
     7
370
    25
100
AcDbLine
 10
47.5711401425
 20
67.4576633108
 30
0.0
 11
47.5711401425
 21
75.4576633108
 31
0.0
  0
LINE
  5
125
330
1F
100
AcDbEntity
  8
0
  6
Continuous
 62
     7
370
    25
100
AcDbLine
 10
50.5711401425
 20
83.3265052588
 30
0.0
 11
50.5711401425
 21
83.0660329923
 31
0.0
  0
LINE
  5
126
330
1F
100
AcDbEntity
  8
0
  6
Continuous
 62
     7
370
    25
100
AcDbLine
 10
37.5711401425
 20
83.0660329923
 30
0.0
 11
50.5711401425
 21
83.0660329923
 31
0.0
  0
LINE
  5
127
330
1F
100
AcDbEntity
  8
0
  6
Continuous
 62
     7
370
    25
100
AcDbLine
 10
37.5711401425
 20
83.0660329923
 30
0.0
 11
37.5711401425
 21
83.3265052588
 31
0.0
  0
LINE
  5
128
330
1F
100
AcDbEntity
  8
0
  6
Continuous
 62
     7
370
    25
100
AcDbLine
 10
37.5711401425
 20
83.3265052588
 30
0.0
 11
50.5711401425
 21
83.3265052588
 31
0.0
  0
LINE
  5
129
330
1F
100
AcDbEntity
  8
0
  6
Continuous
 62
     7
370
    25
100
AcDbLine
 10
50.5711401425
 20
83.0660329923
 30
0.0
 11
50.5711401425
 21
79.7267648673
 31
0.0
  0
LINE
  5
12A
330
1F
100
AcDbEntity
  8
0
  6
Continuous
 62
     7
370
    25
100
AcDbLine
 10
37.5711401425
 20
83.0660329923
 30
0.0
 11
37.5711401425
 21
79.7267648673
 31
0.0
  0
LINE
  5
12B
330
1F
100
AcDbEntity
  8
0
  6
Continuous
 62
     7
370
    25
100
AcDbLine
 10
37.0711401425
 20
63.2576633108
 30
0.0
 11
37.0711401425
 21
65.5576633108
 31
0.0
  0
LINE
  5
12C
330
1F
100
AcDbEntity
  8
0
  6
Continuous
 62
     7
370
    25
100
AcDbLine
 10
138.9894315213
 20
125.6428310749
 30
0.0
 11
129.7970433658
 21
120.336178348
 31
0.0
  0
LINE
  5
12D
330
1F
100
AcDbEntity
  8
0
  6
Continuous
 62
     7
370
    25
100
AcDbLine
 10
138.9894315213
 20
125.6428310749
 30
0.0
 11
140.0339778818
 21
124.8271410603
 31
0.0
  0
LINE
  5
12E
330
1F
100
AcDbEntity
  8
0
  6
Continuous
 62
     7
370
    25
100
AcDbLine
 10
140.0339778818
 20
124.8271410603
 30
0.0
 11
130.8415897263
 21
119.5204883334
 31
0.0
  0
LINE
  5
12F
330
1F
100
AcDbEntity
  8
0
  6
Continuous
 62
     7
370
    25
100
AcDbLine
 10
130.8415897263
 20
119.5204883334
 30
0.0
 11
129.7970433658
 21
120.336178348
 31
0.0
  0
ARC
  5
130
330
1F
100
AcDbEntity
  8
0
  6
Continuous
 62
     7
370
    25
100
AcDbCircle
 10
117.6678001822
 20
112.3320120518
 30
0.0
 40
13.59642748327006
100
AcDbArc
 50
14.6398903858
 51
20.2330400236
  0
LINE
  5
131
330
1F
100
AcDbEntity
  8
0
  6
Continuous
 62
     7
370
    25
100
AcDbLine
 10
130.8227984448
 20
115.7684143881
 30
0.0
 11
129.6833539686
 21
116.4262016828
 31
0.0
  0
ARC
  5
132
330
1F
100
AcDbEntity
  8
0
  6
Continuous
 62
     7
370
    25
100
AcDbCircle
 10
118.3529566424
 20
112.9019226424
 30
0.0
 40
11.8658521111902
100
AcDbArc
 50
17.2781166414
 51
22.527379631
  0
LINE
  5
133
330
1F
100
AcDbEntity
  8
0
  6
Continuous
 62
     7
370
    25
100
AcDbLine
 10
129.7970433658
 20
120.336178348
 30
0.0
 11
129.313403373
 21
117.4480257858
 31
0.0
  0
LINE
  5
134
330
1F
100
AcDbEntity
  8
0
  6
Continuous
 62
     7
370
    25
100
AcDbLine
 10
130.4252430854
 20
117.0341914273
 30
0.0
 11
130.8415897263
 21
119.5204883334
 31
0.0
  0
LINE
  5
135
330
1F
100
AcDbEntity
  8
0
  6
Continuous
 62
     7
370
    25
100
AcDbLine
 10
139.6176312408
 20
122.3408441541
 30
0.0
 11
130.4252430854
 21
117.0341914273
 31
0.0
  0
LINE
  5
136
330
1F
100
AcDbEntity
  8
0
  6
Continuous
 62
     7
370
    25
100
AcDbLine
 10
139.6176312408
 20
122.3408441541
 30
0.0
 11
140.0339778818
 21
124.8271410603
 31
0.0
  0
ARC
  5
137
330
1F
100
AcDbEntity
  8
0
  6
Continuous
 62
     7
370
    25
100
AcDbCircle
 10
126.8601883376
 20
117.6386647787
 30
0.0
 40
13.59642748329082
100
AcDbArc
 50
14.6398903858
 51
20.2330400236
  0
SPLINE
  5
138
330
1F
100
AcDbEntity
  8
0
  6
Continuous
 62
     7
370
    25
100
AcDbSpline
210
0.0
220
0.0
230
1.0
 70
     8
 71
     3
 72
    20
 73
    16
 74
     0
 42
0.00000001
 43
0.00000001
 40
0.0
 40
0.0
 40
0.0
 40
0.0
 40
0.1249999999999996
 40
0.1249999999999996
 40
0.2499999999999992
 40
0.2499999999999992
 40
0.3749999999999988
 40
0.3749999999999988
 40
0.4999999999999984
 40
0.4999999999999984
 40
0.7499999999999992
 40
0.7499999999999992
 40
0.8749999999999996
 40
0.8749999999999996
 40
1.0
 40
1.0
 40
1.0
 40
1.0
 10
140.0151866002617
 20
121.0750671149834
 30
0.0
 10
139.8740176976722
 20
120.9935720421899
 30
0.0
 10
139.7404079938722
 20
120.8945801465177
 30
0.0
 10
139.4869244135866
 20
120.663629434086
 30
0.0
 10
139.3658390677706
 20
120.529872529871
 30
0.0
 10
139.1441137805191
 20
120.2388482032632
 30
0.0
 10
139.0430636029417
 20
120.0818469761468
 30
0.0
 10
138.8576718610711
 20
119.746167380003
 30
0.0
 10
138.7737434226137
 20
119.5675997393864
 30
0.0
 10
138.5531662984567
 20
119.0227330831792
 30
0.0
 10
138.4421413839327
 20
118.6335925998613
 30
0.0
 10
138.332150429919
 20
118.0718065867067
 30
0.0
 10
138.3042141844325
 20
117.8849414163962
 30
0.0
 10
138.2670874913328
 20
117.5252956603937
 30
0.0
 10
138.257827287381
 20
117.3537272114008
 30
0.0
 10
138.257827287381
 20
117.1907222809031
 30
0.0
  0
LINE
  5
139
330
1F
100
AcDbEntity
  8
0
  6
Continuous
 62
     7
370
    25
100
AcDbLine
 10
136.4262172901
 20
117.2454005562
 30
0.0
 11
135.0120037278
 21
116.4289924444
 31
0.0
  0
ARC
  5
13A
330
1F
100
AcDbEntity
  8
0
  6
Continuous
 62
     7
370
    25
100
AcDbCircle
 10
125.6817132854
 20
115.3354844038
 30
0.0
 40
9.394151349311223
100
AcDbArc
 50
0.1117331253
 51
6.6845584914
  0
SPLINE
  5
13B
330
1F
100
AcDbEntity
  8
0
  6
Continuous
 62
     7
370
    25
100
AcDbSpline
210
0.0
220
0.0
230
1.0
 70
     8
 71
     3
 72
    20
 73
    16
 74
     0
 42
0.00000001
 43
0.00000001
 40
0.0
 40
0.0
 40
0.0
 40
0.0
 40
0.1250000000000002
 40
0.1250000000000002
 40
0.2500000000000003
 40
0.2500000000000003
 40
0.3750000000000005
 40
0.3750000000000005
 40
0.5000000000000008
 40
0.5000000000000008
 40
0.7500000000000001
 40
0.7500000000000001
 40
0.875
 40
0.875
 40
1.0
 40
1.0
 40
1.0
 40
1.0
 10
133.3080798190751
 20
114.3332938895236
 30
0.0
 10
133.3080798190751
 20
114.4962998604913
 30
0.0
 10
133.2894444020037
 20
114.6510143037004
 30
0.0
 10
133.2171354019801
 20
114.9444074769537
 30
0.0
 10
133.1625148940536
 20
115.0844757292036
 30
0.0
 10
133.0226161688389
 20
115.3380121549645
 30
0.0
 10
132.9377790298497
 20
115.4519417429839
 30
0.0
 10
132.7406148534398
 20
115.6535011081833
 30
0.0
 10
132.6281226285789
 20
115.7405778730784
 30
0.0
 10
132.2664286264896
 20
115.949470465891
 30
0.0
 10
131.9838674868043
 20
116.0236115630007
 30
0.0
 10
131.5505136156419
 20
116.0168830400547
 30
0.0
 10
131.4020364467273
 20
115.9951638097726
 30
0.0
 10
131.1081933176319
 20
115.9113032470394
 30
0.0
 10
130.9639638108339
 20
115.8499074192981
 30
0.0
 10
130.8227984448366
 20
115.7684143881358
 30
0.0
  0
SPLINE
  5
13C
330
1F
100
AcDbEntity
  8
0
  6
Continuous
 62
     7
370
    25
100
AcDbSpline
210
0.0
220
0.0
230
1.0
 70
     8
 71
     3
 72
    11
 73
     7
 74
     0
 42
0.00000001
 43
0.00000001
 40
0.0
 40
0.0
 40
0.0
 40
0.0
 40
0.0374654897923197
 40
0.3590601331477735
 40
0.690016161344622
 40
1.0
 40
1.0
 40
1.0
 40
1.0
 10
132.2474196472953
 20
114.9455999733907
 30
0.0
 10
132.2473155547277
 20
114.9604311043232
 30
0.0
 10
132.2463179569008
 20
115.1025690525223
 30
0.0
 10
132.2127551848235
 20
115.3674360562214
 30
0.0
 10
132.1005381473648
 20
115.7105481068191
 30
0.0
 10
131.9724588726271
 20
115.9034992852795
 30
0.0
 10
131.9105146758488
 20
115.9968180973328
 30
0.0
  0
LINE
  5
13D
330
1F
100
AcDbEntity
  8
0
  6
Continuous
 62
     7
370
    25
100
AcDbLine
 10
135.075846772
 20
115.3538040293
 30
0.0
 11
135.075846772
 21
108.8214775342
 31
0.0
  0
LINE
  5
13E
330
1F
100
AcDbEntity
  8
0
  6
Continuous
 62
     7
370
    25
100
AcDbLine
 10
135.075846772
 20
108.8214775342
 30
0.0
 11
133.3080798191
 21
107.8009673944
 31
0.0
  0
LINE
  5
13F
330
1F
100
AcDbEntity
  8
0
  6
Continuous
 62
     7
370
    25
100
AcDbLine
 10
133.3080798191
 20
107.8009673944
 30
0.0
 11
133.3080798191
 21
114.3332938895
 31
0.0
  0
LINE
  5
140
330
1F
100
AcDbEntity
  8
0
  6
Continuous
 62
     7
370
    25
100
AcDbLine
 10
131.8938662567
 20
108.6173755063
 30
0.0
 11
133.3080798191
 21
107.8009673944
 31
0.0
  0
LINE
  5
141
330
1F
100
AcDbEntity
  8
0
  6
Continuous
 62
     7
370
    25
100
AcDbLine
 10
131.8938662567
 20
108.6173755063
 30
0.0
 11
131.8938662567
 21
112.9510985795
 31
0.0
  0
ARC
  5
142
330
1F
100
AcDbEntity
  8
0
  6
Continuous
 62
     7
370
    25
100
AcDbCircle
 10
126.9980476465
 20
114.8475380535
 30
0.0
 40
5.250287853284994
100
AcDbArc
 50
338.8256740963
 51
1.0702005327
  0
LINE
  5
143
330
1F
100
AcDbEntity
  8
0
  6
Continuous
 62
     7
370
    25
100
AcDbLine
 10
137.1971671156
 20
111.7514003719
 30
0.0
 11
136.4262172901
 21
117.2454005562
 31
0.0
  0
LINE
  5
144
330
1F
100
AcDbEntity
  8
0
  6
Continuous
 62
     7
370
    25
100
AcDbLine
 10
137.1971671156
 20
111.7514003719
 30
0.0
 11
135.7829535532
 21
110.9349922601
 31
0.0
  0
LINE
  5
145
330
1F
100
AcDbEntity
  8
0
  6
Continuous
 62
     7
370
    25
100
AcDbLine
 10
135.7829535532
 20
110.9349922601
 30
0.0
 11
135.0120037278
 21
116.4289924444
 31
0.0
  0
LINE
  5
146
330
1F
100
AcDbEntity
  8
0
  6
Continuous
 62
     7
370
    25
100
AcDbLine
 10
135.7829535532
 20
108.4132734783
 30
0.0
 11
135.7829535532
 21
110.9349922601
 31
0.0
  0
LINE
  5
147
330
1F
100
AcDbEntity
  8
0
  6
Continuous
 62
     7
370
    25
100
AcDbLine
 10
135.075846772
 20
108.8214775342
 30
0.0
 11
135.7829535532
 21
108.4132734783
 31
0.0
  0
LINE
  5
148
330
1F
100
AcDbEntity
  8
0
  6
Continuous
 62
     7
370
    25
100
AcDbLine
 10
120.5801577577
 20
112.2912120095
 30
0.0
 11
116.6910704612
 21
114.536334317
 31
0.0
  0
LINE
  5
149
330
1F
100
AcDbEntity
  8
0
  6
Continuous
 62
     7
370
    25
100
AcDbLine
 10
120.5801577577
 20
109.0250487619
 30
0.0
 11
120.5801577577
 21
112.2912120095
 31
0.0
  0
LINE
  5
14A
330
1F
100
AcDbEntity
  8
0
  6
Continuous
 62
     7
370
    25
100
AcDbLine
 10
120.5801577577
 20
109.0250487619
 30
0.0
 11
128.3583323508
 21
104.5348041469
 31
0.0
  0
LINE
  5
14B
330
1F
100
AcDbEntity
  8
0
  6
Continuous
 62
     7
370
    25
100
AcDbLine
 10
128.3583323508
 20
104.5348041469
 30
0.0
 11
128.3583323508
 21
107.8009673944
 31
0.0
  0
LINE
  5
14C
330
1F
100
AcDbEntity
  8
0
  6
Continuous
 62
     7
370
    25
100
AcDbLine
 10
132.2474196473
 20
105.5558450869
 30
0.0
 11
128.3583323508
 21
107.8009673944
 31
0.0
  0
LINE
  5
14D
330
1F
100
AcDbEntity
  8
0
  6
Continuous
 62
     7
370
    25
100
AcDbLine
 10
132.2474196473
 20
104.0044175443
 30
0.0
 11
132.2474196473
 21
105.5558450869
 31
0.0
  0
LINE
  5
14E
330
1F
100
AcDbEntity
  8
0
  6
Continuous
 62
     7
370
    25
100
AcDbLine
 10
130.4796526943
 20
105.3515440089
 30
0.0
 11
132.2474196473
 21
104.0044175443
 31
0.0
  0
LINE
  5
14F
330
1F
100
AcDbEntity
  8
0
  6
Continuous
 62
     7
370
    25
100
AcDbLine
 10
130.4796526943
 20
102.820267492
 30
0.0
 11
130.4796526943
 21
105.3515440089
 31
0.0
  0
LINE
  5
150
330
1F
100
AcDbEntity
  8
0
  6
Continuous
 62
     7
370
    25
100
AcDbLine
 10
132.2474196473
 20
102.126373677
 30
0.0
 11
130.4796526943
 21
102.820267492
 31
0.0
  0
LINE
  5
151
330
1F
100
AcDbEntity
  8
0
  6
Continuous
 62
     7
370
    25
100
AcDbLine
 10
132.2474196473
 20
97.3904369681
 30
0.0
 11
132.2474196473
 21
102.126373677
 31
0.0
  0
LINE
  5
152
330
1F
100
AcDbEntity
  8
0
  6
Continuous
 62
     7
370
    25
100
AcDbLine
 10
116.6910704612
 20
106.3709261981
 30
0.0
 11
132.2474196473
 21
97.3904369681
 31
0.0
  0
LINE
  5
153
330
1F
100
AcDbEntity
  8
0
  6
Continuous
 62
     7
370
    25
100
AcDbLine
 10
116.6910704612
 20
111.1068629071
 30
0.0
 11
116.6910704612
 21
106.3709261981
 31
0.0
  0
LINE
  5
154
330
1F
100
AcDbEntity
  8
0
  6
Continuous
 62
     7
370
    25
100
AcDbLine
 10
114.9940141863
 20
111.7732145418
 30
0.0
 11
116.6910704612
 21
111.1068629071
 31
0.0
  0
LINE
  5
155
330
1F
100
AcDbEntity
  8
0
  6
Continuous
 62
     7
370
    25
100
AcDbLine
 10
114.9940141863
 20
114.2789647212
 30
0.0
 11
114.9940141863
 21
111.7732145418
 31
0.0
  0
LINE
  5
156
330
1F
100
AcDbEntity
  8
0
  6
Continuous
 62
     7
370
    25
100
AcDbLine
 10
116.6910704612
 20
112.9849067744
 30
0.0
 11
114.9940141863
 21
114.2789647212
 31
0.0
  0
LINE
  5
157
330
1F
100
AcDbEntity
  8
0
  6
Continuous
 62
     7
370
    25
100
AcDbLine
 10
116.6910704612
 20
114.536334317
 30
0.0
 11
116.6910704612
 21
112.9849067744
 31
0.0
  0
LINE
  5
158
330
1F
100
AcDbEntity
  8
0
  6
Continuous
 62
     7
370
    25
100
AcDbLine
 10
142.1469145839
 20
111.2707018697
 30
0.0
 11
132.2474196473
 21
105.5558450869
 31
0.0
  0
LINE
  5
159
330
1F
100
AcDbEntity
  8
0
  6
Continuous
 62
     7
370
    25
100
AcDbLine
 10
131.8938662567
 20
109.841987674
 30
0.0
 11
128.3583323508
 21
107.8009673944
 31
0.0
  0
LINE
  5
15A
330
1F
100
AcDbEntity
  8
0
  6
Continuous
 62
     7
370
    25
100
AcDbLine
 10
138.2578272874
 20
113.5158241772
 30
0.0
 11
142.1469145839
 21
111.2707018697
 31
0.0
  0
LINE
  5
15B
330
1F
100
AcDbEntity
  8
0
  6
Continuous
 62
     7
370
    25
100
AcDbLine
 10
137.1971671156
 20
109.2296815901
 30
0.0
 11
135.7829535532
 21
108.4132734783
 31
0.0
  0
LINE
  5
15C
330
1F
100
AcDbEntity
  8
0
  6
Continuous
 62
     7
370
    25
100
AcDbLine
 10
137.1971671156
 20
110.046089702
 30
0.0
 11
138.2578272874
 21
110.6583957858
 31
0.0
  0
LINE
  5
15D
330
1F
100
AcDbEntity
  8
0
  6
Continuous
 62
     7
370
    25
100
AcDbLine
 10
142.1469145839
 20
111.2707018697
 30
0.0
 11
142.1469145839
 21
109.7192743271
 31
0.0
  0
LINE
  5
15E
330
1F
100
AcDbEntity
  8
0
  6
Continuous
 62
     7
370
    25
100
AcDbLine
 10
142.1469145839
 20
109.7192743271
 30
0.0
 11
137.1971671156
 21
106.8618459357
 31
0.0
  0
LINE
  5
15F
330
1F
100
AcDbEntity
  8
0
  6
Continuous
 62
     7
370
    25
100
AcDbLine
 10
132.2474196473
 20
104.0044175443
 30
0.0
 11
137.1971671156
 21
106.8618459357
 31
0.0
  0
LINE
  5
160
330
1F
100
AcDbEntity
  8
0
  6
Continuous
 62
     7
370
    25
100
AcDbLine
 10
129.5245816721
 20
127.9394206024
 30
0.0
 11
120.3321935166
 21
122.6327678755
 31
0.0
  0
LINE
  5
161
330
1F
100
AcDbEntity
  8
0
  6
Continuous
 62
     7
370
    25
100
AcDbLine
 10
120.3321935166
 20
122.6327678755
 30
0.0
 11
119.8485535238
 21
126.0793192876
 31
0.0
  0
LINE
  5
162
330
1F
100
AcDbEntity
  8
0
  6
Continuous
 62
     7
370
    25
100
AcDbLine
 10
129.0409416793
 20
131.3859720145
 30
0.0
 11
119.8485535238
 21
126.0793192876
 31
0.0
  0
LINE
  5
163
330
1F
100
AcDbEntity
  8
0
  6
Continuous
 62
     7
370
    25
100
AcDbLine
 10
129.5245816721
 20
127.9394206024
 30
0.0
 11
129.0409416793
 21
131.3859720145
 31
0.0
  0
ARC
  5
164
330
1F
100
AcDbEntity
  8
0
  6
Continuous
 62
     7
370
    25
100
AcDbCircle
 10
122.8350986787
 20
120.6633157262
 30
0.0
 40
3.184851019898162
100
AcDbArc
 50
141.801979229
 51
154.4272229594
  0
LINE
  5
165
330
1F
100
AcDbEntity
  8
0
  6
Continuous
 62
     7
370
    25
100
AcDbLine
 10
118.8227984448
 20
122.6958669332
 30
0.0
 11
119.962242921
 21
122.0380796385
 31
0.0
  0
ARC
  5
166
330
1F
100
AcDbEntity
  8
0
  6
Continuous
 62
     7
370
    25
100
AcDbCircle
 10
122.8084399074
 20
121.2331818343
 30
0.0
 40
4.245560689268524
100
AcDbArc
 50
147.686760636
 51
159.847437333
  0
LINE
  5
167
330
1F
100
AcDbEntity
  8
0
  6
Continuous
 62
     7
370
    25
100
AcDbLine
 10
118.8040071633
 20
126.4696368303
 30
0.0
 11
119.2203538043
 21
123.5026363245
 31
0.0
  0
LINE
  5
168
330
1F
100
AcDbEntity
  8
0
  6
Continuous
 62
     7
370
    25
100
AcDbLine
 10
119.8485535238
 20
126.0793192876
 30
0.0
 11
118.8040071633
 21
126.4696368303
 31
0.0
  0
LINE
  5
169
330
1F
100
AcDbEntity
  8
0
  6
Continuous
 62
     7
370
    25
100
AcDbLine
 10
138.2578272874
 20
110.6583957858
 30
0.0
 11
138.2578272874
 21
117.1907222809
 31
0.0
  0
LINE
  5
16A
330
1F
100
AcDbEntity
  8
0
  6
Continuous
 62
     7
370
    25
100
AcDbLine
 10
127.9963953188
 20
131.7762895571
 30
0.0
 11
118.8040071633
 21
126.4696368303
 31
0.0
  0
LINE
  5
16B
330
1F
100
AcDbEntity
  8
0
  6
Continuous
 62
     7
370
    25
100
AcDbLine
 10
127.9963953188
 20
131.7762895571
 30
0.0
 11
129.0409416793
 21
131.3859720145
 31
0.0
  0
LINE
  5
16C
330
1F
100
AcDbEntity
  8
0
  6
Continuous
 62
     7
370
    25
100
AcDbLine
 10
137.1971671156
 20
109.2296815901
 30
0.0
 11
137.1971671156
 21
111.7514003719
 31
0.0
  0
LINE
  5
16D
330
1F
100
AcDbEntity
  8
0
  6
Continuous
 62
     7
370
    25
100
AcDbLine
 10
135.4294001626
 20
105.8413357959
 30
0.0
 11
135.4294001626
 21
105.6776958834
 31
0.0
  0
LINE
  5
16E
330
1F
100
AcDbEntity
  8
0
  6
Continuous
 62
     7
370
    25
100
AcDbLine
 10
130.4796526943
 20
102.820267492
 30
0.0
 11
135.4294001626
 21
105.6776958834
 31
0.0
  0
LINE
  5
16F
330
1F
100
AcDbEntity
  8
0
  6
Continuous
 62
     7
370
    25
100
AcDbLine
 10
142.1469145839
 20
105.568512892
 30
0.0
 11
142.1469145839
 21
103.1052937508
 31
0.0
  0
LINE
  5
170
330
1F
100
AcDbEntity
  8
0
  6
Continuous
 62
     7
370
    25
100
AcDbLine
 10
142.1469145839
 20
103.1052937508
 30
0.0
 11
132.2474196473
 21
97.3904369681
 31
0.0
  0
LINE
  5
171
330
1F
100
AcDbEntity
  8
0
  6
Continuous
 62
     7
370
    25
100
AcDbLine
 10
132.2474196473
 20
102.126373677
 30
0.0
 11
137.1971671156
 21
104.9838020684
 31
0.0
  0
LINE
  5
172
330
1F
100
AcDbEntity
  8
0
  6
Continuous
 62
     7
370
    25
100
AcDbLine
 10
135.4294001626
 20
105.6776958834
 30
0.0
 11
137.1971671156
 21
104.9838020684
 31
0.0
  0
ARC
  5
173
330
1F
100
AcDbEntity
  8
0
  6
Continuous
 62
     7
370
    25
100
AcDbCircle
 10
135.5979397392
 20
124.0241415883
 30
0.0
 40
9.00790801442413
100
AcDbArc
 50
180.6236851844
 51
196.1180936455
  0
LINE
  5
174
330
1F
100
AcDbEntity
  8
0
  6
Continuous
 62
     7
370
    25
100
AcDbLine
 10
126.9441187884
 20
121.5233837536
 30
0.0
 11
125.4136540672
 21
120.6398652763
 31
0.0
  0
LINE
  5
175
330
1F
100
AcDbEntity
  8
0
  6
Continuous
 62
     7
370
    25
100
AcDbLine
 10
125.4136540672
 20
125.5339258857
 30
0.0
 11
124.3529938955
 21
124.9216198018
 31
0.0
  0
ARC
  5
176
330
1F
100
AcDbEntity
  8
0
  6
Continuous
 62
     7
370
    25
100
AcDbCircle
 10
126.7470190811
 20
123.1201903978
 30
0.0
 40
2.996081522153763
100
AcDbArc
 50
143.0396781937
 51
145.7098474668
  0
ARC
  5
177
330
1F
100
AcDbEntity
  8
0
  6
Continuous
 62
     7
370
    25
100
AcDbCircle
 10
129.7611868291
 20
121.9233902026
 30
0.0
 40
6.201333346857949
100
AcDbArc
 50
152.2780391509
 51
200.1366562304
  0
LINE
  5
178
330
1F
100
AcDbEntity
  8
0
  6
Continuous
 62
     7
370
    25
100
AcDbLine
 10
123.9389149684
 20
119.788516516
 30
0.0
 11
121.9943713201
 21
118.6659553622
 31
0.0
  0
ARC
  5
179
330
1F
100
AcDbEntity
  8
0
  6
Continuous
 62
     7
370
    25
100
AcDbCircle
 10
130.648192271
 20
121.1667131969
 30
0.0
 40
9.007908014525146
100
AcDbArc
 50
180.6236851845
 51
196.1180936453
  0
SPLINE
  5
17A
330
1F
100
AcDbEntity
  8
0
  6
Continuous
 62
     7
370
    25
100
AcDbSpline
210
0.0
220
0.0
230
1.0
 70
     8
 71
     3
 72
    20
 73
    16
 74
     0
 42
0.00000001
 43
0.00000001
 40
0.0
 40
0.0
 40
0.0
 40
0.0
 40
0.1250000000000001
 40
0.1250000000000001
 40
0.2500000000000002
 40
0.2500000000000002
 40
0.3750000000000002
 40
0.3750000000000002
 40
0.5000000000000003
 40
0.5000000000000003
 40
0.7500000000000004
 40
0.7500000000000004
 40
0.8750000000000002
 40
0.8750000000000002
 40
1.0
 40
1.0
 40
1.0
 40
1.0
 10
121.6408179294971
 20
121.068660812061
 30
0.0
 10
121.6408179294971
 20
121.2316654049645
 30
0.0
 10
121.6323897779491
 20
121.3819851087865
 30
0.0
 10
121.5991255520089
 20
121.6531367681854
 30
0.0
 10
121.573865266874
 20
121.7760538519733
 30
0.0
 10
121.5067382210428
 20
121.9872865408313
 30
0.0
 10
121.4651568335288
 20
122.0759243558491
 30
0.0
 10
121.3637743619198
 20
122.221594389248
 30
0.0
 10
121.3038936212314
 20
122.2780078324227
 30
0.0
 10
121.0992345165483
 20
122.3959706970011
 30
0.0
 10
120.9240209447501
 20
122.4087432732535
 30
0.0
 10
120.6059697341969
 20
122.336128049202
 30
0.0
 10
120.4889010473739
 20
122.2963157344128
 30
0.0
 10
120.2373068216071
 20
122.1878070182448
 30
0.0
 10
120.1039073814418
 20
122.1198607906862
 30
0.0
 10
119.9622429210307
 20
122.0380796384517
 30
0.0
  0
ARC
  5
17B
330
1F
100
AcDbEntity
  8
0
  6
Continuous
 62
     7
370
    25
100
AcDbCircle
 10
132.0274868342
 20
125.9699684531
 30
0.0
 40
3.184851019898511
100
AcDbArc
 50
141.801979229
 51
154.4272229594
  0
SPLINE
  5
17C
330
1F
100
AcDbEntity
  8
0
  6
Continuous
 62
     7
370
    25
100
AcDbSpline
210
0.0
220
0.0
230
1.0
 70
     8
 71
     3
 72
    20
 73
    16
 74
     0
 42
0.00000001
 43
0.00000001
 40
0.0
 40
0.0
 40
0.0
 40
0.0
 40
0.1250000000000005
 40
0.1250000000000005
 40
0.250000000000001
 40
0.250000000000001
 40
0.3750000000000015
 40
0.3750000000000015
 40
0.500000000000002
 40
0.500000000000002
 40
0.7500000000000011
 40
0.7500000000000011
 40
0.8750000000000006
 40
0.8750000000000006
 40
1.0
 40
1.0
 40
1.0
 40
1.0
 10
129.1546310764558
 20
127.3447323652993
 30
0.0
 10
129.0128003584858
 20
127.2628552346189
 30
0.0
 10
128.8674644530419
 20
127.1698694332963
 30
0.0
 10
128.5709073391539
 20
126.9623354279381
 30
0.0
 10
128.4179713387638
 20
126.8462787449088
 30
0.0
 10
128.1193569606936
 20
126.5993998822319
 30
0.0
 10
127.9731819612379
 20
126.4684660330906
 30
0.0
 10
127.6895213589725
 20
126.1895662764304
 30
0.0
 10
127.5531404575952
 20
126.0423634335404
 30
0.0
 10
127.1772333090183
 20
125.5888004355148
 30
0.0
 10
126.9633877045212
 20
125.259868894942
 30
0.0
 10
126.744221822813
 20
124.7604280556341
 30
0.0
 10
126.6865027281988
 20
124.589486933588
 30
0.0
 10
126.6098736420366
 20
124.252953628365
 30
0.0
 10
126.590565397803
 20
124.0879640594419
 30
0.0
 10
126.590565397803
 20
123.9260892034404
 30
0.0
  0
LINE
  5
17D
330
1F
100
AcDbEntity
  8
0
  6
Continuous
 62
     7
370
    25
100
AcDbLine
 10
138.8942233904
 20
103.6907742348
 30
0.0
 11
138.8942233904
 21
106.1965244141
 31
0.0
  0
LINE
  5
17E
330
1F
100
AcDbEntity
  8
0
  6
Continuous
 62
     7
370
    25
100
AcDbLine
 10
137.1971671156
 20
104.9838020684
 30
0.0
 11
138.8942233904
 21
103.6907742348
 31
0.0
  0
LINE
  5
17F
330
1F
100
AcDbEntity
  8
0
  6
Continuous
 62
     7
370
    25
100
AcDbLine
 10
138.8942233904
 20
106.1965244141
 30
0.0
 11
137.1971671156
 21
106.8618459357
 31
0.0
  0
LINE
  5
180
330
1F
100
AcDbEntity
  8
0
  6
Continuous
 62
     7
370
    25
100
AcDbLine
 10
138.8942233904
 20
106.1965244141
 30
0.0
 11
143.8439708588
 21
109.0539528055
 31
0.0
  0
LINE
  5
181
330
1F
100
AcDbEntity
  8
0
  6
Continuous
 62
     7
370
    25
100
AcDbLine
 10
143.8439708588
 20
109.0539528055
 30
0.0
 11
143.8439708588
 21
106.5482026262
 31
0.0
  0
LINE
  5
182
330
1F
100
AcDbEntity
  8
0
  6
Continuous
 62
     7
370
    25
100
AcDbLine
 10
138.8942233904
 20
103.6907742348
 30
0.0
 11
143.8439708588
 21
106.5482026262
 31
0.0
  0
LINE
  5
183
330
1F
100
AcDbEntity
  8
0
  6
Continuous
 62
     7
370
    25
100
AcDbLine
 10
142.1469145839
 20
109.7192743271
 30
0.0
 11
143.8439708588
 21
109.0539528055
 31
0.0
  0
SPLINE
  5
184
330
1F
100
AcDbEntity
  8
0
  6
Continuous
 62
     7
370
    25
100
AcDbSpline
210
0.0
220
0.0
230
1.0
 70
     8
 71
     3
 72
     9
 73
     5
 74
     0
 42
0.00000001
 43
0.00000001
 40
0.0
 40
0.0
 40
0.0
 40
0.0
 40
0.5733117518220667
 40
1.0
 40
1.0
 40
1.0
 40
1.0
 10
120.5801577577173
 20
121.680966895928
 30
0.0
 10
120.5774098998186
 20
121.8117407252809
 30
0.0
 10
120.5726169439966
 20
122.0398431999595
 30
0.0
 10
120.5349884638509
 20
122.221246985309
 30
0.0
 10
120.518932833576
 20
122.2986498486926
 30
0.0
  0
LINE
  5
185
330
1F
100
AcDbEntity
  8
0
  6
Continuous
 62
     7
370
    25
100
AcDbLine
 10
130.4796526943
 20
114.7399055447
 30
0.0
 11
120.5801577577
 21
109.0250487619
 31
0.0
  0
LINE
  5
186
330
1F
100
AcDbEntity
  8
0
  6
Continuous
 62
     7
370
    25
100
AcDbLine
 10
130.4796526943
 20
114.7399055447
 30
0.0
 11
131.5403128661
 21
114.1275994608
 31
0.0
  0
LINE
  5
187
330
1F
100
AcDbEntity
  8
0
  6
Continuous
 62
     7
370
    25
100
AcDbLine
 10
131.8938662567
 20
112.6988852651
 30
0.0
 11
131.5403128661
 21
112.9029872931
 31
0.0
  0
LWPOLYLINE
  5
188
330
1F
100
AcDbEntity
  8
0
  6
Continuous
 62
     7
370
    25
100
AcDbPolyline
 90
       35
 70
   128
 43
0.0
 10
130.8332060849
 20
110.4537629576
 10
130.6560163333
 20
110.5445918436
 10
130.461461479
 20
110.6226851108
 10
130.2522726457
 20
110.686946501
 10
130.031386386
 20
110.7364739251
 10
129.8019034588
 20
110.7705721266
 10
129.5670453015
 20
110.7887624416
 10
129.3301088077
 20
110.7907895178
 10
129.0944200464
 20
110.7766248995
 10
128.8632875712
 20
110.746467427
 10
128.6399559753
 20
110.7007404451
 10
128.427560345
 20
110.6400858604
 10
128.2290822492
 20
110.5653551302
 10
128.0473078852
 20
110.4775973102
 10
127.8847889669
 20
110.3780443278
 10
127.7438069034
 20
110.2680936888
 10
127.626340774
 20
110.149288859
 10
127.5340395456
 20
110.0232975978
 10
127.4681989251
 20
109.8918885463
 10
127.4297431705
 20
109.7569063997
 10
127.4192121164
 20
109.6202460113
 10
127.4367535955
 20
109.4838257934
 10
127.4821213641
 20
109.3495607869
 10
127.5546785581
 20
109.2193357781
 10
127.6534066335
 20
109.0949788407
 10
127.7769196646
 20
108.9782356736
 10
127.9234837991
 20
108.8707450948
 10
128.0910415979
 20
108.7740160364
 10
128.2772409168
 20
108.6894063625
 10
128.4794679255
 20
108.6181038074
 10
128.6948838001
 20
108.5611093026
 10
128.9204645739
 20
108.5192229261
 10
129.1530435873
 20
108.4930326708
 10
129.3893559407
 20
108.4829061904
 10
129.5432575774
 20
108.4850101675
  0
ARC
  5
189
330
1F
100
AcDbEntity
  8
0
  6
Continuous
 62
     7
370
    25
100
AcDbCircle
 10
130.4660658503
 20
109.5784952982
 30
0.0
 40
0.9491498446015185
100
AcDbArc
 50
359.2226427604
 51
67.24387395
  0
LINE
  5
18A
330
1F
100
AcDbEntity
  8
0
  6
Continuous
 62
     7
370
    25
100
AcDbLine
 10
124.3529938955
 20
115.2157507663
 30
0.0
 11
124.3529938955
 21
124.9216198018
 31
0.0
  0
LINE
  5
18B
330
1F
100
AcDbEntity
  8
0
  6
Continuous
 62
     7
370
    25
100
AcDbLine
 10
125.4136540672
 20
115.8280568502
 30
0.0
 11
125.4136540672
 21
125.5339258857
 31
0.0
  0
LINE
  5
18C
330
1F
100
AcDbEntity
  8
0
  6
Continuous
 62
     7
370
    25
100
AcDbLine
 10
124.3529938955
 20
115.2157507663
 30
0.0
 11
125.4136540672
 21
115.8280568502
 31
0.0
  0
LINE
  5
18D
330
1F
100
AcDbEntity
  8
0
  6
Continuous
 62
     7
370
    25
100
AcDbLine
 10
123.9389149684
 20
115.4547934428
 30
0.0
 11
124.3529938955
 21
115.2157507663
 31
0.0
  0
LINE
  5
18E
330
1F
100
AcDbEntity
  8
0
  6
Continuous
 62
     7
370
    25
100
AcDbLine
 10
123.9389149684
 20
119.788516516
 30
0.0
 11
123.9389149684
 21
115.4547934428
 31
0.0
  0
LINE
  5
18F
330
1F
100
AcDbEntity
  8
0
  6
Continuous
 62
     7
370
    25
100
AcDbLine
 10
121.9943713201
 20
114.332232289
 30
0.0
 11
121.9943713201
 21
118.6659553622
 31
0.0
  0
LINE
  5
190
330
1F
100
AcDbEntity
  8
0
  6
Continuous
 62
     7
370
    25
100
AcDbLine
 10
121.9943713201
 20
114.332232289
 30
0.0
 11
120.5801577577
 21
115.1486404008
 31
0.0
  0
LINE
  5
191
330
1F
100
AcDbEntity
  8
0
  6
Continuous
 62
     7
370
    25
100
AcDbLine
 10
120.5801577577
 20
115.1486404008
 30
0.0
 11
120.5801577577
 21
121.6809668959
 31
0.0
  0
LINE
  5
192
330
1F
100
AcDbEntity
  8
0
  6
Continuous
 62
     7
370
    25
100
AcDbLine
 10
123.9389149684
 20
115.4547934428
 30
0.0
 11
121.9943713201
 21
114.332232289
 31
0.0
  0
LINE
  5
193
330
1F
100
AcDbEntity
  8
0
  6
Continuous
 62
     7
370
    25
100
AcDbLine
 10
129.3515449022
 20
117.3548260259
 30
0.0
 11
120.5801577577
 21
112.2912120095
 31
0.0
  0
LINE
  5
194
330
1F
100
AcDbEntity
  8
0
  6
Continuous
 62
     7
370
    25
100
AcDbLine
 10
120.5801577577
 20
116.7814566245
 30
0.0
 11
116.6910704612
 21
114.536334317
 31
0.0
  0
LINE
  5
195
330
1F
100
AcDbEntity
  8
0
  6
Continuous
 62
     7
370
    25
100
AcDbLine
 10
126.9441187884
 20
117.1896606804
 30
0.0
 11
125.4136540672
 21
116.3061422031
 31
0.0
  0
LINE
  5
196
330
1F
100
AcDbEntity
  8
0
  6
Continuous
 62
     7
370
    25
100
AcDbLine
 10
126.9441187884
 20
120.0470890718
 30
0.0
 11
129.5014178589
 21
118.5707917422
 31
0.0
  0
LINE
  5
197
330
1F
100
AcDbEntity
  8
0
  6
Continuous
 62
     7
370
    25
100
AcDbLine
 10
130.4796526943
 20
115.9665082134
 30
0.0
 11
130.4796526943
 21
114.7399055447
 31
0.0
  0
LINE
  5
198
330
1F
100
AcDbEntity
  8
0
  6
Continuous
 62
     7
370
    25
100
AcDbLine
 10
126.9441187884
 20
117.1896606804
 30
0.0
 11
126.9441187884
 21
121.5233837536
 31
0.0
  0
LINE
  5
199
330
1F
100
AcDbEntity
  8
0
  6
Continuous
 62
     7
370
    25
100
AcDbLine
 10
131.5403128661
 20
112.9029872931
 30
0.0
 11
131.5403128661
 21
115.9980065412
 31
0.0
  0
LINE
  5
19A
330
1F
100
AcDbEntity
  8
0
  6
Continuous
 62
     7
370
    25
100
AcDbLine
 10
131.9486323322
 20
115.9334327302
 30
0.0
 11
131.8179758738
 21
116.0088590982
 31
0.0
  0
LINE
  5
19B
330
1F
100
AcDbEntity
  8
0
  6
Continuous
 62
     7
370
    25
100
AcDbLine
 10
119.9437616546
 20
117.1363931125
 30
0.0
 11
114.9940141863
 21
114.2789647212
 31
0.0
  0
LINE
  5
19C
330
1F
100
AcDbEntity
  8
0
  6
Continuous
 62
     7
370
    25
100
AcDbLine
 10
120.482879488
 20
116.7252990747
 30
0.0
 11
119.9437616546
 21
117.1363931125
 31
0.0
  0
ENDSEC
  0
SECTION
  2
OBJECTS
  0
DICTIONARY
  5
C
330
0
100
AcDbDictionary
281
     1
  3
ACAD_GROUP
350
D
  3
ACAD_LAYOUT
350
1A
  3
ACAD_MLINESTYLE
350
17
  3
ACAD_PLOTSETTINGS
350
19
  3
ACAD_PLOTSTYLENAME
350
E
  3
ACAD_SCALELIST
350
47
  3
DWGPROPS
350
19D
  0
DICTIONARY
  5
D
102
{ACAD_REACTORS
330
C
102
}
330
C
100
AcDbDictionary
281
     1
  0
DICTIONARY
  5
1A
102
{ACAD_REACTORS
330
C
102
}
330
C
100
AcDbDictionary
281
     1
  3
Layout1
350
1E
  3
Layout2
350
26
  3
Model
350
22
  0
DICTIONARY
  5
17
102
{ACAD_REACTORS
330
C
102
}
330
C
100
AcDbDictionary
281
     1
  3
Standard
350
18
  0
DICTIONARY
  5
19
102
{ACAD_REACTORS
330
C
102
}
330
C
100
AcDbDictionary
281
     1
  0
ACDBDICTIONARYWDFLT
  5
E
102
{ACAD_REACTORS
330
C
102
}
330
C
100
AcDbDictionary
281
     1
  3
Normal
350
F
100
AcDbDictionaryWithDefault
340
F
  0
DICTIONARY
  5
47
102
{ACAD_REACTORS
330
C
102
}
330
C
100
AcDbDictionary
281
     1
  3
A0
350
48
  3
A1
350
49
  3
A2
350
4A
  3
A3
350
4B
  3
A4
350
4C
  3
A5
350
4D
  3
A6
350
4E
  3
A7
350
4F
  3
A8
350
50
  3
A9
350
51
  3
B0
350
52
  3
B1
350
53
  3
B2
350
54
  3
B3
350
55
  3
B4
350
56
  3
B5
350
57
  3
B6
350
58
  0
XRECORD
  5
19D
102
{ACAD_REACTORS
330
C
102
}
330
C
100
AcDbXrecord
280
     1
  1
DWGPROPS COOKIE
  2

  3

  4

  6

  7

  8
grigorievsin
  9

300
=
301
=
302
=
303
=
304
=
305
=
306
=
307
=
308
=
309
=
 40
0.0
 41
2459912.391146644
 42
2459912.391147616
  1

 90
        0
  0
LAYOUT
  5
1E
102
{ACAD_REACTORS
330
1A
102
}
330
1A
100
AcDbPlotSettings
  1

  2
none_device
  4

  6

 40
0.0
 41
0.0
 42
0.0
 43
0.0
 44
0.0
 45
0.0
 46
0.0
 47
0.0
 48
0.0
 49
0.0
140
0.0
141
0.0
142
1.0
143
1.0
 70
   688
 72
     1
 73
     0
 74
     5
  7

 75
    16
147
1.0
148
0.0
149
0.0
100
AcDbLayout
  1
Layout1
 70
     1
 71
     1
 10
0.0
 20
0.0
 11
420.0
 21
297.0
 12
0.0
 22
0.0
 32
0.0
 14
1.0000000000E+20
 24
1.0000000000E+20
 34
1.0000000000E+20
 15
-1.0000000000E+20
 25
-1.0000000000E+20
 35
-1.0000000000E+20
146
0.0
 13
0.0
 23
0.0
 33
0.0
 16
1.0
 26
0.0
 36
0.0
 17
0.0
 27
1.0
 37
0.0
 76
     0
330
1B
  0
LAYOUT
  5
26
102
{ACAD_REACTORS
330
1A
102
}
330
1A
100
AcDbPlotSettings
  1

  2
none_device
  4

  6

 40
0.0
 41
0.0
 42
0.0
 43
0.0
 44
0.0
 45
0.0
 46
0.0
 47
0.0
 48
0.0
 49
0.0
140
0.0
141
0.0
142
1.0
143
1.0
 70
   688
 72
     1
 73
     0
 74
     5
  7

 75
    16
147
1.0
148
0.0
149
0.0
100
AcDbLayout
  1
Layout2
 70
     1
 71
     2
 10
0.0
 20
0.0
 11
0.0
 21
0.0
 12
0.0
 22
0.0
 32
0.0
 14
0.0
 24
0.0
 34
0.0
 15
0.0
 25
0.0
 35
0.0
146
0.0
 13
0.0
 23
0.0
 33
0.0
 16
1.0
 26
0.0
 36
0.0
 17
0.0
 27
1.0
 37
0.0
 76
     0
330
23
  0
LAYOUT
  5
22
102
{ACAD_REACTORS
330
1A
102
}
330
1A
100
AcDbPlotSettings
  1

  2
none_device
  4
Letter_(8.50_x_11.00_Inches)
  6

 40
6.35
 41
6.35
 42
6.35000508
 43
6.35000508
 44
215.9
 45
279.4
 46
0.0
 47
0.0
 48
0.0
 49
0.0
140
0.0
141
0.0
142
1.0
143
1.0
 70
  1712
 72
     1
 73
     0
 74
     0
  7

 75
     0
147
1.0
148
0.0
149
0.0
100
AcDbLayout
  1
Model
 70
     1
 71
     0
 10
0.0
 20
0.0
 11
210.0
 21
148.0
 12
0.0
 22
0.0
 32
0.0
 14
0.0
 24
0.0
 34
0.0
 15
210.0
 25
148.0
 35
0.0
146
0.0
 13
0.0
 23
0.0
 33
0.0
 16
1.0
 26
0.0
 36
0.0
 17
0.0
 27
1.0
 37
0.0
 76
     0
330
1F
331
29
  0
MLINESTYLE
  5
18
102
{ACAD_REACTORS
330
17
102
}
330
17
100
AcDbMlineStyle
  2
Standard
 70
     0
  3

 62
   256
 51
90.0
 52
90.0
 71
     2
 49
0.5
 62
   256
  6
BYLAYER
 49
-0.5
 62
   256
  6
BYLAYER
  0
ACDBPLACEHOLDER
  5
F
102
{ACAD_REACTORS
330
E
102
}
330
E
  0
SCALE
  5
48
102
{ACAD_REACTORS
330
47
102
}
330
47
100
AcDbScale
 70
     0
300
1:1
140
1.0
141
1.0
290
     1
  0
SCALE
  5
49
102
{ACAD_REACTORS
330
47
102
}
330
47
100
AcDbScale
 70
     0
300
1:2
140
1.0
141
2.0
290
     0
  0
SCALE
  5
4A
102
{ACAD_REACTORS
330
47
102
}
330
47
100
AcDbScale
 70
     0
300
1:4
140
1.0
141
4.0
290
     0
  0
SCALE
  5
4B
102
{ACAD_REACTORS
330
47
102
}
330
47
100
AcDbScale
 70
     0
300
1:5
140
1.0
141
5.0
290
     0
  0
SCALE
  5
4C
102
{ACAD_REACTORS
330
47
102
}
330
47
100
AcDbScale
 70
     0
300
1:8
140
1.0
141
8.0
290
     0
  0
SCALE
  5
4D
102
{ACAD_REACTORS
330
47
102
}
330
47
100
AcDbScale
 70
     0
300
1:10
140
1.0
141
10.0
290
     0
  0
SCALE
  5
4E
102
{ACAD_REACTORS
330
47
102
}
330
47
100
AcDbScale
 70
     0
300
1:16
140
1.0
141
16.0
290
     0
  0
SCALE
  5
4F
102
{ACAD_REACTORS
330
47
102
}
330
47
100
AcDbScale
 70
     0
300
1:20
140
1.0
141
20.0
290
     0
  0
SCALE
  5
50
102
{ACAD_REACTORS
330
47
102
}
330
47
100
AcDbScale
 70
     0
300
1:30
140
1.0
141
30.0
290
     0
  0
SCALE
  5
51
102
{ACAD_REACTORS
330
47
102
}
330
47
100
AcDbScale
 70
     0
300
1:40
140
1.0
141
40.0
290
     0
  0
SCALE
  5
52
102
{ACAD_REACTORS
330
47
102
}
330
47
100
AcDbScale
 70
     0
300
1:50
140
1.0
141
50.0
290
     0
  0
SCALE
  5
53
102
{ACAD_REACTORS
330
47
102
}
330
47
100
AcDbScale
 70
     0
300
1:100
140
1.0
141
100.0
290
     0
  0
SCALE
  5
54
102
{ACAD_REACTORS
330
47
102
}
330
47
100
AcDbScale
 70
     0
300
2:1
140
2.0
141
1.0
290
     0
  0
SCALE
  5
55
102
{ACAD_REACTORS
330
47
102
}
330
47
100
AcDbScale
 70
     0
300
4:1
140
4.0
141
1.0
290
     0
  0
SCALE
  5
56
102
{ACAD_REACTORS
330
47
102
}
330
47
100
AcDbScale
 70
     0
300
8:1
140
8.0
141
1.0
290
     0
  0
SCALE
  5
57
102
{ACAD_REACTORS
330
47
102
}
330
47
100
AcDbScale
 70
     0
300
10:1
140
10.0
141
1.0
290
     0
  0
SCALE
  5
58
102
{ACAD_REACTORS
330
47
102
}
330
47
100
AcDbScale
 70
     0
300
100:1
140
100.0
141
1.0
290
     0
  0
ENDSEC
  0
EOF
