  0
SECTION
  2
HEADER
  9
$ACADVER
  1
AC1015
  9
$ACADMAINTVER
 70
     6
  9
$DWGCODEPAGE
  3
ANSI_1251
  9
$INSBASE
 10
0.0
 20
0.0
 30
0.0
  9
$EXTMIN
 10
0.0
 20
0.0
 30
0.0
  9
$EXTMAX
 10
841.0
 20
594.0
 30
0.0
  9
$LIMMIN
 10
0.0
 20
0.0
  9
$LIMMAX
 10
841.0
 20
594.0
  9
$ORTHOMODE
 70
     0
  9
$REGENMODE
 70
     1
  9
$FILLMODE
 70
     1
  9
$QTEXTMODE
 70
     0
  9
$MIRRTEXT
 70
     1
  9
$LTSCALE
 40
1.0
  9
$ATTMODE
 70
     1
  9
$TEXTSIZE
 40
3.5
  9
$TRACEWID
 40
1.0
  9
$TEXTSTYLE
  7
Standard
  9
$CLAYER
  8
0
  9
$CELTYPE
  6
ByLayer
  9
$CECOLOR
 62
   256
  9
$CELTSCALE
 40
1.0
  9
$DISPSILH
 70
     0
  9
$DIMSCALE
 40
1.0
  9
$DIMASZ
 40
3.5
  9
$DIMEXO
 40
0.01
  9
$DIMDLI
 40
3.75
  9
$DIMRND
 40
0.0
  9
$DIMDLE
 40
0.0
  9
$DIMEXE
 40
1.0
  9
$DIMTP
 40
0.0
  9
$DIMTM
 40
0.0
  9
$DIMTXT
 40
3.5
  9
$DIMCEN
 40
2.5
  9
$DIMTSZ
 40
0.0
  9
$DIMTOL
 70
     0
  9
$DIMLIM
 70
     0
  9
$DIMTIH
 70
     1
  9
$DIMTOH
 70
     1
  9
$DIMSE1
 70
     0
  9
$DIMSE2
 70
     0
  9
$DIMTAD
 70
     1
  9
$DIMZIN
 70
     0
  9
$DIMBLK
  1

  9
$DIMASO
 70
     1
  9
$DIMSHO
 70
     1
  9
$DIMPOST
  1

  9
$DIMAPOST
  1

  9
$DIMALT
 70
     0
  9
$DIMALTD
 70
     3
  9
$DIMALTF
 40
0.0393700787
  9
$DIMLFAC
 40
1.0
  9
$DIMTOFL
 70
     1
  9
$DIMTVP
 40
0.0
  9
$DIMTIX
 70
     0
  9
$DIMSOXD
 70
     0
  9
$DIMSAH
 70
     0
  9
$DIMBLK1
  1

  9
$DIMBLK2
  1

  9
$DIMSTYLE
  2
ISO-25
  9
$DIMCLRD
 70
     0
  9
$DIMCLRE
 70
     0
  9
$DIMCLRT
 70
     0
  9
$DIMTFAC
 40
1.0
  9
$DIMGAP
 40
3.0
  9
$DIMJUST
 70
     0
  9
$DIMSD1
 70
     0
  9
$DIMSD2
 70
     0
  9
$DIMTOLJ
 70
     0
  9
$DIMTZIN
 70
     0
  9
$DIMALTZ
 70
     0
  9
$DIMALTTZ
 70
     0
  9
$DIMUPT
 70
     0
  9
$DIMDEC
 70
     2
  9
$DIMTDEC
 70
     3
  9
$DIMALTU
 70
     2
  9
$DIMALTTD
 70
     3
  9
$DIMTXSTY
  7
Standard
  9
$DIMAUNIT
 70
     0
  9
$DIMADEC
 70
     2
  9
$DIMALTRND
 40
0.0
  9
$DIMAZIN
 70
     0
  9
$DIMDSEP
 70
    44
  9
$DIMATFIT
 70
     3
  9
$DIMFRAC
 70
     0
  9
$DIMLDRBLK
  1

  9
$DIMLUNIT
 70
     2
  9
$DIMLWD
 70
    -2
  9
$DIMLWE
 70
    -2
  9
$DIMTMOVE
 70
     0
  9
$LUNITS
 70
     2
  9
$LUPREC
 70
     2
  9
$SKETCHINC
 40
1.0
  9
$FILLETRAD
 40
10.0
  9
$AUNITS
 70
     0
  9
$AUPREC
 70
     2
  9
$MENU
  1
.
  9
$ELEVATION
 40
0.0
  9
$PELEVATION
 40
0.0
  9
$THICKNESS
 40
0.0
  9
$LIMCHECK
 70
     0
  9
$CHAMFERA
 40
0.0
  9
$CHAMFERB
 40
0.0
  9
$CHAMFERC
 40
0.0
  9
$CHAMFERD
 40
0.0
  9
$SKPOLY
 70
     0
  9
$TDCREATE
 40
2459732.670565324
  9
$TDUCREATE
 40
2459732.545565324
  9
$TDUPDATE
 40
2459732.670566505
  9
$TDUUPDATE
 40
2459732.545566505
  9
$TDINDWG
 40
0.0000000116
  9
$TDUSRTIMER
 40
0.0000000116
  9
$USRTIMER
 70
     1
  9
$ANGBASE
 50
0.0
  9
$ANGDIR
 70
     0
  9
$PDMODE
 70
     0
  9
$PDSIZE
 40
-1.0
  9
$PLINEWID
 40
0.0
  9
$SPLFRAME
 70
     0
  9
$SPLINETYPE
 70
     6
  9
$SPLINESEGS
 70
     8
  9
$HANDSEED
  5
117
  9
$SURFTAB1
 70
     6
  9
$SURFTAB2
 70
     6
  9
$SURFTYPE
 70
     6
  9
$SURFU
 70
     6
  9
$SURFV
 70
     6
  9
$UCSBASE
  2

  9
$UCSNAME
  2

  9
$UCSORG
 10
0.0
 20
0.0
 30
0.0
  9
$UCSXDIR
 10
1.0
 20
0.0
 30
0.0
  9
$UCSYDIR
 10
0.0
 20
1.0
 30
0.0
  9
$UCSORTHOREF
  2

  9
$UCSORTHOVIEW
 70
     0
  9
$UCSORGTOP
 10
0.0
 20
0.0
 30
0.0
  9
$UCSORGBOTTOM
 10
0.0
 20
0.0
 30
0.0
  9
$UCSORGLEFT
 10
0.0
 20
0.0
 30
0.0
  9
$UCSORGRIGHT
 10
0.0
 20
0.0
 30
0.0
  9
$UCSORGFRONT
 10
0.0
 20
0.0
 30
0.0
  9
$UCSORGBACK
 10
0.0
 20
0.0
 30
0.0
  9
$PUCSBASE
  2

  9
$PUCSNAME
  2

  9
$PUCSORG
 10
0.0
 20
0.0
 30
0.0
  9
$PUCSXDIR
 10
1.0
 20
0.0
 30
0.0
  9
$PUCSYDIR
 10
0.0
 20
1.0
 30
0.0
  9
$PUCSORTHOREF
  2

  9
$PUCSORTHOVIEW
 70
     0
  9
$PUCSORGTOP
 10
0.0
 20
0.0
 30
0.0
  9
$PUCSORGBOTTOM
 10
0.0
 20
0.0
 30
0.0
  9
$PUCSORGLEFT
 10
0.0
 20
0.0
 30
0.0
  9
$PUCSORGRIGHT
 10
0.0
 20
0.0
 30
0.0
  9
$PUCSORGFRONT
 10
0.0
 20
0.0
 30
0.0
  9
$PUCSORGBACK
 10
0.0
 20
0.0
 30
0.0
  9
$USERI1
 70
     0
  9
$USERI2
 70
     0
  9
$USERI3
 70
     0
  9
$USERI4
 70
     0
  9
$USERI5
 70
     0
  9
$USERR1
 40
0.0
  9
$USERR2
 40
0.0
  9
$USERR3
 40
0.0
  9
$USERR4
 40
0.0
  9
$USERR5
 40
0.0
  9
$WORLDVIEW
 70
     1
  9
$SHADEDGE
 70
     3
  9
$SHADEDIF
 70
    70
  9
$TILEMODE
 70
     1
  9
$MAXACTVP
 70
    64
  9
$PINSBASE
 10
0.0
 20
0.0
 30
0.0
  9
$PLIMCHECK
 70
     0
  9
$PEXTMIN
 10
1.0000000000E+20
 20
1.0000000000E+20
 30
1.0000000000E+20
  9
$PEXTMAX
 10
-1.0000000000E+20
 20
-1.0000000000E+20
 30
-1.0000000000E+20
  9
$PLIMMIN
 10
0.0
 20
0.0
  9
$PLIMMAX
 10
420.0
 20
297.0
  9
$UNITMODE
 70
     0
  9
$VISRETAIN
 70
     1
  9
$PLINEGEN
 70
     0
  9
$PSLTSCALE
 70
     1
  9
$TREEDEPTH
 70
  3020
  9
$CMLSTYLE
  2
Standard
  9
$CMLJUST
 70
     0
  9
$CMLSCALE
 40
20.0
  9
$PROXYGRAPHICS
 70
     1
  9
$MEASUREMENT
 70
     1
  9
$CELWEIGHT
370
    -1
  9
$ENDCAPS
280
     0
  9
$JOINSTYLE
280
     0
  9
$LWDISPLAY
290
     1
  9
$INSUNITS
 70
     4
  9
$HYPERLINKBASE
  1

  9
$STYLESHEET
  1

  9
$XEDIT
290
     1
  9
$CEPSNTYPE
380
     0
  9
$PSTYLEMODE
290
     1
  9
$FINGERPRINTGUID
  2
{32B8ABDA-C319-4049-B4DB-1DA3555DC7DD}
  9
$VERSIONGUID
  2
{FAEB1C32-E019-11D5-929B-00C0DF256EC4}
  9
$EXTNAMES
290
     1
  9
$PSVPSCALE
 40
0.0
  9
$OLESTARTUP
290
     0
  0
ENDSEC
  0
SECTION
  2
CLASSES
  0
CLASS
  1
ACDBDICTIONARYWDFLT
  2
AcDbDictionaryWithDefault
  3
ObjectDBX Classes
 90
        0
280
     0
281
     0
  0
CLASS
  1
VISUALSTYLE
  2
AcDbVisualStyle
  3
ObjectDBX Classes
 90
     4095
280
     0
281
     0
  0
CLASS
  1
MATERIAL
  2
AcDbMaterial
  3
ObjectDBX Classes
 90
     1153
280
     0
281
     0
  0
CLASS
  1
SCALE
  2
AcDbScale
  3
ObjectDBX Classes
 90
     1153
280
     0
281
     0
  0
CLASS
  1
TABLESTYLE
  2
AcDbTableStyle
  3
ObjectDBX Classes
 90
     4095
280
     0
281
     0
  0
CLASS
  1
MLEADERSTYLE
  2
AcDbMLeaderStyle
  3
ACDB_MLEADERSTYLE_CLASS
 90
     4095
280
     0
281
     0
  0
CLASS
  1
SUN
  2
AcDbSun
  3
SCENEOE
 90
     1153
280
     0
281
     0
  0
CLASS
  1
ACDBPLACEHOLDER
  2
AcDbPlaceHolder
  3
ObjectDBX Classes
 90
        0
280
     0
281
     0
  0
CLASS
  1
LAYOUT
  2
AcDbLayout
  3
ObjectDBX Classes
 90
        0
280
     0
281
     0
  0
ENDSEC
  0
SECTION
  2
TABLES
  0
TABLE
  2
VPORT
  5
8
330
0
100
AcDbSymbolTable
 70
     1
  0
VPORT
  5
29
330
8
100
AcDbSymbolTableRecord
100
AcDbViewportTableRecord
  2
*Active
 70
     0
 10
0.0
 20
0.0
 11
1.0
 21
1.0
 12
420.5
 22
297.0
 13
0.0
 23
0.0
 14
10.0
 24
10.0
 15
10.0
 25
10.0
 16
0.0
 26
0.0
 36
1.0
 17
0.0
 27
0.0
 37
0.0
 40
594.0
 41
1.4158249158
 42
50.0
 43
0.0
 44
0.0
 50
0.0
 51
0.0
 71
     0
 72
  2000
 73
     1
 74
     3
 75
     0
 76
     0
 77
     0
 78
     0
281
     0
 65
     1
110
0.0
120
0.0
130
0.0
111
1.0
121
0.0
131
0.0
112
0.0
122
1.0
132
0.0
 79
     0
146
0.0
  0
ENDTAB
  0
TABLE
  2
LTYPE
  5
5
330
0
100
AcDbSymbolTable
 70
     6
  0
LTYPE
  5
14
330
5
100
AcDbSymbolTableRecord
100
AcDbLinetypeTableRecord
  2
ByBlock
 70
     0
  3

 72
    65
 73
     0
 40
0.0
  0
LTYPE
  5
15
330
5
100
AcDbSymbolTableRecord
100
AcDbLinetypeTableRecord
  2
ByLayer
 70
     0
  3

 72
    65
 73
     0
 40
0.0
  0
LTYPE
  5
16
330
5
100
AcDbSymbolTableRecord
100
AcDbLinetypeTableRecord
  2
Continuous
 70
     0
  3
Solid line
 72
    65
 73
     0
 40
0.0
  0
LTYPE
  5
6E
330
5
100
AcDbSymbolTableRecord
100
AcDbLinetypeTableRecord
  2
HIDDEN
 70
     0
  3
Hidden __ __ __ __ __ __ __ __ __ __ __ __ __ __
 72
    65
 73
     2
 40
1.905
 49
1.27
 74
     0
 49
-0.635
 74
     0
  0
LTYPE
  5
6F
330
5
100
AcDbSymbolTableRecord
100
AcDbLinetypeTableRecord
  2
PHANTOM
 70
     0
  3
Phantom ______  __  __  ______  __  __  ______
 72
    65
 73
     6
 40
12.7
 49
6.35
 74
     0
 49
-1.27
 74
     0
 49
1.27
 74
     0
 49
-1.27
 74
     0
 49
1.27
 74
     0
 49
-1.27
 74
     0
  0
LTYPE
  5
70
330
5
100
AcDbSymbolTableRecord
100
AcDbLinetypeTableRecord
  2
CENTER
 70
     0
  3
Center ____ _ ____ _ ____ _ ____ _ ____ _ ____
 72
    65
 73
     4
 40
10.16
 49
6.35
 74
     0
 49
-1.27
 74
     0
 49
1.27
 74
     0
 49
-1.27
 74
     0
  0
LTYPE
  5
71
330
5
100
AcDbSymbolTableRecord
100
AcDbLinetypeTableRecord
  2
CENTERX2
 70
     0
  3
Center (2x) ________  __  ________  __  _____
 72
    65
 73
     4
 40
20.32
 49
12.7
 74
     0
 49
-2.54
 74
     0
 49
2.54
 74
     0
 49
-2.54
 74
     0
  0
LTYPE
  5
72
330
5
100
AcDbSymbolTableRecord
100
AcDbLinetypeTableRecord
  2
DOT2
 70
     0
  3
Dot (.5x) ........................................
 72
    65
 73
     2
 40
0.635
 49
0.0
 74
     0
 49
-0.635
 74
     0
  0
ENDTAB
  0
TABLE
  2
LAYER
  5
2
330
0
100
AcDbSymbolTable
 70
     1
  0
LAYER
  5
10
330
2
100
AcDbSymbolTableRecord
100
AcDbLayerTableRecord
  2
0
 70
     0
 62
     7
  6
Continuous
370
    -3
390
F
  0
ENDTAB
  0
TABLE
  2
STYLE
  5
3
330
0
100
AcDbSymbolTable
 70
     1
  0
STYLE
  5
11
330
3
100
AcDbSymbolTableRecord
100
AcDbTextStyleTableRecord
  2
Standard
 70
     0
 40
0.0
 41
1.0
 50
0.0
 71
     0
 42
3.5
  3
txt
  4

  0
ENDTAB
  0
TABLE
  2
VIEW
  5
6
330
0
100
AcDbSymbolTable
 70
     0
  0
ENDTAB
  0
TABLE
  2
UCS
  5
7
330
0
100
AcDbSymbolTable
 70
     0
  0
ENDTAB
  0
TABLE
  2
APPID
  5
9
330
0
100
AcDbSymbolTable
 70
     1
  0
APPID
  5
12
330
9
100
AcDbSymbolTableRecord
100
AcDbRegAppTableRecord
  2
ACAD
 70
     0
  0
ENDTAB
  0
TABLE
  2
DIMSTYLE
  5
A
330
0
100
AcDbSymbolTable
 70
     1
100
AcDbDimStyleTable
  0
DIMSTYLE
105
27
330
A
100
AcDbSymbolTableRecord
100
AcDbDimStyleTableRecord
  2
ISO-25
 70
     0
 41
2.5
 42
0.625
 43
3.75
 44
1.25
 73
     0
 74
     0
 77
     1
 78
     8
140
2.5
141
2.5
143
0.0393700787
147
0.625
171
     3
172
     1
178
     0
271
     2
272
     2
274
     3
278
    44
283
     0
284
     8
340
11
  0
ENDTAB
  0
TABLE
  2
BLOCK_RECORD
  5
1
330
0
100
AcDbSymbolTable
 70
     1
  0
BLOCK_RECORD
  5
1F
330
1
100
AcDbSymbolTableRecord
100
AcDbBlockTableRecord
  2
*Model_Space
340
22
  0
BLOCK_RECORD
  5
1B
330
1
100
AcDbSymbolTableRecord
100
AcDbBlockTableRecord
  2
*Paper_Space
340
1E
  0
BLOCK_RECORD
  5
23
330
1
100
AcDbSymbolTableRecord
100
AcDbBlockTableRecord
  2
*Paper_Space0
340
26
  0
ENDTAB
  0
ENDSEC
  0
SECTION
  2
BLOCKS
  0
BLOCK
  5
20
330
1F
100
AcDbEntity
  8
0
100
AcDbBlockBegin
  2
*Model_Space
 70
     0
 10
0.0
 20
0.0
 30
0.0
  3
*Model_Space
  1

  0
ENDBLK
  5
21
330
1F
100
AcDbEntity
  8
0
100
AcDbBlockEnd
  0
BLOCK
  5
1C
330
1B
100
AcDbEntity
 67
     1
  8
0
100
AcDbBlockBegin
  2
*Paper_Space
 70
     0
 10
0.0
 20
0.0
 30
0.0
  3
*Paper_Space
  1

  0
ENDBLK
  5
1D
330
1B
100
AcDbEntity
 67
     1
  8
0
100
AcDbBlockEnd
  0
BLOCK
  5
24
330
23
100
AcDbEntity
  8
0
100
AcDbBlockBegin
  2
*Paper_Space0
 70
     0
 10
0.0
 20
0.0
 30
0.0
  3
*Paper_Space0
  1

  0
ENDBLK
  5
25
330
23
100
AcDbEntity
  8
0
100
AcDbBlockEnd
  0
ENDSEC
  0
SECTION
  2
ENTITIES
  0
SPLINE
  5
73
330
1F
100
AcDbEntity
  8
0
  6
Continuous
 62
     7
370
    25
100
AcDbSpline
210
0.0
220
0.0
230
1.0
 70
     8
 71
     3
 72
    14
 73
    10
 74
     0
 42
0.000000001
 43
0.00000001
 40
0.0
 40
0.0
 40
0.0
 40
0.0
 40
0.25
 40
0.25
 40
0.5
 40
0.5
 40
0.75
 40
0.75
 40
1.0
 40
1.0
 40
1.0
 40
1.0
 10
264.8723203533837
 20
77.42775276761449
 30
0.0
 10
264.5843410268046
 20
77.40334499938004
 30
0.0
 10
264.2964750077932
 20
77.37893723114558
 30
0.0
 10
263.7643585965677
 20
77.33012169467668
 30
0.0
 10
263.5203175694389
 20
77.3057139264422
 30
0.0
 10
263.1130533001077
 20
77.25689838997329
 30
0.0
 10
262.9499902990044
 20
77.23249062173888
 30
0.0
 10
262.7295804647134
 20
77.18367508527
 30
0.0
 10
262.6723203533836
 20
77.15926731703551
 30
0.0
 10
262.6723203533837
 20
77.13485954880106
 30
0.0
  0
LINE
  5
74
330
1F
100
AcDbEntity
  8
0
  6
Continuous
 62
     7
370
    25
100
AcDbLine
 10
262.6723203534
 20
502.3206459864
 30
0.0
 11
262.6723203534
 21
77.1348595488
 31
0.0
  0
SPLINE
  5
75
330
1F
100
AcDbEntity
  8
0
  6
Continuous
 62
     7
370
    25
100
AcDbSpline
210
0.0
220
0.0
230
1.0
 70
     8
 71
     3
 72
    14
 73
    10
 74
     0
 42
0.000000001
 43
0.00000001
 40
0.0
 40
0.0
 40
0.0
 40
0.0
 40
0.25
 40
0.25
 40
0.5
 40
0.5
 40
0.75
 40
0.75
 40
1.0
 40
1.0
 40
1.0
 40
1.0
 10
262.6723203533837
 20
502.3206459864279
 30
0.0
 10
262.6723203533836
 20
502.2962382181935
 30
0.0
 10
262.7295804647134
 20
502.2718304499591
 30
0.0
 10
262.9499902990044
 20
502.22301491349
 30
0.0
 10
263.1130533001077
 20
502.1986071452557
 30
0.0
 10
263.5203175694389
 20
502.1497916087867
 30
0.0
 10
263.7643585965677
 20
502.1253838405523
 30
0.0
 10
264.2964750077932
 20
502.0765683040834
 30
0.0
 10
264.5843410268046
 20
502.052160535849
 30
0.0
 10
264.8723203533837
 20
502.0277527676145
 30
0.0
  0
SPLINE
  5
76
330
1F
100
AcDbEntity
  8
0
  6
Continuous
 62
     7
370
    25
100
AcDbSpline
210
0.0
220
0.0
230
1.0
 70
     8
 71
     3
 72
    14
 73
    10
 74
     0
 42
0.000000001
 43
0.00000001
 40
0.0
 40
0.0
 40
0.0
 40
0.0
 40
0.25
 40
0.25
 40
0.5
 40
0.5
 40
0.75
 40
0.75
 40
1.0
 40
1.0
 40
1.0
 40
1.0
 10
568.6723203533836
 20
77.13485954880112
 30
0.0
 10
568.6723203533836
 20
77.1592673170356
 30
0.0
 10
568.615060242054
 20
77.18367508527002
 30
0.0
 10
568.3946504077629
 20
77.2324906217389
 30
0.0
 10
568.2315874066597
 20
77.25689838997334
 30
0.0
 10
567.8243231373284
 20
77.30571392644228
 30
0.0
 10
567.5802821101996
 20
77.3301216946767
 30
0.0
 10
567.0481656989741
 20
77.37893723114556
 30
0.0
 10
566.7602996799628
 20
77.40334499938007
 30
0.0
 10
566.4723203533837
 20
77.42775276761452
 30
0.0
  0
LINE
  5
77
330
1F
100
AcDbEntity
  8
0
  6
Continuous
 62
     7
370
    25
100
AcDbLine
 10
567.4723203534
 20
77.1348595488
 30
0.0
 11
568.6723203534
 21
77.1348595488
 31
0.0
  0
SPLINE
  5
78
330
1F
100
AcDbEntity
  8
0
  6
Continuous
 62
     7
370
    25
100
AcDbSpline
210
0.0
220
0.0
230
1.0
 70
     8
 71
     3
 72
    10
 73
     6
 74
     0
 42
0.000000001
 43
0.00000001
 40
0.0
 40
0.0
 40
0.0
 40
0.0
 40
0.5
 40
0.5
 40
1.0
 40
1.0
 40
1.0
 40
1.0
 10
567.4723203533837
 20
77.13485954880112
 30
0.0
 10
567.4723203533836
 20
77.18367508527005
 30
0.0
 10
567.3645472569934
 20
77.2324906217389
 30
0.0
 10
566.9943070121469
 20
77.33012169467676
 30
0.0
 10
566.7341197411828
 20
77.37893723114558
 30
0.0
 10
566.4723203533837
 20
77.42775276761452
 30
0.0
  0
SPLINE
  5
79
330
1F
100
AcDbEntity
  8
0
  6
Continuous
 62
     7
370
    25
100
AcDbSpline
210
0.0
220
0.0
230
1.0
 70
     8
 71
     3
 72
    14
 73
    10
 74
     0
 42
0.000000001
 43
0.00000001
 40
0.0
 40
0.0
 40
0.0
 40
0.0
 40
0.25
 40
0.25
 40
0.5
 40
0.5
 40
0.75
 40
0.75
 40
1.0
 40
1.0
 40
1.0
 40
1.0
 10
566.4723203533837
 20
502.0277527676145
 30
0.0
 10
566.7602996799628
 20
502.052160535849
 30
0.0
 10
567.0481656989741
 20
502.0765683040835
 30
0.0
 10
567.5802821101996
 20
502.1253838405524
 30
0.0
 10
567.8243231373284
 20
502.1497916087868
 30
0.0
 10
568.2315874066597
 20
502.1986071452557
 30
0.0
 10
568.394650407763
 20
502.2230149134901
 30
0.0
 10
568.615060242054
 20
502.2718304499591
 30
0.0
 10
568.6723203533836
 20
502.2962382181935
 30
0.0
 10
568.6723203533836
 20
502.320645986428
 30
0.0
  0
SPLINE
  5
7A
330
1F
100
AcDbEntity
  8
0
  6
Continuous
 62
     7
370
    25
100
AcDbSpline
210
0.0
220
0.0
230
1.0
 70
     8
 71
     3
 72
    10
 73
     6
 74
     0
 42
0.000000001
 43
0.00000001
 40
0.0
 40
0.0
 40
0.0
 40
0.0
 40
0.5
 40
0.5
 40
1.0
 40
1.0
 40
1.0
 40
1.0
 10
566.4723203533837
 20
502.0277527676145
 30
0.0
 10
566.7341197411828
 20
502.0765683040834
 30
0.0
 10
566.9943070121469
 20
502.1253838405524
 30
0.0
 10
567.3645472569934
 20
502.2230149134902
 30
0.0
 10
567.4723203533837
 20
502.2718304499591
 30
0.0
 10
567.4723203533837
 20
502.320645986428
 30
0.0
  0
LINE
  5
7B
330
1F
100
AcDbEntity
  8
0
  6
Continuous
 62
     7
370
    25
100
AcDbLine
 10
567.4723203534
 20
502.3206459864
 30
0.0
 11
568.6723203534
 21
502.3206459864
 31
0.0
  0
LINE
  5
7C
330
1F
100
AcDbEntity
  8
0
  6
Continuous
 62
     7
370
    25
100
AcDbLine
 10
263.8723203534
 20
502.3206459864
 30
0.0
 11
262.6723203534
 21
502.3206459864
 31
0.0
  0
SPLINE
  5
7D
330
1F
100
AcDbEntity
  8
0
  6
Continuous
 62
     7
370
    25
100
AcDbSpline
210
0.0
220
0.0
230
1.0
 70
     8
 71
     3
 72
    10
 73
     6
 74
     0
 42
0.000000001
 43
0.00000001
 40
0.0
 40
0.0
 40
0.0
 40
0.0
 40
0.5
 40
0.5
 40
1.0
 40
1.0
 40
1.0
 40
1.0
 10
263.8723203533837
 20
502.3206459864279
 30
0.0
 10
263.8723203533837
 20
502.2718304499591
 30
0.0
 10
263.9800934497738
 20
502.2230149134901
 30
0.0
 10
264.3503336946204
 20
502.1253838405523
 30
0.0
 10
264.6105209655845
 20
502.0765683040834
 30
0.0
 10
264.8723203533837
 20
502.0277527676145
 30
0.0
  0
LINE
  5
7E
330
1F
100
AcDbEntity
  8
0
  6
Continuous
 62
     7
370
    25
100
AcDbLine
 10
568.6723203534
 20
77.1348595488
 30
0.0
 11
568.6723203534
 21
502.3206459864
 31
0.0
  0
SPLINE
  5
7F
330
1F
100
AcDbEntity
  8
0
  6
Continuous
 62
     7
370
    25
100
AcDbSpline
210
0.0
220
0.0
230
1.0
 70
     8
 71
     3
 72
    10
 73
     6
 74
     0
 42
0.000000001
 43
0.00000001
 40
0.0
 40
0.0
 40
0.0
 40
0.0
 40
0.5
 40
0.5
 40
1.0
 40
1.0
 40
1.0
 40
1.0
 10
264.8723203533837
 20
77.42775276761449
 30
0.0
 10
264.6105209655846
 20
77.37893723114564
 30
0.0
 10
264.3503336946204
 20
77.33012169467665
 30
0.0
 10
263.9800934497738
 20
77.23249062173888
 30
0.0
 10
263.8723203533837
 20
77.18367508526997
 30
0.0
 10
263.8723203533837
 20
77.13485954880106
 30
0.0
  0
LINE
  5
80
330
1F
100
AcDbEntity
  8
0
  6
Continuous
 62
     7
370
    25
100
AcDbLine
 10
263.8723203534
 20
77.1348595488
 30
0.0
 11
262.6723203534
 21
77.1348595488
 31
0.0
  0
SPLINE
  5
81
330
1F
100
AcDbEntity
  8
0
  6
Continuous
 62
     7
370
    25
100
AcDbSpline
210
0.0
220
0.0
230
1.0
 70
     8
 71
     3
 72
    14
 73
    10
 74
     0
 42
0.000000001
 43
0.00000001
 40
0.0
 40
0.0
 40
0.0
 40
0.0
 40
0.25
 40
0.25
 40
0.5
 40
0.5
 40
0.75
 40
0.75
 40
1.0
 40
1.0
 40
1.0
 40
1.0
 10
264.5794271345703
 20
75.2277527676145
 30
0.0
 10
264.6038349028047
 20
75.22775276761453
 30
0.0
 10
264.6282426710391
 20
75.28501287894423
 30
0.0
 10
264.6770582075081
 20
75.5054227132352
 30
0.0
 10
264.7014659757425
 20
75.66848571433849
 30
0.0
 10
264.7502815122114
 20
76.0757499836697
 30
0.0
 10
264.7746892804459
 20
76.3197910107985
 30
0.0
 10
264.8235048169147
 20
76.85190742202411
 30
0.0
 10
264.8479125851492
 20
77.13977344103546
 30
0.0
 10
264.8723203533837
 20
77.42775276761452
 30
0.0
  0
LINE
  5
82
330
1F
100
AcDbEntity
  8
0
  6
Continuous
 62
     7
370
    25
100
AcDbLine
 10
264.5794271346
 20
76.4277527676
 30
0.0
 11
264.5794271346
 21
75.2277527676
 31
0.0
  0
SPLINE
  5
83
330
1F
100
AcDbEntity
  8
0
  6
Continuous
 62
     7
370
    25
100
AcDbSpline
210
0.0
220
0.0
230
1.0
 70
     8
 71
     3
 72
    10
 73
     6
 74
     0
 42
0.000000001
 43
0.00000001
 40
0.0
 40
0.0
 40
0.0
 40
0.0
 40
0.5
 40
0.5
 40
1.0
 40
1.0
 40
1.0
 40
1.0
 10
264.5794271345703
 20
76.42775276761452
 30
0.0
 10
264.6282426710391
 20
76.42775276761455
 30
0.0
 10
264.677058207508
 20
76.53552586400473
 30
0.0
 10
264.7746892804459
 20
76.90576610885125
 30
0.0
 10
264.8235048169147
 20
77.16595337981535
 30
0.0
 10
264.8723203533837
 20
77.42775276761452
 30
0.0
  0
SPLINE
  5
84
330
1F
100
AcDbEntity
  8
0
  6
Continuous
 62
     7
370
    25
100
AcDbSpline
210
0.0
220
0.0
230
1.0
 70
     8
 71
     3
 72
    14
 73
    10
 74
     0
 42
0.000000001
 43
0.00000001
 40
0.0
 40
0.0
 40
0.0
 40
0.0
 40
0.25
 40
0.25
 40
0.5
 40
0.5
 40
0.75
 40
0.75
 40
1.0
 40
1.0
 40
1.0
 40
1.0
 10
566.4723203533837
 20
77.42775276761452
 30
0.0
 10
566.4967281216182
 20
77.13977344103549
 30
0.0
 10
566.5211358898526
 20
76.85190742202408
 30
0.0
 10
566.5699514263214
 20
76.31979101079858
 30
0.0
 10
566.5943591945559
 20
76.07574998366967
 30
0.0
 10
566.6431747310247
 20
75.66848571433852
 30
0.0
 10
566.6675824992593
 20
75.50542271323515
 30
0.0
 10
566.7163980357282
 20
75.28501287894417
 30
0.0
 10
566.7408058039626
 20
75.2277527676145
 30
0.0
 10
566.7652135721971
 20
75.2277527676145
 30
0.0
  0
SPLINE
  5
85
330
1F
100
AcDbEntity
  8
0
  6
Continuous
 62
     7
370
    25
100
AcDbSpline
210
0.0
220
0.0
230
1.0
 70
     8
 71
     3
 72
    10
 73
     6
 74
     0
 42
0.000000001
 43
0.00000001
 40
0.0
 40
0.0
 40
0.0
 40
0.0
 40
0.5
 40
0.5
 40
1.0
 40
1.0
 40
1.0
 40
1.0
 10
566.4723203533837
 20
77.42775276761452
 30
0.0
 10
566.5211358898525
 20
77.16595337981535
 30
0.0
 10
566.5699514263215
 20
76.9057661088512
 30
0.0
 10
566.6675824992593
 20
76.53552586400473
 30
0.0
 10
566.7163980357282
 20
76.42775276761452
 30
0.0
 10
566.7652135721971
 20
76.42775276761452
 30
0.0
  0
LINE
  5
86
330
1F
100
AcDbEntity
  8
0
  6
Continuous
 62
     7
370
    25
100
AcDbLine
 10
566.7652135722
 20
76.4277527676
 30
0.0
 11
566.7652135722
 21
75.2277527676
 31
0.0
  0
LINE
  5
87
330
1F
100
AcDbEntity
  8
0
  6
Continuous
 62
     7
370
    25
100
AcDbLine
 10
264.5794271346
 20
75.2277527676
 30
0.0
 11
566.7652135722
 21
75.2277527676
 31
0.0
  0
SPLINE
  5
88
330
1F
100
AcDbEntity
  8
0
  6
Continuous
 62
     7
370
    25
100
AcDbSpline
210
0.0
220
0.0
230
1.0
 70
     8
 71
     3
 72
    14
 73
    10
 74
     0
 42
0.000000001
 43
0.00000001
 40
0.0
 40
0.0
 40
0.0
 40
0.0
 40
0.25
 40
0.25
 40
0.5
 40
0.5
 40
0.75
 40
0.75
 40
1.0
 40
1.0
 40
1.0
 40
1.0
 10
264.8723203533837
 20
502.0277527676145
 30
0.0
 10
264.8479125851493
 20
502.3157320941935
 30
0.0
 10
264.8235048169147
 20
502.6035981132049
 30
0.0
 10
264.7746892804459
 20
503.1357145244305
 30
0.0
 10
264.7502815122114
 20
503.3797555515594
 30
0.0
 10
264.7014659757425
 20
503.7870198208906
 30
0.0
 10
264.6770582075081
 20
503.9500828219938
 30
0.0
 10
264.6282426710392
 20
504.1704926562848
 30
0.0
 10
264.6038349028047
 20
504.2277527676146
 30
0.0
 10
264.5794271345703
 20
504.2277527676144
 30
0.0
  0
SPLINE
  5
89
330
1F
100
AcDbEntity
  8
0
  6
Continuous
 62
     7
370
    25
100
AcDbSpline
210
0.0
220
0.0
230
1.0
 70
     8
 71
     3
 72
    10
 73
     6
 74
     0
 42
0.000000001
 43
0.00000001
 40
0.0
 40
0.0
 40
0.0
 40
0.0
 40
0.5
 40
0.5
 40
1.0
 40
1.0
 40
1.0
 40
1.0
 10
264.8723203533837
 20
502.0277527676145
 30
0.0
 10
264.8235048169147
 20
502.2895521554136
 30
0.0
 10
264.7746892804458
 20
502.5497394263777
 30
0.0
 10
264.6770582075081
 20
502.9199796712243
 30
0.0
 10
264.6282426710391
 20
503.0277527676146
 30
0.0
 10
264.5794271345703
 20
503.0277527676145
 30
0.0
  0
LINE
  5
8A
330
1F
100
AcDbEntity
  8
0
  6
Continuous
 62
     7
370
    25
100
AcDbLine
 10
264.5794271346
 20
503.0277527676
 30
0.0
 11
264.5794271346
 21
504.2277527676
 31
0.0
  0
LINE
  5
8B
330
1F
100
AcDbEntity
  8
0
  6
Continuous
 62
     7
370
    25
100
AcDbLine
 10
566.7652135722
 20
504.2277527676
 30
0.0
 11
264.5794271346
 21
504.2277527676
 31
0.0
  0
SPLINE
  5
8C
330
1F
100
AcDbEntity
  8
0
  6
Continuous
 62
     7
370
    25
100
AcDbSpline
210
0.0
220
0.0
230
1.0
 70
     8
 71
     3
 72
    14
 73
    10
 74
     0
 42
0.000000001
 43
0.00000001
 40
0.0
 40
0.0
 40
0.0
 40
0.0
 40
0.25
 40
0.25
 40
0.5
 40
0.5
 40
0.75
 40
0.75
 40
1.0
 40
1.0
 40
1.0
 40
1.0
 10
566.7652135721971
 20
504.2277527676144
 30
0.0
 10
566.7408058039626
 20
504.2277527676144
 30
0.0
 10
566.7163980357283
 20
504.1704926562849
 30
0.0
 10
566.6675824992593
 20
503.9500828219938
 30
0.0
 10
566.6431747310248
 20
503.7870198208905
 30
0.0
 10
566.5943591945559
 20
503.3797555515594
 30
0.0
 10
566.5699514263215
 20
503.1357145244305
 30
0.0
 10
566.5211358898525
 20
502.603598113205
 30
0.0
 10
566.4967281216182
 20
502.3157320941935
 30
0.0
 10
566.4723203533837
 20
502.0277527676145
 30
0.0
  0
LINE
  5
8D
330
1F
100
AcDbEntity
  8
0
  6
Continuous
 62
     7
370
    25
100
AcDbLine
 10
566.7652135722
 20
503.0277527676
 30
0.0
 11
566.7652135722
 21
504.2277527676
 31
0.0
  0
SPLINE
  5
8E
330
1F
100
AcDbEntity
  8
0
  6
Continuous
 62
     7
370
    25
100
AcDbSpline
210
0.0
220
0.0
230
1.0
 70
     8
 71
     3
 72
    10
 73
     6
 74
     0
 42
0.000000001
 43
0.00000001
 40
0.0
 40
0.0
 40
0.0
 40
0.0
 40
0.5
 40
0.5
 40
1.0
 40
1.0
 40
1.0
 40
1.0
 10
566.7652135721971
 20
503.0277527676145
 30
0.0
 10
566.7163980357282
 20
503.0277527676146
 30
0.0
 10
566.6675824992593
 20
502.9199796712244
 30
0.0
 10
566.5699514263215
 20
502.5497394263777
 30
0.0
 10
566.5211358898525
 20
502.2895521554136
 30
0.0
 10
566.4723203533837
 20
502.0277527676145
 30
0.0
  0
LINE
  5
8F
330
1F
100
AcDbEntity
  8
0
  6
Continuous
 62
     7
370
    25
100
AcDbLine
 10
627.1998097155
 20
484.2277527676
 30
0.0
 11
640.1998097155
 21
484.2277527676
 31
0.0
  0
LINE
  5
90
330
1F
100
AcDbEntity
  8
0
  6
Continuous
 62
     7
370
    25
100
AcDbLine
 10
640.1998097155
 20
484.2277527676
 30
0.0
 11
640.1998097155
 21
502.3206459864
 31
0.0
  0
LINE
  5
91
330
1F
100
AcDbEntity
  8
0
  6
Continuous
 62
     7
370
    25
100
AcDbLine
 10
652.9998097155
 20
502.3206459864
 30
0.0
 11
640.1998097155
 21
502.3206459864
 31
0.0
  0
LINE
  5
92
330
1F
100
AcDbEntity
  8
0
  6
Continuous
 62
     7
370
    25
100
AcDbLine
 10
640.1998097155
 20
77.1348595488
 30
0.0
 11
652.9998097155
 21
77.1348595488
 31
0.0
  0
LINE
  5
93
330
1F
100
AcDbEntity
  8
0
  6
Continuous
 62
     7
370
    25
100
AcDbLine
 10
640.1998097155
 20
77.1348595488
 30
0.0
 11
640.1998097155
 21
95.2277527676
 31
0.0
  0
LINE
  5
94
330
1F
100
AcDbEntity
  8
0
  6
Continuous
 62
     7
370
    25
100
AcDbLine
 10
640.1998097155
 20
95.2277527676
 30
0.0
 11
627.1998097155
 21
95.2277527676
 31
0.0
  0
LINE
  5
95
330
1F
100
AcDbEntity
  8
0
  6
Continuous
 62
     7
370
    25
100
AcDbLine
 10
623.1998097155
 20
480.2277527676
 30
0.0
 11
623.1998097155
 21
99.2277527676
 31
0.0
  0
ARC
  5
96
330
1F
100
AcDbEntity
  8
0
  6
Continuous
 62
     7
370
    25
100
AcDbCircle
 10
638.1998097155
 20
102.2277527676
 30
0.0
 40
3.5
100
AcDbArc
 50
270.0
 51
90.0
  0
LINE
  5
97
330
1F
100
AcDbEntity
  8
0
  6
Continuous
 62
     7
370
    25
100
AcDbLine
 10
638.1998097155
 20
105.7277527676
 30
0.0
 11
630.1998097155
 21
105.7277527676
 31
0.0
  0
ARC
  5
98
330
1F
100
AcDbEntity
  8
0
  6
Continuous
 62
     7
370
    25
100
AcDbCircle
 10
630.1998097155
 20
102.2277527676
 30
0.0
 40
3.5
100
AcDbArc
 50
90.0
 51
270.0
  0
LINE
  5
99
330
1F
100
AcDbEntity
  8
0
  6
Continuous
 62
     7
370
    25
100
AcDbLine
 10
630.1998097155
 20
98.7277527676
 30
0.0
 11
638.1998097155
 21
98.7277527676
 31
0.0
  0
ARC
  5
9A
330
1F
100
AcDbEntity
  8
0
  6
Continuous
 62
     7
370
    25
100
AcDbCircle
 10
638.1998097155
 20
477.2277527676
 30
0.0
 40
3.500000000000057
100
AcDbArc
 50
270.0
 51
90.0
  0
LINE
  5
9B
330
1F
100
AcDbEntity
  8
0
  6
Continuous
 62
     7
370
    25
100
AcDbLine
 10
638.1998097155
 20
480.7277527676
 30
0.0
 11
630.1998097155
 21
480.7277527676
 31
0.0
  0
ARC
  5
9C
330
1F
100
AcDbEntity
  8
0
  6
Continuous
 62
     7
370
    25
100
AcDbCircle
 10
630.1998097155
 20
477.2277527676
 30
0.0
 40
3.500000000000057
100
AcDbArc
 50
90.0
 51
270.0
  0
LINE
  5
9D
330
1F
100
AcDbEntity
  8
0
  6
Continuous
 62
     7
370
    25
100
AcDbLine
 10
630.1998097155
 20
473.7277527676
 30
0.0
 11
638.1998097155
 21
473.7277527676
 31
0.0
  0
ARC
  5
9E
330
1F
100
AcDbEntity
  8
0
  6
Continuous
 62
     7
370
    25
100
AcDbCircle
 10
630.1998097155
 20
227.2277527676
 30
0.0
 40
3.5
100
AcDbArc
 50
90.0
 51
270.0
  0
LINE
  5
9F
330
1F
100
AcDbEntity
  8
0
  6
Continuous
 62
     7
370
    25
100
AcDbLine
 10
630.1998097155
 20
223.7277527676
 30
0.0
 11
638.1998097155
 21
223.7277527676
 31
0.0
  0
ARC
  5
A0
330
1F
100
AcDbEntity
  8
0
  6
Continuous
 62
     7
370
    25
100
AcDbCircle
 10
638.1998097155
 20
227.2277527676
 30
0.0
 40
3.5
100
AcDbArc
 50
270.0
 51
90.0
  0
LINE
  5
A1
330
1F
100
AcDbEntity
  8
0
  6
Continuous
 62
     7
370
    25
100
AcDbLine
 10
638.1998097155
 20
230.7277527676
 30
0.0
 11
630.1998097155
 21
230.7277527676
 31
0.0
  0
ARC
  5
A2
330
1F
100
AcDbEntity
  8
0
  6
Continuous
 62
     7
370
    25
100
AcDbCircle
 10
630.1998097155
 20
352.2277527676
 30
0.0
 40
3.500000000000057
100
AcDbArc
 50
90.0
 51
270.0
  0
LINE
  5
A3
330
1F
100
AcDbEntity
  8
0
  6
Continuous
 62
     7
370
    25
100
AcDbLine
 10
630.1998097155
 20
348.7277527676
 30
0.0
 11
638.1998097155
 21
348.7277527676
 31
0.0
  0
ARC
  5
A4
330
1F
100
AcDbEntity
  8
0
  6
Continuous
 62
     7
370
    25
100
AcDbCircle
 10
638.1998097155
 20
352.2277527676
 30
0.0
 40
3.500000000000057
100
AcDbArc
 50
270.0
 51
90.0
  0
LINE
  5
A5
330
1F
100
AcDbEntity
  8
0
  6
Continuous
 62
     7
370
    25
100
AcDbLine
 10
638.1998097155
 20
355.7277527676
 30
0.0
 11
630.1998097155
 21
355.7277527676
 31
0.0
  0
ARC
  5
A6
330
1F
100
AcDbEntity
  8
0
  6
Continuous
 62
     7
370
    25
100
AcDbCircle
 10
627.1998097155
 20
99.2277527676
 30
0.0
 40
4.000000000000114
100
AcDbArc
 50
180.0
 51
270.0
  0
ARC
  5
A7
330
1F
100
AcDbEntity
  8
0
  6
Continuous
 62
     7
370
    25
100
AcDbCircle
 10
627.1998097155
 20
480.2277527676
 30
0.0
 40
4.000000000000114
100
AcDbArc
 50
90.0
 51
180.0
  0
SPLINE
  5
A8
330
1F
100
AcDbEntity
  8
0
  6
Continuous
 62
     7
370
    25
100
AcDbSpline
210
0.0
220
0.0
230
1.0
 70
     8
 71
     3
 72
    14
 73
    10
 74
     0
 42
0.000000001
 43
0.00000001
 40
0.0
 40
0.0
 40
0.0
 40
0.0
 40
0.25
 40
0.25
 40
0.5
 40
0.5
 40
0.75
 40
0.75
 40
1.0
 40
1.0
 40
1.0
 40
1.0
 10
655.1998097154992
 20
77.42775276761449
 30
0.0
 10
655.1998097154992
 20
77.40334499938004
 30
0.0
 10
655.1425496041694
 20
77.37893723114558
 30
0.0
 10
654.9221397698785
 20
77.33012169467668
 30
0.0
 10
654.7590767687752
 20
77.3057139264422
 30
0.0
 10
654.351812499444
 20
77.25689838997329
 30
0.0
 10
654.1077714723151
 20
77.23249062173888
 30
0.0
 10
653.5756550610896
 20
77.18367508527
 30
0.0
 10
653.2877890420782
 20
77.15926731703551
 30
0.0
 10
652.9998097154992
 20
77.13485954880106
 30
0.0
  0
LINE
  5
A9
330
1F
100
AcDbEntity
  8
0
  6
Continuous
 62
     7
370
    25
100
AcDbLine
 10
655.1998097155
 20
502.0277527676
 30
0.0
 11
655.1998097155
 21
77.4277527676
 31
0.0
  0
SPLINE
  5
AA
330
1F
100
AcDbEntity
  8
0
  6
Continuous
 62
     7
370
    25
100
AcDbSpline
210
0.0
220
0.0
230
1.0
 70
     8
 71
     3
 72
    14
 73
    10
 74
     0
 42
0.000000001
 43
0.00000001
 40
0.0
 40
0.0
 40
0.0
 40
0.0
 40
0.25
 40
0.25
 40
0.5
 40
0.5
 40
0.75
 40
0.75
 40
1.0
 40
1.0
 40
1.0
 40
1.0
 10
652.9998097154992
 20
502.3206459864279
 30
0.0
 10
653.2877890420782
 20
502.2962382181935
 30
0.0
 10
653.5756550610896
 20
502.2718304499591
 30
0.0
 10
654.1077714723151
 20
502.22301491349
 30
0.0
 10
654.351812499444
 20
502.1986071452557
 30
0.0
 10
654.7590767687752
 20
502.1497916087867
 30
0.0
 10
654.9221397698785
 20
502.1253838405523
 30
0.0
 10
655.1425496041694
 20
502.0765683040834
 30
0.0
 10
655.1998097154992
 20
502.052160535849
 30
0.0
 10
655.1998097154992
 20
502.0277527676145
 30
0.0
  0
LINE
  5
AB
330
1F
100
AcDbEntity
  8
0
  6
Continuous
 62
     7
370
    25
100
AcDbLine
 10
652.9998097155
 20
76.4277527676
 30
0.0
 11
652.9998097155
 21
75.2277527676
 31
0.0
  0
SPLINE
  5
AC
330
1F
100
AcDbEntity
  8
0
  6
Continuous
 62
     7
370
    25
100
AcDbSpline
210
0.0
220
0.0
230
1.0
 70
     8
 71
     3
 72
    11
 73
     7
 74
     0
 42
0.000000001
 43
0.00000001
 40
0.0
 40
0.0
 40
0.0
 40
0.0
 40
0.2892444547946119
 40
0.5784889095892176
 40
0.8677333643838304
 40
1.0
 40
1.0
 40
1.0
 40
1.0
 10
652.9998097154992
 20
76.42775276761452
 30
0.0
 10
653.1311293848847
 20
76.44268935044774
 30
0.0
 10
653.393768723656
 20
76.47256251611415
 30
0.0
 10
653.7200742770625
 20
76.70523657854841
 30
0.0
 10
653.922684544846
 20
76.97154916047508
 30
0.0
 10
653.9499440553232
 20
77.16070769113367
 30
0.0
 10
653.9584978604812
 20
77.2200640473898
 30
0.0
  0
SPLINE
  5
AD
330
1F
100
AcDbEntity
  8
0
  6
Continuous
 62
     7
370
    25
100
AcDbSpline
210
0.0
220
0.0
230
1.0
 70
     8
 71
     3
 72
    14
 73
    10
 74
     0
 42
0.000000001
 43
0.00000001
 40
0.0
 40
0.0
 40
0.0
 40
0.0
 40
0.25
 40
0.25
 40
0.5
 40
0.5
 40
0.75
 40
0.75
 40
1.0
 40
1.0
 40
1.0
 40
1.0
 10
652.9998097154992
 20
75.2277527676145
 30
0.0
 10
653.2877890420782
 20
75.22775276761453
 30
0.0
 10
653.5756550610896
 20
75.28501287894423
 30
0.0
 10
654.1077714723151
 20
75.5054227132352
 30
0.0
 10
654.351812499444
 20
75.66848571433849
 30
0.0
 10
654.7590767687751
 20
76.0757499836697
 30
0.0
 10
654.9221397698785
 20
76.3197910107985
 30
0.0
 10
655.1425496041694
 20
76.85190742202411
 30
0.0
 10
655.1998097154992
 20
77.13977344103546
 30
0.0
 10
655.1998097154992
 20
77.42775276761452
 30
0.0
  0
LINE
  5
AE
330
1F
100
AcDbEntity
  8
0
  6
Continuous
 62
     7
370
    25
100
AcDbLine
 10
652.9998097155
 20
75.2277527676
 30
0.0
 11
640.1998097155
 21
75.2277527676
 31
0.0
  0
LINE
  5
AF
330
1F
100
AcDbEntity
  8
0
  6
Continuous
 62
     7
370
    25
100
AcDbLine
 10
640.1998097155
 20
76.4277527676
 30
0.0
 11
640.1998097155
 21
75.2277527676
 31
0.0
  0
LINE
  5
B0
330
1F
100
AcDbEntity
  8
0
  6
Continuous
 62
     7
370
    25
100
AcDbLine
 10
652.9998097155
 20
76.4277527676
 30
0.0
 11
640.1998097155
 21
76.4277527676
 31
0.0
  0
SPLINE
  5
B1
330
1F
100
AcDbEntity
  8
0
  6
Continuous
 62
     7
370
    25
100
AcDbSpline
210
0.0
220
0.0
230
1.0
 70
     8
 71
     3
 72
    14
 73
    10
 74
     0
 42
0.000000001
 43
0.00000001
 40
0.0
 40
0.0
 40
0.0
 40
0.0
 40
0.25
 40
0.25
 40
0.5
 40
0.5
 40
0.75
 40
0.75
 40
1.0
 40
1.0
 40
1.0
 40
1.0
 10
655.1998097154992
 20
502.0277527676145
 30
0.0
 10
655.1998097154992
 20
502.3157320941935
 30
0.0
 10
655.1425496041694
 20
502.6035981132049
 30
0.0
 10
654.9221397698785
 20
503.1357145244305
 30
0.0
 10
654.7590767687751
 20
503.3797555515594
 30
0.0
 10
654.351812499444
 20
503.7870198208906
 30
0.0
 10
654.1077714723151
 20
503.9500828219938
 30
0.0
 10
653.5756550610896
 20
504.1704926562848
 30
0.0
 10
653.2877890420782
 20
504.2277527676146
 30
0.0
 10
652.9998097154992
 20
504.2277527676144
 30
0.0
  0
SPLINE
  5
B2
330
1F
100
AcDbEntity
  8
0
  6
Continuous
 62
     7
370
    25
100
AcDbSpline
210
0.0
220
0.0
230
1.0
 70
     8
 71
     3
 72
    11
 73
     7
 74
     0
 42
0.000000001
 43
0.00000001
 40
0.0
 40
0.0
 40
0.0
 40
0.0
 40
0.1322666356161325
 40
0.4215110904107551
 40
0.7107555452053708
 40
1.0
 40
1.0
 40
1.0
 40
1.0
 10
653.9584978604812
 20
502.2354414878393
 30
0.0
 10
653.9499440553232
 20
502.2947978440953
 30
0.0
 10
653.922684544846
 20
502.483956374754
 30
0.0
 10
653.7200742770625
 20
502.7502689566806
 30
0.0
 10
653.393768723656
 20
502.9829430191149
 30
0.0
 10
653.1311293848847
 20
503.0128161847813
 30
0.0
 10
652.9998097154992
 20
503.0277527676145
 30
0.0
  0
LINE
  5
B3
330
1F
100
AcDbEntity
  8
0
  6
Continuous
 62
     7
370
    25
100
AcDbLine
 10
652.9998097155
 20
503.0277527676
 30
0.0
 11
652.9998097155
 21
504.2277527676
 31
0.0
  0
LINE
  5
B4
330
1F
100
AcDbEntity
  8
0
  6
Continuous
 62
     7
370
    25
100
AcDbLine
 10
640.1998097155
 20
503.0277527676
 30
0.0
 11
652.9998097155
 21
503.0277527676
 31
0.0
  0
LINE
  5
B5
330
1F
100
AcDbEntity
  8
0
  6
Continuous
 62
     7
370
    25
100
AcDbLine
 10
640.1998097155
 20
504.2277527676
 30
0.0
 11
640.1998097155
 21
503.0277527676
 31
0.0
  0
LINE
  5
B6
330
1F
100
AcDbEntity
  8
0
  6
Continuous
 62
     7
370
    25
100
AcDbLine
 10
640.1998097155
 20
504.2277527676
 30
0.0
 11
652.9998097155
 21
504.2277527676
 31
0.0
  0
LINE
  5
B7
330
1F
100
AcDbEntity
  8
0
  6
Continuous
 62
     7
370
    25
100
AcDbLine
 10
566.7652135722
 20
556.8214151289
 30
0.0
 11
264.5794271346
 21
556.8214151289
 31
0.0
  0
LINE
  5
B8
330
1F
100
AcDbEntity
  8
0
  6
Continuous
 62
     7
370
    25
100
AcDbLine
 10
264.5794271346
 20
569.6214151289
 30
0.0
 11
264.5794271346
 21
556.8214151289
 31
0.0
  0
LINE
  5
B9
330
1F
100
AcDbEntity
  8
0
  6
Continuous
 62
     7
370
    25
100
AcDbLine
 10
566.7652135722
 20
556.8214151289
 30
0.0
 11
566.7652135722
 21
569.6214151289
 31
0.0
  0
SPLINE
  5
BA
330
1F
100
AcDbEntity
  8
0
  6
Continuous
 62
     7
370
    25
100
AcDbSpline
210
0.0
220
0.0
230
1.0
 70
     8
 71
     3
 72
    14
 73
    10
 74
     0
 42
0.000000001
 43
0.00000001
 40
0.0
 40
0.0
 40
0.0
 40
0.0
 40
0.25
 40
0.25
 40
0.5
 40
0.5
 40
0.75
 40
0.75
 40
1.0
 40
1.0
 40
1.0
 40
1.0
 10
264.5794271345703
 20
569.6214151288654
 30
0.0
 10
264.6038349028047
 20
569.9093944554443
 30
0.0
 10
264.6282426710391
 20
570.1972604744558
 30
0.0
 10
264.6770582075081
 20
570.7293768856813
 30
0.0
 10
264.7014659757425
 20
570.9734179128101
 30
0.0
 10
264.7502815122114
 20
571.3806821821412
 30
0.0
 10
264.7746892804459
 20
571.5437451832447
 30
0.0
 10
264.8235048169147
 20
571.7641550175355
 30
0.0
 10
264.8479125851492
 20
571.8214151288653
 30
0.0
 10
264.8723203533837
 20
571.8214151288653
 30
0.0
  0
LINE
  5
BB
330
1F
100
AcDbEntity
  8
0
  6
Continuous
 62
     7
370
    25
100
AcDbLine
 10
264.8723203534
 20
571.8214151289
 30
0.0
 11
566.4723203534
 21
571.8214151289
 31
0.0
  0
SPLINE
  5
BC
330
1F
100
AcDbEntity
  8
0
  6
Continuous
 62
     7
370
    25
100
AcDbSpline
210
0.0
220
0.0
230
1.0
 70
     8
 71
     3
 72
    14
 73
    10
 74
     0
 42
0.000000001
 43
0.00000001
 40
0.0
 40
0.0
 40
0.0
 40
0.0
 40
0.25
 40
0.25
 40
0.5
 40
0.5
 40
0.75
 40
0.75
 40
1.0
 40
1.0
 40
1.0
 40
1.0
 10
566.4723203533837
 20
571.8214151288653
 30
0.0
 10
566.4967281216182
 20
571.8214151288653
 30
0.0
 10
566.5211358898526
 20
571.7641550175355
 30
0.0
 10
566.5699514263214
 20
571.5437451832447
 30
0.0
 10
566.5943591945559
 20
571.3806821821412
 30
0.0
 10
566.6431747310247
 20
570.9734179128101
 30
0.0
 10
566.6675824992593
 20
570.7293768856813
 30
0.0
 10
566.7163980357282
 20
570.1972604744558
 30
0.0
 10
566.7408058039626
 20
569.9093944554443
 30
0.0
 10
566.7652135721971
 20
569.6214151288654
 30
0.0
  0
LINE
  5
BD
330
1F
100
AcDbEntity
  8
0
  6
Continuous
 62
     7
370
    25
100
AcDbLine
 10
263.8723203534
 20
569.6214151289
 30
0.0
 11
262.6723203534
 21
569.6214151289
 31
0.0
  0
LINE
  5
BE
330
1F
100
AcDbEntity
  8
0
  6
Continuous
 62
     7
370
    25
100
AcDbLine
 10
262.6723203534
 20
556.8214151289
 30
0.0
 11
263.8723203534
 21
556.8214151289
 31
0.0
  0
LINE
  5
BF
330
1F
100
AcDbEntity
  8
0
  6
Continuous
 62
     7
370
    25
100
AcDbLine
 10
262.6723203534
 20
556.8214151289
 30
0.0
 11
262.6723203534
 21
569.6214151289
 31
0.0
  0
LINE
  5
C0
330
1F
100
AcDbEntity
  8
0
  6
Continuous
 62
     7
370
    25
100
AcDbLine
 10
263.8723203534
 20
556.8214151289
 30
0.0
 11
263.8723203534
 21
569.6214151289
 31
0.0
  0
LINE
  5
C1
330
1F
100
AcDbEntity
  8
0
  6
Continuous
 62
     7
370
    25
100
AcDbLine
 10
567.4723203534
 20
569.6214151289
 30
0.0
 11
568.6723203534
 21
569.6214151289
 31
0.0
  0
LINE
  5
C2
330
1F
100
AcDbEntity
  8
0
  6
Continuous
 62
     7
370
    25
100
AcDbLine
 10
567.4723203534
 20
556.8214151289
 30
0.0
 11
568.6723203534
 21
556.8214151289
 31
0.0
  0
LINE
  5
C3
330
1F
100
AcDbEntity
  8
0
  6
Continuous
 62
     7
370
    25
100
AcDbLine
 10
567.4723203534
 20
569.6214151289
 30
0.0
 11
567.4723203534
 21
556.8214151289
 31
0.0
  0
LINE
  5
C4
330
1F
100
AcDbEntity
  8
0
  6
Continuous
 62
     7
370
    25
100
AcDbLine
 10
568.6723203534
 20
569.6214151289
 30
0.0
 11
568.6723203534
 21
556.8214151289
 31
0.0
  0
SPLINE
  5
C5
330
1F
100
AcDbEntity
  8
0
  6
Continuous
 62
     7
370
    25
100
AcDbSpline
210
0.0
220
0.0
230
1.0
 70
     8
 71
     3
 72
    11
 73
     7
 74
     0
 42
0.000000001
 43
0.00000001
 40
0.0
 40
0.0
 40
0.0
 40
0.0
 40
0.1322666356162605
 40
0.4215110904108387
 40
0.7107555452054211
 40
1.0
 40
1.0
 40
1.0
 40
1.0
 10
264.6646316331591
 20
570.5801032738474
 30
0.0
 10
264.6052752769029
 20
570.5715494686892
 30
0.0
 10
264.4161167462442
 20
570.5442899582123
 30
0.0
 10
264.1498041643177
 20
570.3416796904286
 30
0.0
 10
263.9171301018832
 20
570.015374137022
 30
0.0
 10
263.8872569362168
 20
569.7527347982508
 30
0.0
 10
263.8723203533837
 20
569.6214151288654
 30
0.0
  0
SPLINE
  5
C6
330
1F
100
AcDbEntity
  8
0
  6
Continuous
 62
     7
370
    25
100
AcDbSpline
210
0.0
220
0.0
230
1.0
 70
     8
 71
     3
 72
    14
 73
    10
 74
     0
 42
0.000000001
 43
0.00000001
 40
0.0
 40
0.0
 40
0.0
 40
0.0
 40
0.25
 40
0.25
 40
0.5
 40
0.5
 40
0.75
 40
0.75
 40
1.0
 40
1.0
 40
1.0
 40
1.0
 10
264.8723203533837
 20
571.8214151288653
 30
0.0
 10
264.5843410268046
 20
571.8214151288653
 30
0.0
 10
264.2964750077932
 20
571.7641550175355
 30
0.0
 10
263.7643585965677
 20
571.5437451832447
 30
0.0
 10
263.5203175694389
 20
571.3806821821412
 30
0.0
 10
263.1130533001077
 20
570.9734179128101
 30
0.0
 10
262.9499902990044
 20
570.7293768856813
 30
0.0
 10
262.7295804647134
 20
570.1972604744558
 30
0.0
 10
262.6723203533836
 20
569.9093944554443
 30
0.0
 10
262.6723203533837
 20
569.6214151288654
 30
0.0
  0
SPLINE
  5
C7
330
1F
100
AcDbEntity
  8
0
  6
Continuous
 62
     7
370
    25
100
AcDbSpline
210
0.0
220
0.0
230
1.0
 70
     8
 71
     3
 72
    11
 73
     7
 74
     0
 42
0.000000001
 43
0.00000001
 40
0.0
 40
0.0
 40
0.0
 40
0.0
 40
0.2892444547945879
 40
0.5784889095891869
 40
0.8677333643837779
 40
1.0
 40
1.0
 40
1.0
 40
1.0
 10
567.4723203533837
 20
569.6214151288654
 30
0.0
 10
567.4573837705505
 20
569.7527347982508
 30
0.0
 10
567.4275106048841
 20
570.015374137022
 30
0.0
 10
567.1948365424497
 20
570.3416796904286
 30
0.0
 10
566.9285239605231
 20
570.5442899582123
 30
0.0
 10
566.7393654298645
 20
570.5715494686892
 30
0.0
 10
566.6800090736083
 20
570.5801032738474
 30
0.0
  0
SPLINE
  5
C8
330
1F
100
AcDbEntity
  8
0
  6
Continuous
 62
     7
370
    25
100
AcDbSpline
210
0.0
220
0.0
230
1.0
 70
     8
 71
     3
 72
    14
 73
    10
 74
     0
 42
0.000000001
 43
0.00000001
 40
0.0
 40
0.0
 40
0.0
 40
0.0
 40
0.25
 40
0.25
 40
0.5
 40
0.5
 40
0.75
 40
0.75
 40
1.0
 40
1.0
 40
1.0
 40
1.0
 10
568.6723203533836
 20
569.6214151288654
 30
0.0
 10
568.6723203533836
 20
569.9093944554443
 30
0.0
 10
568.615060242054
 20
570.1972604744558
 30
0.0
 10
568.3946504077629
 20
570.7293768856813
 30
0.0
 10
568.2315874066597
 20
570.9734179128101
 30
0.0
 10
567.8243231373284
 20
571.3806821821412
 30
0.0
 10
567.5802821101996
 20
571.5437451832447
 30
0.0
 10
567.0481656989741
 20
571.7641550175355
 30
0.0
 10
566.7602996799628
 20
571.8214151288653
 30
0.0
 10
566.4723203533837
 20
571.8214151288653
 30
0.0
  0
LINE
  5
C9
330
1F
100
AcDbEntity
  8
0
  6
Continuous
 62
     7
370
    25
100
AcDbLine
 10
567.4723203534
 20
556.8214151289
 30
0.0
 11
567.4723203534
 21
543.8214151289
 31
0.0
  0
LINE
  5
CA
330
1F
100
AcDbEntity
  8
0
  6
Continuous
 62
     7
370
    25
100
AcDbLine
 10
568.6723203534
 20
556.8214151289
 30
0.0
 11
568.6723203534
 21
543.8214151289
 31
0.0
  0
LINE
  5
CB
330
1F
100
AcDbEntity
  8
0
  6
Continuous
 62
     7
370
    25
100
AcDbLine
 10
568.6723203534
 20
539.8214151289
 30
0.0
 11
567.4723203534
 21
539.8214151289
 31
0.0
  0
LINE
  5
CC
330
1F
100
AcDbEntity
  8
0
  6
Continuous
 62
     7
370
    25
100
AcDbLine
 10
567.4723203534
 20
539.8214151289
 30
0.0
 11
567.4723203534
 21
543.8214151289
 31
0.0
  0
LINE
  5
CD
330
1F
100
AcDbEntity
  8
0
  6
Continuous
 62
     7
370
    25
100
AcDbLine
 10
568.6723203534
 20
543.8214151289
 30
0.0
 11
568.6723203534
 21
539.8214151289
 31
0.0
  0
LINE
  5
CE
330
1F
100
AcDbEntity
  8
0
  6
Continuous
 62
     7
370
    25
100
AcDbLine
 10
262.6723203534
 20
556.8214151289
 30
0.0
 11
262.6723203534
 21
543.8214151289
 31
0.0
  0
LINE
  5
CF
330
1F
100
AcDbEntity
  8
0
  6
Continuous
 62
     7
370
    25
100
AcDbLine
 10
263.8723203534
 20
543.8214151289
 30
0.0
 11
263.8723203534
 21
556.8214151289
 31
0.0
  0
LINE
  5
D0
330
1F
100
AcDbEntity
  8
0
  6
Continuous
 62
     7
370
    25
100
AcDbLine
 10
263.8723203534
 20
539.8214151289
 30
0.0
 11
262.6723203534
 21
539.8214151289
 31
0.0
  0
LINE
  5
D1
330
1F
100
AcDbEntity
  8
0
  6
Continuous
 62
     7
370
    25
100
AcDbLine
 10
262.6723203534
 20
539.8214151289
 30
0.0
 11
262.6723203534
 21
543.8214151289
 31
0.0
  0
LINE
  5
D2
330
1F
100
AcDbEntity
  8
0
  6
Continuous
 62
     7
370
    25
100
AcDbLine
 10
263.8723203534
 20
543.8214151289
 30
0.0
 11
263.8723203534
 21
539.8214151289
 31
0.0
  0
LINE
  5
D3
330
1F
100
AcDbEntity
  8
0
  6
Continuous
 62
     7
370
    25
100
AcDbLine
 10
264.5794271346
 20
29.9459293277
 30
0.0
 11
264.5794271346
 21
17.1459293277
 31
0.0
  0
LINE
  5
D4
330
1F
100
AcDbEntity
  8
0
  6
Continuous
 62
     7
370
    25
100
AcDbLine
 10
566.7652135722
 20
17.1459293277
 30
0.0
 11
566.7652135722
 21
29.9459293277
 31
0.0
  0
LINE
  5
D5
330
1F
100
AcDbEntity
  8
0
  6
Continuous
 62
     7
370
    25
100
AcDbLine
 10
566.7652135722
 20
29.9459293277
 30
0.0
 11
264.5794271346
 21
29.9459293277
 31
0.0
  0
SPLINE
  5
D6
330
1F
100
AcDbEntity
  8
0
  6
Continuous
 62
     7
370
    25
100
AcDbSpline
210
0.0
220
0.0
230
1.0
 70
     8
 71
     3
 72
    14
 73
    10
 74
     0
 42
0.000000001
 43
0.00000001
 40
0.0
 40
0.0
 40
0.0
 40
0.0
 40
0.25
 40
0.25
 40
0.5
 40
0.5
 40
0.75
 40
0.75
 40
1.0
 40
1.0
 40
1.0
 40
1.0
 10
264.8723203533837
 20
14.94592932770493
 30
0.0
 10
264.8479125851493
 20
14.94592932770493
 30
0.0
 10
264.8235048169147
 20
15.00318943903463
 30
0.0
 10
264.7746892804459
 20
15.22359927332556
 30
0.0
 10
264.7502815122114
 20
15.38666227442893
 30
0.0
 10
264.7014659757425
 20
15.79392654376011
 30
0.0
 10
264.6770582075081
 20
16.03796757088895
 30
0.0
 10
264.6282426710392
 20
16.5700839821145
 30
0.0
 10
264.6038349028047
 20
16.85795000112585
 30
0.0
 10
264.5794271345703
 20
17.14592932770492
 30
0.0
  0
SPLINE
  5
D7
330
1F
100
AcDbEntity
  8
0
  6
Continuous
 62
     7
370
    25
100
AcDbSpline
210
0.0
220
0.0
230
1.0
 70
     8
 71
     3
 72
    14
 73
    10
 74
     0
 42
0.000000001
 43
0.00000001
 40
0.0
 40
0.0
 40
0.0
 40
0.0
 40
0.25
 40
0.25
 40
0.5
 40
0.5
 40
0.75
 40
0.75
 40
1.0
 40
1.0
 40
1.0
 40
1.0
 10
566.7652135721971
 20
17.14592932770492
 30
0.0
 10
566.7408058039626
 20
16.85795000112585
 30
0.0
 10
566.7163980357283
 20
16.5700839821145
 30
0.0
 10
566.6675824992593
 20
16.03796757088894
 30
0.0
 10
566.6431747310248
 20
15.79392654376011
 30
0.0
 10
566.5943591945559
 20
15.38666227442893
 30
0.0
 10
566.5699514263215
 20
15.22359927332556
 30
0.0
 10
566.5211358898525
 20
15.00318943903463
 30
0.0
 10
566.4967281216182
 20
14.94592932770493
 30
0.0
 10
566.4723203533837
 20
14.94592932770493
 30
0.0
  0
LINE
  5
D8
330
1F
100
AcDbEntity
  8
0
  6
Continuous
 62
     7
370
    25
100
AcDbLine
 10
566.4723203534
 20
14.9459293277
 30
0.0
 11
264.8723203534
 21
14.9459293277
 31
0.0
  0
LINE
  5
D9
330
1F
100
AcDbEntity
  8
0
  6
Continuous
 62
     7
370
    25
100
AcDbLine
 10
567.4723203534
 20
17.1459293277
 30
0.0
 11
568.6723203534
 21
17.1459293277
 31
0.0
  0
LINE
  5
DA
330
1F
100
AcDbEntity
  8
0
  6
Continuous
 62
     7
370
    25
100
AcDbLine
 10
568.6723203534
 20
29.9459293277
 30
0.0
 11
567.4723203534
 21
29.9459293277
 31
0.0
  0
LINE
  5
DB
330
1F
100
AcDbEntity
  8
0
  6
Continuous
 62
     7
370
    25
100
AcDbLine
 10
567.4723203534
 20
29.9459293277
 30
0.0
 11
567.4723203534
 21
17.1459293277
 31
0.0
  0
LINE
  5
DC
330
1F
100
AcDbEntity
  8
0
  6
Continuous
 62
     7
370
    25
100
AcDbLine
 10
568.6723203534
 20
29.9459293277
 30
0.0
 11
568.6723203534
 21
17.1459293277
 31
0.0
  0
LINE
  5
DD
330
1F
100
AcDbEntity
  8
0
  6
Continuous
 62
     7
370
    25
100
AcDbLine
 10
263.8723203534
 20
17.1459293277
 30
0.0
 11
262.6723203534
 21
17.1459293277
 31
0.0
  0
LINE
  5
DE
330
1F
100
AcDbEntity
  8
0
  6
Continuous
 62
     7
370
    25
100
AcDbLine
 10
263.8723203534
 20
29.9459293277
 30
0.0
 11
262.6723203534
 21
29.9459293277
 31
0.0
  0
LINE
  5
DF
330
1F
100
AcDbEntity
  8
0
  6
Continuous
 62
     7
370
    25
100
AcDbLine
 10
262.6723203534
 20
17.1459293277
 30
0.0
 11
262.6723203534
 21
29.9459293277
 31
0.0
  0
LINE
  5
E0
330
1F
100
AcDbEntity
  8
0
  6
Continuous
 62
     7
370
    25
100
AcDbLine
 10
263.8723203534
 20
17.1459293277
 30
0.0
 11
263.8723203534
 21
29.9459293277
 31
0.0
  0
SPLINE
  5
E1
330
1F
100
AcDbEntity
  8
0
  6
Continuous
 62
     7
370
    25
100
AcDbSpline
210
0.0
220
0.0
230
1.0
 70
     8
 71
     3
 72
    11
 73
     7
 74
     0
 42
0.000000001
 43
0.00000001
 40
0.0
 40
0.0
 40
0.0
 40
0.0
 40
0.1322666356162605
 40
0.4215110904108387
 40
0.7107555452054211
 40
1.0
 40
1.0
 40
1.0
 40
1.0
 10
566.6800090736083
 20
16.18724118272285
 30
0.0
 10
566.7393654298644
 20
16.19579498788092
 30
0.0
 10
566.9285239605231
 20
16.22305449835796
 30
0.0
 10
567.1948365424497
 20
16.42566476614157
 30
0.0
 10
567.4275106048841
 20
16.75197031954812
 30
0.0
 10
567.4573837705505
 20
17.01460965831932
 30
0.0
 10
567.4723203533837
 20
17.14592932770492
 30
0.0
  0
SPLINE
  5
E2
330
1F
100
AcDbEntity
  8
0
  6
Continuous
 62
     7
370
    25
100
AcDbSpline
210
0.0
220
0.0
230
1.0
 70
     8
 71
     3
 72
    14
 73
    10
 74
     0
 42
0.000000001
 43
0.00000001
 40
0.0
 40
0.0
 40
0.0
 40
0.0
 40
0.25
 40
0.25
 40
0.5
 40
0.5
 40
0.75
 40
0.75
 40
1.0
 40
1.0
 40
1.0
 40
1.0
 10
566.4723203533837
 20
14.94592932770492
 30
0.0
 10
566.7602996799628
 20
14.94592932770492
 30
0.0
 10
567.0481656989741
 20
15.00318943903463
 30
0.0
 10
567.5802821101996
 20
15.22359927332555
 30
0.0
 10
567.8243231373284
 20
15.38666227442893
 30
0.0
 10
568.2315874066597
 20
15.79392654376011
 30
0.0
 10
568.394650407763
 20
16.03796757088895
 30
0.0
 10
568.615060242054
 20
16.57008398211451
 30
0.0
 10
568.6723203533836
 20
16.85795000112586
 30
0.0
 10
568.6723203533836
 20
17.14592932770492
 30
0.0
  0
SPLINE
  5
E3
330
1F
100
AcDbEntity
  8
0
  6
Continuous
 62
     7
370
    25
100
AcDbSpline
210
0.0
220
0.0
230
1.0
 70
     8
 71
     3
 72
    14
 73
    10
 74
     0
 42
0.000000001
 43
0.00000001
 40
0.0
 40
0.0
 40
0.0
 40
0.0
 40
0.25
 40
0.25
 40
0.5
 40
0.5
 40
0.75
 40
0.75
 40
1.0
 40
1.0
 40
1.0
 40
1.0
 10
262.6723203533837
 20
17.14592932770492
 30
0.0
 10
262.6723203533836
 20
16.85795000112586
 30
0.0
 10
262.7295804647134
 20
16.57008398211451
 30
0.0
 10
262.9499902990044
 20
16.03796757088895
 30
0.0
 10
263.1130533001077
 20
15.79392654376011
 30
0.0
 10
263.5203175694389
 20
15.38666227442893
 30
0.0
 10
263.7643585965677
 20
15.22359927332555
 30
0.0
 10
264.2964750077932
 20
15.00318943903463
 30
0.0
 10
264.5843410268046
 20
14.94592932770492
 30
0.0
 10
264.8723203533837
 20
14.94592932770492
 30
0.0
  0
SPLINE
  5
E4
330
1F
100
AcDbEntity
  8
0
  6
Continuous
 62
     7
370
    25
100
AcDbSpline
210
0.0
220
0.0
230
1.0
 70
     8
 71
     3
 72
    11
 73
     7
 74
     0
 42
0.000000001
 43
0.00000001
 40
0.0
 40
0.0
 40
0.0
 40
0.0
 40
0.2892444547945818
 40
0.5784889095891746
 40
0.8677333643837596
 40
1.0
 40
1.0
 40
1.0
 40
1.0
 10
263.8723203533837
 20
17.14592932770492
 30
0.0
 10
263.8872569362169
 20
17.01460965831932
 30
0.0
 10
263.9171301018833
 20
16.75197031954812
 30
0.0
 10
264.1498041643176
 20
16.42566476614157
 30
0.0
 10
264.4161167462442
 20
16.22305449835797
 30
0.0
 10
264.6052752769029
 20
16.19579498788093
 30
0.0
 10
264.664631633159
 20
16.18724118272285
 30
0.0
  0
LINE
  5
E5
330
1F
100
AcDbEntity
  8
0
  6
Continuous
 62
     7
370
    25
100
AcDbLine
 10
262.6723203534
 20
42.9459293277
 30
0.0
 11
262.6723203534
 21
29.9459293277
 31
0.0
  0
LINE
  5
E6
330
1F
100
AcDbEntity
  8
0
  6
Continuous
 62
     7
370
    25
100
AcDbLine
 10
263.8723203534
 20
29.9459293277
 30
0.0
 11
263.8723203534
 21
42.9459293277
 31
0.0
  0
LINE
  5
E7
330
1F
100
AcDbEntity
  8
0
  6
Continuous
 62
     7
370
    25
100
AcDbLine
 10
262.6723203534
 20
46.9459293277
 30
0.0
 11
263.8723203534
 21
46.9459293277
 31
0.0
  0
LINE
  5
E8
330
1F
100
AcDbEntity
  8
0
  6
Continuous
 62
     7
370
    25
100
AcDbLine
 10
262.6723203534
 20
42.9459293277
 30
0.0
 11
262.6723203534
 21
46.9459293277
 31
0.0
  0
LINE
  5
E9
330
1F
100
AcDbEntity
  8
0
  6
Continuous
 62
     7
370
    25
100
AcDbLine
 10
263.8723203534
 20
46.9459293277
 30
0.0
 11
263.8723203534
 21
42.9459293277
 31
0.0
  0
LINE
  5
EA
330
1F
100
AcDbEntity
  8
0
  6
Continuous
 62
     7
370
    25
100
AcDbLine
 10
567.4723203534
 20
46.9459293277
 30
0.0
 11
568.6723203534
 21
46.9459293277
 31
0.0
  0
LINE
  5
EB
330
1F
100
AcDbEntity
  8
0
  6
Continuous
 62
     7
370
    25
100
AcDbLine
 10
567.4723203534
 20
42.9459293277
 30
0.0
 11
567.4723203534
 21
46.9459293277
 31
0.0
  0
LINE
  5
EC
330
1F
100
AcDbEntity
  8
0
  6
Continuous
 62
     7
370
    25
100
AcDbLine
 10
568.6723203534
 20
46.9459293277
 30
0.0
 11
568.6723203534
 21
42.9459293277
 31
0.0
  0
LINE
  5
ED
330
1F
100
AcDbEntity
  8
0
  6
Continuous
 62
     7
370
    25
100
AcDbLine
 10
567.4723203534
 20
42.9459293277
 30
0.0
 11
567.4723203534
 21
29.9459293277
 31
0.0
  0
LINE
  5
EE
330
1F
100
AcDbEntity
  8
0
  6
Continuous
 62
     7
370
    25
100
AcDbLine
 10
568.6723203534
 20
42.9459293277
 30
0.0
 11
568.6723203534
 21
29.9459293277
 31
0.0
  0
LINE
  5
EF
330
1F
100
AcDbEntity
  8
0
  6
Continuous
 62
     7
370
    25
100
AcDbLine
 10
179.3736457228
 20
77.1348595488
 30
0.0
 11
179.3736457228
 21
95.2277527676
 31
0.0
  0
LINE
  5
F0
330
1F
100
AcDbEntity
  8
0
  6
Continuous
 62
     7
370
    25
100
AcDbLine
 10
166.5736457228
 20
77.1348595488
 30
0.0
 11
179.3736457228
 21
77.1348595488
 31
0.0
  0
LINE
  5
F1
330
1F
100
AcDbEntity
  8
0
  6
Continuous
 62
     7
370
    25
100
AcDbLine
 10
179.3736457228
 20
502.3206459864
 30
0.0
 11
166.5736457228
 21
502.3206459864
 31
0.0
  0
LINE
  5
F2
330
1F
100
AcDbEntity
  8
0
  6
Continuous
 62
     7
370
    25
100
AcDbLine
 10
179.3736457228
 20
484.2277527676
 30
0.0
 11
179.3736457228
 21
502.3206459864
 31
0.0
  0
ARC
  5
F3
330
1F
100
AcDbEntity
  8
0
  6
Continuous
 62
     7
370
    25
100
AcDbCircle
 10
181.3736457228
 20
102.2277527676
 30
0.0
 40
3.5
100
AcDbArc
 50
90.0
 51
270.0
  0
LINE
  5
F4
330
1F
100
AcDbEntity
  8
0
  6
Continuous
 62
     7
370
    25
100
AcDbLine
 10
189.3736457228
 20
98.7277527676
 30
0.0
 11
181.3736457228
 21
98.7277527676
 31
0.0
  0
ARC
  5
F5
330
1F
100
AcDbEntity
  8
0
  6
Continuous
 62
     7
370
    25
100
AcDbCircle
 10
189.3736457228
 20
102.2277527676
 30
0.0
 40
3.5
100
AcDbArc
 50
270.0
 51
90.0
  0
LINE
  5
F6
330
1F
100
AcDbEntity
  8
0
  6
Continuous
 62
     7
370
    25
100
AcDbLine
 10
181.3736457228
 20
105.7277527676
 30
0.0
 11
189.3736457228
 21
105.7277527676
 31
0.0
  0
ARC
  5
F7
330
1F
100
AcDbEntity
  8
0
  6
Continuous
 62
     7
370
    25
100
AcDbCircle
 10
181.3736457228
 20
477.2277527676
 30
0.0
 40
3.500000000000057
100
AcDbArc
 50
90.0
 51
270.0
  0
LINE
  5
F8
330
1F
100
AcDbEntity
  8
0
  6
Continuous
 62
     7
370
    25
100
AcDbLine
 10
189.3736457228
 20
473.7277527676
 30
0.0
 11
181.3736457228
 21
473.7277527676
 31
0.0
  0
ARC
  5
F9
330
1F
100
AcDbEntity
  8
0
  6
Continuous
 62
     7
370
    25
100
AcDbCircle
 10
189.3736457228
 20
477.2277527676
 30
0.0
 40
3.500000000000057
100
AcDbArc
 50
270.0
 51
90.0
  0
LINE
  5
FA
330
1F
100
AcDbEntity
  8
0
  6
Continuous
 62
     7
370
    25
100
AcDbLine
 10
181.3736457228
 20
480.7277527676
 30
0.0
 11
189.3736457228
 21
480.7277527676
 31
0.0
  0
LINE
  5
FB
330
1F
100
AcDbEntity
  8
0
  6
Continuous
 62
     7
370
    25
100
AcDbLine
 10
181.3736457228
 20
230.7277527676
 30
0.0
 11
189.3736457228
 21
230.7277527676
 31
0.0
  0
ARC
  5
FC
330
1F
100
AcDbEntity
  8
0
  6
Continuous
 62
     7
370
    25
100
AcDbCircle
 10
181.3736457228
 20
227.2277527676
 30
0.0
 40
3.5
100
AcDbArc
 50
90.0
 51
270.0
  0
LINE
  5
FD
330
1F
100
AcDbEntity
  8
0
  6
Continuous
 62
     7
370
    25
100
AcDbLine
 10
189.3736457228
 20
223.7277527676
 30
0.0
 11
181.3736457228
 21
223.7277527676
 31
0.0
  0
LINE
  5
FE
330
1F
100
AcDbEntity
  8
0
  6
Continuous
 62
     7
370
    25
100
AcDbLine
 10
181.3736457228
 20
355.7277527676
 30
0.0
 11
189.3736457228
 21
355.7277527676
 31
0.0
  0
ARC
  5
FF
330
1F
100
AcDbEntity
  8
0
  6
Continuous
 62
     7
370
    25
100
AcDbCircle
 10
181.3736457228
 20
352.2277527676
 30
0.0
 40
3.500000000000057
100
AcDbArc
 50
90.0
 51
270.0
  0
LINE
  5
100
330
1F
100
AcDbEntity
  8
0
  6
Continuous
 62
     7
370
    25
100
AcDbLine
 10
189.3736457228
 20
348.7277527676
 30
0.0
 11
181.3736457228
 21
348.7277527676
 31
0.0
  0
ARC
  5
101
330
1F
100
AcDbEntity
  8
0
  6
Continuous
 62
     7
370
    25
100
AcDbCircle
 10
189.3736457228
 20
227.2277527676
 30
0.0
 40
3.5
100
AcDbArc
 50
270.0
 51
90.0
  0
LINE
  5
102
330
1F
100
AcDbEntity
  8
0
  6
Continuous
 62
     7
370
    25
100
AcDbLine
 10
192.3736457228
 20
484.2277527676
 30
0.0
 11
179.3736457228
 21
484.2277527676
 31
0.0
  0
LINE
  5
103
330
1F
100
AcDbEntity
  8
0
  6
Continuous
 62
     7
370
    25
100
AcDbLine
 10
179.3736457228
 20
95.2277527676
 30
0.0
 11
192.3736457228
 21
95.2277527676
 31
0.0
  0
LINE
  5
104
330
1F
100
AcDbEntity
  8
0
  6
Continuous
 62
     7
370
    25
100
AcDbLine
 10
196.3736457228
 20
99.2277527676
 30
0.0
 11
196.3736457228
 21
480.2277527676
 31
0.0
  0
ARC
  5
105
330
1F
100
AcDbEntity
  8
0
  6
Continuous
 62
     7
370
    25
100
AcDbCircle
 10
192.3736457228
 20
480.2277527676
 30
0.0
 40
4.0
100
AcDbArc
 50
0.0
 51
90.0
  0
ARC
  5
106
330
1F
100
AcDbEntity
  8
0
  6
Continuous
 62
     7
370
    25
100
AcDbCircle
 10
192.3736457228
 20
99.2277527676
 30
0.0
 40
4.0
100
AcDbArc
 50
270.0
 51
0.0
  0
ARC
  5
107
330
1F
100
AcDbEntity
  8
0
  6
Continuous
 62
     7
370
    25
100
AcDbCircle
 10
189.3736457228
 20
352.2277527676
 30
0.0
 40
3.500000000000057
100
AcDbArc
 50
270.0
 51
90.0
  0
SPLINE
  5
108
330
1F
100
AcDbEntity
  8
0
  6
Continuous
 62
     7
370
    25
100
AcDbSpline
210
0.0
220
0.0
230
1.0
 70
     8
 71
     3
 72
    14
 73
    10
 74
     0
 42
0.000000001
 43
0.00000001
 40
0.0
 40
0.0
 40
0.0
 40
0.0
 40
0.25
 40
0.25
 40
0.5
 40
0.5
 40
0.75
 40
0.75
 40
1.0
 40
1.0
 40
1.0
 40
1.0
 10
166.5736457228324
 20
77.13485954880112
 30
0.0
 10
166.2856663962533
 20
77.1592673170356
 30
0.0
 10
165.997800377242
 20
77.18367508527002
 30
0.0
 10
165.4656839660164
 20
77.2324906217389
 30
0.0
 10
165.2216429388876
 20
77.25689838997334
 30
0.0
 10
164.8143786695564
 20
77.30571392644228
 30
0.0
 10
164.651315668453
 20
77.3301216946767
 30
0.0
 10
164.4309058341621
 20
77.37893723114556
 30
0.0
 10
164.3736457228324
 20
77.40334499938007
 30
0.0
 10
164.3736457228324
 20
77.42775276761452
 30
0.0
  0
LINE
  5
109
330
1F
100
AcDbEntity
  8
0
  6
Continuous
 62
     7
370
    25
100
AcDbLine
 10
164.3736457228
 20
77.4277527676
 30
0.0
 11
164.3736457228
 21
502.0277527676
 31
0.0
  0
SPLINE
  5
10A
330
1F
100
AcDbEntity
  8
0
  6
Continuous
 62
     7
370
    25
100
AcDbSpline
210
0.0
220
0.0
230
1.0
 70
     8
 71
     3
 72
    14
 73
    10
 74
     0
 42
0.000000001
 43
0.00000001
 40
0.0
 40
0.0
 40
0.0
 40
0.0
 40
0.25
 40
0.25
 40
0.5
 40
0.5
 40
0.75
 40
0.75
 40
1.0
 40
1.0
 40
1.0
 40
1.0
 10
164.3736457228324
 20
502.0277527676145
 30
0.0
 10
164.3736457228324
 20
502.052160535849
 30
0.0
 10
164.4309058341621
 20
502.0765683040835
 30
0.0
 10
164.651315668453
 20
502.1253838405524
 30
0.0
 10
164.8143786695564
 20
502.1497916087868
 30
0.0
 10
165.2216429388876
 20
502.1986071452557
 30
0.0
 10
165.4656839660164
 20
502.2230149134901
 30
0.0
 10
165.997800377242
 20
502.2718304499591
 30
0.0
 10
166.2856663962533
 20
502.2962382181935
 30
0.0
 10
166.5736457228324
 20
502.320645986428
 30
0.0
  0
LINE
  5
10B
330
1F
100
AcDbEntity
  8
0
  6
Continuous
 62
     7
370
    25
100
AcDbLine
 10
166.5736457228
 20
503.0277527676
 30
0.0
 11
166.5736457228
 21
504.2277527676
 31
0.0
  0
LINE
  5
10C
330
1F
100
AcDbEntity
  8
0
  6
Continuous
 62
     7
370
    25
100
AcDbLine
 10
166.5736457228
 20
504.2277527676
 30
0.0
 11
179.3736457228
 21
504.2277527676
 31
0.0
  0
LINE
  5
10D
330
1F
100
AcDbEntity
  8
0
  6
Continuous
 62
     7
370
    25
100
AcDbLine
 10
166.5736457228
 20
503.0277527676
 30
0.0
 11
179.3736457228
 21
503.0277527676
 31
0.0
  0
LINE
  5
10E
330
1F
100
AcDbEntity
  8
0
  6
Continuous
 62
     7
370
    25
100
AcDbLine
 10
179.3736457228
 20
503.0277527676
 30
0.0
 11
179.3736457228
 21
504.2277527676
 31
0.0
  0
LINE
  5
10F
330
1F
100
AcDbEntity
  8
0
  6
Continuous
 62
     7
370
    25
100
AcDbLine
 10
166.5736457228
 20
76.4277527676
 30
0.0
 11
166.5736457228
 21
75.2277527676
 31
0.0
  0
LINE
  5
110
330
1F
100
AcDbEntity
  8
0
  6
Continuous
 62
     7
370
    25
100
AcDbLine
 10
179.3736457228
 20
76.4277527676
 30
0.0
 11
166.5736457228
 21
76.4277527676
 31
0.0
  0
LINE
  5
111
330
1F
100
AcDbEntity
  8
0
  6
Continuous
 62
     7
370
    25
100
AcDbLine
 10
179.3736457228
 20
75.2277527676
 30
0.0
 11
166.5736457228
 21
75.2277527676
 31
0.0
  0
LINE
  5
112
330
1F
100
AcDbEntity
  8
0
  6
Continuous
 62
     7
370
    25
100
AcDbLine
 10
179.3736457228
 20
75.2277527676
 30
0.0
 11
179.3736457228
 21
76.4277527676
 31
0.0
  0
SPLINE
  5
113
330
1F
100
AcDbEntity
  8
0
  6
Continuous
 62
     7
370
    25
100
AcDbSpline
210
0.0
220
0.0
230
1.0
 70
     8
 71
     3
 72
    11
 73
     7
 74
     0
 42
0.000000001
 43
0.00000001
 40
0.0
 40
0.0
 40
0.0
 40
0.0
 40
0.2892444547945958
 40
0.5784889095891815
 40
0.8677333643837744
 40
1.0
 40
1.0
 40
1.0
 40
1.0
 10
166.5736457228324
 20
503.0277527676145
 30
0.0
 10
166.4423260534468
 20
503.0128161847812
 30
0.0
 10
166.1796867146756
 20
502.9829430191149
 30
0.0
 10
165.853381161269
 20
502.7502689566805
 30
0.0
 10
165.6507708934855
 20
502.483956374754
 30
0.0
 10
165.6235113830084
 20
502.2947978440952
 30
0.0
 10
165.6149575778503
 20
502.2354414878392
 30
0.0
  0
SPLINE
  5
114
330
1F
100
AcDbEntity
  8
0
  6
Continuous
 62
     7
370
    25
100
AcDbSpline
210
0.0
220
0.0
230
1.0
 70
     8
 71
     3
 72
    14
 73
    10
 74
     0
 42
0.000000001
 43
0.00000001
 40
0.0
 40
0.0
 40
0.0
 40
0.0
 40
0.25
 40
0.25
 40
0.5
 40
0.5
 40
0.75
 40
0.75
 40
1.0
 40
1.0
 40
1.0
 40
1.0
 10
166.5736457228324
 20
504.2277527676144
 30
0.0
 10
166.2856663962533
 20
504.2277527676144
 30
0.0
 10
165.997800377242
 20
504.1704926562849
 30
0.0
 10
165.4656839660164
 20
503.9500828219938
 30
0.0
 10
165.2216429388876
 20
503.7870198208905
 30
0.0
 10
164.8143786695564
 20
503.3797555515594
 30
0.0
 10
164.651315668453
 20
503.1357145244305
 30
0.0
 10
164.4309058341621
 20
502.603598113205
 30
0.0
 10
164.3736457228324
 20
502.3157320941935
 30
0.0
 10
164.3736457228324
 20
502.0277527676145
 30
0.0
  0
SPLINE
  5
115
330
1F
100
AcDbEntity
  8
0
  6
Continuous
 62
     7
370
    25
100
AcDbSpline
210
0.0
220
0.0
230
1.0
 70
     8
 71
     3
 72
    14
 73
    10
 74
     0
 42
0.000000001
 43
0.00000001
 40
0.0
 40
0.0
 40
0.0
 40
0.0
 40
0.25
 40
0.25
 40
0.5
 40
0.5
 40
0.75
 40
0.75
 40
1.0
 40
1.0
 40
1.0
 40
1.0
 10
164.3736457228324
 20
77.42775276761452
 30
0.0
 10
164.3736457228324
 20
77.13977344103549
 30
0.0
 10
164.4309058341621
 20
76.85190742202408
 30
0.0
 10
164.651315668453
 20
76.31979101079858
 30
0.0
 10
164.8143786695564
 20
76.07574998366967
 30
0.0
 10
165.2216429388876
 20
75.66848571433852
 30
0.0
 10
165.4656839660164
 20
75.50542271323515
 30
0.0
 10
165.997800377242
 20
75.28501287894417
 30
0.0
 10
166.2856663962533
 20
75.2277527676145
 30
0.0
 10
166.5736457228324
 20
75.2277527676145
 30
0.0
  0
SPLINE
  5
116
330
1F
100
AcDbEntity
  8
0
  6
Continuous
 62
     7
370
    25
100
AcDbSpline
210
0.0
220
0.0
230
1.0
 70
     8
 71
     3
 72
    11
 73
     7
 74
     0
 42
0.000000001
 43
0.00000001
 40
0.0
 40
0.0
 40
0.0
 40
0.0
 40
0.132266635616209
 40
0.4215110904108061
 40
0.7107555452053962
 40
1.0
 40
1.0
 40
1.0
 40
1.0
 10
165.6149575778503
 20
77.22006404738984
 30
0.0
 10
165.6235113830084
 20
77.16070769113375
 30
0.0
 10
165.6507708934855
 20
76.97154916047502
 30
0.0
 10
165.853381161269
 20
76.70523657854844
 30
0.0
 10
166.1796867146756
 20
76.47256251611417
 30
0.0
 10
166.4423260534468
 20
76.44268935044774
 30
0.0
 10
166.5736457228324
 20
76.42775276761449
 30
0.0
  0
ENDSEC
  0
SECTION
  2
OBJECTS
  0
DICTIONARY
  5
C
330
0
100
AcDbDictionary
281
     1
  3
ACAD_GROUP
350
D
  3
ACAD_LAYOUT
350
1A
  3
ACAD_MLINESTYLE
350
17
  3
ACAD_PLOTSETTINGS
350
19
  3
ACAD_PLOTSTYLENAME
350
E
  3
ACAD_SCALELIST
350
47
  0
DICTIONARY
  5
D
102
{ACAD_REACTORS
330
C
102
}
330
C
100
AcDbDictionary
281
     1
  0
DICTIONARY
  5
1A
102
{ACAD_REACTORS
330
C
102
}
330
C
100
AcDbDictionary
281
     1
  3
Layout1
350
1E
  3
Layout2
350
26
  3
Model
350
22
  0
DICTIONARY
  5
17
102
{ACAD_REACTORS
330
C
102
}
330
C
100
AcDbDictionary
281
     1
  3
Standard
350
18
  0
DICTIONARY
  5
19
102
{ACAD_REACTORS
330
C
102
}
330
C
100
AcDbDictionary
281
     1
  0
ACDBDICTIONARYWDFLT
  5
E
102
{ACAD_REACTORS
330
C
102
}
330
C
100
AcDbDictionary
281
     1
  3
Normal
350
F
100
AcDbDictionaryWithDefault
340
F
  0
DICTIONARY
  5
47
102
{ACAD_REACTORS
330
C
102
}
330
C
100
AcDbDictionary
281
     1
  3
A0
350
48
  3
A1
350
49
  3
A2
350
4A
  3
A3
350
4B
  3
A4
350
4C
  3
A5
350
4D
  3
A6
350
4E
  3
A7
350
4F
  3
A8
350
50
  3
A9
350
51
  3
B0
350
52
  3
B1
350
53
  3
B2
350
54
  3
B3
350
55
  3
B4
350
56
  3
B5
350
57
  3
B6
350
58
  3
B7
350
59
  3
B8
350
5A
  3
B9
350
5B
  3
C0
350
5C
  3
C1
350
5D
  3
C2
350
5E
  3
C3
350
5F
  3
C4
350
60
  3
C5
350
61
  3
C6
350
62
  3
C7
350
63
  3
C8
350
64
  3
C9
350
65
  3
D0
350
66
  3
D1
350
67
  3
D2
350
68
  0
LAYOUT
  5
1E
102
{ACAD_REACTORS
330
1A
102
}
330
1A
100
AcDbPlotSettings
  1

  2
none_device
  4

  6

 40
0.0
 41
0.0
 42
0.0
 43
0.0
 44
0.0
 45
0.0
 46
0.0
 47
0.0
 48
0.0
 49
0.0
140
0.0
141
0.0
142
1.0
143
1.0
 70
   688
 72
     1
 73
     0
 74
     5
  7

 75
    16
147
1.0
148
0.0
149
0.0
100
AcDbLayout
  1
Layout1
 70
     1
 71
     1
 10
0.0
 20
0.0
 11
420.0
 21
297.0
 12
0.0
 22
0.0
 32
0.0
 14
1.0000000000E+20
 24
1.0000000000E+20
 34
1.0000000000E+20
 15
-1.0000000000E+20
 25
-1.0000000000E+20
 35
-1.0000000000E+20
146
0.0
 13
0.0
 23
0.0
 33
0.0
 16
1.0
 26
0.0
 36
0.0
 17
0.0
 27
1.0
 37
0.0
 76
     0
330
1B
  0
LAYOUT
  5
26
102
{ACAD_REACTORS
330
1A
102
}
330
1A
100
AcDbPlotSettings
  1

  2
none_device
  4

  6

 40
0.0
 41
0.0
 42
0.0
 43
0.0
 44
0.0
 45
0.0
 46
0.0
 47
0.0
 48
0.0
 49
0.0
140
0.0
141
0.0
142
1.0
143
1.0
 70
   688
 72
     1
 73
     0
 74
     5
  7

 75
    16
147
1.0
148
0.0
149
0.0
100
AcDbLayout
  1
Layout2
 70
     1
 71
     2
 10
0.0
 20
0.0
 11
0.0
 21
0.0
 12
0.0
 22
0.0
 32
0.0
 14
0.0
 24
0.0
 34
0.0
 15
0.0
 25
0.0
 35
0.0
146
0.0
 13
0.0
 23
0.0
 33
0.0
 16
1.0
 26
0.0
 36
0.0
 17
0.0
 27
1.0
 37
0.0
 76
     0
330
23
  0
LAYOUT
  5
22
102
{ACAD_REACTORS
330
1A
102
}
330
1A
100
AcDbPlotSettings
  1

  2
none_device
  4
Letter_(8.50_x_11.00_Inches)
  6

 40
6.35
 41
6.35
 42
6.35000508
 43
6.35000508
 44
215.9
 45
279.4
 46
0.0
 47
0.0
 48
0.0
 49
0.0
140
0.0
141
0.0
142
1.0
143
1.0
 70
  1712
 72
     1
 73
     0
 74
     0
  7

 75
     0
147
1.0
148
0.0
149
0.0
100
AcDbLayout
  1
Model
 70
     1
 71
     0
 10
0.0
 20
0.0
 11
841.0
 21
594.0
 12
0.0
 22
0.0
 32
0.0
 14
0.0
 24
0.0
 34
0.0
 15
841.0
 25
594.0
 35
0.0
146
0.0
 13
0.0
 23
0.0
 33
0.0
 16
1.0
 26
0.0
 36
0.0
 17
0.0
 27
1.0
 37
0.0
 76
     0
330
1F
331
29
  0
MLINESTYLE
  5
18
102
{ACAD_REACTORS
330
17
102
}
330
17
100
AcDbMlineStyle
  2
Standard
 70
     0
  3

 62
   256
 51
90.0
 52
90.0
 71
     2
 49
0.5
 62
   256
  6
BYLAYER
 49
-0.5
 62
   256
  6
BYLAYER
  0
ACDBPLACEHOLDER
  5
F
102
{ACAD_REACTORS
330
E
102
}
330
E
  0
SCALE
  5
48
102
{ACAD_REACTORS
330
47
102
}
330
47
100
AcDbScale
 70
     0
300
1:1
140
1.0
141
1.0
290
     1
  0
SCALE
  5
49
102
{ACAD_REACTORS
330
47
102
}
330
47
100
AcDbScale
 70
     0
300
1:2
140
1.0
141
2.0
290
     0
  0
SCALE
  5
4A
102
{ACAD_REACTORS
330
47
102
}
330
47
100
AcDbScale
 70
     0
300
1:4
140
1.0
141
4.0
290
     0
  0
SCALE
  5
4B
102
{ACAD_REACTORS
330
47
102
}
330
47
100
AcDbScale
 70
     0
300
1:5
140
1.0
141
5.0
290
     0
  0
SCALE
  5
4C
102
{ACAD_REACTORS
330
47
102
}
330
47
100
AcDbScale
 70
     0
300
1:8
140
1.0
141
8.0
290
     0
  0
SCALE
  5
4D
102
{ACAD_REACTORS
330
47
102
}
330
47
100
AcDbScale
 70
     0
300
1:10
140
1.0
141
10.0
290
     0
  0
SCALE
  5
4E
102
{ACAD_REACTORS
330
47
102
}
330
47
100
AcDbScale
 70
     0
300
1:16
140
1.0
141
16.0
290
     0
  0
SCALE
  5
4F
102
{ACAD_REACTORS
330
47
102
}
330
47
100
AcDbScale
 70
     0
300
1:20
140
1.0
141
20.0
290
     0
  0
SCALE
  5
50
102
{ACAD_REACTORS
330
47
102
}
330
47
100
AcDbScale
 70
     0
300
1:30
140
1.0
141
30.0
290
     0
  0
SCALE
  5
51
102
{ACAD_REACTORS
330
47
102
}
330
47
100
AcDbScale
 70
     0
300
1:40
140
1.0
141
40.0
290
     0
  0
SCALE
  5
52
102
{ACAD_REACTORS
330
47
102
}
330
47
100
AcDbScale
 70
     0
300
1:50
140
1.0
141
50.0
290
     0
  0
SCALE
  5
53
102
{ACAD_REACTORS
330
47
102
}
330
47
100
AcDbScale
 70
     0
300
1:100
140
1.0
141
100.0
290
     0
  0
SCALE
  5
54
102
{ACAD_REACTORS
330
47
102
}
330
47
100
AcDbScale
 70
     0
300
2:1
140
2.0
141
1.0
290
     0
  0
SCALE
  5
55
102
{ACAD_REACTORS
330
47
102
}
330
47
100
AcDbScale
 70
     0
300
4:1
140
4.0
141
1.0
290
     0
  0
SCALE
  5
56
102
{ACAD_REACTORS
330
47
102
}
330
47
100
AcDbScale
 70
     0
300
8:1
140
8.0
141
1.0
290
     0
  0
SCALE
  5
57
102
{ACAD_REACTORS
330
47
102
}
330
47
100
AcDbScale
 70
     0
300
10:1
140
10.0
141
1.0
290
     0
  0
SCALE
  5
58
102
{ACAD_REACTORS
330
47
102
}
330
47
100
AcDbScale
 70
     0
300
100:1
140
100.0
141
1.0
290
     0
  0
SCALE
  5
59
102
{ACAD_REACTORS
330
47
102
}
330
47
100
AcDbScale
 70
     0
300
1/128" = 1'-0"
140
0.0078125
141
12.0
290
     0
  0
SCALE
  5
5A
102
{ACAD_REACTORS
330
47
102
}
330
47
100
AcDbScale
 70
     0
300
1/64" = 1'-0"
140
0.015625
141
12.0
290
     0
  0
SCALE
  5
5B
102
{ACAD_REACTORS
330
47
102
}
330
47
100
AcDbScale
 70
     0
300
1/32" = 1'-0"
140
0.03125
141
12.0
290
     0
  0
SCALE
  5
5C
102
{ACAD_REACTORS
330
47
102
}
330
47
100
AcDbScale
 70
     0
300
1/16" = 1'-0"
140
0.0625
141
12.0
290
     0
  0
SCALE
  5
5D
102
{ACAD_REACTORS
330
47
102
}
330
47
100
AcDbScale
 70
     0
300
3/32" = 1'-0"
140
0.09375
141
12.0
290
     0
  0
SCALE
  5
5E
102
{ACAD_REACTORS
330
47
102
}
330
47
100
AcDbScale
 70
     0
300
1/8" = 1'-0"
140
0.125
141
12.0
290
     0
  0
SCALE
  5
5F
102
{ACAD_REACTORS
330
47
102
}
330
47
100
AcDbScale
 70
     0
300
3/16" = 1'-0"
140
0.1875
141
12.0
290
     0
  0
SCALE
  5
60
102
{ACAD_REACTORS
330
47
102
}
330
47
100
AcDbScale
 70
     0
300
1/4" = 1'-0"
140
0.25
141
12.0
290
     0
  0
SCALE
  5
61
102
{ACAD_REACTORS
330
47
102
}
330
47
100
AcDbScale
 70
     0
300
3/8" = 1'-0"
140
0.375
141
12.0
290
     0
  0
SCALE
  5
62
102
{ACAD_REACTORS
330
47
102
}
330
47
100
AcDbScale
 70
     0
300
1/2" = 1'-0"
140
0.5
141
12.0
290
     0
  0
SCALE
  5
63
102
{ACAD_REACTORS
330
47
102
}
330
47
100
AcDbScale
 70
     0
300
3/4" = 1'-0"
140
0.75
141
12.0
290
     0
  0
SCALE
  5
64
102
{ACAD_REACTORS
330
47
102
}
330
47
100
AcDbScale
 70
     0
300
1" = 1'-0"
140
1.0
141
12.0
290
     0
  0
SCALE
  5
65
102
{ACAD_REACTORS
330
47
102
}
330
47
100
AcDbScale
 70
     0
300
1-1/2" = 1'-0"
140
1.5
141
12.0
290
     0
  0
SCALE
  5
66
102
{ACAD_REACTORS
330
47
102
}
330
47
100
AcDbScale
 70
     0
300
3" = 1'-0"
140
3.0
141
12.0
290
     0
  0
SCALE
  5
67
102
{ACAD_REACTORS
330
47
102
}
330
47
100
AcDbScale
 70
     0
300
6" = 1'-0"
140
6.0
141
12.0
290
     0
  0
SCALE
  5
68
102
{ACAD_REACTORS
330
47
102
}
330
47
100
AcDbScale
 70
     0
300
1'-0" = 1'-0"
140
12.0
141
12.0
290
     0
  0
ENDSEC
  0
EOF
