ISO-10303-21;
HEADER;
FILE_DESCRIPTION (( 'STEP AP214' ),
    '1' );
FILE_NAME ('FO-00D-WF-M16-020 FORMAT Øàéáà Ì16 óñèëåí. óâåëè÷åí. DIN7349 (20øò_óïàê) IEK.STEP',
    '2024-07-03T11:21:57',
    ( '' ),
    ( '' ),
    'SwSTEP 2.0',
    'SolidWorks 2022',
    '' );
FILE_SCHEMA (( 'AUTOMOTIVE_DESIGN' ));
ENDSEC;

DATA;
#1 = CYLINDRICAL_SURFACE ( 'NONE', #161, 20.00000000000000000 ) ;
#2 = CARTESIAN_POINT ( 'NONE',  ( 20.00000000000000000, 2.449293598294706513E-15, 6.000000000000000000 ) ) ;
#3 = AXIS2_PLACEMENT_3D ( 'NONE', #20, #33, #19 ) ;
#4 = CARTESIAN_POINT ( 'NONE',  ( 8.500000000000000000, 1.040949779275250140E-15, 0.000000000000000000 ) ) ;
#5 = PRODUCT_RELATED_PRODUCT_CATEGORY ( 'part', '', ( #154 ) ) ;
#6 = PRODUCT_CONTEXT ( 'NONE', #158, 'mechanical' ) ;
#7 = FACE_BOUND ( 'NONE', #187, .T. ) ;
#8 = VECTOR ( 'NONE', #195, 1000.000000000000000 ) ;
#9 = DIRECTION ( 'NONE',  ( 1.000000000000000000, 0.000000000000000000, -0.000000000000000000 ) ) ;
#10 = CARTESIAN_POINT ( 'NONE',  ( 20.00000000000000000, 2.449293598294706513E-15, 6.000000000000000000 ) ) ;
#11 = ORIENTED_EDGE ( 'NONE', *, *, #149, .T. ) ;
#12 = SURFACE_SIDE_STYLE ('',( #208 ) ) ;
#13 = MANIFOLD_SOLID_BREP ( 'Áîáûøêà-Âûòÿíóòü1', #131 ) ;
#14 = FILL_AREA_STYLE_COLOUR ( '', #82 ) ;
#15 = CARTESIAN_POINT ( 'NONE',  ( 0.000000000000000000, 0.000000000000000000, 0.000000000000000000 ) ) ;
#16 = CIRCLE ( 'NONE', #76, 20.00000000000000000 ) ;
#17 = DIRECTION ( 'NONE',  ( -0.000000000000000000, -0.000000000000000000, -1.000000000000000000 ) ) ;
#18 = CARTESIAN_POINT ( 'NONE',  ( 0.000000000000000000, 0.000000000000000000, 6.000000000000000000 ) ) ;
#19 = DIRECTION ( 'NONE',  ( 1.000000000000000000, 0.000000000000000000, 0.000000000000000000 ) ) ;
#20 = CARTESIAN_POINT ( 'NONE',  ( 0.000000000000000000, 0.000000000000000000, 6.000000000000000000 ) ) ;
#21 = CIRCLE ( 'NONE', #197, 8.500000000000000000 ) ;
#22 = EDGE_CURVE ( 'NONE', #205, #130, #198, .T. ) ;
#23 = DIRECTION ( 'NONE',  ( 1.000000000000000000, 0.000000000000000000, 0.000000000000000000 ) ) ;
#24 = CIRCLE ( 'NONE', #185, 8.500000000000000000 ) ;
#25 =( NAMED_UNIT ( * ) PLANE_ANGLE_UNIT ( ) SI_UNIT ( $, .RADIAN. ) );
#26 = ORIENTED_EDGE ( 'NONE', *, *, #126, .F. ) ;
#27 = CARTESIAN_POINT ( 'NONE',  ( -8.500000000000000000, 0.000000000000000000, 6.000000000000000000 ) ) ;
#28 = AXIS2_PLACEMENT_3D ( 'NONE', #106, #177, #138 ) ;
#29 = CARTESIAN_POINT ( 'NONE',  ( 0.000000000000000000, 0.000000000000000000, 0.000000000000000000 ) ) ;
#30 =( GEOMETRIC_REPRESENTATION_CONTEXT ( 3 ) GLOBAL_UNCERTAINTY_ASSIGNED_CONTEXT ( ( #44 ) ) GLOBAL_UNIT_ASSIGNED_CONTEXT ( ( #128, #25, #88 ) ) REPRESENTATION_CONTEXT ( 'NONE', 'WORKASPACE' ) );
#31 = DIRECTION ( 'NONE',  ( 0.000000000000000000, 0.000000000000000000, 1.000000000000000000 ) ) ;
#32 = LINE ( 'NONE', #54, #201 ) ;
#33 = DIRECTION ( 'NONE',  ( 0.000000000000000000, 0.000000000000000000, 1.000000000000000000 ) ) ;
#34 = FACE_OUTER_BOUND ( 'NONE', #160, .T. ) ;
#35 = FACE_OUTER_BOUND ( 'NONE', #145, .T. ) ;
#36 =( GEOMETRIC_REPRESENTATION_CONTEXT ( 3 ) GLOBAL_UNCERTAINTY_ASSIGNED_CONTEXT ( ( #50 ) ) GLOBAL_UNIT_ASSIGNED_CONTEXT ( ( #112, #204, #159 ) ) REPRESENTATION_CONTEXT ( 'NONE', 'WORKASPACE' ) );
#37 = VERTEX_POINT ( 'NONE', #27 ) ;
#38 = ORIENTED_EDGE ( 'NONE', *, *, #40, .F. ) ;
#39 =( LENGTH_UNIT ( ) NAMED_UNIT ( * ) SI_UNIT ( .MILLI., .METRE. ) );
#40 = EDGE_CURVE ( 'NONE', #205, #55, #98, .T. ) ;
#41 = MECHANICAL_DESIGN_GEOMETRIC_PRESENTATION_REPRESENTATION (  '', ( #101 ), #89 ) ;
#42 = ORIENTED_EDGE ( 'NONE', *, *, #199, .T. ) ;
#43 = CARTESIAN_POINT ( 'NONE',  ( 0.000000000000000000, 0.000000000000000000, 6.000000000000000000 ) ) ;
#44 = UNCERTAINTY_MEASURE_WITH_UNIT (LENGTH_MEASURE( 1.000000000000000082E-05 ), #128, 'distance_accuracy_value', 'NONE');
#45 =( NAMED_UNIT ( * ) SI_UNIT ( $, .STERADIAN. ) SOLID_ANGLE_UNIT ( ) );
#46 = CIRCLE ( 'NONE', #72, 20.00000000000000000 ) ;
#47 = DIRECTION ( 'NONE',  ( 1.000000000000000000, 0.000000000000000000, 0.000000000000000000 ) ) ;
#48 = DIRECTION ( 'NONE',  ( -0.000000000000000000, -0.000000000000000000, -1.000000000000000000 ) ) ;
#49 = DIRECTION ( 'NONE',  ( 0.000000000000000000, 0.000000000000000000, 1.000000000000000000 ) ) ;
#50 = UNCERTAINTY_MEASURE_WITH_UNIT (LENGTH_MEASURE( 1.000000000000000082E-05 ), #112, 'distance_accuracy_value', 'NONE');
#51 = AXIS2_PLACEMENT_3D ( 'NONE', #181, #87, #136 ) ;
#52 = ADVANCED_FACE ( 'NONE', ( #100, #67 ), #64, .F. ) ;
#53 = DIRECTION ( 'NONE',  ( -0.000000000000000000, -0.000000000000000000, -1.000000000000000000 ) ) ;
#54 = CARTESIAN_POINT ( 'NONE',  ( -20.00000000000000000, 0.000000000000000000, 6.000000000000000000 ) ) ;
#55 = VERTEX_POINT ( 'NONE', #165 ) ;
#56 = ORIENTED_EDGE ( 'NONE', *, *, #163, .F. ) ;
#57 = DIRECTION ( 'NONE',  ( 0.000000000000000000, 0.000000000000000000, 1.000000000000000000 ) ) ;
#58 = ORIENTED_EDGE ( 'NONE', *, *, #78, .F. ) ;
#59 = ORIENTED_EDGE ( 'NONE', *, *, #60, .T. ) ;
#60 = EDGE_CURVE ( 'NONE', #37, #93, #140, .T. ) ;
#61 = FILL_AREA_STYLE ('',( #14 ) ) ;
#62 = AXIS2_PLACEMENT_3D ( 'NONE', #75, #107, #109 ) ;
#63 = CARTESIAN_POINT ( 'NONE',  ( 8.500000000000000000, 1.040949779275250140E-15, 6.000000000000000000 ) ) ;
#64 = PLANE ( 'NONE',  #210 ) ;
#65 = CARTESIAN_POINT ( 'NONE',  ( 8.500000000000000000, 1.040949779275250140E-15, 6.000000000000000000 ) ) ;
#66 = COLOUR_RGB ( '',1.000000000000000000, 1.000000000000000000, 1.000000000000000000 ) ;
#67 = FACE_BOUND ( 'NONE', #164, .T. ) ;
#68 = PRODUCT_DEFINITION_CONTEXT ( 'detailed design', #113, 'design' ) ;
#69 = CYLINDRICAL_SURFACE ( 'NONE', #51, 8.500000000000000000 ) ;
#70 = DIRECTION ( 'NONE',  ( 0.000000000000000000, 0.000000000000000000, 1.000000000000000000 ) ) ;
#71 = SURFACE_SIDE_STYLE ('',( #125 ) ) ;
#72 = AXIS2_PLACEMENT_3D ( 'NONE', #15, #81, #134 ) ;
#73 = PRESENTATION_STYLE_ASSIGNMENT (( #156 ) ) ;
#74 = ORIENTED_EDGE ( 'NONE', *, *, #137, .F. ) ;
#75 = CARTESIAN_POINT ( 'NONE',  ( 0.000000000000000000, 0.000000000000000000, 6.000000000000000000 ) ) ;
#76 = AXIS2_PLACEMENT_3D ( 'NONE', #124, #57, #157 ) ;
#77 = VERTEX_POINT ( 'NONE', #84 ) ;
#78 = EDGE_CURVE ( 'NONE', #130, #77, #189, .T. ) ;
#79 = PRESENTATION_LAYER_ASSIGNMENT (  '', '', ( #101 ) ) ;
#80 = ORIENTED_EDGE ( 'NONE', *, *, #40, .T. ) ;
#81 = DIRECTION ( 'NONE',  ( 0.000000000000000000, 0.000000000000000000, 1.000000000000000000 ) ) ;
#82 = COLOUR_RGB ( '',1.000000000000000000, 1.000000000000000000, 1.000000000000000000 ) ;
#83 = CARTESIAN_POINT ( 'NONE',  ( 20.00000000000000000, 2.449293598294706513E-15, 0.000000000000000000 ) ) ;
#84 = CARTESIAN_POINT ( 'NONE',  ( -20.00000000000000000, 0.000000000000000000, 0.000000000000000000 ) ) ;
#85 = DIRECTION ( 'NONE',  ( -0.000000000000000000, -0.000000000000000000, -1.000000000000000000 ) ) ;
#86 = VECTOR ( 'NONE', #85, 1000.000000000000000 ) ;
#87 = DIRECTION ( 'NONE',  ( -0.000000000000000000, -0.000000000000000000, -1.000000000000000000 ) ) ;
#88 =( NAMED_UNIT ( * ) SI_UNIT ( $, .STERADIAN. ) SOLID_ANGLE_UNIT ( ) );
#89 =( GEOMETRIC_REPRESENTATION_CONTEXT ( 3 ) GLOBAL_UNCERTAINTY_ASSIGNED_CONTEXT ( ( #119 ) ) GLOBAL_UNIT_ASSIGNED_CONTEXT ( ( #39, #99, #45 ) ) REPRESENTATION_CONTEXT ( 'NONE', 'WORKASPACE' ) );
#90 = SHAPE_DEFINITION_REPRESENTATION ( #168, #180 ) ;
#91 = CARTESIAN_POINT ( 'NONE',  ( 0.000000000000000000, 0.000000000000000000, 0.000000000000000000 ) ) ;
#92 = ORIENTED_EDGE ( 'NONE', *, *, #214, .T. ) ;
#93 = VERTEX_POINT ( 'NONE', #104 ) ;
#94 = VECTOR ( 'NONE', #48, 1000.000000000000000 ) ;
#95 = PRODUCT_DEFINITION_FORMATION_WITH_SPECIFIED_SOURCE ( 'ANY', '', #154, .NOT_KNOWN. ) ;
#96 = EDGE_LOOP ( 'NONE', ( #38, #117, #162, #188 ) ) ;
#97 = ORIENTED_EDGE ( 'NONE', *, *, #199, .F. ) ;
#98 = CIRCLE ( 'NONE', #3, 20.00000000000000000 ) ;
#99 =( NAMED_UNIT ( * ) PLANE_ANGLE_UNIT ( ) SI_UNIT ( $, .RADIAN. ) );
#100 = FACE_OUTER_BOUND ( 'NONE', #209, .T. ) ;
#101 = STYLED_ITEM ( 'NONE', ( #192 ), #13 ) ;
#102 = FACE_OUTER_BOUND ( 'NONE', #173, .T. ) ;
#103 = DIRECTION ( 'NONE',  ( 1.000000000000000000, 0.000000000000000000, -0.000000000000000000 ) ) ;
#104 = CARTESIAN_POINT ( 'NONE',  ( -8.500000000000000000, 0.000000000000000000, 0.000000000000000000 ) ) ;
#105 = MECHANICAL_DESIGN_GEOMETRIC_PRESENTATION_REPRESENTATION (  '', ( #191 ), #36 ) ;
#106 = CARTESIAN_POINT ( 'NONE',  ( 0.000000000000000000, 0.000000000000000000, 6.000000000000000000 ) ) ;
#107 = DIRECTION ( 'NONE',  ( 0.000000000000000000, 0.000000000000000000, 1.000000000000000000 ) ) ;
#108 = FILL_AREA_STYLE_COLOUR ( '', #66 ) ;
#109 = DIRECTION ( 'NONE',  ( 1.000000000000000000, 0.000000000000000000, 0.000000000000000000 ) ) ;
#110 = ADVANCED_FACE ( 'NONE', ( #102 ), #69, .F. ) ;
#111 = SURFACE_STYLE_USAGE ( .BOTH. , #12 ) ;
#112 =( LENGTH_UNIT ( ) NAMED_UNIT ( * ) SI_UNIT ( .MILLI., .METRE. ) );
#113 = APPLICATION_CONTEXT ( 'automotive_design' ) ;
#114 = ADVANCED_FACE ( 'NONE', ( #153 ), #1, .T. ) ;
#115 = VERTEX_POINT ( 'NONE', #4 ) ;
#116 = AXIS2_PLACEMENT_3D ( 'NONE', #207, #70, #9 ) ;
#117 = ORIENTED_EDGE ( 'NONE', *, *, #22, .T. ) ;
#118 = ORIENTED_EDGE ( 'NONE', *, *, #214, .F. ) ;
#119 = UNCERTAINTY_MEASURE_WITH_UNIT (LENGTH_MEASURE( 1.000000000000000082E-05 ), #39, 'distance_accuracy_value', 'NONE');
#120 = DIRECTION ( 'NONE',  ( 0.000000000000000000, 0.000000000000000000, 1.000000000000000000 ) ) ;
#121 = CYLINDRICAL_SURFACE ( 'NONE', #28, 8.500000000000000000 ) ;
#122 = CARTESIAN_POINT ( 'NONE',  ( 0.000000000000000000, 0.000000000000000000, 0.000000000000000000 ) ) ;
#123 = DIRECTION ( 'NONE',  ( 1.000000000000000000, 0.000000000000000000, 0.000000000000000000 ) ) ;
#124 = CARTESIAN_POINT ( 'NONE',  ( 0.000000000000000000, 0.000000000000000000, 6.000000000000000000 ) ) ;
#125 = SURFACE_STYLE_FILL_AREA ( #202 ) ;
#126 = EDGE_CURVE ( 'NONE', #115, #93, #24, .T. ) ;
#127 = ORIENTED_EDGE ( 'NONE', *, *, #22, .F. ) ;
#128 =( LENGTH_UNIT ( ) NAMED_UNIT ( * ) SI_UNIT ( .MILLI., .METRE. ) );
#129 = ORIENTED_EDGE ( 'NONE', *, *, #174, .T. ) ;
#130 = VERTEX_POINT ( 'NONE', #83 ) ;
#131 = CLOSED_SHELL ( 'NONE', ( #142, #135, #194, #52, #114, #110 ) ) ;
#132 = AXIS2_PLACEMENT_3D ( 'NONE', #43, #120, #176 ) ;
#133 = VERTEX_POINT ( 'NONE', #65 ) ;
#134 = DIRECTION ( 'NONE',  ( 1.000000000000000000, 0.000000000000000000, 0.000000000000000000 ) ) ;
#135 = ADVANCED_FACE ( 'NONE', ( #213 ), #151, .T. ) ;
#136 = DIRECTION ( 'NONE',  ( -1.000000000000000000, 0.000000000000000000, 0.000000000000000000 ) ) ;
#137 = EDGE_CURVE ( 'NONE', #133, #115, #179, .T. ) ;
#138 = DIRECTION ( 'NONE',  ( -1.000000000000000000, 0.000000000000000000, 0.000000000000000000 ) ) ;
#139 = DIRECTION ( 'NONE',  ( 1.000000000000000000, 0.000000000000000000, 0.000000000000000000 ) ) ;
#140 = LINE ( 'NONE', #167, #94 ) ;
#141 = CIRCLE ( 'NONE', #62, 8.500000000000000000 ) ;
#142 = ADVANCED_FACE ( 'NONE', ( #34 ), #121, .F. ) ;
#143 = ORIENTED_EDGE ( 'NONE', *, *, #174, .F. ) ;
#144 = PLANE ( 'NONE',  #116 ) ;
#145 = EDGE_LOOP ( 'NONE', ( #42, #80 ) ) ;
#146 = AXIS2_PLACEMENT_3D ( 'NONE', #183, #166, #193 ) ;
#147 = PRODUCT_DEFINITION ( 'UNKNOWN', '', #95, #68 ) ;
#148 = ORIENTED_EDGE ( 'NONE', *, *, #149, .F. ) ;
#149 = EDGE_CURVE ( 'NONE', #77, #130, #46, .T. ) ;
#150 = DIRECTION ( 'NONE',  ( 0.000000000000000000, 0.000000000000000000, 1.000000000000000000 ) ) ;
#151 = CYLINDRICAL_SURFACE ( 'NONE', #146, 20.00000000000000000 ) ;
#152 = DIRECTION ( 'NONE',  ( -1.000000000000000000, 0.000000000000000000, 0.000000000000000000 ) ) ;
#153 = FACE_OUTER_BOUND ( 'NONE', #175, .T. ) ;
#154 = PRODUCT ( 'FO-00D-WF-M16-020 FORMAT \X2\04280430043904310430\X0\ \X2\041c\X0\16 \X2\044304410438043b0435043d\X0\. \X2\044304320435043b043804470435043d\X0\. DIN7349 (20\X2\04480442\X0\_\X2\0443043f0430043a\X0\) IEK', 'FO-00D-WF-M16-020 FORMAT \X2\04280430043904310430\X0\ \X2\041c\X0\16 \X2\044304410438043b0435043d\X0\. \X2\044304320435043b043804470435043d\X0\. DIN7349 (20\X2\04480442\X0\_\X2\0443043f0430043a\X0\) IEK', '', ( #6 ) ) ;
#155 = APPLICATION_PROTOCOL_DEFINITION ( 'draft international standard', 'automotive_design', 1998, #158 ) ;
#156 = SURFACE_STYLE_USAGE ( .BOTH. , #71 ) ;
#157 = DIRECTION ( 'NONE',  ( 1.000000000000000000, 0.000000000000000000, 0.000000000000000000 ) ) ;
#158 = APPLICATION_CONTEXT ( 'automotive_design' ) ;
#159 =( NAMED_UNIT ( * ) SI_UNIT ( $, .STERADIAN. ) SOLID_ANGLE_UNIT ( ) );
#160 = EDGE_LOOP ( 'NONE', ( #92, #186, #143, #203 ) ) ;
#161 = AXIS2_PLACEMENT_3D ( 'NONE', #18, #17, #152 ) ;
#162 = ORIENTED_EDGE ( 'NONE', *, *, #78, .T. ) ;
#163 = EDGE_CURVE ( 'NONE', #133, #37, #206, .T. ) ;
#164 = EDGE_LOOP ( 'NONE', ( #129, #211 ) ) ;
#165 = CARTESIAN_POINT ( 'NONE',  ( -20.00000000000000000, 0.000000000000000000, 6.000000000000000000 ) ) ;
#166 = DIRECTION ( 'NONE',  ( -0.000000000000000000, -0.000000000000000000, -1.000000000000000000 ) ) ;
#167 = CARTESIAN_POINT ( 'NONE',  ( -8.500000000000000000, 0.000000000000000000, 6.000000000000000000 ) ) ;
#168 = PRODUCT_DEFINITION_SHAPE ( 'NONE', 'NONE',  #147 ) ;
#169 = CARTESIAN_POINT ( 'NONE',  ( 0.000000000000000000, 0.000000000000000000, 0.000000000000000000 ) ) ;
#170 = DIRECTION ( 'NONE',  ( 0.000000000000000000, 0.000000000000000000, 1.000000000000000000 ) ) ;
#171 = APPLICATION_PROTOCOL_DEFINITION ( 'draft international standard', 'automotive_design', 1998, #113 ) ;
#172 = ORIENTED_EDGE ( 'NONE', *, *, #182, .T. ) ;
#173 = EDGE_LOOP ( 'NONE', ( #74, #184, #59, #26 ) ) ;
#174 = EDGE_CURVE ( 'NONE', #93, #115, #21, .T. ) ;
#175 = EDGE_LOOP ( 'NONE', ( #127, #97, #172, #11 ) ) ;
#176 = DIRECTION ( 'NONE',  ( 1.000000000000000000, 0.000000000000000000, 0.000000000000000000 ) ) ;
#177 = DIRECTION ( 'NONE',  ( -0.000000000000000000, -0.000000000000000000, -1.000000000000000000 ) ) ;
#178 = PRESENTATION_LAYER_ASSIGNMENT (  '', '', ( #191 ) ) ;
#179 = LINE ( 'NONE', #63, #8 ) ;
#180 = ADVANCED_BREP_SHAPE_REPRESENTATION ( 'FO-00D-WF-M16-020 FORMAT \X2\04280430043904310430\X0\ \X2\041c\X0\16 \X2\044304410438043b0435043d\X0\. \X2\044304320435043b043804470435043d\X0\. DIN7349 (20\X2\04480442\X0\_\X2\0443043f0430043a\X0\) IEK', ( #13, #190 ), #30 ) ;
#181 = CARTESIAN_POINT ( 'NONE',  ( 0.000000000000000000, 0.000000000000000000, 6.000000000000000000 ) ) ;
#182 = EDGE_CURVE ( 'NONE', #55, #77, #32, .T. ) ;
#183 = CARTESIAN_POINT ( 'NONE',  ( 0.000000000000000000, 0.000000000000000000, 6.000000000000000000 ) ) ;
#184 = ORIENTED_EDGE ( 'NONE', *, *, #163, .T. ) ;
#185 = AXIS2_PLACEMENT_3D ( 'NONE', #200, #150, #123 ) ;
#186 = ORIENTED_EDGE ( 'NONE', *, *, #137, .T. ) ;
#187 = EDGE_LOOP ( 'NONE', ( #118, #56 ) ) ;
#188 = ORIENTED_EDGE ( 'NONE', *, *, #182, .F. ) ;
#189 = CIRCLE ( 'NONE', #212, 20.00000000000000000 ) ;
#190 = AXIS2_PLACEMENT_3D ( 'NONE', #91, #170, #23 ) ;
#191 = STYLED_ITEM ( 'NONE', ( #73 ), #180 ) ;
#192 = PRESENTATION_STYLE_ASSIGNMENT (( #111 ) ) ;
#193 = DIRECTION ( 'NONE',  ( -1.000000000000000000, 0.000000000000000000, 0.000000000000000000 ) ) ;
#194 = ADVANCED_FACE ( 'NONE', ( #35, #7 ), #144, .T. ) ;
#195 = DIRECTION ( 'NONE',  ( -0.000000000000000000, -0.000000000000000000, -1.000000000000000000 ) ) ;
#196 = DIRECTION ( 'NONE',  ( 0.000000000000000000, 0.000000000000000000, 1.000000000000000000 ) ) ;
#197 = AXIS2_PLACEMENT_3D ( 'NONE', #29, #196, #47 ) ;
#198 = LINE ( 'NONE', #2, #86 ) ;
#199 = EDGE_CURVE ( 'NONE', #55, #205, #16, .T. ) ;
#200 = CARTESIAN_POINT ( 'NONE',  ( 0.000000000000000000, 0.000000000000000000, 0.000000000000000000 ) ) ;
#201 = VECTOR ( 'NONE', #53, 1000.000000000000000 ) ;
#202 = FILL_AREA_STYLE ('',( #108 ) ) ;
#203 = ORIENTED_EDGE ( 'NONE', *, *, #60, .F. ) ;
#204 =( NAMED_UNIT ( * ) PLANE_ANGLE_UNIT ( ) SI_UNIT ( $, .RADIAN. ) );
#205 = VERTEX_POINT ( 'NONE', #10 ) ;
#206 = CIRCLE ( 'NONE', #132, 8.500000000000000000 ) ;
#207 = CARTESIAN_POINT ( 'NONE',  ( 0.000000000000000000, 0.000000000000000000, 6.000000000000000000 ) ) ;
#208 = SURFACE_STYLE_FILL_AREA ( #61 ) ;
#209 = EDGE_LOOP ( 'NONE', ( #148, #58 ) ) ;
#210 = AXIS2_PLACEMENT_3D ( 'NONE', #169, #31, #103 ) ;
#211 = ORIENTED_EDGE ( 'NONE', *, *, #126, .T. ) ;
#212 = AXIS2_PLACEMENT_3D ( 'NONE', #122, #49, #139 ) ;
#213 = FACE_OUTER_BOUND ( 'NONE', #96, .T. ) ;
#214 = EDGE_CURVE ( 'NONE', #37, #133, #141, .T. ) ;
ENDSEC;
END-ISO-10303-21;
