  0
SECTION
  2
HEADER
  9
$ACADVER
  1
AC1015
  9
$ACADMAINTVER
 70
     6
  9
$DWGCODEPAGE
  3
ANSI_1251
  9
$INSBASE
 10
0.0
 20
0.0
 30
0.0
  9
$EXTMIN
 10
0.0
 20
0.0
 30
0.0
  9
$EXTMAX
 10
841.0
 20
594.0
 30
0.0
  9
$LIMMIN
 10
0.0
 20
0.0
  9
$LIMMAX
 10
841.0
 20
594.0
  9
$ORTHOMODE
 70
     0
  9
$REGENMODE
 70
     1
  9
$FILLMODE
 70
     1
  9
$QTEXTMODE
 70
     0
  9
$MIRRTEXT
 70
     1
  9
$LTSCALE
 40
1.0
  9
$ATTMODE
 70
     1
  9
$TEXTSIZE
 40
3.5
  9
$TRACEWID
 40
1.0
  9
$TEXTSTYLE
  7
Standard
  9
$CLAYER
  8
0
  9
$CELTYPE
  6
ByLayer
  9
$CECOLOR
 62
   256
  9
$CELTSCALE
 40
1.0
  9
$DISPSILH
 70
     0
  9
$DIMSCALE
 40
1.0
  9
$DIMASZ
 40
3.5
  9
$DIMEXO
 40
0.01
  9
$DIMDLI
 40
3.75
  9
$DIMRND
 40
0.0
  9
$DIMDLE
 40
0.0
  9
$DIMEXE
 40
1.0
  9
$DIMTP
 40
0.0
  9
$DIMTM
 40
0.0
  9
$DIMTXT
 40
3.5
  9
$DIMCEN
 40
2.5
  9
$DIMTSZ
 40
0.0
  9
$DIMTOL
 70
     0
  9
$DIMLIM
 70
     0
  9
$DIMTIH
 70
     1
  9
$DIMTOH
 70
     1
  9
$DIMSE1
 70
     0
  9
$DIMSE2
 70
     0
  9
$DIMTAD
 70
     1
  9
$DIMZIN
 70
     0
  9
$DIMBLK
  1

  9
$DIMASO
 70
     1
  9
$DIMSHO
 70
     1
  9
$DIMPOST
  1

  9
$DIMAPOST
  1

  9
$DIMALT
 70
     0
  9
$DIMALTD
 70
     3
  9
$DIMALTF
 40
0.0393700787
  9
$DIMLFAC
 40
1.0
  9
$DIMTOFL
 70
     1
  9
$DIMTVP
 40
0.0
  9
$DIMTIX
 70
     0
  9
$DIMSOXD
 70
     0
  9
$DIMSAH
 70
     0
  9
$DIMBLK1
  1

  9
$DIMBLK2
  1

  9
$DIMSTYLE
  2
ISO-25
  9
$DIMCLRD
 70
     0
  9
$DIMCLRE
 70
     0
  9
$DIMCLRT
 70
     0
  9
$DIMTFAC
 40
1.0
  9
$DIMGAP
 40
3.0
  9
$DIMJUST
 70
     0
  9
$DIMSD1
 70
     0
  9
$DIMSD2
 70
     0
  9
$DIMTOLJ
 70
     0
  9
$DIMTZIN
 70
     0
  9
$DIMALTZ
 70
     0
  9
$DIMALTTZ
 70
     0
  9
$DIMUPT
 70
     0
  9
$DIMDEC
 70
     2
  9
$DIMTDEC
 70
     3
  9
$DIMALTU
 70
     2
  9
$DIMALTTD
 70
     3
  9
$DIMTXSTY
  7
Standard
  9
$DIMAUNIT
 70
     0
  9
$DIMADEC
 70
     2
  9
$DIMALTRND
 40
0.0
  9
$DIMAZIN
 70
     0
  9
$DIMDSEP
 70
    44
  9
$DIMATFIT
 70
     3
  9
$DIMFRAC
 70
     0
  9
$DIMLDRBLK
  1

  9
$DIMLUNIT
 70
     2
  9
$DIMLWD
 70
    -2
  9
$DIMLWE
 70
    -2
  9
$DIMTMOVE
 70
     0
  9
$LUNITS
 70
     2
  9
$LUPREC
 70
     2
  9
$SKETCHINC
 40
1.0
  9
$FILLETRAD
 40
10.0
  9
$AUNITS
 70
     0
  9
$AUPREC
 70
     2
  9
$MENU
  1
.
  9
$ELEVATION
 40
0.0
  9
$PELEVATION
 40
0.0
  9
$THICKNESS
 40
0.0
  9
$LIMCHECK
 70
     0
  9
$CHAMFERA
 40
0.0
  9
$CHAMFERB
 40
0.0
  9
$CHAMFERC
 40
0.0
  9
$CHAMFERD
 40
0.0
  9
$SKPOLY
 70
     0
  9
$TDCREATE
 40
2459732.520815
  9
$TDUCREATE
 40
2459732.395815
  9
$TDUPDATE
 40
2459732.520816609
  9
$TDUUPDATE
 40
2459732.395816609
  9
$TDINDWG
 40
0.0000000116
  9
$TDUSRTIMER
 40
0.0000000116
  9
$USRTIMER
 70
     1
  9
$ANGBASE
 50
0.0
  9
$ANGDIR
 70
     0
  9
$PDMODE
 70
     0
  9
$PDSIZE
 40
-1.0
  9
$PLINEWID
 40
0.0
  9
$SPLFRAME
 70
     0
  9
$SPLINETYPE
 70
     6
  9
$SPLINESEGS
 70
     8
  9
$HANDSEED
  5
4C1
  9
$SURFTAB1
 70
     6
  9
$SURFTAB2
 70
     6
  9
$SURFTYPE
 70
     6
  9
$SURFU
 70
     6
  9
$SURFV
 70
     6
  9
$UCSBASE
  2

  9
$UCSNAME
  2

  9
$UCSORG
 10
0.0
 20
0.0
 30
0.0
  9
$UCSXDIR
 10
1.0
 20
0.0
 30
0.0
  9
$UCSYDIR
 10
0.0
 20
1.0
 30
0.0
  9
$UCSORTHOREF
  2

  9
$UCSORTHOVIEW
 70
     0
  9
$UCSORGTOP
 10
0.0
 20
0.0
 30
0.0
  9
$UCSORGBOTTOM
 10
0.0
 20
0.0
 30
0.0
  9
$UCSORGLEFT
 10
0.0
 20
0.0
 30
0.0
  9
$UCSORGRIGHT
 10
0.0
 20
0.0
 30
0.0
  9
$UCSORGFRONT
 10
0.0
 20
0.0
 30
0.0
  9
$UCSORGBACK
 10
0.0
 20
0.0
 30
0.0
  9
$PUCSBASE
  2

  9
$PUCSNAME
  2

  9
$PUCSORG
 10
0.0
 20
0.0
 30
0.0
  9
$PUCSXDIR
 10
1.0
 20
0.0
 30
0.0
  9
$PUCSYDIR
 10
0.0
 20
1.0
 30
0.0
  9
$PUCSORTHOREF
  2

  9
$PUCSORTHOVIEW
 70
     0
  9
$PUCSORGTOP
 10
0.0
 20
0.0
 30
0.0
  9
$PUCSORGBOTTOM
 10
0.0
 20
0.0
 30
0.0
  9
$PUCSORGLEFT
 10
0.0
 20
0.0
 30
0.0
  9
$PUCSORGRIGHT
 10
0.0
 20
0.0
 30
0.0
  9
$PUCSORGFRONT
 10
0.0
 20
0.0
 30
0.0
  9
$PUCSORGBACK
 10
0.0
 20
0.0
 30
0.0
  9
$USERI1
 70
     0
  9
$USERI2
 70
     0
  9
$USERI3
 70
     0
  9
$USERI4
 70
     0
  9
$USERI5
 70
     0
  9
$USERR1
 40
0.0
  9
$USERR2
 40
0.0
  9
$USERR3
 40
0.0
  9
$USERR4
 40
0.0
  9
$USERR5
 40
0.0
  9
$WORLDVIEW
 70
     1
  9
$SHADEDGE
 70
     3
  9
$SHADEDIF
 70
    70
  9
$TILEMODE
 70
     1
  9
$MAXACTVP
 70
    64
  9
$PINSBASE
 10
0.0
 20
0.0
 30
0.0
  9
$PLIMCHECK
 70
     0
  9
$PEXTMIN
 10
1.0000000000E+20
 20
1.0000000000E+20
 30
1.0000000000E+20
  9
$PEXTMAX
 10
-1.0000000000E+20
 20
-1.0000000000E+20
 30
-1.0000000000E+20
  9
$PLIMMIN
 10
0.0
 20
0.0
  9
$PLIMMAX
 10
420.0
 20
297.0
  9
$UNITMODE
 70
     0
  9
$VISRETAIN
 70
     1
  9
$PLINEGEN
 70
     0
  9
$PSLTSCALE
 70
     1
  9
$TREEDEPTH
 70
  3020
  9
$CMLSTYLE
  2
Standard
  9
$CMLJUST
 70
     0
  9
$CMLSCALE
 40
20.0
  9
$PROXYGRAPHICS
 70
     1
  9
$MEASUREMENT
 70
     1
  9
$CELWEIGHT
370
    -1
  9
$ENDCAPS
280
     0
  9
$JOINSTYLE
280
     0
  9
$LWDISPLAY
290
     1
  9
$INSUNITS
 70
     4
  9
$HYPERLINKBASE
  1

  9
$STYLESHEET
  1

  9
$XEDIT
290
     1
  9
$CEPSNTYPE
380
     0
  9
$PSTYLEMODE
290
     1
  9
$FINGERPRINTGUID
  2
{58D1950B-9864-4E00-A061-0DACFB370B4C}
  9
$VERSIONGUID
  2
{FAEB1C32-E019-11D5-929B-00C0DF256EC4}
  9
$EXTNAMES
290
     1
  9
$PSVPSCALE
 40
0.0
  9
$OLESTARTUP
290
     0
  0
ENDSEC
  0
SECTION
  2
CLASSES
  0
CLASS
  1
ACDBDICTIONARYWDFLT
  2
AcDbDictionaryWithDefault
  3
ObjectDBX Classes
 90
        0
280
     0
281
     0
  0
CLASS
  1
VISUALSTYLE
  2
AcDbVisualStyle
  3
ObjectDBX Classes
 90
     4095
280
     0
281
     0
  0
CLASS
  1
MATERIAL
  2
AcDbMaterial
  3
ObjectDBX Classes
 90
     1153
280
     0
281
     0
  0
CLASS
  1
SCALE
  2
AcDbScale
  3
ObjectDBX Classes
 90
     1153
280
     0
281
     0
  0
CLASS
  1
TABLESTYLE
  2
AcDbTableStyle
  3
ObjectDBX Classes
 90
     4095
280
     0
281
     0
  0
CLASS
  1
MLEADERSTYLE
  2
AcDbMLeaderStyle
  3
ACDB_MLEADERSTYLE_CLASS
 90
     4095
280
     0
281
     0
  0
CLASS
  1
SUN
  2
AcDbSun
  3
SCENEOE
 90
     1153
280
     0
281
     0
  0
CLASS
  1
ACDBPLACEHOLDER
  2
AcDbPlaceHolder
  3
ObjectDBX Classes
 90
        0
280
     0
281
     0
  0
CLASS
  1
LAYOUT
  2
AcDbLayout
  3
ObjectDBX Classes
 90
        0
280
     0
281
     0
  0
ENDSEC
  0
SECTION
  2
TABLES
  0
TABLE
  2
VPORT
  5
8
330
0
100
AcDbSymbolTable
 70
     1
  0
VPORT
  5
29
330
8
100
AcDbSymbolTableRecord
100
AcDbViewportTableRecord
  2
*Active
 70
     0
 10
0.0
 20
0.0
 11
1.0
 21
1.0
 12
420.5
 22
297.0
 13
0.0
 23
0.0
 14
10.0
 24
10.0
 15
10.0
 25
10.0
 16
0.0
 26
0.0
 36
1.0
 17
0.0
 27
0.0
 37
0.0
 40
594.0
 41
1.4158249158
 42
50.0
 43
0.0
 44
0.0
 50
0.0
 51
0.0
 71
     0
 72
  2000
 73
     1
 74
     3
 75
     0
 76
     0
 77
     0
 78
     0
281
     0
 65
     1
110
0.0
120
0.0
130
0.0
111
1.0
121
0.0
131
0.0
112
0.0
122
1.0
132
0.0
 79
     0
146
0.0
  0
ENDTAB
  0
TABLE
  2
LTYPE
  5
5
330
0
100
AcDbSymbolTable
 70
     6
  0
LTYPE
  5
14
330
5
100
AcDbSymbolTableRecord
100
AcDbLinetypeTableRecord
  2
ByBlock
 70
     0
  3

 72
    65
 73
     0
 40
0.0
  0
LTYPE
  5
15
330
5
100
AcDbSymbolTableRecord
100
AcDbLinetypeTableRecord
  2
ByLayer
 70
     0
  3

 72
    65
 73
     0
 40
0.0
  0
LTYPE
  5
16
330
5
100
AcDbSymbolTableRecord
100
AcDbLinetypeTableRecord
  2
Continuous
 70
     0
  3
Solid line
 72
    65
 73
     0
 40
0.0
  0
LTYPE
  5
6E
330
5
100
AcDbSymbolTableRecord
100
AcDbLinetypeTableRecord
  2
HIDDEN
 70
     0
  3
Hidden __ __ __ __ __ __ __ __ __ __ __ __ __ __
 72
    65
 73
     2
 40
1.905
 49
1.27
 74
     0
 49
-0.635
 74
     0
  0
LTYPE
  5
6F
330
5
100
AcDbSymbolTableRecord
100
AcDbLinetypeTableRecord
  2
PHANTOM
 70
     0
  3
Phantom ______  __  __  ______  __  __  ______
 72
    65
 73
     6
 40
12.7
 49
6.35
 74
     0
 49
-1.27
 74
     0
 49
1.27
 74
     0
 49
-1.27
 74
     0
 49
1.27
 74
     0
 49
-1.27
 74
     0
  0
LTYPE
  5
70
330
5
100
AcDbSymbolTableRecord
100
AcDbLinetypeTableRecord
  2
CENTER
 70
     0
  3
Center ____ _ ____ _ ____ _ ____ _ ____ _ ____
 72
    65
 73
     4
 40
10.16
 49
6.35
 74
     0
 49
-1.27
 74
     0
 49
1.27
 74
     0
 49
-1.27
 74
     0
  0
LTYPE
  5
71
330
5
100
AcDbSymbolTableRecord
100
AcDbLinetypeTableRecord
  2
CENTERX2
 70
     0
  3
Center (2x) ________  __  ________  __  _____
 72
    65
 73
     4
 40
20.32
 49
12.7
 74
     0
 49
-2.54
 74
     0
 49
2.54
 74
     0
 49
-2.54
 74
     0
  0
LTYPE
  5
72
330
5
100
AcDbSymbolTableRecord
100
AcDbLinetypeTableRecord
  2
DOT2
 70
     0
  3
Dot (.5x) ........................................
 72
    65
 73
     2
 40
0.635
 49
0.0
 74
     0
 49
-0.635
 74
     0
  0
ENDTAB
  0
TABLE
  2
LAYER
  5
2
330
0
100
AcDbSymbolTable
 70
     1
  0
LAYER
  5
10
330
2
100
AcDbSymbolTableRecord
100
AcDbLayerTableRecord
  2
0
 70
     0
 62
     7
  6
Continuous
370
    -3
390
F
  0
ENDTAB
  0
TABLE
  2
STYLE
  5
3
330
0
100
AcDbSymbolTable
 70
     1
  0
STYLE
  5
11
330
3
100
AcDbSymbolTableRecord
100
AcDbTextStyleTableRecord
  2
Standard
 70
     0
 40
0.0
 41
1.0
 50
0.0
 71
     0
 42
3.5
  3
txt
  4

  0
ENDTAB
  0
TABLE
  2
VIEW
  5
6
330
0
100
AcDbSymbolTable
 70
     0
  0
ENDTAB
  0
TABLE
  2
UCS
  5
7
330
0
100
AcDbSymbolTable
 70
     0
  0
ENDTAB
  0
TABLE
  2
APPID
  5
9
330
0
100
AcDbSymbolTable
 70
     1
  0
APPID
  5
12
330
9
100
AcDbSymbolTableRecord
100
AcDbRegAppTableRecord
  2
ACAD
 70
     0
  0
ENDTAB
  0
TABLE
  2
DIMSTYLE
  5
A
330
0
100
AcDbSymbolTable
 70
     1
100
AcDbDimStyleTable
  0
DIMSTYLE
105
27
330
A
100
AcDbSymbolTableRecord
100
AcDbDimStyleTableRecord
  2
ISO-25
 70
     0
 41
2.5
 42
0.625
 43
3.75
 44
1.25
 73
     0
 74
     0
 77
     1
 78
     8
140
2.5
141
2.5
143
0.0393700787
147
0.625
171
     3
172
     1
178
     0
271
     2
272
     2
274
     3
278
    44
283
     0
284
     8
340
11
  0
ENDTAB
  0
TABLE
  2
BLOCK_RECORD
  5
1
330
0
100
AcDbSymbolTable
 70
     1
  0
BLOCK_RECORD
  5
1F
330
1
100
AcDbSymbolTableRecord
100
AcDbBlockTableRecord
  2
*Model_Space
340
22
  0
BLOCK_RECORD
  5
1B
330
1
100
AcDbSymbolTableRecord
100
AcDbBlockTableRecord
  2
*Paper_Space
340
1E
  0
BLOCK_RECORD
  5
23
330
1
100
AcDbSymbolTableRecord
100
AcDbBlockTableRecord
  2
*Paper_Space0
340
26
  0
ENDTAB
  0
ENDSEC
  0
SECTION
  2
BLOCKS
  0
BLOCK
  5
20
330
1F
100
AcDbEntity
  8
0
100
AcDbBlockBegin
  2
*Model_Space
 70
     0
 10
0.0
 20
0.0
 30
0.0
  3
*Model_Space
  1

  0
ENDBLK
  5
21
330
1F
100
AcDbEntity
  8
0
100
AcDbBlockEnd
  0
BLOCK
  5
1C
330
1B
100
AcDbEntity
 67
     1
  8
0
100
AcDbBlockBegin
  2
*Paper_Space
 70
     0
 10
0.0
 20
0.0
 30
0.0
  3
*Paper_Space
  1

  0
ENDBLK
  5
1D
330
1B
100
AcDbEntity
 67
     1
  8
0
100
AcDbBlockEnd
  0
BLOCK
  5
24
330
23
100
AcDbEntity
  8
0
100
AcDbBlockBegin
  2
*Paper_Space0
 70
     0
 10
0.0
 20
0.0
 30
0.0
  3
*Paper_Space0
  1

  0
ENDBLK
  5
25
330
23
100
AcDbEntity
  8
0
100
AcDbBlockEnd
  0
ENDSEC
  0
SECTION
  2
ENTITIES
  0
ARC
  5
73
330
1F
100
AcDbEntity
  8
0
  6
Continuous
 62
     7
370
    25
100
AcDbCircle
 10
664.4433501725
 20
388.028893827
 30
0.0
 40
0.5000000000001137
100
AcDbArc
 50
180.0
 51
0.0
  0
ARC
  5
74
330
1F
100
AcDbEntity
  8
0
  6
Continuous
 62
     7
370
    25
100
AcDbCircle
 10
664.4433501725
 20
399.6288938272
 30
0.0
 40
0.5
100
AcDbArc
 50
0.0
 51
180.0
  0
LINE
  5
75
330
1F
100
AcDbEntity
  8
0
  6
Continuous
 62
     7
370
    25
100
AcDbLine
 10
659.9433501725
 20
388.8288938271
 30
0.0
 11
660.1539292275
 21
388.4641602049
 31
0.0
  0
LINE
  5
76
330
1F
100
AcDbEntity
  8
0
  6
Continuous
 62
     7
370
    25
100
AcDbLine
 10
674.4021001725
 20
396.8288938271
 30
0.0
 11
665.7433501725
 21
396.8288938271
 31
0.0
  0
LINE
  5
77
330
1F
100
AcDbEntity
  8
0
  6
Continuous
 62
     7
370
    25
100
AcDbLine
 10
665.7433501725
 20
390.8288938271
 30
0.0
 11
674.4021001725
 21
390.8288938271
 31
0.0
  0
LINE
  5
78
330
1F
100
AcDbEntity
  8
0
  6
Continuous
 62
     7
370
    25
100
AcDbLine
 10
674.4021001725
 20
390.8288938271
 30
0.0
 11
674.9433501725
 21
391.3701438271
 31
0.0
  0
LINE
  5
79
330
1F
100
AcDbEntity
  8
0
  6
Continuous
 62
     7
370
    25
100
AcDbLine
 10
674.9433501725
 20
396.2876438271
 30
0.0
 11
674.4021001725
 21
396.8288938271
 31
0.0
  0
LINE
  5
7A
330
1F
100
AcDbEntity
  8
0
  6
Continuous
 62
     7
370
    25
100
AcDbLine
 10
660.1539292275
 20
399.1936274493
 30
0.0
 11
659.9433501725
 21
398.8288938271
 31
0.0
  0
ARC
  5
7B
330
1F
100
AcDbEntity
  8
0
  6
Continuous
 62
     7
370
    25
100
AcDbCircle
 10
664.4433501725
 20
374.6288938272
 30
0.0
 40
0.5000000000000661
100
AcDbArc
 50
0.0
 51
113.5781784782
  0
LINE
  5
7C
330
1F
100
AcDbEntity
  8
0
  6
Continuous
 62
     7
370
    25
100
AcDbLine
 10
674.4021001725
 20
371.8288938271
 30
0.0
 11
665.7433501725
 21
371.8288938271
 31
0.0
  0
LINE
  5
7D
330
1F
100
AcDbEntity
  8
0
  6
Continuous
 62
     7
370
    25
100
AcDbLine
 10
674.4021001725
 20
365.8288938271
 30
0.0
 11
674.9433501725
 21
366.3701438271
 31
0.0
  0
LINE
  5
7E
330
1F
100
AcDbEntity
  8
0
  6
Continuous
 62
     7
370
    25
100
AcDbLine
 10
674.9433501725
 20
371.2876438271
 30
0.0
 11
674.4021001725
 21
371.8288938271
 31
0.0
  0
ARC
  5
7F
330
1F
100
AcDbEntity
  8
0
  6
Continuous
 62
     7
370
    25
100
AcDbCircle
 10
161.0433501725
 20
374.6288938272
 30
0.0
 40
0.5000000000000026
100
AcDbArc
 50
66.4218215218
 51
180.0
  0
LINE
  5
80
330
1F
100
AcDbEntity
  8
0
  6
Continuous
 62
     7
370
    25
100
AcDbLine
 10
151.0846001725
 20
371.8288938271
 30
0.0
 11
150.5433501725
 21
371.2876438271
 31
0.0
  0
LINE
  5
81
330
1F
100
AcDbEntity
  8
0
  6
Continuous
 62
     7
370
    25
100
AcDbLine
 10
150.5433501725
 20
366.3701438271
 30
0.0
 11
151.0846001725
 21
365.8288938271
 31
0.0
  0
LINE
  5
82
330
1F
100
AcDbEntity
  8
0
  6
Continuous
 62
     7
370
    25
100
AcDbLine
 10
159.7433501725
 20
371.8288938271
 30
0.0
 11
151.0846001725
 21
371.8288938271
 31
0.0
  0
ARC
  5
83
330
1F
100
AcDbEntity
  8
0
  6
Continuous
 62
     7
370
    25
100
AcDbCircle
 10
161.0433501725
 20
399.6288938272
 30
0.0
 40
0.5
100
AcDbArc
 50
0.0
 51
180.0
  0
ARC
  5
84
330
1F
100
AcDbEntity
  8
0
  6
Continuous
 62
     7
370
    25
100
AcDbCircle
 10
161.0433501725
 20
388.028893827
 30
0.0
 40
0.5
100
AcDbArc
 50
180.0
 51
0.0
  0
LINE
  5
85
330
1F
100
AcDbEntity
  8
0
  6
Continuous
 62
     7
370
    25
100
AcDbLine
 10
151.0846001725
 20
390.8288938271
 30
0.0
 11
159.7433501725
 21
390.8288938271
 31
0.0
  0
LINE
  5
86
330
1F
100
AcDbEntity
  8
0
  6
Continuous
 62
     7
370
    25
100
AcDbLine
 10
159.7433501725
 20
396.8288938271
 30
0.0
 11
151.0846001725
 21
396.8288938271
 31
0.0
  0
LINE
  5
87
330
1F
100
AcDbEntity
  8
0
  6
Continuous
 62
     7
370
    25
100
AcDbLine
 10
151.0846001725
 20
396.8288938271
 30
0.0
 11
150.5433501725
 21
396.2876438271
 31
0.0
  0
LINE
  5
88
330
1F
100
AcDbEntity
  8
0
  6
Continuous
 62
     7
370
    25
100
AcDbLine
 10
150.5433501725
 20
391.3701438271
 30
0.0
 11
151.0846001725
 21
390.8288938271
 31
0.0
  0
SPLINE
  5
89
330
1F
100
AcDbEntity
  8
0
  6
Continuous
 62
     7
370
    25
100
AcDbSpline
210
0.0
220
0.0
230
1.0
 70
    24
 71
     3
 72
    16
 73
    12
 74
     0
 42
0.000000001
 43
0.00000001
 40
0.0
 40
0.0
 40
0.0
 40
0.0
 40
0.1658292928977491
 40
0.2550981074401227
 40
0.3462613343064171
 40
0.43742456117271
 40
0.5266933757150831
 40
0.6925226686128333
 40
0.8583519615105835
 40
0.9476207760529561
 40
1.0
 40
1.0
 40
1.0
 40
1.0
 10
663.9433501724772
 20
397.5545834517298
 30
0.0
 10
663.9433501724772
 20
396.9456756540548
 30
0.0
 10
663.9433501724772
 20
396.0089821177192
 30
0.0
 10
663.9433501724772
 20
394.5091834264832
 30
0.0
 10
663.9433501724772
 20
393.3172263466681
 30
0.0
 10
663.9433501724772
 20
392.1427980724619
 30
0.0
 10
663.943350172477
 20
390.7391847791745
 30
0.0
 10
663.9433501724773
 20
389.2718416983924
 30
0.0
 10
663.9433501724772
 20
388.3726543475717
 30
0.0
 10
663.9433501724772
 20
388.0448230204573
 30
0.0
 10
663.9433501724772
 20
388.0552134358977
 30
0.0
 10
663.9433501724772
 20
388.0590556486318
 30
0.0
  0
LINE
  5
8A
330
1F
100
AcDbEntity
  8
0
  6
Continuous
 62
     7
370
    25
100
AcDbLine
 10
659.9433501725
 20
394.6943883977
 30
0.0
 11
659.9433501725
 21
389.9968797637
 31
0.0
  0
SPLINE
  5
8B
330
1F
100
AcDbEntity
  8
0
  6
Continuous
 62
     7
370
    25
100
AcDbSpline
210
0.0
220
0.0
230
1.0
 70
     8
 71
     3
 72
     8
 73
     4
 74
     0
 42
0.000000001
 43
0.00000001
 40
0.0
 40
0.0
 40
0.0
 40
0.0
 40
1.0
 40
1.0
 40
1.0
 40
1.0
 10
659.9433501724843
 20
394.6943883977132
 30
0.0
 10
659.9433501724843
 20
393.7239824618229
 30
0.0
 10
660.1176654728638
 20
392.7801361198918
 30
0.0
 10
660.3899321598756
 20
391.8512141652652
 30
0.0
  0
SPLINE
  5
8C
330
1F
100
AcDbEntity
  8
0
  6
Continuous
 62
     7
370
    25
100
AcDbSpline
210
0.0
220
0.0
230
1.0
 70
     8
 71
     3
 72
     8
 73
     4
 74
     0
 42
0.000000001
 43
0.00000001
 40
0.0
 40
0.0
 40
0.0
 40
0.0
 40
1.0
 40
1.0
 40
1.0
 40
1.0
 10
660.3899321598756
 20
391.8512141652589
 30
0.0
 10
660.1176654728642
 20
391.2453659843277
 30
0.0
 10
659.9433501724844
 20
390.6297840331288
 30
0.0
 10
659.9433501724844
 20
389.9968797637274
 30
0.0
  0
SPLINE
  5
8D
330
1F
100
AcDbEntity
  8
0
  6
Continuous
 62
     7
370
    25
100
AcDbSpline
210
0.0
220
0.0
230
1.0
 70
     8
 71
     3
 72
     8
 73
     4
 74
     0
 42
0.000000001
 43
0.00000001
 40
0.0
 40
0.0
 40
0.0
 40
0.0
 40
1.0
 40
1.0
 40
1.0
 40
1.0
 10
660.3899321598756
 20
397.5375626301611
 30
0.0
 10
660.1176654728642
 20
396.6086406755362
 30
0.0
 10
659.9433501724843
 20
395.6647943336015
 30
0.0
 10
659.9433501724843
 20
394.6943883977132
 30
0.0
  0
LINE
  5
8E
330
1F
100
AcDbEntity
  8
0
  6
Continuous
 62
     7
370
    25
100
AcDbLine
 10
663.9433501725
 20
397.5375626302
 30
0.0
 11
660.3899321599
 21
397.5375626302
 31
0.0
  0
LINE
  5
8F
330
1F
100
AcDbEntity
  8
0
  6
Continuous
 62
     7
370
    25
100
AcDbLine
 10
663.9433501725
 20
391.8512141653
 30
0.0
 11
660.3899321599
 21
391.8512141653
 31
0.0
  0
SPLINE
  5
90
330
1F
100
AcDbEntity
  8
0
  6
Continuous
 62
     7
370
    25
100
AcDbSpline
210
0.0
220
0.0
230
1.0
 70
     8
 71
     3
 72
     8
 73
     4
 74
     0
 42
0.000000001
 43
0.00000001
 40
0.0
 40
0.0
 40
0.0
 40
0.0
 40
1.0
 40
1.0
 40
1.0
 40
1.0
 10
659.9433501724844
 20
389.9968797637274
 30
0.0
 10
659.9433501724844
 20
389.363975494325
 30
0.0
 10
660.1176654728638
 20
388.7483935431283
 30
0.0
 10
660.3899321598756
 20
388.1425453621961
 30
0.0
  0
LINE
  5
91
330
1F
100
AcDbEntity
  8
0
  6
Continuous
 62
     7
370
    25
100
AcDbLine
 10
663.9433501725
 20
388.1425453622
 30
0.0
 11
660.3899321599
 21
388.1425453622
 31
0.0
  0
LINE
  5
92
330
1F
100
AcDbEntity
  8
0
  6
Continuous
 62
     7
370
    25
100
AcDbLine
 10
659.9433501725
 20
398.5264024611
 30
0.0
 11
659.9433501725
 21
394.6943883977
 31
0.0
  0
SPLINE
  5
93
330
1F
100
AcDbEntity
  8
0
  6
Continuous
 62
     7
370
    25
100
AcDbSpline
210
0.0
220
0.0
230
1.0
 70
     8
 71
     3
 72
     8
 73
     4
 74
     0
 42
0.000000001
 43
0.00000001
 40
0.0
 40
0.0
 40
0.0
 40
0.0
 40
1.0
 40
1.0
 40
1.0
 40
1.0
 10
659.9433501724842
 20
398.5264024610826
 30
0.0
 10
659.9433501724842
 20
398.188900794595
 30
0.0
 10
660.1176654728636
 20
397.8606364038606
 30
0.0
 10
660.3899321598756
 20
397.5375626301662
 30
0.0
  0
SPLINE
  5
94
330
1F
100
AcDbEntity
  8
0
  6
Continuous
 62
     7
370
    25
100
AcDbSpline
210
0.0
220
0.0
230
1.0
 70
     8
 71
     3
 72
     8
 73
     4
 74
     0
 42
0.000000001
 43
0.00000001
 40
0.0
 40
0.0
 40
0.0
 40
0.0
 40
1.0
 40
1.0
 40
1.0
 40
1.0
 10
660.3899321598756
 20
399.515242291999
 30
0.0
 10
660.1176654728641
 20
399.1921685183053
 30
0.0
 10
659.9433501724842
 20
398.8639041275696
 30
0.0
 10
659.9433501724842
 20
398.5264024610826
 30
0.0
  0
LINE
  5
95
330
1F
100
AcDbEntity
  8
0
  6
Continuous
 62
     7
370
    25
100
AcDbLine
 10
663.9433501725
 20
399.515242292
 30
0.0
 11
660.3899321599
 21
399.515242292
 31
0.0
  0
LINE
  5
96
330
1F
100
AcDbEntity
  8
0
  6
Continuous
 62
     7
370
    25
100
AcDbLine
 10
660.3899321599
 20
388.1425453622
 30
0.0
 11
660.2259141247
 21
388.5057207047
 31
0.0
  0
LINE
  5
97
330
1F
100
AcDbEntity
  8
0
  6
Continuous
 62
     7
370
    25
100
AcDbLine
 10
659.9433501725
 20
389.9968797637
 30
0.0
 11
659.9433501725
 21
388.8288938271
 31
0.0
  0
LINE
  5
98
330
1F
100
AcDbEntity
  8
0
  6
Continuous
 62
     7
370
    25
100
AcDbLine
 10
674.4021001725
 20
390.8288938271
 30
0.0
 11
674.4021001725
 21
396.8288938271
 31
0.0
  0
LINE
  5
99
330
1F
100
AcDbEntity
  8
0
  6
Continuous
 62
     7
370
    25
100
AcDbLine
 10
674.9433501725
 20
391.9445009114
 30
0.0
 11
674.9433501725
 21
396.2876438271
 31
0.0
  0
LINE
  5
9A
330
1F
100
AcDbEntity
  8
0
  6
Continuous
 62
     7
370
    25
100
AcDbLine
 10
674.9433501725
 20
391.3701438271
 30
0.0
 11
674.9433501725
 21
391.9445009114
 31
0.0
  0
LINE
  5
9B
330
1F
100
AcDbEntity
  8
0
  6
Continuous
 62
     7
370
    25
100
AcDbLine
 10
659.9433501725
 20
398.8288938271
 30
0.0
 11
659.9433501725
 21
398.5264024611
 31
0.0
  0
CIRCLE
  5
9C
330
1F
100
AcDbEntity
  8
0
  6
Continuous
 62
     7
370
    25
100
AcDbCircle
 10
215.2433501725
 20
340.8288938271
 30
0.0
 40
0.5000000000000284
  0
SPLINE
  5
9D
330
1F
100
AcDbEntity
  8
0
  6
Continuous
 62
     7
370
    25
100
AcDbSpline
210
0.0
220
0.0
230
1.0
 70
     8
 71
     3
 72
    20
 73
    16
 74
     0
 42
0.000000001
 43
0.00000001
 40
0.0
 40
0.0
 40
0.0
 40
0.0
 40
0.125
 40
0.125
 40
0.2499999999999999
 40
0.2499999999999999
 40
0.3749999999999999
 40
0.3749999999999999
 40
0.4999999999999999
 40
0.4999999999999999
 40
0.7499999999999998
 40
0.7499999999999998
 40
0.8749999999999999
 40
0.8749999999999999
 40
1.0
 40
1.0
 40
1.0
 40
1.0
 10
707.8433501724775
 20
172.2288938270937
 30
0.0
 10
707.8823909033321
 20
172.070514639443
 30
0.0
 10
707.9209096075318
 20
171.9142689147513
 30
0.0
 10
707.9983163588397
 20
171.6062770653347
 30
0.0
 10
708.0374607768265
 20
171.4536329578635
 30
0.0
 10
708.1146115307417
 20
171.1645486686764
 30
0.0
 10
708.1529391124825
 20
171.0267441304924
 30
0.0
 10
708.2304854329593
 20
170.7651254548535
 30
0.0
 10
708.269461640628
 20
170.6423791481708
 30
0.0
 10
708.384956497073
 20
170.3110547712232
 30
0.0
 10
708.4628689407431
 20
170.1320436471949
 30
0.0
 10
708.5783488661439
 20
169.952428547814
 30
0.0
 10
708.6172146620088
 20
169.9061841989463
 30
0.0
 10
708.6949889956774
 20
169.844430892935
 30
0.0
 10
708.7335987626323
 20
169.8288938270936
 30
0.0
 10
708.7726394943587
 20
169.8288938270936
 30
0.0
  0
LINE
  5
9E
330
1F
100
AcDbEntity
  8
0
  6
Continuous
 62
     7
370
    25
100
AcDbLine
 10
116.7140608506
 20
169.8288938271
 30
0.0
 11
708.7726394944
 21
169.8288938271
 31
0.0
  0
SPLINE
  5
9F
330
1F
100
AcDbEntity
  8
0
  6
Continuous
 62
     7
370
    25
100
AcDbSpline
210
0.0
220
0.0
230
1.0
 70
     8
 71
     3
 72
    20
 73
    16
 74
     0
 42
0.000000001
 43
0.00000001
 40
0.0
 40
0.0
 40
0.0
 40
0.0
 40
0.1250000000000034
 40
0.1250000000000034
 40
0.2500000000000066
 40
0.2500000000000066
 40
0.3750000000000098
 40
0.3750000000000098
 40
0.500000000000013
 40
0.500000000000013
 40
0.7500000000000017
 40
0.7500000000000017
 40
0.8750000000000008
 40
0.8750000000000008
 40
1.0
 40
1.0
 40
1.0
 40
1.0
 10
116.7140608505962
 20
169.8288938270936
 30
0.0
 10
116.7531015814506
 20
169.8288938270936
 30
0.0
 10
116.7916202856504
 20
169.8444303875685
 30
0.0
 10
116.8690270369584
 20
169.9057487395291
 30
0.0
 10
116.908171454945
 20
169.9521724851159
 30
0.0
 10
116.9853222088603
 20
170.07212335527
 30
0.0
 10
117.0236497906014
 20
170.1457279995534
 30
0.0
 10
117.1011961110778
 20
170.3204583656491
 30
0.0
 10
117.1401723187465
 20
170.4213089945505
 30
0.0
 10
117.2556671751913
 20
170.7525942745345
 30
0.0
 10
117.3335796188616
 20
171.0202744359184
 30
0.0
 10
117.4490595442626
 20
171.4529484619738
 30
0.0
 10
117.4879253401276
 20
171.6044665488249
 30
0.0
 10
117.565699673796
 20
171.913892306211
 30
0.0
 10
117.6043094407507
 20
172.0705146359047
 30
0.0
 10
117.6433501724775
 20
172.2288938270935
 30
0.0
  0
SPLINE
  5
A0
330
1F
100
AcDbEntity
  8
0
  6
Continuous
 62
     7
370
    25
100
AcDbSpline
210
0.0
220
0.0
230
1.0
 70
     8
 71
     3
 72
    14
 73
    10
 74
     0
 42
0.000000001
 43
0.00000001
 40
0.0
 40
0.0
 40
0.0
 40
0.0
 40
0.2499999999999999
 40
0.2499999999999999
 40
0.4999999999999999
 40
0.4999999999999999
 40
0.7499999999999998
 40
0.7499999999999998
 40
1.0
 40
1.0
 40
1.0
 40
1.0
 10
707.8433501724775
 20
172.2288938270936
 30
0.0
 10
707.9215515874993
 20
172.0967084112347
 30
0.0
 10
707.9972615347962
 20
171.9687263927012
 30
0.0
 10
708.1525419464432
 20
171.7261023677538
 30
0.0
 10
708.2295517960259
 20
171.6156601033437
 30
0.0
 10
708.3849752820535
 20
171.4296632061505
 30
0.0
 10
708.4619249989719
 20
171.3558622273123
 30
0.0
 10
708.617354978221
 20
171.2550436429171
 30
0.0
 10
708.6944380867936
 20
171.2288938270937
 30
0.0
 10
708.7726394943587
 20
171.2288938270936
 30
0.0
  0
LINE
  5
A1
330
1F
100
AcDbEntity
  8
0
  6
Continuous
 62
     7
370
    25
100
AcDbLine
 10
708.7726394944
 20
169.8288938271
 30
0.0
 11
708.7726394944
 21
171.2288938271
 31
0.0
  0
SPLINE
  5
A2
330
1F
100
AcDbEntity
  8
0
  6
Continuous
 62
     7
370
    25
100
AcDbSpline
210
0.0
220
0.0
230
1.0
 70
     8
 71
     3
 72
    20
 73
    16
 74
     0
 42
0.000000001
 43
0.00000001
 40
0.0
 40
0.0
 40
0.0
 40
0.0
 40
0.1249999999999943
 40
0.1249999999999943
 40
0.2499999999999886
 40
0.2499999999999886
 40
0.3749999999999829
 40
0.3749999999999829
 40
0.4999999999999772
 40
0.4999999999999772
 40
0.7499999999999953
 40
0.7499999999999953
 40
0.8749999999999978
 40
0.8749999999999978
 40
1.0
 40
1.0
 40
1.0
 40
1.0
 10
117.6433501724775
 20
172.2288938270935
 30
0.0
 10
117.4849709848269
 20
172.189853096239
 30
0.0
 10
117.3287252601351
 20
172.1513343920392
 30
0.0
 10
117.0207334107184
 20
172.0739276407313
 30
0.0
 10
116.8680893032473
 20
172.0347832227446
 30
0.0
 10
116.5790050140603
 20
171.9576324688294
 30
0.0
 10
116.4412004758762
 20
171.9193048870884
 30
0.0
 10
116.1795818002372
 20
171.8417585666119
 30
0.0
 10
116.0568354935546
 20
171.8027823589432
 30
0.0
 10
115.7255111166069
 20
171.6872875024982
 30
0.0
 10
115.5464999925789
 20
171.609375058828
 30
0.0
 10
115.3668848931979
 20
171.4938951334272
 30
0.0
 10
115.3206405443303
 20
171.4550293375622
 30
0.0
 10
115.2588872383189
 20
171.3772550038936
 30
0.0
 10
115.2433501724775
 20
171.3386452369389
 30
0.0
 10
115.2433501724775
 20
171.2996045052122
 30
0.0
  0
SPLINE
  5
A3
330
1F
100
AcDbEntity
  8
0
  6
Continuous
 62
     7
370
    25
100
AcDbSpline
210
0.0
220
0.0
230
1.0
 70
     8
 71
     3
 72
    14
 73
    10
 74
     0
 42
0.000000001
 43
0.00000001
 40
0.0
 40
0.0
 40
0.0
 40
0.0
 40
0.2500000000000001
 40
0.2500000000000001
 40
0.5000000000000001
 40
0.5000000000000001
 40
0.7500000000000002
 40
0.7500000000000002
 40
1.0
 40
1.0
 40
1.0
 40
1.0
 10
117.6433501724775
 20
172.2288938270935
 30
0.0
 10
117.5111647566185
 20
172.1506924120719
 30
0.0
 10
117.3831827380851
 20
172.074982464775
 30
0.0
 10
117.1405587131377
 20
171.919702053128
 30
0.0
 10
117.0301164487275
 20
171.842692203545
 30
0.0
 10
116.8441195515341
 20
171.6872687175175
 30
0.0
 10
116.7703185726959
 20
171.6103190005991
 30
0.0
 10
116.6694999883008
 20
171.4548890213499
 30
0.0
 10
116.6433501724775
 20
171.3778059127773
 30
0.0
 10
116.6433501724775
 20
171.2996045052122
 30
0.0
  0
LINE
  5
A4
330
1F
100
AcDbEntity
  8
0
  6
Continuous
 62
     7
370
    25
100
AcDbLine
 10
115.2433501725
 20
171.2996045052
 30
0.0
 11
116.6433501725
 21
171.2996045052
 31
0.0
  0
LINE
  5
A5
330
1F
100
AcDbEntity
  8
0
  6
Continuous
 62
     7
370
    25
100
AcDbLine
 10
115.2433501725
 20
364.358183149
 30
0.0
 11
115.2433501725
 21
171.2996045052
 31
0.0
  0
SPLINE
  5
A6
330
1F
100
AcDbEntity
  8
0
  6
Continuous
 62
     7
370
    25
100
AcDbSpline
210
0.0
220
0.0
230
1.0
 70
     8
 71
     3
 72
    20
 73
    16
 74
     0
 42
0.000000001
 43
0.00000001
 40
0.0
 40
0.0
 40
0.0
 40
0.0
 40
0.1249999999999996
 40
0.1249999999999996
 40
0.2499999999999993
 40
0.2499999999999993
 40
0.374999999999999
 40
0.374999999999999
 40
0.4999999999999987
 40
0.4999999999999987
 40
0.7500000000000007
 40
0.7500000000000007
 40
0.8750000000000003
 40
0.8750000000000003
 40
1.0
 40
1.0
 40
1.0
 40
1.0
 10
115.2433501724775
 20
364.3581831489749
 30
0.0
 10
115.2433501724774
 20
364.3191424181204
 30
0.0
 10
115.2588867329523
 20
364.2806237139205
 30
0.0
 10
115.320205084913
 20
364.2032169626127
 30
0.0
 10
115.3666288304999
 20
364.164072544626
 30
0.0
 10
115.4865797006541
 20
364.0869217907108
 30
0.0
 10
115.5601843449373
 20
364.0485942089697
 30
0.0
 10
115.7349147110329
 20
363.9710478884932
 30
0.0
 10
115.8357653399346
 20
363.9320716808245
 30
0.0
 10
116.1670506199185
 20
363.8165768243795
 30
0.0
 10
116.4347307813024
 20
363.7386643807093
 30
0.0
 10
116.8674048073578
 20
363.6231844553085
 30
0.0
 10
117.0189228942088
 20
363.5843186594435
 30
0.0
 10
117.3283486515949
 20
363.5065443257749
 30
0.0
 10
117.4849709812887
 20
363.4679345588202
 30
0.0
 10
117.6433501724775
 20
363.4288938270935
 30
0.0
  0
LINE
  5
A7
330
1F
100
AcDbEntity
  8
0
  6
Continuous
 62
     7
370
    25
100
AcDbLine
 10
116.7140608506
 20
169.8288938271
 30
0.0
 11
116.7140608506
 21
171.2288938271
 31
0.0
  0
SPLINE
  5
A8
330
1F
100
AcDbEntity
  8
0
  6
Continuous
 62
     7
370
    25
100
AcDbSpline
210
0.0
220
0.0
230
1.0
 70
     8
 71
     3
 72
    14
 73
    10
 74
     0
 42
0.000000001
 43
0.00000001
 40
0.0
 40
0.0
 40
0.0
 40
0.0
 40
0.2500000000000002
 40
0.2500000000000002
 40
0.5000000000000001
 40
0.5000000000000001
 40
0.7500000000000001
 40
0.7500000000000001
 40
1.0
 40
1.0
 40
1.0
 40
1.0
 10
116.7140608505962
 20
171.2288938270936
 30
0.0
 10
116.7922622656177
 20
171.2288938270936
 30
0.0
 10
116.8679722129147
 20
171.2544524917738
 30
0.0
 10
117.0232526245617
 20
171.3545805203705
 30
0.0
 10
117.1002624741447
 20
171.4281446996749
 30
0.0
 10
117.2556859601721
 20
171.6136823353667
 30
0.0
 10
117.3326356770906
 20
171.7238472563262
 30
0.0
 10
117.4880656563397
 20
171.9664590130156
 30
0.0
 10
117.5651487649125
 20
172.0967084238386
 30
0.0
 10
117.6433501724775
 20
172.2288938270935
 30
0.0
  0
SPLINE
  5
A9
330
1F
100
AcDbEntity
  8
0
  6
Continuous
 62
     7
370
    25
100
AcDbSpline
210
0.0
220
0.0
230
1.0
 70
     8
 71
     3
 72
    20
 73
    16
 74
     0
 42
0.000000001
 43
0.00000001
 40
0.0
 40
0.0
 40
0.0
 40
0.0
 40
0.125
 40
0.125
 40
0.2499999999999999
 40
0.2499999999999999
 40
0.3749999999999999
 40
0.3749999999999999
 40
0.4999999999999999
 40
0.4999999999999999
 40
0.7499999999999998
 40
0.7499999999999998
 40
0.8749999999999998
 40
0.8749999999999998
 40
1.0
 40
1.0
 40
1.0
 40
1.0
 10
117.6433501724775
 20
363.4288938270935
 30
0.0
 10
117.6043094416228
 20
363.5872730147442
 30
0.0
 10
117.5657907374231
 20
363.7435187394359
 30
0.0
 10
117.4883839861151
 20
364.0515105888525
 30
0.0
 10
117.4492395681285
 20
364.2041546963237
 30
0.0
 10
117.3720888142134
 20
364.4932389855107
 30
0.0
 10
117.3337612324724
 20
364.6310435236948
 30
0.0
 10
117.2562149119958
 20
364.8926621993337
 30
0.0
 10
117.217238704327
 20
365.0154085060163
 30
0.0
 10
117.101743847882
 20
365.346732882964
 30
0.0
 10
117.023831404212
 20
365.5257440069923
 30
0.0
 10
116.908351478811
 20
365.7053591063732
 30
0.0
 10
116.869485682946
 20
365.7516034552409
 30
0.0
 10
116.7917113492775
 20
365.8133567612521
 30
0.0
 10
116.7531015823228
 20
365.8288938270936
 30
0.0
 10
116.7140608505962
 20
365.8288938270936
 30
0.0
  0
SPLINE
  5
AA
330
1F
100
AcDbEntity
  8
0
  6
Continuous
 62
     7
370
    25
100
AcDbSpline
210
0.0
220
0.0
230
1.0
 70
     8
 71
     3
 72
    14
 73
    10
 74
     0
 42
0.000000001
 43
0.00000001
 40
0.0
 40
0.0
 40
0.0
 40
0.0
 40
0.25
 40
0.25
 40
0.5
 40
0.5
 40
0.75
 40
0.75
 40
1.0
 40
1.0
 40
1.0
 40
1.0
 10
117.6433501724775
 20
363.4288938270935
 30
0.0
 10
117.5651487574558
 20
363.5610792429525
 30
0.0
 10
117.4894388101588
 20
363.689061261486
 30
0.0
 10
117.3341583985119
 20
363.9316852864333
 30
0.0
 10
117.2571485489288
 20
364.0421275508434
 30
0.0
 10
117.1017250629015
 20
364.2281244480366
 30
0.0
 10
117.024775345983
 20
364.301925426875
 30
0.0
 10
116.8693453667338
 20
364.4027440112702
 30
0.0
 10
116.7922622581612
 20
364.4288938270935
 30
0.0
 10
116.7140608505962
 20
364.4288938270935
 30
0.0
  0
LINE
  5
AB
330
1F
100
AcDbEntity
  8
0
  6
Continuous
 62
     7
370
    25
100
AcDbLine
 10
116.7140608506
 20
365.8288938271
 30
0.0
 11
116.7140608506
 21
364.4288938271
 31
0.0
  0
SPLINE
  5
AC
330
1F
100
AcDbEntity
  8
0
  6
Continuous
 62
     7
370
    25
100
AcDbSpline
210
0.0
220
0.0
230
1.0
 70
     8
 71
     3
 72
    20
 73
    16
 74
     0
 42
0.000000001
 43
0.00000001
 40
0.0
 40
0.0
 40
0.0
 40
0.0
 40
0.1249999999999939
 40
0.1249999999999939
 40
0.2499999999999879
 40
0.2499999999999879
 40
0.3749999999999818
 40
0.3749999999999818
 40
0.4999999999999758
 40
0.4999999999999758
 40
0.7499999999999959
 40
0.7499999999999959
 40
0.8749999999999979
 40
0.8749999999999979
 40
1.0
 40
1.0
 40
1.0
 40
1.0
 10
707.8433501724775
 20
363.4288938270935
 30
0.0
 10
708.0017293601281
 20
363.4679345579481
 30
0.0
 10
708.1579750848197
 20
363.5064532621479
 30
0.0
 10
708.4659669342362
 20
363.5838600134558
 30
0.0
 10
708.6186110417076
 20
363.6230044314425
 30
0.0
 10
708.9076953308947
 20
363.7001551853577
 30
0.0
 10
709.0454998690786
 20
363.7384827670987
 30
0.0
 10
709.3071185447176
 20
363.8160290875753
 30
0.0
 10
709.4298648514001
 20
363.8550052952439
 30
0.0
 10
709.7611892283477
 20
363.970500151689
 30
0.0
 10
709.9402003523762
 20
364.0484125953591
 30
0.0
 10
710.119815451757
 20
364.16389252076
 30
0.0
 10
710.1660598006249
 20
364.202758316625
 30
0.0
 10
710.2278131066362
 20
364.2805326502935
 30
0.0
 10
710.2433501724776
 20
364.3191424172482
 30
0.0
 10
710.2433501724774
 20
364.3581831489749
 30
0.0
  0
LINE
  5
AD
330
1F
100
AcDbEntity
  8
0
  6
Continuous
 62
     7
370
    25
100
AcDbLine
 10
710.2433501725
 20
171.2996045052
 30
0.0
 11
710.2433501725
 21
364.358183149
 31
0.0
  0
SPLINE
  5
AE
330
1F
100
AcDbEntity
  8
0
  6
Continuous
 62
     7
370
    25
100
AcDbSpline
210
0.0
220
0.0
230
1.0
 70
     8
 71
     3
 72
    20
 73
    16
 74
     0
 42
0.000000001
 43
0.00000001
 40
0.0
 40
0.0
 40
0.0
 40
0.0
 40
0.1249999999999995
 40
0.1249999999999995
 40
0.2499999999999988
 40
0.2499999999999988
 40
0.3749999999999982
 40
0.3749999999999982
 40
0.4999999999999975
 40
0.4999999999999975
 40
0.7499999999999988
 40
0.7499999999999988
 40
0.8749999999999993
 40
0.8749999999999993
 40
1.0
 40
1.0
 40
1.0
 40
1.0
 10
710.2433501724774
 20
171.2996045052123
 30
0.0
 10
710.2433501724774
 20
171.3386452360668
 30
0.0
 10
710.2278136120027
 20
171.3771639402666
 30
0.0
 10
710.1664952600422
 20
171.4545706915746
 30
0.0
 10
710.1200715144553
 20
171.4937151095612
 30
0.0
 10
710.000120644301
 20
171.5708658634764
 30
0.0
 10
709.9265160000176
 20
171.6091934452175
 30
0.0
 10
709.751785633922
 20
171.686739765694
 30
0.0
 10
709.6509350050205
 20
171.7257159733627
 30
0.0
 10
709.3196497250367
 20
171.8412108298077
 30
0.0
 10
709.0519695636528
 20
171.9191232734777
 30
0.0
 10
708.6192955375973
 20
172.0346031988786
 30
0.0
 10
708.4677774507462
 20
172.0734689947437
 30
0.0
 10
708.1583516933599
 20
172.1512433284122
 30
0.0
 10
708.0017293636661
 20
172.189853095367
 30
0.0
 10
707.8433501724775
 20
172.2288938270936
 30
0.0
  0
LINE
  5
AF
330
1F
100
AcDbEntity
  8
0
  6
Continuous
 62
     7
370
    25
100
AcDbLine
 10
710.2433501725
 20
171.2996045052
 30
0.0
 11
708.8433501725
 21
171.2996045052
 31
0.0
  0
SPLINE
  5
B0
330
1F
100
AcDbEntity
  8
0
  6
Continuous
 62
     7
370
    25
100
AcDbSpline
210
0.0
220
0.0
230
1.0
 70
     8
 71
     3
 72
    14
 73
    10
 74
     0
 42
0.000000001
 43
0.00000001
 40
0.0
 40
0.0
 40
0.0
 40
0.0
 40
0.25
 40
0.25
 40
0.5
 40
0.5
 40
0.75
 40
0.75
 40
1.0
 40
1.0
 40
1.0
 40
1.0
 10
708.8433501724775
 20
171.2996045052123
 30
0.0
 10
708.8433501724775
 20
171.3778059202339
 30
0.0
 10
708.8177915077971
 20
171.4535158675309
 30
0.0
 10
708.7176634792003
 20
171.6087962791778
 30
0.0
 10
708.6440992998961
 20
171.6858061287608
 30
0.0
 10
708.4585616642044
 20
171.8412296147884
 30
0.0
 10
708.3483967432448
 20
171.9181793317067
 30
0.0
 10
708.1057849865554
 20
172.0736093109558
 30
0.0
 10
707.9755355757325
 20
172.1506924195286
 30
0.0
 10
707.8433501724775
 20
172.2288938270936
 30
0.0
  0
LINE
  5
B1
330
1F
100
AcDbEntity
  8
0
  6
Continuous
 62
     7
370
    25
100
AcDbLine
 10
115.2433501725
 20
364.358183149
 30
0.0
 11
116.6433501725
 21
364.358183149
 31
0.0
  0
SPLINE
  5
B2
330
1F
100
AcDbEntity
  8
0
  6
Continuous
 62
     7
370
    25
100
AcDbSpline
210
0.0
220
0.0
230
1.0
 70
     8
 71
     3
 72
    14
 73
    10
 74
     0
 42
0.000000001
 43
0.00000001
 40
0.0
 40
0.0
 40
0.0
 40
0.0
 40
0.25
 40
0.25
 40
0.5
 40
0.5
 40
0.75
 40
0.75
 40
1.0
 40
1.0
 40
1.0
 40
1.0
 10
116.6433501724775
 20
364.3581831489749
 30
0.0
 10
116.6433501724775
 20
364.2799817339532
 30
0.0
 10
116.6689088371579
 20
364.2042717866563
 30
0.0
 10
116.7690368657546
 20
364.0489913750093
 30
0.0
 10
116.8426010450588
 20
363.9719815254263
 30
0.0
 10
117.0281386807506
 20
363.8165580393989
 30
0.0
 10
117.1383036017101
 20
363.7396083224805
 30
0.0
 10
117.3809153583994
 20
363.5841783432313
 30
0.0
 10
117.5111647692226
 20
363.5070952346585
 30
0.0
 10
117.6433501724775
 20
363.4288938270935
 30
0.0
  0
LINE
  5
B3
330
1F
100
AcDbEntity
  8
0
  6
Continuous
 62
     7
370
    25
100
AcDbLine
 10
708.7726394944
 20
365.8288938271
 30
0.0
 11
116.7140608506
 21
365.8288938271
 31
0.0
  0
SPLINE
  5
B4
330
1F
100
AcDbEntity
  8
0
  6
Continuous
 62
     7
370
    25
100
AcDbSpline
210
0.0
220
0.0
230
1.0
 70
     8
 71
     3
 72
    20
 73
    16
 74
     0
 42
0.000000001
 43
0.00000001
 40
0.0
 40
0.0
 40
0.0
 40
0.0
 40
0.1249999999999983
 40
0.1249999999999983
 40
0.2499999999999964
 40
0.2499999999999964
 40
0.3749999999999945
 40
0.3749999999999945
 40
0.4999999999999926
 40
0.4999999999999926
 40
0.7499999999999963
 40
0.7499999999999963
 40
0.8749999999999981
 40
0.8749999999999981
 40
1.0
 40
1.0
 40
1.0
 40
1.0
 10
708.7726394943587
 20
365.8288938270936
 30
0.0
 10
708.7335987635043
 20
365.8288938270936
 30
0.0
 10
708.6950800593044
 20
365.8133572666187
 30
0.0
 10
708.6176733079964
 20
365.7520389146581
 30
0.0
 10
708.5785288900099
 20
365.7056151690713
 30
0.0
 10
708.5013781360947
 20
365.5856642989172
 30
0.0
 10
708.4630505543537
 20
365.5120596546337
 30
0.0
 10
708.3855042338771
 20
365.3373292885381
 30
0.0
 10
708.3465280262085
 20
365.2364786596366
 30
0.0
 10
708.2310331697634
 20
364.9051933796526
 30
0.0
 10
708.1531207260931
 20
364.6375132182687
 30
0.0
 10
708.0376408006923
 20
364.2048391922133
 30
0.0
 10
707.9987750048273
 20
364.0533211053622
 30
0.0
 10
707.921000671159
 20
363.7438953479761
 30
0.0
 10
707.8823909042043
 20
363.5872730182824
 30
0.0
 10
707.8433501724775
 20
363.4288938270936
 30
0.0
  0
SPLINE
  5
B5
330
1F
100
AcDbEntity
  8
0
  6
Continuous
 62
     7
370
    25
100
AcDbSpline
210
0.0
220
0.0
230
1.0
 70
     8
 71
     3
 72
    14
 73
    10
 74
     0
 42
0.000000001
 43
0.00000001
 40
0.0
 40
0.0
 40
0.0
 40
0.0
 40
0.2500000000000001
 40
0.2500000000000001
 40
0.5000000000000002
 40
0.5000000000000002
 40
0.7500000000000003
 40
0.7500000000000003
 40
1.0
 40
1.0
 40
1.0
 40
1.0
 10
707.8433501724775
 20
363.4288938270935
 30
0.0
 10
707.9755355883364
 20
363.5070952421152
 30
0.0
 10
708.10351760687
 20
363.5828051894121
 30
0.0
 10
708.3461416318173
 20
363.7380856010591
 30
0.0
 10
708.4565838962272
 20
363.8150954506421
 30
0.0
 10
708.6425807934207
 20
363.9705189366696
 30
0.0
 10
708.7163817722591
 20
364.0474686535881
 30
0.0
 10
708.8172003566541
 20
364.2028986328372
 30
0.0
 10
708.8433501724776
 20
364.2799817414099
 30
0.0
 10
708.8433501724775
 20
364.3581831489749
 30
0.0
  0
LINE
  5
B6
330
1F
100
AcDbEntity
  8
0
  6
Continuous
 62
     7
370
    25
100
AcDbLine
 10
710.2433501725
 20
364.358183149
 30
0.0
 11
708.8433501725
 21
364.358183149
 31
0.0
  0
LINE
  5
B7
330
1F
100
AcDbEntity
  8
0
  6
Continuous
 62
     7
370
    25
100
AcDbLine
 10
708.7726394944
 20
365.8288938271
 30
0.0
 11
708.7726394944
 21
364.4288938271
 31
0.0
  0
SPLINE
  5
B8
330
1F
100
AcDbEntity
  8
0
  6
Continuous
 62
     7
370
    25
100
AcDbSpline
210
0.0
220
0.0
230
1.0
 70
     8
 71
     3
 72
    14
 73
    10
 74
     0
 42
0.000000001
 43
0.00000001
 40
0.0
 40
0.0
 40
0.0
 40
0.0
 40
0.2500000000000002
 40
0.2500000000000002
 40
0.5000000000000001
 40
0.5000000000000001
 40
0.7500000000000001
 40
0.7500000000000001
 40
1.0
 40
1.0
 40
1.0
 40
1.0
 10
708.7726394943587
 20
364.4288938270935
 30
0.0
 10
708.6944380793374
 20
364.4288938270936
 30
0.0
 10
708.6187281320401
 20
364.4033351624133
 30
0.0
 10
708.4634477203932
 20
364.3032071338166
 30
0.0
 10
708.3864378708104
 20
364.2296429545123
 30
0.0
 10
708.2310143847827
 20
364.0441053188205
 30
0.0
 10
708.1540646678643
 20
363.933940397861
 30
0.0
 10
707.9986346886151
 20
363.6913286411715
 30
0.0
 10
707.9215515800425
 20
363.5610792303485
 30
0.0
 10
707.8433501724775
 20
363.4288938270936
 30
0.0
  0
CIRCLE
  5
B9
330
1F
100
AcDbEntity
  8
0
  6
Continuous
 62
     7
370
    25
100
AcDbCircle
 10
171.2433501725
 20
317.8288938271
 30
0.0
 40
5.500000000000167
  0
ARC
  5
BA
330
1F
100
AcDbEntity
  8
0
  6
Continuous
 62
     7
370
    25
100
AcDbCircle
 10
173.4233600741
 20
318.8858299419
 30
0.0
 40
0.5050994627335303
100
AcDbArc
 50
298.8005827702
 51
112.9304972368
  0
ARC
  5
BB
330
1F
100
AcDbEntity
  8
0
  6
Continuous
 62
     7
370
    25
100
AcDbCircle
 10
171.2433501725
 20
317.8288938271
 30
0.0
 40
2.499999999999994
100
AcDbArc
 50
37.506301084
 51
74.2247789229
  0
ARC
  5
BC
330
1F
100
AcDbEntity
  8
0
  6
Continuous
 62
     7
370
    25
100
AcDbCircle
 10
171.4180215977
 20
320.2453058398
 30
0.0
 40
0.5050994627349352
100
AcDbArc
 50
358.800582771
 51
172.930497236
  0
ARC
  5
BD
330
1F
100
AcDbEntity
  8
0
  6
Continuous
 62
     7
370
    25
100
AcDbCircle
 10
171.2433501725
 20
317.8288938271
 30
0.0
 40
2.499999999999999
100
AcDbArc
 50
97.5063010841
 51
134.2247789229
  0
ARC
  5
BE
330
1F
100
AcDbEntity
  8
0
  6
Continuous
 62
     7
370
    25
100
AcDbCircle
 10
169.2380116961
 20
319.188369725
 30
0.0
 40
0.5050994627351638
100
AcDbArc
 50
58.8005827697
 51
232.9304972372
  0
ARC
  5
BF
330
1F
100
AcDbEntity
  8
0
  6
Continuous
 62
     7
370
    25
100
AcDbCircle
 10
171.2433501725
 20
317.8288938271
 30
0.0
 40
2.499999999999954
100
AcDbArc
 50
157.5063010841
 51
194.2247789229
  0
ARC
  5
C0
330
1F
100
AcDbEntity
  8
0
  6
Continuous
 62
     7
370
    25
100
AcDbCircle
 10
169.0633402709
 20
316.7719577123
 30
0.0
 40
0.5050994627332729
100
AcDbArc
 50
118.8005827707
 51
292.9304972361
  0
ARC
  5
C1
330
1F
100
AcDbEntity
  8
0
  6
Continuous
 62
     7
370
    25
100
AcDbCircle
 10
171.2433501725
 20
317.8288938271
 30
0.0
 40
2.499999999999956
100
AcDbArc
 50
217.506301084
 51
254.2247789229
  0
ARC
  5
C2
330
1F
100
AcDbEntity
  8
0
  6
Continuous
 62
     7
370
    25
100
AcDbCircle
 10
171.0686787473
 20
315.4124818144
 30
0.0
 40
0.5050994627365893
100
AcDbArc
 50
178.8005827716
 51
352.9304972354
  0
ARC
  5
C3
330
1F
100
AcDbEntity
  8
0
  6
Continuous
 62
     7
370
    25
100
AcDbCircle
 10
171.2433501725
 20
317.8288938271
 30
0.0
 40
2.49999999999994
100
AcDbArc
 50
277.5063010841
 51
314.2247789229
  0
ARC
  5
C4
330
1F
100
AcDbEntity
  8
0
  6
Continuous
 62
     7
370
    25
100
AcDbCircle
 10
173.2486886489
 20
316.4694179292
 30
0.0
 40
0.5050994627355169
100
AcDbArc
 50
238.8005827701
 51
52.9304972368
  0
ARC
  5
C5
330
1F
100
AcDbEntity
  8
0
  6
Continuous
 62
     7
370
    25
100
AcDbCircle
 10
171.2433501725
 20
317.8288938271
 30
0.0
 40
2.499999999999946
100
AcDbArc
 50
337.5063010841
 51
14.2247789229
  0
CIRCLE
  5
C6
330
1F
100
AcDbEntity
  8
0
  6
Continuous
 62
     7
370
    25
100
AcDbCircle
 10
654.2433501725
 20
317.8288938271
 30
0.0
 40
5.500000000000091
  0
ARC
  5
C7
330
1F
100
AcDbEntity
  8
0
  6
Continuous
 62
     7
370
    25
100
AcDbCircle
 10
654.27601703
 20
320.2513904728
 30
0.0
 40
0.5050994627334864
100
AcDbArc
 50
2.1624680629
 51
176.2923825295
  0
ARC
  5
C8
330
1F
100
AcDbEntity
  8
0
  6
Continuous
 62
     7
370
    25
100
AcDbCircle
 10
654.2433501725
 20
317.8288938271
 30
0.0
 40
2.499999999999925
100
AcDbArc
 50
160.8681863768
 51
197.5866642156
  0
ARC
  5
C9
330
1F
100
AcDbEntity
  8
0
  6
Continuous
 62
     7
370
    25
100
AcDbCircle
 10
652.129073108
 20
316.6459358327
 30
0.0
 40
0.5050994627351374
100
AcDbArc
 50
122.1624680624
 51
296.2923825299
  0
ARC
  5
CA
330
1F
100
AcDbEntity
  8
0
  6
Continuous
 62
     7
370
    25
100
AcDbCircle
 10
654.2433501725
 20
317.8288938271
 30
0.0
 40
2.499999999999949
100
AcDbArc
 50
220.8681863768
 51
257.5866642156
  0
ARC
  5
CB
330
1F
100
AcDbEntity
  8
0
  6
Continuous
 62
     7
370
    25
100
AcDbCircle
 10
654.210683315
 20
315.4063971814
 30
0.0
 40
0.5050994627332654
100
AcDbArc
 50
182.1624680634
 51
356.2923825288
  0
ARC
  5
CC
330
1F
100
AcDbEntity
  8
0
  6
Continuous
 62
     7
370
    25
100
AcDbCircle
 10
654.2433501725
 20
317.8288938271
 30
0.0
 40
2.499999999999934
100
AcDbArc
 50
280.8681863767
 51
317.5866642156
  0
ARC
  5
CD
330
1F
100
AcDbEntity
  8
0
  6
Continuous
 62
     7
370
    25
100
AcDbCircle
 10
656.3249603795
 20
316.5893551758
 30
0.0
 40
0.5050994627366573
100
AcDbArc
 50
242.1624680643
 51
56.2923825281
  0
ARC
  5
CE
330
1F
100
AcDbEntity
  8
0
  6
Continuous
 62
     7
370
    25
100
AcDbCircle
 10
652.1617399655
 20
319.0684324784
 30
0.0
 40
0.5050994627349373
100
AcDbArc
 50
62.1624680637
 51
236.2923825287
  0
ARC
  5
CF
330
1F
100
AcDbEntity
  8
0
  6
Continuous
 62
     7
370
    25
100
AcDbCircle
 10
656.357627237
 20
319.0118518215
 30
0.0
 40
0.5050994627355608
100
AcDbArc
 50
302.1624680628
 51
116.2923825295
  0
ARC
  5
D0
330
1F
100
AcDbEntity
  8
0
  6
Continuous
 62
     7
370
    25
100
AcDbCircle
 10
654.2433501725
 20
317.8288938271
 30
0.0
 40
2.499999999999982
100
AcDbArc
 50
340.8681863768
 51
17.5866642156
  0
ARC
  5
D1
330
1F
100
AcDbEntity
  8
0
  6
Continuous
 62
     7
370
    25
100
AcDbCircle
 10
654.2433501725
 20
317.8288938271
 30
0.0
 40
2.499999999999985
100
AcDbArc
 50
40.8681863768
 51
77.5866642156
  0
ARC
  5
D2
330
1F
100
AcDbEntity
  8
0
  6
Continuous
 62
     7
370
    25
100
AcDbCircle
 10
654.2433501725
 20
317.8288938271
 30
0.0
 40
2.499999999999936
100
AcDbArc
 50
100.8681863767
 51
137.5866642156
  0
CIRCLE
  5
D3
330
1F
100
AcDbEntity
  8
0
  6
Continuous
 62
     7
370
    25
100
AcDbCircle
 10
654.2433501725
 20
217.8288938271
 30
0.0
 40
5.500000000000113
  0
ARC
  5
D4
330
1F
100
AcDbEntity
  8
0
  6
Continuous
 62
     7
370
    25
100
AcDbCircle
 10
656.184580767
 20
216.3793487603
 30
0.0
 40
0.5050994627352254
100
AcDbArc
 50
236.1858115763
 51
50.3157260438
  0
ARC
  5
D5
330
1F
100
AcDbEntity
  8
0
  6
Continuous
 62
     7
370
    25
100
AcDbCircle
 10
654.2433501725
 20
217.8288938271
 30
0.0
 40
2.499999999999981
100
AcDbArc
 50
334.8915298906
 51
11.6100077295
  0
ARC
  5
D6
330
1F
100
AcDbEntity
  8
0
  6
Continuous
 62
     7
370
    25
100
AcDbCircle
 10
656.4693083215
 20
218.7852763032
 30
0.0
 40
0.5050994627332835
100
AcDbArc
 50
296.1858115773
 51
110.3157260427
  0
ARC
  5
D7
330
1F
100
AcDbEntity
  8
0
  6
Continuous
 62
     7
370
    25
100
AcDbCircle
 10
654.2433501725
 20
217.8288938271
 30
0.0
 40
2.499999999999954
100
AcDbArc
 50
34.8915298906
 51
71.6100077295
  0
ARC
  5
D8
330
1F
100
AcDbEntity
  8
0
  6
Continuous
 62
     7
370
    25
100
AcDbCircle
 10
654.2433501725
 20
217.8288938271
 30
0.0
 40
2.499999999999965
100
AcDbArc
 50
274.8915298907
 51
311.6100077294
  0
ARC
  5
D9
330
1F
100
AcDbEntity
  8
0
  6
Continuous
 62
     7
370
    25
100
AcDbCircle
 10
654.2433501725
 20
217.8288938271
 30
0.0
 40
2.499999999999963
100
AcDbArc
 50
214.8915298906
 51
251.6100077295
  0
ARC
  5
DA
330
1F
100
AcDbEntity
  8
0
  6
Continuous
 62
     7
370
    25
100
AcDbCircle
 10
652.3021195779
 20
219.2784388939
 30
0.0
 40
0.5050994627355311
100
AcDbArc
 50
56.1858115767
 51
230.3157260434
  0
ARC
  5
DB
330
1F
100
AcDbEntity
  8
0
  6
Continuous
 62
     7
370
    25
100
AcDbCircle
 10
654.528077727
 20
220.23482137
 30
0.0
 40
0.5050994627365983
100
AcDbArc
 50
356.1858115782
 51
170.315726042
  0
ARC
  5
DC
330
1F
100
AcDbEntity
  8
0
  6
Continuous
 62
     7
370
    25
100
AcDbCircle
 10
654.2433501725
 20
217.8288938271
 30
0.0
 40
2.499999999999944
100
AcDbArc
 50
154.8915298906
 51
191.6100077295
  0
ARC
  5
DD
330
1F
100
AcDbEntity
  8
0
  6
Continuous
 62
     7
370
    25
100
AcDbCircle
 10
653.958622618
 20
215.4229662842
 30
0.0
 40
0.5050994627350468
100
AcDbArc
 50
176.1858115776
 51
350.3157260426
  0
ARC
  5
DE
330
1F
100
AcDbEntity
  8
0
  6
Continuous
 62
     7
370
    25
100
AcDbCircle
 10
654.2433501725
 20
217.8288938271
 30
0.0
 40
2.499999999999961
100
AcDbArc
 50
94.8915298907
 51
131.6100077294
  0
ARC
  5
DF
330
1F
100
AcDbEntity
  8
0
  6
Continuous
 62
     7
370
    25
100
AcDbCircle
 10
652.0173920234
 20
216.872511351
 30
0.0
 40
0.5050994627335086
100
AcDbArc
 50
116.1858115767
 51
290.3157260434
  0
CIRCLE
  5
E0
330
1F
100
AcDbEntity
  8
0
  6
Continuous
 62
     7
370
    25
100
AcDbCircle
 10
171.2433501725
 20
217.8288938271
 30
0.0
 40
5.500000000000095
  0
ARC
  5
E1
330
1F
100
AcDbEntity
  8
0
  6
Continuous
 62
     7
370
    25
100
AcDbCircle
 10
173.4233600741
 20
218.8858299419
 30
0.0
 40
0.5050994627334932
100
AcDbArc
 50
298.8005827702
 51
112.9304972368
  0
ARC
  5
E2
330
1F
100
AcDbEntity
  8
0
  6
Continuous
 62
     7
370
    25
100
AcDbCircle
 10
171.2433501725
 20
217.8288938271
 30
0.0
 40
2.499999999999967
100
AcDbArc
 50
37.506301084
 51
74.2247789229
  0
ARC
  5
E3
330
1F
100
AcDbEntity
  8
0
  6
Continuous
 62
     7
370
    25
100
AcDbCircle
 10
171.4180215977
 20
220.2453058398
 30
0.0
 40
0.5050994627349352
100
AcDbArc
 50
358.800582771
 51
172.930497236
  0
ARC
  5
E4
330
1F
100
AcDbEntity
  8
0
  6
Continuous
 62
     7
370
    25
100
AcDbCircle
 10
171.2433501725
 20
217.8288938271
 30
0.0
 40
2.499999999999943
100
AcDbArc
 50
97.5063010841
 51
134.2247789229
  0
ARC
  5
E5
330
1F
100
AcDbEntity
  8
0
  6
Continuous
 62
     7
370
    25
100
AcDbCircle
 10
169.2380116961
 20
219.188369725
 30
0.0
 40
0.5050994627351659
100
AcDbArc
 50
58.8005827697
 51
232.9304972372
  0
ARC
  5
E6
330
1F
100
AcDbEntity
  8
0
  6
Continuous
 62
     7
370
    25
100
AcDbCircle
 10
171.2433501725
 20
217.8288938271
 30
0.0
 40
2.499999999999932
100
AcDbArc
 50
157.5063010841
 51
194.2247789229
  0
ARC
  5
E7
330
1F
100
AcDbEntity
  8
0
  6
Continuous
 62
     7
370
    25
100
AcDbCircle
 10
169.0633402709
 20
216.7719577123
 30
0.0
 40
0.5050994627332623
100
AcDbArc
 50
118.8005827707
 51
292.9304972361
  0
ARC
  5
E8
330
1F
100
AcDbEntity
  8
0
  6
Continuous
 62
     7
370
    25
100
AcDbCircle
 10
171.2433501725
 20
217.8288938271
 30
0.0
 40
2.499999999999956
100
AcDbArc
 50
217.506301084
 51
254.2247789229
  0
ARC
  5
E9
330
1F
100
AcDbEntity
  8
0
  6
Continuous
 62
     7
370
    25
100
AcDbCircle
 10
171.0686787473
 20
215.4124818144
 30
0.0
 40
0.5050994627365929
100
AcDbArc
 50
178.8005827716
 51
352.9304972354
  0
ARC
  5
EA
330
1F
100
AcDbEntity
  8
0
  6
Continuous
 62
     7
370
    25
100
AcDbCircle
 10
171.2433501725
 20
217.8288938271
 30
0.0
 40
2.49999999999994
100
AcDbArc
 50
277.5063010841
 51
314.2247789229
  0
ARC
  5
EB
330
1F
100
AcDbEntity
  8
0
  6
Continuous
 62
     7
370
    25
100
AcDbCircle
 10
173.2486886489
 20
216.4694179292
 30
0.0
 40
0.5050994627355284
100
AcDbArc
 50
238.8005827701
 51
52.9304972368
  0
ARC
  5
EC
330
1F
100
AcDbEntity
  8
0
  6
Continuous
 62
     7
370
    25
100
AcDbCircle
 10
171.2433501725
 20
217.8288938271
 30
0.0
 40
2.499999999999946
100
AcDbArc
 50
337.5063010841
 51
14.2247789229
  0
LINE
  5
ED
330
1F
100
AcDbEntity
  8
0
  6
Continuous
 62
     7
370
    25
100
AcDbLine
 10
159.7433501725
 20
400.3288938271
 30
0.0
 11
160.5433501725
 21
400.3288938271
 31
0.0
  0
LINE
  5
EE
330
1F
100
AcDbEntity
  8
0
  6
Continuous
 62
     7
370
    25
100
AcDbLine
 10
159.7433501725
 20
397.3288938271
 30
0.0
 11
159.7433501725
 21
400.3288938271
 31
0.0
  0
LINE
  5
EF
330
1F
100
AcDbEntity
  8
0
  6
Continuous
 62
     7
370
    25
100
AcDbLine
 10
160.5433501725
 20
400.3288938271
 30
0.0
 11
160.5433501725
 21
397.3288938271
 31
0.0
  0
LINE
  5
F0
330
1F
100
AcDbEntity
  8
0
  6
Continuous
 62
     7
370
    25
100
AcDbLine
 10
159.7433501725
 20
380.3288938271
 30
0.0
 11
159.7433501725
 21
397.3288938271
 31
0.0
  0
LINE
  5
F1
330
1F
100
AcDbEntity
  8
0
  6
Continuous
 62
     7
370
    25
100
AcDbLine
 10
160.5433501725
 20
380.3288938271
 30
0.0
 11
160.5433501725
 21
397.3288938271
 31
0.0
  0
LINE
  5
F2
330
1F
100
AcDbEntity
  8
0
  6
Continuous
 62
     7
370
    25
100
AcDbLine
 10
159.7433501725
 20
380.3288938271
 30
0.0
 11
160.5433501725
 21
380.3288938271
 31
0.0
  0
LINE
  5
F3
330
1F
100
AcDbEntity
  8
0
  6
Continuous
 62
     7
370
    25
100
AcDbLine
 10
664.9433501725
 20
400.3288938271
 30
0.0
 11
665.7433501725
 21
400.3288938271
 31
0.0
  0
LINE
  5
F4
330
1F
100
AcDbEntity
  8
0
  6
Continuous
 62
     7
370
    25
100
AcDbLine
 10
664.9433501725
 20
397.3288938271
 30
0.0
 11
664.9433501725
 21
400.3288938271
 31
0.0
  0
LINE
  5
F5
330
1F
100
AcDbEntity
  8
0
  6
Continuous
 62
     7
370
    25
100
AcDbLine
 10
665.7433501725
 20
400.3288938271
 30
0.0
 11
665.7433501725
 21
397.3288938271
 31
0.0
  0
LINE
  5
F6
330
1F
100
AcDbEntity
  8
0
  6
Continuous
 62
     7
370
    25
100
AcDbLine
 10
665.7433501725
 20
380.3288938271
 30
0.0
 11
664.9433501725
 21
380.3288938271
 31
0.0
  0
LINE
  5
F7
330
1F
100
AcDbEntity
  8
0
  6
Continuous
 62
     7
370
    25
100
AcDbLine
 10
664.9433501725
 20
397.3288938271
 30
0.0
 11
664.9433501725
 21
380.3288938271
 31
0.0
  0
LINE
  5
F8
330
1F
100
AcDbEntity
  8
0
  6
Continuous
 62
     7
370
    25
100
AcDbLine
 10
665.7433501725
 20
397.3288938271
 30
0.0
 11
665.7433501725
 21
380.3288938271
 31
0.0
  0
LINE
  5
F9
330
1F
100
AcDbEntity
  8
0
  6
Continuous
 62
     7
370
    25
100
AcDbLine
 10
159.7433501725
 20
365.8288938271
 30
0.0
 11
159.7433501725
 21
380.3288938271
 31
0.0
  0
LINE
  5
FA
330
1F
100
AcDbEntity
  8
0
  6
Continuous
 62
     7
370
    25
100
AcDbLine
 10
160.5433501725
 20
365.8288938271
 30
0.0
 11
160.5433501725
 21
377.1288938271
 31
0.0
  0
LINE
  5
FB
330
1F
100
AcDbEntity
  8
0
  6
Continuous
 62
     7
370
    25
100
AcDbLine
 10
160.5433501725
 20
378.8288938271
 30
0.0
 11
160.5433501725
 21
380.3288938271
 31
0.0
  0
LINE
  5
FC
330
1F
100
AcDbEntity
  8
0
  6
Continuous
 62
     7
370
    25
100
AcDbLine
 10
664.9433501725
 20
380.3288938271
 30
0.0
 11
664.9433501725
 21
378.8288938271
 31
0.0
  0
LINE
  5
FD
330
1F
100
AcDbEntity
  8
0
  6
Continuous
 62
     7
370
    25
100
AcDbLine
 10
664.9433501725
 20
377.1288938271
 30
0.0
 11
664.9433501725
 21
365.8288938271
 31
0.0
  0
LINE
  5
FE
330
1F
100
AcDbEntity
  8
0
  6
Continuous
 62
     7
370
    25
100
AcDbLine
 10
665.7433501725
 20
380.3288938271
 30
0.0
 11
665.7433501725
 21
365.8288938271
 31
0.0
  0
LINE
  5
FF
330
1F
100
AcDbEntity
  8
0
  6
Continuous
 62
     7
370
    25
100
AcDbLine
 10
674.4021001725
 20
365.8288938271
 30
0.0
 11
674.4021001725
 21
371.8288938271
 31
0.0
  0
LINE
  5
100
330
1F
100
AcDbEntity
  8
0
  6
Continuous
 62
     7
370
    25
100
AcDbLine
 10
674.9433501725
 20
366.9445009114
 30
0.0
 11
674.9433501725
 21
371.2876438271
 31
0.0
  0
LINE
  5
101
330
1F
100
AcDbEntity
  8
0
  6
Continuous
 62
     7
370
    25
100
AcDbLine
 10
674.9433501725
 20
366.3701438271
 30
0.0
 11
674.9433501725
 21
366.9445009114
 31
0.0
  0
LINE
  5
102
330
1F
100
AcDbEntity
  8
0
  6
Continuous
 62
     7
370
    25
100
AcDbLine
 10
160.3224199399
 20
378.8288938271
 30
0.0
 11
665.164280405
 21
378.8288938271
 31
0.0
  0
ELLIPSE
  5
103
330
1F
100
AcDbEntity
  8
0
  6
Continuous
 62
     7
370
    25
100
AcDbEllipse
 10
665.164280405
 20
377.9788938271
 30
0.0
 11
0.0
 21
0.8500000000000227
 31
0.0
210
0.0
220
0.0
230
1.0
 40
0.0930232558
 41
3.141592653589792
 42
6.283185307179586
  0
LINE
  5
104
330
1F
100
AcDbEntity
  8
0
  6
Continuous
 62
     7
370
    25
100
AcDbLine
 10
160.3224199399
 20
377.1288938271
 30
0.0
 11
665.164280405
 21
377.1288938271
 31
0.0
  0
ELLIPSE
  5
105
330
1F
100
AcDbEntity
  8
0
  6
Continuous
 62
     7
370
    25
100
AcDbEllipse
 10
160.3224199399
 20
377.9788938271
 30
0.0
 11
0.0
 21
0.8500000000000227
 31
0.0
210
0.0
220
0.0
230
1.0
 40
0.0930232558
 41
0.0
 42
3.141592653589076
  0
LINE
  5
106
330
1F
100
AcDbEntity
  8
0
  6
Continuous
 62
     7
370
    25
100
AcDbLine
 10
664.2433501725
 20
377.0288938271
 30
0.0
 11
664.2433501725
 21
377.1288938271
 31
0.0
  0
LINE
  5
107
330
1F
100
AcDbEntity
  8
0
  6
Continuous
 62
     7
370
    25
100
AcDbLine
 10
161.2433501725
 20
377.1288938271
 30
0.0
 11
161.2433501725
 21
377.0288938271
 31
0.0
  0
LINE
  5
108
330
1F
100
AcDbEntity
  8
0
  6
Continuous
 62
     7
370
    25
100
AcDbLine
 10
664.2433501725
 20
365.8288938271
 30
0.0
 11
664.2433501725
 21
377.0288938271
 31
0.0
  0
LINE
  5
109
330
1F
100
AcDbEntity
  8
0
  6
Continuous
 62
     7
370
    25
100
AcDbLine
 10
161.2433501725
 20
377.0288938271
 30
0.0
 11
161.2433501725
 21
365.8288938271
 31
0.0
  0
LINE
  5
10A
330
1F
100
AcDbEntity
  8
0
  6
Continuous
 62
     7
370
    25
100
AcDbLine
 10
150.5433501725
 20
371.2876438271
 30
0.0
 11
150.5433501725
 21
366.3701438271
 31
0.0
  0
LINE
  5
10B
330
1F
100
AcDbEntity
  8
0
  6
Continuous
 62
     7
370
    25
100
AcDbLine
 10
151.0846001725
 20
370.1252596734
 30
0.0
 11
151.0846001725
 21
365.8288938271
 31
0.0
  0
LINE
  5
10C
330
1F
100
AcDbEntity
  8
0
  6
Continuous
 62
     7
370
    25
100
AcDbLine
 10
151.0846001725
 20
371.8288938271
 30
0.0
 11
151.0846001725
 21
370.1252596734
 31
0.0
  0
ARC
  5
10D
330
1F
100
AcDbEntity
  8
0
  6
Continuous
 62
     7
370
    25
100
AcDbCircle
 10
654.0688164875
 20
370.4051078377
 30
0.0
 40
12.03669752932122
100
AcDbArc
 50
186.2565722693
 51
191.9710500657
  0
LINE
  5
10E
330
1F
100
AcDbEntity
  8
0
  6
Continuous
 62
     7
370
    25
100
AcDbLine
 10
642.2938867036
 20
367.9084869221
 30
0.0
 11
643.7459624275
 21
368.1414307872
 31
0.0
  0
ARC
  5
10F
330
1F
100
AcDbEntity
  8
0
  6
Continuous
 62
     7
370
    25
100
AcDbCircle
 10
642.6671361618
 20
378.6543601421
 30
0.0
 40
12.03669752930088
100
AcDbArc
 50
276.2565722693
 51
281.9710500657
  0
LINE
  5
110
330
1F
100
AcDbEntity
  8
0
  6
Continuous
 62
     7
370
    25
100
AcDbLine
 10
644.9308132123
 20
368.3315060821
 30
0.0
 11
645.1637570775
 21
366.8794303582
 31
0.0
  0
LINE
  5
111
330
1F
100
AcDbEntity
  8
0
  6
Continuous
 62
     7
370
    25
100
AcDbLine
 10
644.9308132123
 20
368.3315060821
 30
0.0
 11
646.3828889363
 21
368.5644499473
 31
0.0
  0
ARC
  5
112
330
1F
100
AcDbEntity
  8
0
  6
Continuous
 62
     7
370
    25
100
AcDbCircle
 10
634.4178838574
 20
367.2526798165
 30
0.0
 40
12.03669752935192
100
AcDbArc
 50
6.2565722694
 51
11.9710500657
  0
LINE
  5
113
330
1F
100
AcDbEntity
  8
0
  6
Continuous
 62
     7
370
    25
100
AcDbLine
 10
644.7407379174
 20
369.516356867
 30
0.0
 11
646.1928136414
 21
369.7493007321
 31
0.0
  0
LINE
  5
114
330
1F
100
AcDbEntity
  8
0
  6
Continuous
 62
     7
370
    25
100
AcDbLine
 10
644.5077940522
 20
370.9684325909
 30
0.0
 11
644.7407379174
 21
369.516356867
 31
0.0
  0
ARC
  5
115
330
1F
100
AcDbEntity
  8
0
  6
Continuous
 62
     7
370
    25
100
AcDbCircle
 10
645.8195641831
 20
359.0034275121
 30
0.0
 40
12.03669752933262
100
AcDbArc
 50
96.2565722693
 51
101.9710500657
  0
ARC
  5
116
330
1F
100
AcDbEntity
  8
0
  6
Continuous
 62
     7
370
    25
100
AcDbCircle
 10
644.2433501725
 20
368.8288938271
 30
0.0
 40
3.999999999999974
100
AcDbArc
 50
311.4096221093
 51
99.1138111675
  0
ARC
  5
117
330
1F
100
AcDbEntity
  8
0
  6
Continuous
 62
     7
370
    25
100
AcDbCircle
 10
644.2433501725
 20
368.8288938271
 30
0.0
 40
3.999999999999974
100
AcDbArc
 50
99.1138111675
 51
228.5903778907
  0
LINE
  5
118
330
1F
100
AcDbEntity
  8
0
  6
Continuous
 62
     7
370
    25
100
AcDbLine
 10
643.7459624275
 20
368.1414307872
 30
0.0
 11
643.9789062927
 21
366.6893550633
 31
0.0
  0
LINE
  5
119
330
1F
100
AcDbEntity
  8
0
  6
Continuous
 62
     7
370
    25
100
AcDbLine
 10
643.3229432674
 20
370.778357296
 30
0.0
 11
643.5558871326
 21
369.326281572
 31
0.0
  0
LINE
  5
11A
330
1F
100
AcDbEntity
  8
0
  6
Continuous
 62
     7
370
    25
100
AcDbLine
 10
642.1038114087
 20
369.0933377069
 30
0.0
 11
643.5558871326
 21
369.326281572
 31
0.0
  0
LINE
  5
11B
330
1F
100
AcDbEntity
  8
0
  6
Continuous
 62
     7
370
    25
100
AcDbLine
 10
644.8888442655
 20
369.5401162788
 30
0.0
 11
645.0789195604
 21
368.355265494
 31
0.0
  0
LINE
  5
11C
330
1F
100
AcDbEntity
  8
0
  6
Continuous
 62
     7
370
    25
100
AcDbLine
 10
644.7169785056
 20
369.6644632151
 30
0.0
 11
643.5321277208
 21
369.4743879201
 31
0.0
  0
LINE
  5
11D
330
1F
100
AcDbEntity
  8
0
  6
Continuous
 62
     7
370
    25
100
AcDbLine
 10
644.9545726242
 20
368.183399734
 30
0.0
 11
643.7697218394
 21
367.9933244391
 31
0.0
  0
LINE
  5
11E
330
1F
100
AcDbEntity
  8
0
  6
Continuous
 62
     7
370
    25
100
AcDbLine
 10
643.4077807845
 20
369.3025221602
 30
0.0
 11
643.5978560794
 21
368.1176713754
 31
0.0
  0
ARC
  5
11F
330
1F
100
AcDbEntity
  8
0
  6
Continuous
 62
     7
370
    25
100
AcDbCircle
 10
341.0688164875
 20
370.4051078377
 30
0.0
 40
12.03669752932411
100
AcDbArc
 50
186.2565722693
 51
191.9710500657
  0
ARC
  5
120
330
1F
100
AcDbEntity
  8
0
  6
Continuous
 62
     7
370
    25
100
AcDbCircle
 10
329.6671361618
 20
378.6543601421
 30
0.0
 40
12.03669752931937
100
AcDbArc
 50
276.2565722693
 51
281.9710500657
  0
ARC
  5
121
330
1F
100
AcDbEntity
  8
0
  6
Continuous
 62
     7
370
    25
100
AcDbCircle
 10
321.4178838574
 20
367.2526798165
 30
0.0
 40
12.036697529351
100
AcDbArc
 50
6.2565722694
 51
11.9710500657
  0
ARC
  5
122
330
1F
100
AcDbEntity
  8
0
  6
Continuous
 62
     7
370
    25
100
AcDbCircle
 10
332.8195641831
 20
359.003427512
 30
0.0
 40
12.03669752934884
100
AcDbArc
 50
96.2565722694
 51
101.9710500657
  0
ARC
  5
123
330
1F
100
AcDbEntity
  8
0
  6
Continuous
 62
     7
370
    25
100
AcDbCircle
 10
331.2433501725
 20
368.8288938271
 30
0.0
 40
4.000000000000012
100
AcDbArc
 50
311.4096221093
 51
99.1138111675
  0
ARC
  5
124
330
1F
100
AcDbEntity
  8
0
  6
Continuous
 62
     7
370
    25
100
AcDbCircle
 10
331.2433501725
 20
368.8288938271
 30
0.0
 40
4.000000000000012
100
AcDbArc
 50
99.1138111675
 51
228.5903778907
  0
LINE
  5
125
330
1F
100
AcDbEntity
  8
0
  6
Continuous
 62
     7
370
    25
100
AcDbLine
 10
330.7459624275
 20
368.1414307872
 30
0.0
 11
330.9789062927
 21
366.6893550633
 31
0.0
  0
LINE
  5
126
330
1F
100
AcDbEntity
  8
0
  6
Continuous
 62
     7
370
    25
100
AcDbLine
 10
329.1038114087
 20
369.0933377069
 30
0.0
 11
330.5558871326
 21
369.326281572
 31
0.0
  0
LINE
  5
127
330
1F
100
AcDbEntity
  8
0
  6
Continuous
 62
     7
370
    25
100
AcDbLine
 10
331.7407379174
 20
369.516356867
 30
0.0
 11
333.1928136414
 21
369.7493007321
 31
0.0
  0
LINE
  5
128
330
1F
100
AcDbEntity
  8
0
  6
Continuous
 62
     7
370
    25
100
AcDbLine
 10
331.9308132123
 20
368.3315060821
 30
0.0
 11
332.1637570775
 21
366.8794303582
 31
0.0
  0
LINE
  5
129
330
1F
100
AcDbEntity
  8
0
  6
Continuous
 62
     7
370
    25
100
AcDbLine
 10
329.2938867036
 20
367.9084869221
 30
0.0
 11
330.7459624275
 21
368.1414307872
 31
0.0
  0
LINE
  5
12A
330
1F
100
AcDbEntity
  8
0
  6
Continuous
 62
     7
370
    25
100
AcDbLine
 10
331.5077940522
 20
370.9684325909
 30
0.0
 11
331.7407379174
 21
369.516356867
 31
0.0
  0
LINE
  5
12B
330
1F
100
AcDbEntity
  8
0
  6
Continuous
 62
     7
370
    25
100
AcDbLine
 10
330.3229432674
 20
370.778357296
 30
0.0
 11
330.5558871326
 21
369.326281572
 31
0.0
  0
LINE
  5
12C
330
1F
100
AcDbEntity
  8
0
  6
Continuous
 62
     7
370
    25
100
AcDbLine
 10
331.9308132123
 20
368.3315060821
 30
0.0
 11
333.3828889363
 21
368.5644499473
 31
0.0
  0
LINE
  5
12D
330
1F
100
AcDbEntity
  8
0
  6
Continuous
 62
     7
370
    25
100
AcDbLine
 10
331.8888442655
 20
369.5401162788
 30
0.0
 11
332.0789195604
 21
368.355265494
 31
0.0
  0
LINE
  5
12E
330
1F
100
AcDbEntity
  8
0
  6
Continuous
 62
     7
370
    25
100
AcDbLine
 10
331.9545726242
 20
368.183399734
 30
0.0
 11
330.7697218394
 21
367.9933244391
 31
0.0
  0
LINE
  5
12F
330
1F
100
AcDbEntity
  8
0
  6
Continuous
 62
     7
370
    25
100
AcDbLine
 10
331.7169785056
 20
369.6644632151
 30
0.0
 11
330.5321277208
 21
369.4743879201
 31
0.0
  0
LINE
  5
130
330
1F
100
AcDbEntity
  8
0
  6
Continuous
 62
     7
370
    25
100
AcDbLine
 10
330.4077807845
 20
369.3025221602
 30
0.0
 11
330.5978560794
 21
368.1176713754
 31
0.0
  0
LINE
  5
131
330
1F
100
AcDbEntity
  8
0
  6
Continuous
 62
     7
370
    25
100
AcDbLine
 10
493.3229432674
 20
370.778357296
 30
0.0
 11
493.5558871326
 21
369.326281572
 31
0.0
  0
LINE
  5
132
330
1F
100
AcDbEntity
  8
0
  6
Continuous
 62
     7
370
    25
100
AcDbLine
 10
492.1038114087
 20
369.0933377069
 30
0.0
 11
493.5558871326
 21
369.326281572
 31
0.0
  0
ARC
  5
133
330
1F
100
AcDbEntity
  8
0
  6
Continuous
 62
     7
370
    25
100
AcDbCircle
 10
504.0688164875
 20
370.4051078377
 30
0.0
 40
12.03669752934877
100
AcDbArc
 50
186.2565722694
 51
191.9710500657
  0
LINE
  5
134
330
1F
100
AcDbEntity
  8
0
  6
Continuous
 62
     7
370
    25
100
AcDbLine
 10
492.2938867036
 20
367.9084869221
 30
0.0
 11
493.7459624275
 21
368.1414307872
 31
0.0
  0
LINE
  5
135
330
1F
100
AcDbEntity
  8
0
  6
Continuous
 62
     7
370
    25
100
AcDbLine
 10
493.7459624275
 20
368.1414307872
 30
0.0
 11
493.9789062927
 21
366.6893550633
 31
0.0
  0
ARC
  5
136
330
1F
100
AcDbEntity
  8
0
  6
Continuous
 62
     7
370
    25
100
AcDbCircle
 10
492.6671361618
 20
378.6543601421
 30
0.0
 40
12.03669752930663
100
AcDbArc
 50
276.2565722693
 51
281.9710500657
  0
LINE
  5
137
330
1F
100
AcDbEntity
  8
0
  6
Continuous
 62
     7
370
    25
100
AcDbLine
 10
494.9308132123
 20
368.3315060821
 30
0.0
 11
495.1637570775
 21
366.8794303582
 31
0.0
  0
LINE
  5
138
330
1F
100
AcDbEntity
  8
0
  6
Continuous
 62
     7
370
    25
100
AcDbLine
 10
494.9308132123
 20
368.3315060821
 30
0.0
 11
496.3828889363
 21
368.5644499473
 31
0.0
  0
ARC
  5
139
330
1F
100
AcDbEntity
  8
0
  6
Continuous
 62
     7
370
    25
100
AcDbCircle
 10
484.4178838575
 20
367.2526798165
 30
0.0
 40
12.03669752932726
100
AcDbArc
 50
6.2565722693
 51
11.9710500657
  0
LINE
  5
13A
330
1F
100
AcDbEntity
  8
0
  6
Continuous
 62
     7
370
    25
100
AcDbLine
 10
494.7407379174
 20
369.516356867
 30
0.0
 11
496.1928136414
 21
369.7493007321
 31
0.0
  0
LINE
  5
13B
330
1F
100
AcDbEntity
  8
0
  6
Continuous
 62
     7
370
    25
100
AcDbLine
 10
494.5077940522
 20
370.9684325909
 30
0.0
 11
494.7407379174
 21
369.516356867
 31
0.0
  0
ARC
  5
13C
330
1F
100
AcDbEntity
  8
0
  6
Continuous
 62
     7
370
    25
100
AcDbCircle
 10
495.8195641831
 20
359.0034275121
 30
0.0
 40
12.03669752932663
100
AcDbArc
 50
96.2565722693
 51
101.9710500657
  0
ARC
  5
13D
330
1F
100
AcDbEntity
  8
0
  6
Continuous
 62
     7
370
    25
100
AcDbCircle
 10
494.2433501725
 20
368.8288938271
 30
0.0
 40
3.999999999999974
100
AcDbArc
 50
311.4096221093
 51
99.1138111675
  0
ARC
  5
13E
330
1F
100
AcDbEntity
  8
0
  6
Continuous
 62
     7
370
    25
100
AcDbCircle
 10
494.2433501725
 20
368.8288938271
 30
0.0
 40
4.000000000000017
100
AcDbArc
 50
99.1138111675
 51
228.5903778907
  0
LINE
  5
13F
330
1F
100
AcDbEntity
  8
0
  6
Continuous
 62
     7
370
    25
100
AcDbLine
 10
494.8888442655
 20
369.5401162788
 30
0.0
 11
495.0789195604
 21
368.355265494
 31
0.0
  0
LINE
  5
140
330
1F
100
AcDbEntity
  8
0
  6
Continuous
 62
     7
370
    25
100
AcDbLine
 10
494.7169785056
 20
369.6644632151
 30
0.0
 11
493.5321277208
 21
369.4743879201
 31
0.0
  0
LINE
  5
141
330
1F
100
AcDbEntity
  8
0
  6
Continuous
 62
     7
370
    25
100
AcDbLine
 10
494.9545726242
 20
368.183399734
 30
0.0
 11
493.7697218394
 21
367.9933244391
 31
0.0
  0
LINE
  5
142
330
1F
100
AcDbEntity
  8
0
  6
Continuous
 62
     7
370
    25
100
AcDbLine
 10
493.4077807845
 20
369.3025221602
 30
0.0
 11
493.5978560794
 21
368.1176713754
 31
0.0
  0
LINE
  5
143
330
1F
100
AcDbEntity
  8
0
  6
Continuous
 62
     7
370
    25
100
AcDbLine
 10
180.3229432674
 20
370.778357296
 30
0.0
 11
180.5558871326
 21
369.326281572
 31
0.0
  0
LINE
  5
144
330
1F
100
AcDbEntity
  8
0
  6
Continuous
 62
     7
370
    25
100
AcDbLine
 10
179.1038114087
 20
369.0933377069
 30
0.0
 11
180.5558871326
 21
369.326281572
 31
0.0
  0
ARC
  5
145
330
1F
100
AcDbEntity
  8
0
  6
Continuous
 62
     7
370
    25
100
AcDbCircle
 10
191.0688164875
 20
370.4051078377
 30
0.0
 40
12.03669752933508
100
AcDbArc
 50
186.2565722693
 51
191.9710500657
  0
LINE
  5
146
330
1F
100
AcDbEntity
  8
0
  6
Continuous
 62
     7
370
    25
100
AcDbLine
 10
180.7459624275
 20
368.1414307872
 30
0.0
 11
180.9789062927
 21
366.6893550633
 31
0.0
  0
ARC
  5
147
330
1F
100
AcDbEntity
  8
0
  6
Continuous
 62
     7
370
    25
100
AcDbCircle
 10
179.6671361618
 20
378.6543601421
 30
0.0
 40
12.03669752932812
100
AcDbArc
 50
276.2565722693
 51
281.9710500657
  0
LINE
  5
148
330
1F
100
AcDbEntity
  8
0
  6
Continuous
 62
     7
370
    25
100
AcDbLine
 10
181.9308132123
 20
368.3315060821
 30
0.0
 11
182.1637570775
 21
366.8794303582
 31
0.0
  0
LINE
  5
149
330
1F
100
AcDbEntity
  8
0
  6
Continuous
 62
     7
370
    25
100
AcDbLine
 10
181.9308132123
 20
368.3315060821
 30
0.0
 11
183.3828889363
 21
368.5644499473
 31
0.0
  0
ARC
  5
14A
330
1F
100
AcDbEntity
  8
0
  6
Continuous
 62
     7
370
    25
100
AcDbCircle
 10
171.4178838574
 20
367.2526798165
 30
0.0
 40
12.0366975293535
100
AcDbArc
 50
6.2565722694
 51
11.9710500657
  0
LINE
  5
14B
330
1F
100
AcDbEntity
  8
0
  6
Continuous
 62
     7
370
    25
100
AcDbLine
 10
181.5077940522
 20
370.9684325909
 30
0.0
 11
181.7407379174
 21
369.516356867
 31
0.0
  0
ARC
  5
14C
330
1F
100
AcDbEntity
  8
0
  6
Continuous
 62
     7
370
    25
100
AcDbCircle
 10
182.8195641831
 20
359.003427512
 30
0.0
 40
12.03669752934313
100
AcDbArc
 50
96.2565722693
 51
101.9710500657
  0
ARC
  5
14D
330
1F
100
AcDbEntity
  8
0
  6
Continuous
 62
     7
370
    25
100
AcDbCircle
 10
181.2433501725
 20
368.8288938271
 30
0.0
 40
3.999999999999993
100
AcDbArc
 50
311.4096221093
 51
99.1138111675
  0
ARC
  5
14E
330
1F
100
AcDbEntity
  8
0
  6
Continuous
 62
     7
370
    25
100
AcDbCircle
 10
181.2433501725
 20
368.8288938271
 30
0.0
 40
4.000000000000012
100
AcDbArc
 50
99.1138111675
 51
228.5903778907
  0
LINE
  5
14F
330
1F
100
AcDbEntity
  8
0
  6
Continuous
 62
     7
370
    25
100
AcDbLine
 10
179.2938867036
 20
367.9084869221
 30
0.0
 11
180.7459624275
 21
368.1414307872
 31
0.0
  0
LINE
  5
150
330
1F
100
AcDbEntity
  8
0
  6
Continuous
 62
     7
370
    25
100
AcDbLine
 10
181.7407379174
 20
369.516356867
 30
0.0
 11
183.1928136414
 21
369.7493007321
 31
0.0
  0
LINE
  5
151
330
1F
100
AcDbEntity
  8
0
  6
Continuous
 62
     7
370
    25
100
AcDbLine
 10
181.8888442655
 20
369.5401162788
 30
0.0
 11
182.0789195604
 21
368.355265494
 31
0.0
  0
LINE
  5
152
330
1F
100
AcDbEntity
  8
0
  6
Continuous
 62
     7
370
    25
100
AcDbLine
 10
181.9545726242
 20
368.183399734
 30
0.0
 11
180.7697218394
 21
367.9933244391
 31
0.0
  0
LINE
  5
153
330
1F
100
AcDbEntity
  8
0
  6
Continuous
 62
     7
370
    25
100
AcDbLine
 10
181.7169785056
 20
369.6644632151
 30
0.0
 11
180.5321277208
 21
369.4743879201
 31
0.0
  0
LINE
  5
154
330
1F
100
AcDbEntity
  8
0
  6
Continuous
 62
     7
370
    25
100
AcDbLine
 10
180.4077807845
 20
369.3025221602
 30
0.0
 11
180.5978560794
 21
368.1176713754
 31
0.0
  0
SPLINE
  5
155
330
1F
100
AcDbEntity
  8
0
  6
Continuous
 62
     7
370
    25
100
AcDbSpline
210
0.0
220
0.0
230
1.0
 70
    24
 71
     3
 72
    18
 73
    14
 74
     0
 42
0.000000001
 43
0.00000001
 40
0.0
 40
0.0
 40
0.0
 40
0.0
 40
0.1395442450004759
 40
0.2146633576115604
 40
0.291376605570159
 40
0.3680898535287582
 40
0.4432089661398437
 40
0.5827532111403183
 40
0.7222974561407933
 40
0.7974165687518796
 40
0.8741298167104771
 40
0.9508430646690749
 40
1.0
 40
1.0
 40
1.0
 40
1.0
 10
161.5433501724775
 20
388.598365770327
 30
0.0
 10
161.5433501724775
 20
388.9834966622526
 30
0.0
 10
161.5433501724775
 20
389.5759502627606
 30
0.0
 10
161.5433501724776
 20
390.8118644441456
 30
0.0
 10
161.5433501724775
 20
391.8878940565005
 30
0.0
 10
161.5433501724776
 20
393.0514221770493
 30
0.0
 10
161.5433501724775
 20
394.5718693680675
 30
0.0
 10
161.5433501724776
 20
396.3960593660742
 30
0.0
 10
161.5433501724776
 20
397.9112943206666
 30
0.0
 10
161.5433501724775
 20
398.8290416190966
 30
0.0
 10
161.5433501724776
 20
399.3326584374503
 30
0.0
 10
161.5433501724775
 20
399.6047955621902
 30
0.0
 10
161.5433501724775
 20
399.6028877193042
 30
0.0
 10
161.5433501724775
 20
399.6021426364982
 30
0.0
  0
SPLINE
  5
156
330
1F
100
AcDbEntity
  8
0
  6
Continuous
 62
     7
370
    25
100
AcDbSpline
210
0.0
220
0.0
230
1.0
 70
     8
 71
     3
 72
     8
 73
     4
 74
     0
 42
0.000000001
 43
0.00000001
 40
0.0
 40
0.0
 40
0.0
 40
0.0
 40
1.0
 40
1.0
 40
1.0
 40
1.0
 10
165.5433501724704
 20
391.0042244159611
 30
0.0
 10
165.5433501724704
 20
391.8172139876662
 30
0.0
 10
165.3690348720912
 20
392.607952383734
 30
0.0
 10
165.0967681850791
 20
393.3861873822108
 30
0.0
  0
SPLINE
  5
157
330
1F
100
AcDbEntity
  8
0
  6
Continuous
 62
     7
370
    25
100
AcDbSpline
210
0.0
220
0.0
230
1.0
 70
     8
 71
     3
 72
     8
 73
     4
 74
     0
 42
0.000000001
 43
0.00000001
 40
0.0
 40
0.0
 40
0.0
 40
0.0
 40
1.0
 40
1.0
 40
1.0
 40
1.0
 10
165.096768185079
 20
388.6222614497113
 30
0.0
 10
165.3690348720905
 20
389.4004964481862
 30
0.0
 10
165.5433501724704
 20
390.191234844258
 30
0.0
 10
165.5433501724704
 20
391.0042244159611
 30
0.0
  0
LINE
  5
158
330
1F
100
AcDbEntity
  8
0
  6
Continuous
 62
     7
370
    25
100
AcDbLine
 10
161.5433501725
 20
388.6222614497
 30
0.0
 11
165.0967681851
 21
388.6222614497
 31
0.0
  0
LINE
  5
159
330
1F
100
AcDbEntity
  8
0
  6
Continuous
 62
     7
370
    25
100
AcDbLine
 10
165.0967681851
 20
393.3861873822
 30
0.0
 11
161.5433501725
 21
393.3861873822
 31
0.0
  0
SPLINE
  5
15A
330
1F
100
AcDbEntity
  8
0
  6
Continuous
 62
     7
370
    25
100
AcDbSpline
210
0.0
220
0.0
230
1.0
 70
     8
 71
     3
 72
     8
 73
     4
 74
     0
 42
0.000000001
 43
0.00000001
 40
0.0
 40
0.0
 40
0.0
 40
0.0
 40
1.0
 40
1.0
 40
1.0
 40
1.0
 10
165.5433501724704
 20
395.9895035709076
 30
0.0
 10
165.5433501724704
 20
396.8780433774634
 30
0.0
 10
165.369034872091
 20
397.7422642308824
 30
0.0
 10
165.0967681850791
 20
398.5928197595975
 30
0.0
  0
SPLINE
  5
15B
330
1F
100
AcDbEntity
  8
0
  6
Continuous
 62
     7
370
    25
100
AcDbSpline
210
0.0
220
0.0
230
1.0
 70
     8
 71
     3
 72
     8
 73
     4
 74
     0
 42
0.000000001
 43
0.00000001
 40
0.0
 40
0.0
 40
0.0
 40
0.0
 40
1.0
 40
1.0
 40
1.0
 40
1.0
 10
165.0967681850791
 20
393.3861873822175
 30
0.0
 10
165.3690348720905
 20
394.2367429109314
 30
0.0
 10
165.5433501724704
 20
395.1009637643531
 30
0.0
 10
165.5433501724704
 20
395.9895035709076
 30
0.0
  0
LINE
  5
15C
330
1F
100
AcDbEntity
  8
0
  6
Continuous
 62
     7
370
    25
100
AcDbLine
 10
161.5433501725
 20
398.5928197596
 30
0.0
 11
165.0967681851
 21
398.5928197596
 31
0.0
  0
LINE
  5
15D
330
1F
100
AcDbEntity
  8
0
  6
Continuous
 62
     7
370
    25
100
AcDbLine
 10
165.5433501725
 20
391.004224416
 30
0.0
 11
165.5433501725
 21
395.9895035709
 31
0.0
  0
SPLINE
  5
15E
330
1F
100
AcDbEntity
  8
0
  6
Continuous
 62
     7
370
    25
100
AcDbSpline
210
0.0
220
0.0
230
1.0
 70
     8
 71
     3
 72
     8
 73
     4
 74
     0
 42
0.000000001
 43
0.00000001
 40
0.0
 40
0.0
 40
0.0
 40
0.0
 40
1.0
 40
1.0
 40
1.0
 40
1.0
 10
165.0967681850792
 20
398.5928197596012
 30
0.0
 10
165.3690348720906
 20
398.66514028984
 30
0.0
 10
165.5433501724705
 20
398.7386227471905
 30
0.0
 10
165.5433501724705
 20
398.8141729820417
 30
0.0
  0
LINE
  5
15F
330
1F
100
AcDbEntity
  8
0
  6
Continuous
 62
     7
370
    25
100
AcDbLine
 10
165.5433501725
 20
395.9895035709
 30
0.0
 11
165.5433501725
 21
398.814172982
 31
0.0
  0
SPLINE
  5
160
330
1F
100
AcDbEntity
  8
0
  6
Continuous
 62
     7
370
    25
100
AcDbSpline
210
0.0
220
0.0
230
1.0
 70
     8
 71
     3
 72
     8
 73
     4
 74
     0
 42
0.000000001
 43
0.00000001
 40
0.0
 40
0.0
 40
0.0
 40
0.0
 40
1.0
 40
1.0
 40
1.0
 40
1.0
 10
165.5433501724705
 20
388.843614672149
 30
0.0
 10
165.5433501724705
 20
388.7680644372977
 30
0.0
 10
165.3690348720911
 20
388.6945819799474
 30
0.0
 10
165.0967681850791
 20
388.6222614497085
 30
0.0
  0
LINE
  5
161
330
1F
100
AcDbEntity
  8
0
  6
Continuous
 62
     7
370
    25
100
AcDbLine
 10
165.5433501725
 20
391.004224416
 30
0.0
 11
165.5433501725
 21
388.8362213333
 31
0.0
  0
SPLINE
  5
162
330
1F
100
AcDbEntity
  8
0
  6
Continuous
 62
     7
370
    25
100
AcDbSpline
210
0.0
220
0.0
230
1.0
 70
     8
 71
     3
 72
     8
 73
     4
 74
     0
 42
0.000000001
 43
0.00000001
 40
0.0
 40
0.0
 40
0.0
 40
0.0
 40
1.0
 40
1.0
 40
1.0
 40
1.0
 10
165.5433501724705
 20
398.8141729820417
 30
0.0
 10
165.5433501724705
 20
398.889723216893
 30
0.0
 10
165.3690348720911
 20
398.9632056742432
 30
0.0
 10
165.0967681850791
 20
399.0355262044822
 30
0.0
  0
LINE
  5
163
330
1F
100
AcDbEntity
  8
0
  6
Continuous
 62
     7
370
    25
100
AcDbLine
 10
161.5433501725
 20
399.0355262045
 30
0.0
 11
165.0967681851
 21
399.0355262045
 31
0.0
  0
LINE
  5
164
330
1F
100
AcDbEntity
  8
0
  6
Continuous
 62
     7
370
    25
100
AcDbLine
 10
151.0846001725
 20
395.1252596734
 30
0.0
 11
151.0846001725
 21
390.8288938271
 31
0.0
  0
LINE
  5
165
330
1F
100
AcDbEntity
  8
0
  6
Continuous
 62
     7
370
    25
100
AcDbLine
 10
151.0846001725
 20
396.8288938271
 30
0.0
 11
151.0846001725
 21
395.1252596734
 31
0.0
  0
LINE
  5
166
330
1F
100
AcDbEntity
  8
0
  6
Continuous
 62
     7
370
    25
100
AcDbLine
 10
150.5433501725
 20
396.2876438271
 30
0.0
 11
150.5433501725
 21
391.3701438271
 31
0.0
  0
LINE
  5
167
330
1F
100
AcDbEntity
  8
0
  6
Continuous
 62
     7
370
    25
100
AcDbLine
 10
794.0061817392
 20
365.050267155
 30
0.0
 11
794.3691195176
 21
365.6788938271
 31
0.0
  0
LINE
  5
168
330
1F
100
AcDbEntity
  8
0
  6
Continuous
 62
     7
370
    25
100
AcDbLine
 10
794.3691195176
 20
371.9788938271
 30
0.0
 11
794.0061817392
 21
372.6075204992
 31
0.0
  0
ARC
  5
169
330
1F
100
AcDbEntity
  8
0
  6
Continuous
 62
     7
370
    25
100
AcDbCircle
 10
791.1409162873
 20
368.8288938271
 30
0.0
 40
8.000000000000044
100
AcDbArc
 50
330.0
 51
344.7252520003
  0
ARC
  5
16A
330
1F
100
AcDbEntity
  8
0
  6
Continuous
 62
     7
370
    25
100
AcDbCircle
 10
791.1409162873
 20
368.8288938271
 30
0.0
 40
8.000000000000044
100
AcDbArc
 50
15.2747479997
 51
30.0
  0
LINE
  5
16B
330
1F
100
AcDbEntity
  8
0
  6
Continuous
 62
     7
370
    25
100
AcDbLine
 10
796.0691195176
 20
364.8288938271
 30
0.0
 11
798.0691195176
 21
364.8288938271
 31
0.0
  0
LINE
  5
16C
330
1F
100
AcDbEntity
  8
0
  6
Continuous
 62
     7
370
    25
100
AcDbLine
 10
798.0691195176
 20
372.8288938271
 30
0.0
 11
796.0691195176
 21
372.8288938271
 31
0.0
  0
LINE
  5
16D
330
1F
100
AcDbEntity
  8
0
  6
Continuous
 62
     7
370
    25
100
AcDbLine
 10
794.3691195176
 20
366.8288938271
 30
0.0
 11
794.4691195176
 21
366.8288938271
 31
0.0
  0
LINE
  5
16E
330
1F
100
AcDbEntity
  8
0
  6
Continuous
 62
     7
370
    25
100
AcDbLine
 10
794.4691195176
 20
370.8288938271
 30
0.0
 11
794.3691195176
 21
370.8288938271
 31
0.0
  0
LINE
  5
16F
330
1F
100
AcDbEntity
  8
0
  6
Continuous
 62
     7
370
    25
100
AcDbLine
 10
810.9691195176
 20
171.2996045052
 30
0.0
 11
801.3691195176
 21
171.2996045052
 31
0.0
  0
LINE
  5
170
330
1F
100
AcDbEntity
  8
0
  6
Continuous
 62
     7
370
    25
100
AcDbLine
 10
801.3691195176
 20
364.358183149
 30
0.0
 11
801.3691195176
 21
171.2996045052
 31
0.0
  0
LINE
  5
171
330
1F
100
AcDbEntity
  8
0
  6
Continuous
 62
     7
370
    25
100
AcDbLine
 10
810.9691195176
 20
364.358183149
 30
0.0
 11
801.3691195176
 21
364.358183149
 31
0.0
  0
LINE
  5
172
330
1F
100
AcDbEntity
  8
0
  6
Continuous
 62
     7
370
    25
100
AcDbLine
 10
813.3691195176
 20
363.4288938271
 30
0.0
 11
813.3691195176
 21
172.2288938271
 31
0.0
  0
SPLINE
  5
173
330
1F
100
AcDbEntity
  8
0
  6
Continuous
 62
     7
370
    25
100
AcDbSpline
210
0.0
220
0.0
230
1.0
 70
     8
 71
     3
 72
    20
 73
    16
 74
     0
 42
0.000000001
 43
0.00000001
 40
0.0
 40
0.0
 40
0.0
 40
0.0
 40
0.1249999999999943
 40
0.1249999999999943
 40
0.2499999999999886
 40
0.2499999999999886
 40
0.3749999999999829
 40
0.3749999999999829
 40
0.4999999999999772
 40
0.4999999999999772
 40
0.7499999999999953
 40
0.7499999999999953
 40
0.8749999999999978
 40
0.8749999999999978
 40
1.0
 40
1.0
 40
1.0
 40
1.0
 10
813.3691195175761
 20
172.2288938270935
 30
0.0
 10
813.3691195175761
 20
172.189853096239
 30
0.0
 10
813.3535829571013
 20
172.1513343920392
 30
0.0
 10
813.2922646051406
 20
172.0739276407313
 30
0.0
 10
813.2458408595538
 20
172.0347832227446
 30
0.0
 10
813.1258899893998
 20
171.9576324688294
 30
0.0
 10
813.0522853451163
 20
171.9193048870884
 30
0.0
 10
812.8775549790207
 20
171.8417585666119
 30
0.0
 10
812.7767043501192
 20
171.8027823589432
 30
0.0
 10
812.4454190701351
 20
171.6872875024982
 30
0.0
 10
812.1777389087513
 20
171.609375058828
 30
0.0
 10
811.7450648826958
 20
171.4938951334272
 30
0.0
 10
811.5935467958448
 20
171.4550293375622
 30
0.0
 10
811.2841210384586
 20
171.3772550038936
 30
0.0
 10
811.1274987087648
 20
171.3386452369389
 30
0.0
 10
810.9691195175761
 20
171.2996045052122
 30
0.0
  0
SPLINE
  5
174
330
1F
100
AcDbEntity
  8
0
  6
Continuous
 62
     7
370
    25
100
AcDbSpline
210
0.0
220
0.0
230
1.0
 70
     8
 71
     3
 72
    20
 73
    16
 74
     0
 42
0.000000001
 43
0.00000001
 40
0.0
 40
0.0
 40
0.0
 40
0.0
 40
0.1249999999999996
 40
0.1249999999999996
 40
0.2499999999999993
 40
0.2499999999999993
 40
0.374999999999999
 40
0.374999999999999
 40
0.4999999999999987
 40
0.4999999999999987
 40
0.7500000000000007
 40
0.7500000000000007
 40
0.8750000000000003
 40
0.8750000000000003
 40
1.0
 40
1.0
 40
1.0
 40
1.0
 10
810.9691195175761
 20
364.3581831489749
 30
0.0
 10
811.1274987052268
 20
364.3191424181204
 30
0.0
 10
811.2837444299184
 20
364.2806237139205
 30
0.0
 10
811.5917362793351
 20
364.2032169626127
 30
0.0
 10
811.7443803868061
 20
364.164072544626
 30
0.0
 10
812.0334646759933
 20
364.0869217907108
 30
0.0
 10
812.1712692141774
 20
364.0485942089697
 30
0.0
 10
812.4328878898162
 20
363.9710478884932
 30
0.0
 10
812.5556341964989
 20
363.9320716808245
 30
0.0
 10
812.8869585734466
 20
363.8165768243795
 30
0.0
 10
813.0659696974748
 20
363.7386643807093
 30
0.0
 10
813.2455847968557
 20
363.6231844553085
 30
0.0
 10
813.2918291457235
 20
363.5843186594435
 30
0.0
 10
813.3535824517346
 20
363.5065443257749
 30
0.0
 10
813.3691195175761
 20
363.4679345588202
 30
0.0
 10
813.3691195175761
 20
363.4288938270935
 30
0.0
  0
SPLINE
  5
175
330
1F
100
AcDbEntity
  8
0
  6
Continuous
 62
     7
370
    25
100
AcDbSpline
210
0.0
220
0.0
230
1.0
 70
     8
 71
     3
 72
     9
 73
     5
 74
     0
 42
0.000000001
 43
0.00000001
 40
0.0
 40
0.0
 40
0.0
 40
0.0
 40
0.4825784287291705
 40
1.0
 40
1.0
 40
1.0
 40
1.0
 10
811.5816592567542
 20
364.20506405904
 30
0.0
 10
811.4935249154378
 20
364.2688722521013
 30
0.0
 10
811.3108927543848
 20
364.4010957193406
 30
0.0
 10
811.0856598703404
 20
364.4194150237971
 30
0.0
 10
810.9691195175761
 20
364.4288938270935
 30
0.0
  0
LINE
  5
176
330
1F
100
AcDbEntity
  8
0
  6
Continuous
 62
     7
370
    25
100
AcDbLine
 10
810.9691195176
 20
365.8288938271
 30
0.0
 11
810.9691195176
 21
364.4288938271
 31
0.0
  0
SPLINE
  5
177
330
1F
100
AcDbEntity
  8
0
  6
Continuous
 62
     7
370
    25
100
AcDbSpline
210
0.0
220
0.0
230
1.0
 70
     8
 71
     3
 72
    20
 73
    16
 74
     0
 42
0.000000001
 43
0.00000001
 40
0.0
 40
0.0
 40
0.0
 40
0.0
 40
0.125
 40
0.125
 40
0.2499999999999999
 40
0.2499999999999999
 40
0.3749999999999999
 40
0.3749999999999999
 40
0.4999999999999999
 40
0.4999999999999999
 40
0.7499999999999998
 40
0.7499999999999998
 40
0.8749999999999998
 40
0.8749999999999998
 40
1.0
 40
1.0
 40
1.0
 40
1.0
 10
813.3691195175761
 20
363.4288938270935
 30
0.0
 10
813.3691195175761
 20
363.5872730147442
 30
0.0
 10
813.3535829571013
 20
363.7435187394359
 30
0.0
 10
813.2922646051408
 20
364.0515105888525
 30
0.0
 10
813.2458408595538
 20
364.2041546963237
 30
0.0
 10
813.1258899893998
 20
364.4932389855107
 30
0.0
 10
813.0522853451163
 20
364.6310435236948
 30
0.0
 10
812.8775549790207
 20
364.8926621993337
 30
0.0
 10
812.7767043501192
 20
365.0154085060163
 30
0.0
 10
812.4454190701352
 20
365.346732882964
 30
0.0
 10
812.1777389087513
 20
365.5257440069923
 30
0.0
 10
811.7450648826959
 20
365.7053591063732
 30
0.0
 10
811.5935467958448
 20
365.7516034552409
 30
0.0
 10
811.2841210384586
 20
365.8133567612521
 30
0.0
 10
811.1274987087648
 20
365.8288938270936
 30
0.0
 10
810.9691195175761
 20
365.8288938270936
 30
0.0
  0
LINE
  5
178
330
1F
100
AcDbEntity
  8
0
  6
Continuous
 62
     7
370
    25
100
AcDbLine
 10
810.9691195176
 20
169.8288938271
 30
0.0
 11
810.9691195176
 21
171.2288938271
 31
0.0
  0
SPLINE
  5
179
330
1F
100
AcDbEntity
  8
0
  6
Continuous
 62
     7
370
    25
100
AcDbSpline
210
0.0
220
0.0
230
1.0
 70
     8
 71
     3
 72
     9
 73
     5
 74
     0
 42
0.000000001
 43
0.00000001
 40
0.0
 40
0.0
 40
0.0
 40
0.0
 40
0.7329379507272605
 40
1.0
 40
1.0
 40
1.0
 40
1.0
 10
810.9691195175761
 20
171.2288938270936
 30
0.0
 10
811.120508159232
 20
171.2406484766113
 30
0.0
 10
811.3270585793673
 20
171.2566861909991
 30
0.0
 10
811.4824189214859
 20
171.385023497493
 30
0.0
 10
811.5239097728278
 20
171.4192975215634
 30
0.0
  0
SPLINE
  5
17A
330
1F
100
AcDbEntity
  8
0
  6
Continuous
 62
     7
370
    25
100
AcDbSpline
210
0.0
220
0.0
230
1.0
 70
     8
 71
     3
 72
    20
 73
    16
 74
     0
 42
0.000000001
 43
0.00000001
 40
0.0
 40
0.0
 40
0.0
 40
0.0
 40
0.1250000000000034
 40
0.1250000000000034
 40
0.2500000000000066
 40
0.2500000000000066
 40
0.3750000000000098
 40
0.3750000000000098
 40
0.500000000000013
 40
0.500000000000013
 40
0.7500000000000017
 40
0.7500000000000017
 40
0.8750000000000008
 40
0.8750000000000008
 40
1.0
 40
1.0
 40
1.0
 40
1.0
 10
810.9691195175762
 20
169.8288938270936
 30
0.0
 10
811.1274987052269
 20
169.8288938270936
 30
0.0
 10
811.2837444299186
 20
169.8444303875685
 30
0.0
 10
811.5917362793351
 20
169.9057487395291
 30
0.0
 10
811.7443803868063
 20
169.9521724851159
 30
0.0
 10
812.0334646759934
 20
170.07212335527
 30
0.0
 10
812.1712692141774
 20
170.1457279995534
 30
0.0
 10
812.4328878898162
 20
170.3204583656491
 30
0.0
 10
812.5556341964989
 20
170.4213089945505
 30
0.0
 10
812.8869585734466
 20
170.7525942745345
 30
0.0
 10
813.0659696974748
 20
171.0202744359184
 30
0.0
 10
813.2455847968557
 20
171.4529484619738
 30
0.0
 10
813.2918291457235
 20
171.6044665488249
 30
0.0
 10
813.3535824517346
 20
171.913892306211
 30
0.0
 10
813.3691195175761
 20
172.0705146359047
 30
0.0
 10
813.3691195175761
 20
172.2288938270935
 30
0.0
  0
LINE
  5
17B
330
1F
100
AcDbEntity
  8
0
  6
Continuous
 62
     7
370
    25
100
AcDbLine
 10
810.9691195176
 20
365.8288938271
 30
0.0
 11
801.3691195176
 21
365.8288938271
 31
0.0
  0
LINE
  5
17C
330
1F
100
AcDbEntity
  8
0
  6
Continuous
 62
     7
370
    25
100
AcDbLine
 10
810.9691195176
 20
364.4288938271
 30
0.0
 11
801.3691195176
 21
364.4288938271
 31
0.0
  0
LINE
  5
17D
330
1F
100
AcDbEntity
  8
0
  6
Continuous
 62
     7
370
    25
100
AcDbLine
 10
801.3691195176
 20
365.8288938271
 30
0.0
 11
801.3691195176
 21
364.4288938271
 31
0.0
  0
LINE
  5
17E
330
1F
100
AcDbEntity
  8
0
  6
Continuous
 62
     7
370
    25
100
AcDbLine
 10
810.9691195176
 20
171.2288938271
 30
0.0
 11
801.3691195176
 21
171.2288938271
 31
0.0
  0
LINE
  5
17F
330
1F
100
AcDbEntity
  8
0
  6
Continuous
 62
     7
370
    25
100
AcDbLine
 10
810.9691195176
 20
169.8288938271
 30
0.0
 11
801.3691195176
 21
169.8288938271
 31
0.0
  0
LINE
  5
180
330
1F
100
AcDbEntity
  8
0
  6
Continuous
 62
     7
370
    25
100
AcDbLine
 10
801.3691195176
 20
169.8288938271
 30
0.0
 11
801.3691195176
 21
171.2288938271
 31
0.0
  0
LINE
  5
181
330
1F
100
AcDbEntity
  8
0
  6
Continuous
 62
     7
370
    25
100
AcDbLine
 10
793.2691195176
 20
380.3288938271
 30
0.0
 11
797.2691195176
 21
380.3288938271
 31
0.0
  0
LINE
  5
182
330
1F
100
AcDbEntity
  8
0
  6
Continuous
 62
     7
370
    25
100
AcDbLine
 10
793.2691195176
 20
363.1288938271
 30
0.0
 11
793.2691195176
 21
380.3288938271
 31
0.0
  0
LINE
  5
183
330
1F
100
AcDbEntity
  8
0
  6
Continuous
 62
     7
370
    25
100
AcDbLine
 10
774.2691195176
 20
397.3288938271
 30
0.0
 11
774.2691195176
 21
363.1288938271
 31
0.0
  0
ARC
  5
184
330
1F
100
AcDbEntity
  8
0
  6
Continuous
 62
     7
370
    25
100
AcDbCircle
 10
777.2691195176
 20
397.3288938271
 30
0.0
 40
3.0
100
AcDbArc
 50
90.0
 51
180.0
  0
LINE
  5
185
330
1F
100
AcDbEntity
  8
0
  6
Continuous
 62
     7
370
    25
100
AcDbLine
 10
794.2691195176
 20
400.3288938271
 30
0.0
 11
777.2691195176
 21
400.3288938271
 31
0.0
  0
ARC
  5
186
330
1F
100
AcDbEntity
  8
0
  6
Continuous
 62
     7
370
    25
100
AcDbCircle
 10
794.2691195176
 20
397.3288938271
 30
0.0
 40
3.0
100
AcDbArc
 50
0.0
 51
90.0
  0
LINE
  5
187
330
1F
100
AcDbEntity
  8
0
  6
Continuous
 62
     7
370
    25
100
AcDbLine
 10
797.2691195176
 20
380.3288938271
 30
0.0
 11
797.2691195176
 21
397.3288938271
 31
0.0
  0
CIRCLE
  5
188
330
1F
100
AcDbEntity
  8
0
  6
Continuous
 62
     7
370
    25
100
AcDbCircle
 10
782.7691195176
 20
393.8288938271
 30
0.0
 40
3.25
  0
CIRCLE
  5
189
330
1F
100
AcDbEntity
  8
0
  6
Continuous
 62
     7
370
    25
100
AcDbCircle
 10
782.7691195176
 20
368.8288938271
 30
0.0
 40
3.25
  0
LINE
  5
18A
330
1F
100
AcDbEntity
  8
0
  6
Continuous
 62
     7
370
    25
100
AcDbLine
 10
774.2691195176
 20
361.3288938271
 30
0.0
 11
774.2691195176
 21
363.1288938271
 31
0.0
  0
LINE
  5
18B
330
1F
100
AcDbEntity
  8
0
  6
Continuous
 62
     7
370
    25
100
AcDbLine
 10
793.2691195176
 20
363.1288938271
 30
0.0
 11
793.2691195176
 21
361.3288938271
 31
0.0
  0
LINE
  5
18C
330
1F
100
AcDbEntity
  8
0
  6
Continuous
 62
     7
370
    25
100
AcDbLine
 10
793.2691195176
 20
361.3288938271
 30
0.0
 11
774.2691195176
 21
361.3288938271
 31
0.0
  0
LINE
  5
18D
330
1F
100
AcDbEntity
  8
0
  6
Continuous
 62
     7
370
    25
100
AcDbLine
 10
794.4691195176
 20
373.3288938271
 30
0.0
 11
794.4691195176
 21
363.1288938271
 31
0.0
  0
LINE
  5
18E
330
1F
100
AcDbEntity
  8
0
  6
Continuous
 62
     7
370
    25
100
AcDbLine
 10
795.2691195176
 20
373.3288938271
 30
0.0
 11
794.4691195176
 21
373.3288938271
 31
0.0
  0
ARC
  5
18F
330
1F
100
AcDbEntity
  8
0
  6
Continuous
 62
     7
370
    25
100
AcDbCircle
 10
793.4691195176
 20
363.1288938271
 30
0.0
 40
1.0
100
AcDbArc
 50
270.0
 51
0.0
  0
ARC
  5
190
330
1F
100
AcDbEntity
  8
0
  6
Continuous
 62
     7
370
    25
100
AcDbCircle
 10
793.4691195176
 20
363.1288938271
 30
0.0
 40
1.800000000000011
100
AcDbArc
 50
270.0
 51
0.0
  0
LINE
  5
191
330
1F
100
AcDbEntity
  8
0
  6
Continuous
 62
     7
370
    25
100
AcDbLine
 10
793.2691195176
 20
362.1288938271
 30
0.0
 11
793.4691195176
 21
362.1288938271
 31
0.0
  0
LINE
  5
192
330
1F
100
AcDbEntity
  8
0
  6
Continuous
 62
     7
370
    25
100
AcDbLine
 10
793.2691195176
 20
361.3288938271
 30
0.0
 11
793.4691195176
 21
361.3288938271
 31
0.0
  0
LINE
  5
193
330
1F
100
AcDbEntity
  8
0
  6
Continuous
 62
     7
370
    25
100
AcDbLine
 10
753.2691195176
 20
362.1288938271
 30
0.0
 11
774.2691195176
 21
362.1288938271
 31
0.0
  0
LINE
  5
194
330
1F
100
AcDbEntity
  8
0
  6
Continuous
 62
     7
370
    25
100
AcDbLine
 10
753.2691195176
 20
361.3288938271
 30
0.0
 11
774.2691195176
 21
361.3288938271
 31
0.0
  0
LINE
  5
195
330
1F
100
AcDbEntity
  8
0
  6
Continuous
 62
     7
370
    25
100
AcDbLine
 10
750.2691195176
 20
361.3288938271
 30
0.0
 11
750.2691195176
 21
362.1288938271
 31
0.0
  0
LINE
  5
196
330
1F
100
AcDbEntity
  8
0
  6
Continuous
 62
     7
370
    25
100
AcDbLine
 10
750.2691195176
 20
362.1288938271
 30
0.0
 11
753.2691195176
 21
362.1288938271
 31
0.0
  0
LINE
  5
197
330
1F
100
AcDbEntity
  8
0
  6
Continuous
 62
     7
370
    25
100
AcDbLine
 10
753.2691195176
 20
361.3288938271
 30
0.0
 11
750.2691195176
 21
361.3288938271
 31
0.0
  0
LINE
  5
198
330
1F
100
AcDbEntity
  8
0
  6
Continuous
 62
     7
370
    25
100
AcDbLine
 10
754.3645061258
 20
365.5288938271
 30
0.0
 11
751.3645061258
 21
365.5288938271
 31
0.0
  0
LINE
  5
199
330
1F
100
AcDbEntity
  8
0
  6
Continuous
 62
     7
370
    25
100
AcDbLine
 10
751.3645061258
 20
365.5288938271
 30
0.0
 11
751.3645061258
 21
366.3288938271
 31
0.0
  0
LINE
  5
19A
330
1F
100
AcDbEntity
  8
0
  6
Continuous
 62
     7
370
    25
100
AcDbLine
 10
751.3645061258
 20
366.3288938271
 30
0.0
 11
754.3645061258
 21
366.3288938271
 31
0.0
  0
LINE
  5
19B
330
1F
100
AcDbEntity
  8
0
  6
Continuous
 62
     7
370
    25
100
AcDbLine
 10
754.3645061258
 20
365.5288938271
 30
0.0
 11
760.8821975794
 21
365.5288938271
 31
0.0
  0
LINE
  5
19C
330
1F
100
AcDbEntity
  8
0
  6
Continuous
 62
     7
370
    25
100
AcDbLine
 10
754.3645061258
 20
366.3288938271
 30
0.0
 11
760.8821975794
 21
366.3288938271
 31
0.0
  0
ARC
  5
19D
330
1F
100
AcDbEntity
  8
0
  6
Continuous
 62
     7
370
    25
100
AcDbCircle
 10
760.8821975794
 20
364.5288938271
 30
0.0
 40
0.999999999999976
100
AcDbArc
 50
60.0
 51
90.0
  0
ARC
  5
19E
330
1F
100
AcDbEntity
  8
0
  6
Continuous
 62
     7
370
    25
100
AcDbCircle
 10
760.8821975794
 20
364.5288938271
 30
0.0
 40
1.800000000000018
100
AcDbArc
 50
60.0
 51
90.0
  0
LINE
  5
19F
330
1F
100
AcDbEntity
  8
0
  6
Continuous
 62
     7
370
    25
100
AcDbLine
 10
768.40706871
 20
362.2628684233
 30
0.0
 11
761.7821975794
 21
366.0877395539
 31
0.0
  0
LINE
  5
1A0
330
1F
100
AcDbEntity
  8
0
  6
Continuous
 62
     7
370
    25
100
AcDbLine
 10
767.0391195176
 20
362.1288938271
 30
0.0
 11
761.3821975794
 21
365.3949192309
 31
0.0
  0
ARC
  5
1A1
330
1F
100
AcDbEntity
  8
0
  6
Continuous
 62
     7
370
    25
100
AcDbCircle
 10
768.90706871
 20
363.1288938271
 30
0.0
 40
1.00000000000009
100
AcDbArc
 50
240.0
 51
270.0
  0
SPLINE
  5
1A2
330
1F
100
AcDbEntity
  8
0
  6
Continuous
 62
     7
370
    25
100
AcDbSpline
210
0.0
220
0.0
230
1.0
 70
     8
 71
     3
 72
    12
 73
     8
 74
     0
 42
0.000000001
 43
0.00000001
 40
0.0
 40
0.0
 40
0.0
 40
0.0
 40
0.4999999999999887
 40
0.4999999999999887
 40
0.7499999999999943
 40
0.7499999999999943
 40
1.0
 40
1.0
 40
1.0
 40
1.0
 10
793.854439532191
 20
364.8384626296667
 30
0.0
 10
794.0449338216146
 20
365.0737224221097
 30
0.0
 10
794.166608234677
 20
365.3125071149603
 30
0.0
 10
794.1672644252081
 20
365.6799986475173
 30
0.0
 10
794.1374304234138
 20
365.8023708421667
 30
0.0
 10
794.0285005533062
 20
366.0427545273262
 30
0.0
 10
793.9498053662433
 20
366.1615154743877
 30
0.0
 10
793.8544395321906
 20
366.2792919515373
 30
0.0
  0
SPLINE
  5
1A3
330
1F
100
AcDbEntity
  8
0
  6
Continuous
 62
     7
370
    25
100
AcDbSpline
210
0.0
220
0.0
230
1.0
 70
     8
 71
     3
 72
    14
 73
    10
 74
     0
 42
0.000000001
 43
0.00000001
 40
0.0
 40
0.0
 40
0.0
 40
0.0
 40
0.25
 40
0.25
 40
0.5
 40
0.5
 40
0.75
 40
0.75
 40
1.0
 40
1.0
 40
1.0
 40
1.0
 10
793.85443953219
 20
370.2697231489641
 30
0.0
 10
793.9493141415007
 20
369.9452169196755
 30
0.0
 10
794.0289190663764
 20
369.6127576972812
 30
0.0
 10
794.1377556812706
 20
368.9461877823729
 30
0.0
 10
794.1670792869612
 20
368.6111115250976
 30
0.0
 10
794.1670145052155
 20
367.93676805487
 30
0.0
 10
794.1368583118892
 20
367.5949886341911
 30
0.0
 10
794.0272731105234
 20
366.9285747145863
 30
0.0
 10
793.9487301367213
 20
366.6018006686336
 30
0.0
 10
793.85443953219
 20
366.2792919515372
 30
0.0
  0
SPLINE
  5
1A4
330
1F
100
AcDbEntity
  8
0
  6
Continuous
 62
     7
370
    25
100
AcDbSpline
210
0.0
220
0.0
230
1.0
 70
     8
 71
     3
 72
    12
 73
     8
 74
     0
 42
0.000000001
 43
0.00000001
 40
0.0
 40
0.0
 40
0.0
 40
0.0
 40
0.5000000000000078
 40
0.5000000000000078
 40
0.7500000000000039
 40
0.7500000000000039
 40
1.0
 40
1.0
 40
1.0
 40
1.0
 10
793.854439532191
 20
370.269723148964
 30
0.0
 10
794.0449338216146
 20
370.6860242326186
 30
0.0
 10
794.166608234677
 20
371.108562760607
 30
0.0
 10
794.1672644252081
 20
371.7588529000678
 30
0.0
 10
794.1374304234138
 20
371.9753951179822
 30
0.0
 10
794.0285005533062
 20
372.4007631232225
 30
0.0
 10
793.9498053662433
 20
372.6109151022078
 30
0.0
 10
793.8544395321906
 20
372.8193250245205
 30
0.0
  0
LINE
  5
1A5
330
1F
100
AcDbEntity
  8
0
  6
Continuous
 62
     7
370
    25
100
AcDbLine
 10
793.8544395322
 20
372.8193250245
 30
0.0
 11
793.9523145694
 21
372.5764202742
 31
0.0
  0
LINE
  5
1A6
330
1F
100
AcDbEntity
  8
0
  6
Continuous
 62
     7
370
    25
100
AcDbLine
 10
794.3691195176
 20
368.3299461779
 30
0.0
 11
794.3691195176
 21
365.6788938271
 31
0.0
  0
LINE
  5
1A7
330
1F
100
AcDbEntity
  8
0
  6
Continuous
 62
     7
370
    25
100
AcDbLine
 10
794.3691195176
 20
371.9788938271
 30
0.0
 11
794.3691195176
 21
368.3299461779
 31
0.0
  0
LINE
  5
1A8
330
1F
100
AcDbEntity
  8
0
  6
Continuous
 62
     7
370
    25
100
AcDbLine
 10
793.2691195176
 20
370.269723149
 30
0.0
 11
793.8544395322
 21
370.269723149
 31
0.0
  0
LINE
  5
1A9
330
1F
100
AcDbEntity
  8
0
  6
Continuous
 62
     7
370
    25
100
AcDbLine
 10
793.2691195176
 20
366.2792919515
 30
0.0
 11
793.8544395322
 21
366.2792919515
 31
0.0
  0
LINE
  5
1AA
330
1F
100
AcDbEntity
  8
0
  6
Continuous
 62
     7
370
    25
100
AcDbLine
 10
793.2691195176
 20
372.8193250245
 30
0.0
 11
793.8544395322
 21
372.8193250245
 31
0.0
  0
LINE
  5
1AB
330
1F
100
AcDbEntity
  8
0
  6
Continuous
 62
     7
370
    25
100
AcDbLine
 10
793.2691195176
 20
364.8384626297
 30
0.0
 11
793.8544395322
 21
364.8384626297
 31
0.0
  0
LINE
  5
1AC
330
1F
100
AcDbEntity
  8
0
  6
Continuous
 62
     7
370
    25
100
AcDbLine
 10
797.0691195176
 20
358.8288938271
 30
0.0
 11
797.0691195176
 21
359.6288938271
 31
0.0
  0
LINE
  5
1AD
330
1F
100
AcDbEntity
  8
0
  6
Continuous
 62
     7
370
    25
100
AcDbLine
 10
801.3691195176
 20
359.6288938271
 30
0.0
 11
797.0691195176
 21
359.6288938271
 31
0.0
  0
LINE
  5
1AE
330
1F
100
AcDbEntity
  8
0
  6
Continuous
 62
     7
370
    25
100
AcDbLine
 10
801.3691195176
 20
358.8288938271
 30
0.0
 11
797.0691195176
 21
358.8288938271
 31
0.0
  0
LINE
  5
1AF
330
1F
100
AcDbEntity
  8
0
  6
Continuous
 62
     7
370
    25
100
AcDbLine
 10
801.8191195176
 20
377.1288938271
 30
0.0
 11
806.9691195176
 21
377.1288938271
 31
0.0
  0
LINE
  5
1B0
330
1F
100
AcDbEntity
  8
0
  6
Continuous
 62
     7
370
    25
100
AcDbLine
 10
801.8191195176
 20
377.9288938271
 30
0.0
 11
801.8191195176
 21
377.1288938271
 31
0.0
  0
LINE
  5
1B1
330
1F
100
AcDbEntity
  8
0
  6
Continuous
 62
     7
370
    25
100
AcDbLine
 10
801.8191195176
 20
377.9288938271
 30
0.0
 11
806.9691195176
 21
377.9288938271
 31
0.0
  0
LINE
  5
1B2
330
1F
100
AcDbEntity
  8
0
  6
Continuous
 62
     7
370
    25
100
AcDbLine
 10
806.9691195176
 20
377.9288938271
 30
0.0
 11
806.9691195176
 21
378.0288938271
 31
0.0
  0
LINE
  5
1B3
330
1F
100
AcDbEntity
  8
0
  6
Continuous
 62
     7
370
    25
100
AcDbLine
 10
797.0691195176
 20
378.0288938271
 30
0.0
 11
806.9691195176
 21
378.0288938271
 31
0.0
  0
LINE
  5
1B4
330
1F
100
AcDbEntity
  8
0
  6
Continuous
 62
     7
370
    25
100
AcDbLine
 10
797.0691195176
 20
378.0288938271
 30
0.0
 11
797.0691195176
 21
378.8288938271
 31
0.0
  0
LINE
  5
1B5
330
1F
100
AcDbEntity
  8
0
  6
Continuous
 62
     7
370
    25
100
AcDbLine
 10
806.9691195176
 20
378.8288938271
 30
0.0
 11
797.0691195176
 21
378.8288938271
 31
0.0
  0
ARC
  5
1B6
330
1F
100
AcDbEntity
  8
0
  6
Continuous
 62
     7
370
    25
100
AcDbCircle
 10
806.9691195176
 20
377.9788938271
 30
0.0
 40
0.8500000000000227
100
AcDbArc
 50
270.0
 51
90.0
  0
ARC
  5
1B7
330
1F
100
AcDbEntity
  8
0
  6
Continuous
 62
     7
370
    25
100
AcDbCircle
 10
797.0691195176
 20
377.0288938271
 30
0.0
 40
1.000000000000114
100
AcDbArc
 50
90.0
 51
180.0
  0
LINE
  5
1B8
330
1F
100
AcDbEntity
  8
0
  6
Continuous
 62
     7
370
    25
100
AcDbLine
 10
796.0691195176
 20
377.0288938271
 30
0.0
 11
796.0691195176
 21
360.6288938271
 31
0.0
  0
ARC
  5
1B9
330
1F
100
AcDbEntity
  8
0
  6
Continuous
 62
     7
370
    25
100
AcDbCircle
 10
797.0691195176
 20
360.6288938271
 30
0.0
 40
1.800000000000182
100
AcDbArc
 50
180.0
 51
270.0
  0
LINE
  5
1BA
330
1F
100
AcDbEntity
  8
0
  6
Continuous
 62
     7
370
    25
100
AcDbLine
 10
795.2691195176
 20
360.6288938271
 30
0.0
 11
795.2691195176
 21
377.0288938271
 31
0.0
  0
ARC
  5
1BB
330
1F
100
AcDbEntity
  8
0
  6
Continuous
 62
     7
370
    25
100
AcDbCircle
 10
797.0691195176
 20
377.0288938271
 30
0.0
 40
1.800000000000011
100
AcDbArc
 50
90.0
 51
180.0
  0
ARC
  5
1BC
330
1F
100
AcDbEntity
  8
0
  6
Continuous
 62
     7
370
    25
100
AcDbCircle
 10
797.0691195176
 20
360.6288938271
 30
0.0
 40
1.000000000000057
100
AcDbArc
 50
180.0
 51
270.0
  0
CIRCLE
  5
1BD
330
1F
100
AcDbEntity
  8
0
  6
Continuous
 62
     7
370
    25
100
AcDbCircle
 10
782.7691195176
 20
368.8288938271
 30
0.0
 40
2.458750000016599
  0
CIRCLE
  5
1BE
330
1F
100
AcDbEntity
  8
0
  6
Continuous
 62
     7
370
    25
100
AcDbCircle
 10
782.7691195176
 20
368.8288938271
 30
0.0
 40
3.000000000000015
  0
ARC
  5
1BF
330
1F
100
AcDbEntity
  8
0
  6
Continuous
 62
     7
370
    25
100
AcDbCircle
 10
791.3321396198
 20
368.7329558072
 30
0.0
 40
7.786288415097457
100
AcDbArc
 50
4.3702527064
 51
15.2299003794
  0
ARC
  5
1C0
330
1F
100
AcDbEntity
  8
0
  6
Continuous
 62
     7
370
    25
100
AcDbCircle
 10
798.5713960834
 20
369.6394094095
 30
0.0
 40
0.6107675350085718
100
AcDbArc
 50
296.6101963367
 51
329.1575418587
  0
ARC
  5
1C1
330
1F
100
AcDbEntity
  8
0
  6
Continuous
 62
     7
370
    25
100
AcDbCircle
 10
789.765333942
 20
368.5009123145
 30
0.0
 40
9.098942710182328
100
AcDbArc
 50
356.2668736477
 51
3.7331263523
  0
ARC
  5
1C2
330
1F
100
AcDbEntity
  8
0
  6
Continuous
 62
     7
370
    25
100
AcDbCircle
 10
798.5713960834
 20
368.4545586247
 30
0.0
 40
0.6107675350080125
100
AcDbArc
 50
296.6101963366
 51
329.1575418587
  0
ARC
  5
1C3
330
1F
100
AcDbEntity
  8
0
  6
Continuous
 62
     7
370
    25
100
AcDbCircle
 10
791.3321396198
 20
368.734756552
 30
0.0
 40
7.786288415096541
100
AcDbArc
 50
344.7700996206
 51
355.6297472936
  0
ARC
  5
1C4
330
1F
100
AcDbEntity
  8
0
  6
Continuous
 62
     7
370
    25
100
AcDbCircle
 10
798.711885739
 20
366.7632914503
 30
0.0
 40
0.1522432420570346
100
AcDbArc
 50
330.9451665851
 51
359.1449116559
  0
LWPOLYLINE
  5
1C5
330
1F
100
AcDbEntity
  8
0
  6
Continuous
 62
     7
370
    25
100
AcDbPolyline
 90
        3
 70
   128
 43
0.0
 10
799.0957890078
 20
368.3315060821
 10
799.0795641592
 20
368.1478077533
 10
799.0789220161
 20
368.1414307872
  0
ARC
  5
1C6
330
1F
100
AcDbEntity
  8
0
  6
Continuous
 62
     7
370
    25
100
AcDbCircle
 10
798.5713960834
 20
368.0183782446
 30
0.0
 40
0.6107675350084701
100
AcDbArc
 50
30.8424581413
 51
63.3898036633
  0
ARC
  5
1C7
330
1F
100
AcDbEntity
  8
0
  6
Continuous
 62
     7
370
    25
100
AcDbCircle
 10
789.6884621627
 20
369.159891196
 30
0.0
 40
9.17581504294814
100
AcDbArc
 50
357.9327321272
 51
359.6562101061
  0
ARC
  5
1C8
330
1F
100
AcDbEntity
  8
0
  6
Continuous
 62
     7
370
    25
100
AcDbCircle
 10
791.3321396198
 20
368.9230311022
 30
0.0
 40
7.786288415092879
100
AcDbArc
 50
4.3702527064
 51
15.2299003794
  0
ARC
  5
1C9
330
1F
100
AcDbEntity
  8
0
  6
Continuous
 62
     7
370
    25
100
AcDbCircle
 10
798.6238479526
 20
370.8733949434
 30
0.0
 40
0.2406805056704257
100
AcDbArc
 50
336.7420981703
 51
23.2579018297
  0
LINE
  5
1CA
330
1F
100
AcDbEntity
  8
0
  6
Continuous
 62
     7
370
    25
100
AcDbLine
 10
798.0691195176
 20
372.7783964431
 30
0.0
 11
798.0691195176
 21
372.8288938271
 31
0.0
  0
LINE
  5
1CB
330
1F
100
AcDbEntity
  8
0
  6
Continuous
 62
     7
370
    25
100
AcDbLine
 10
798.0691195176
 20
364.8288938271
 30
0.0
 11
798.0691195176
 21
372.7783964431
 31
0.0
  0
LINE
  5
1CC
330
1F
100
AcDbEntity
  8
0
  6
Continuous
 62
     7
370
    25
100
AcDbLine
 10
799.0957890078
 20
368.1414307872
 30
0.0
 11
798.85723335
 21
368.1414307872
 31
0.0
  0
LINE
  5
1CD
330
1F
100
AcDbEntity
  8
0
  6
Continuous
 62
     7
370
    25
100
AcDbLine
 10
799.0957890078
 20
369.516356867
 30
0.0
 11
799.0789220161
 21
369.516356867
 31
0.0
  0
LINE
  5
1CE
330
1F
100
AcDbEntity
  8
0
  6
Continuous
 62
     7
370
    25
100
AcDbLine
 10
799.0957890078
 20
368.3315060821
 30
0.0
 11
798.8627386914
 21
368.3315060821
 31
0.0
  0
LINE
  5
1CF
330
1F
100
AcDbEntity
  8
0
  6
Continuous
 62
     7
370
    25
100
AcDbLine
 10
788.8691195176
 20
303.142739186
 30
0.0
 11
776.8691195176
 21
303.142739186
 31
0.0
  0
LINE
  5
1D0
330
1F
100
AcDbEntity
  8
0
  6
Continuous
 62
     7
370
    25
100
AcDbLine
 10
788.8691195176
 20
302.4586988994
 30
0.0
 11
776.8691195176
 21
302.4586988994
 31
0.0
  0
LINE
  5
1D1
330
1F
100
AcDbEntity
  8
0
  6
Continuous
 62
     7
370
    25
100
AcDbLine
 10
774.8691195176
 20
304.338084141
 30
0.0
 11
774.8691195176
 21
305.0221244276
 31
0.0
  0
ARC
  5
1D2
330
1F
100
AcDbEntity
  8
0
  6
Continuous
 62
     7
370
    25
100
AcDbCircle
 10
776.8106306284
 20
305.0843670035
 30
0.0
 40
1.942508566655243
100
AcDbArc
 50
181.8362067977
 51
271.7254354149
  0
ARC
  5
1D3
330
1F
100
AcDbEntity
  8
0
  6
Continuous
 62
     7
370
    25
100
AcDbCircle
 10
776.8106306284
 20
304.4003267168
 30
0.0
 40
1.942508566655476
100
AcDbArc
 50
181.8362067977
 51
271.7254354149
  0
LINE
  5
1D4
330
1F
100
AcDbEntity
  8
0
  6
Continuous
 62
     7
370
    25
100
AcDbLine
 10
774.8691195176
 20
305.0221244276
 30
0.0
 11
774.8691195176
 21
310.1632006645
 31
0.0
  0
LINE
  5
1D5
330
1F
100
AcDbEntity
  8
0
  6
Continuous
 62
     7
370
    25
100
AcDbLine
 10
790.8691195176
 20
310.1632006645
 30
0.0
 11
790.8691195176
 21
305.0221244276
 31
0.0
  0
ARC
  5
1D6
330
1F
100
AcDbEntity
  8
0
  6
Continuous
 62
     7
370
    25
100
AcDbCircle
 10
788.9276084068
 20
305.0843670035
 30
0.0
 40
1.942508566654909
100
AcDbArc
 50
268.2745645851
 51
358.1637932024
  0
LINE
  5
1D7
330
1F
100
AcDbEntity
  8
0
  6
Continuous
 62
     7
370
    25
100
AcDbLine
 10
790.8691195176
 20
305.0221244276
 30
0.0
 11
790.8691195176
 21
304.338084141
 31
0.0
  0
ARC
  5
1D8
330
1F
100
AcDbEntity
  8
0
  6
Continuous
 62
     7
370
    25
100
AcDbCircle
 10
788.9276084068
 20
304.4003267168
 30
0.0
 40
1.942508566655006
100
AcDbArc
 50
268.2745645851
 51
358.1637932024
  0
LINE
  5
1D9
330
1F
100
AcDbEntity
  8
0
  6
Continuous
 62
     7
370
    25
100
AcDbLine
 10
790.8691195176
 20
310.1632006645
 30
0.0
 11
790.8691195176
 21
310.5052208078
 31
0.0
  0
LINE
  5
1DA
330
1F
100
AcDbEntity
  8
0
  6
Continuous
 62
     7
370
    25
100
AcDbLine
 10
774.8691195176
 20
310.5052208078
 30
0.0
 11
774.8691195176
 21
310.1632006645
 31
0.0
  0
LINE
  5
1DB
330
1F
100
AcDbEntity
  8
0
  6
Continuous
 62
     7
370
    25
100
AcDbLine
 10
790.8691195176
 20
310.3288938271
 30
0.0
 11
801.3691195176
 21
310.3288938271
 31
0.0
  0
ARC
  5
1DC
330
1F
100
AcDbEntity
  8
0
  6
Continuous
 62
     7
370
    25
100
AcDbCircle
 10
776.8691195176
 20
323.3288938271
 30
0.0
 40
2.0
100
AcDbArc
 50
90.0
 51
180.0
  0
CIRCLE
  5
1DD
330
1F
100
AcDbEntity
  8
0
  6
Continuous
 62
     7
370
    25
100
AcDbCircle
 10
782.7691195176
 20
317.8288938271
 30
0.0
 40
3.5
  0
LINE
  5
1DE
330
1F
100
AcDbEntity
  8
0
  6
Continuous
 62
     7
370
    25
100
AcDbLine
 10
774.8691195176
 20
323.3288938271
 30
0.0
 11
774.8691195176
 21
310.5052208078
 31
0.0
  0
LINE
  5
1DF
330
1F
100
AcDbEntity
  8
0
  6
Continuous
 62
     7
370
    25
100
AcDbLine
 10
801.3691195176
 20
325.3288938271
 30
0.0
 11
776.8691195176
 21
325.3288938271
 31
0.0
  0
CIRCLE
  5
1E0
330
1F
100
AcDbEntity
  8
0
  6
Continuous
 62
     7
370
    25
100
AcDbCircle
 10
782.7691195176
 20
217.8288938271
 30
0.0
 40
2.458750000016599
  0
CIRCLE
  5
1E1
330
1F
100
AcDbEntity
  8
0
  6
Continuous
 62
     7
370
    25
100
AcDbCircle
 10
782.7691195176
 20
217.8288938271
 30
0.0
 40
3.000000000000002
  0
ARC
  5
1E2
330
1F
100
AcDbEntity
  8
0
  6
Continuous
 62
     7
370
    25
100
AcDbCircle
 10
776.8106306284
 20
205.0843670035
 30
0.0
 40
1.942508566655246
100
AcDbArc
 50
181.8362067977
 51
271.7254354149
  0
LINE
  5
1E3
330
1F
100
AcDbEntity
  8
0
  6
Continuous
 62
     7
370
    25
100
AcDbLine
 10
774.8691195176
 20
205.0221244276
 30
0.0
 11
774.8691195176
 21
210.1632006645
 31
0.0
  0
LINE
  5
1E4
330
1F
100
AcDbEntity
  8
0
  6
Continuous
 62
     7
370
    25
100
AcDbLine
 10
790.8691195176
 20
210.1632006645
 30
0.0
 11
790.8691195176
 21
205.0221244276
 31
0.0
  0
ARC
  5
1E5
330
1F
100
AcDbEntity
  8
0
  6
Continuous
 62
     7
370
    25
100
AcDbCircle
 10
788.9276084068
 20
205.0843670035
 30
0.0
 40
1.94250856665541
100
AcDbArc
 50
268.2745645851
 51
358.1637932023
  0
LINE
  5
1E6
330
1F
100
AcDbEntity
  8
0
  6
Continuous
 62
     7
370
    25
100
AcDbLine
 10
788.8691195176
 20
203.142739186
 30
0.0
 11
776.8691195176
 21
203.142739186
 31
0.0
  0
LINE
  5
1E7
330
1F
100
AcDbEntity
  8
0
  6
Continuous
 62
     7
370
    25
100
AcDbLine
 10
788.8691195176
 20
202.4586988994
 30
0.0
 11
776.8691195176
 21
202.4586988994
 31
0.0
  0
LINE
  5
1E8
330
1F
100
AcDbEntity
  8
0
  6
Continuous
 62
     7
370
    25
100
AcDbLine
 10
774.8691195176
 20
204.338084141
 30
0.0
 11
774.8691195176
 21
205.0221244276
 31
0.0
  0
ARC
  5
1E9
330
1F
100
AcDbEntity
  8
0
  6
Continuous
 62
     7
370
    25
100
AcDbCircle
 10
776.8106306284
 20
204.4003267168
 30
0.0
 40
1.942508566655193
100
AcDbArc
 50
181.8362067977
 51
271.7254354149
  0
LINE
  5
1EA
330
1F
100
AcDbEntity
  8
0
  6
Continuous
 62
     7
370
    25
100
AcDbLine
 10
790.8691195176
 20
205.0221244276
 30
0.0
 11
790.8691195176
 21
204.338084141
 31
0.0
  0
ARC
  5
1EB
330
1F
100
AcDbEntity
  8
0
  6
Continuous
 62
     7
370
    25
100
AcDbCircle
 10
788.9276084068
 20
204.4003267168
 30
0.0
 40
1.942508566655382
100
AcDbArc
 50
268.2745645851
 51
358.1637932023
  0
LINE
  5
1EC
330
1F
100
AcDbEntity
  8
0
  6
Continuous
 62
     7
370
    25
100
AcDbLine
 10
790.8691195176
 20
210.1632006645
 30
0.0
 11
790.8691195176
 21
210.5052208078
 31
0.0
  0
LINE
  5
1ED
330
1F
100
AcDbEntity
  8
0
  6
Continuous
 62
     7
370
    25
100
AcDbLine
 10
774.8691195176
 20
210.5052208078
 30
0.0
 11
774.8691195176
 21
210.1632006645
 31
0.0
  0
LINE
  5
1EE
330
1F
100
AcDbEntity
  8
0
  6
Continuous
 62
     7
370
    25
100
AcDbLine
 10
790.8691195176
 20
210.3288938271
 30
0.0
 11
801.3691195176
 21
210.3288938271
 31
0.0
  0
ARC
  5
1EF
330
1F
100
AcDbEntity
  8
0
  6
Continuous
 62
     7
370
    25
100
AcDbCircle
 10
776.8691195176
 20
223.3288938271
 30
0.0
 40
2.0
100
AcDbArc
 50
90.0
 51
180.0
  0
CIRCLE
  5
1F0
330
1F
100
AcDbEntity
  8
0
  6
Continuous
 62
     7
370
    25
100
AcDbCircle
 10
782.7691195176
 20
217.8288938271
 30
0.0
 40
3.5
  0
LINE
  5
1F1
330
1F
100
AcDbEntity
  8
0
  6
Continuous
 62
     7
370
    25
100
AcDbLine
 10
801.3691195176
 20
225.3288938271
 30
0.0
 11
776.8691195176
 21
225.3288938271
 31
0.0
  0
LINE
  5
1F2
330
1F
100
AcDbEntity
  8
0
  6
Continuous
 62
     7
370
    25
100
AcDbLine
 10
774.8691195176
 20
223.3288938271
 30
0.0
 11
774.8691195176
 21
210.5052208078
 31
0.0
  0
CIRCLE
  5
1F3
330
1F
100
AcDbEntity
  8
0
  6
Continuous
 62
     7
370
    25
100
AcDbCircle
 10
782.7691195176
 20
393.8288938271
 30
0.0
 40
2.458750000016599
  0
CIRCLE
  5
1F4
330
1F
100
AcDbEntity
  8
0
  6
Continuous
 62
     7
370
    25
100
AcDbCircle
 10
782.7691195176
 20
393.8288938271
 30
0.0
 40
3.000000000000015
  0
CIRCLE
  5
1F5
330
1F
100
AcDbEntity
  8
0
  6
Continuous
 62
     7
370
    25
100
AcDbCircle
 10
782.7691195176
 20
317.8288938271
 30
0.0
 40
2.458750000016702
  0
CIRCLE
  5
1F6
330
1F
100
AcDbEntity
  8
0
  6
Continuous
 62
     7
370
    25
100
AcDbCircle
 10
782.7691195176
 20
317.8288938271
 30
0.0
 40
2.999999999999888
  0
LINE
  5
1F7
330
1F
100
AcDbEntity
  8
0
  6
Continuous
 62
     7
370
    25
100
AcDbLine
 10
651.3748974581
 20
480.2521437387
 30
0.0
 11
651.8748974581
 21
479.7521437387
 31
0.0
  0
LINE
  5
1F8
330
1F
100
AcDbEntity
  8
0
  6
Continuous
 62
     7
370
    25
100
AcDbLine
 10
651.3748974581
 20
484.2521437387
 30
0.0
 11
651.3748974581
 21
480.2521437387
 31
0.0
  0
LINE
  5
1F9
330
1F
100
AcDbEntity
  8
0
  6
Continuous
 62
     7
370
    25
100
AcDbLine
 10
657.1547342479
 20
480.2521437387
 30
0.0
 11
657.1547342479
 21
484.2521437387
 31
0.0
  0
LINE
  5
1FA
330
1F
100
AcDbEntity
  8
0
  6
Continuous
 62
     7
370
    25
100
AcDbLine
 10
656.6547342479
 20
479.7521437387
 30
0.0
 11
657.1547342479
 21
480.2521437387
 31
0.0
  0
LINE
  5
1FB
330
1F
100
AcDbEntity
  8
0
  6
Continuous
 62
     7
370
    25
100
AcDbLine
 10
651.4312394199
 20
480.2521437387
 30
0.0
 11
651.9312394199
 21
479.7521437387
 31
0.0
  0
LINE
  5
1FC
330
1F
100
AcDbEntity
  8
0
  6
Continuous
 62
     7
370
    25
100
AcDbLine
 10
651.4312394199
 20
484.2521437387
 30
0.0
 11
651.4312394199
 21
480.2521437387
 31
0.0
  0
LINE
  5
1FD
330
1F
100
AcDbEntity
  8
0
  6
Continuous
 62
     7
370
    25
100
AcDbLine
 10
173.5812351183
 20
479.7521437387
 30
0.0
 11
174.0812351183
 21
480.2521437387
 31
0.0
  0
LINE
  5
1FE
330
1F
100
AcDbEntity
  8
0
  6
Continuous
 62
     7
370
    25
100
AcDbLine
 10
174.0812351183
 20
480.2521437387
 30
0.0
 11
174.0812351183
 21
484.2521437387
 31
0.0
  0
LINE
  5
1FF
330
1F
100
AcDbEntity
  8
0
  6
Continuous
 62
     7
370
    25
100
AcDbLine
 10
168.351690434
 20
480.2521437387
 30
0.0
 11
168.851690434
 21
479.7521437387
 31
0.0
  0
LINE
  5
200
330
1F
100
AcDbEntity
  8
0
  6
Continuous
 62
     7
370
    25
100
AcDbLine
 10
168.351690434
 20
484.2521437387
 30
0.0
 11
168.351690434
 21
480.2521437387
 31
0.0
  0
LINE
  5
201
330
1F
100
AcDbEntity
  8
0
  6
Continuous
 62
     7
370
    25
100
AcDbLine
 10
674.4021001725
 20
469.1521437387
 30
0.0
 11
674.2021001725
 21
469.1521437387
 31
0.0
  0
LINE
  5
202
330
1F
100
AcDbEntity
  8
0
  6
Continuous
 62
     7
370
    25
100
AcDbLine
 10
674.2021001725
 20
463.1521437387
 30
0.0
 11
674.4021001725
 21
463.1521437387
 31
0.0
  0
LINE
  5
203
330
1F
100
AcDbEntity
  8
0
  6
Continuous
 62
     7
370
    25
100
AcDbLine
 10
674.4021001725
 20
463.1521437387
 30
0.0
 11
674.9433501725
 21
463.6933937387
 31
0.0
  0
LINE
  5
204
330
1F
100
AcDbEntity
  8
0
  6
Continuous
 62
     7
370
    25
100
AcDbLine
 10
674.9433501725
 20
468.6108937387
 30
0.0
 11
674.4021001725
 21
469.1521437387
 31
0.0
  0
LINE
  5
205
330
1F
100
AcDbEntity
  8
0
  6
Continuous
 62
     7
370
    25
100
AcDbLine
 10
151.0846001725
 20
469.1521437387
 30
0.0
 11
150.5433501725
 21
468.6108937387
 31
0.0
  0
LINE
  5
206
330
1F
100
AcDbEntity
  8
0
  6
Continuous
 62
     7
370
    25
100
AcDbLine
 10
150.5433501725
 20
463.6933937387
 30
0.0
 11
151.0846001725
 21
463.1521437387
 31
0.0
  0
LINE
  5
207
330
1F
100
AcDbEntity
  8
0
  6
Continuous
 62
     7
370
    25
100
AcDbLine
 10
151.0846001725
 20
463.1521437387
 30
0.0
 11
151.2846001725
 21
463.1521437387
 31
0.0
  0
LINE
  5
208
330
1F
100
AcDbEntity
  8
0
  6
Continuous
 62
     7
370
    25
100
AcDbLine
 10
151.2846001725
 20
469.1521437387
 30
0.0
 11
151.0846001725
 21
469.1521437387
 31
0.0
  0
ARC
  5
209
330
1F
100
AcDbEntity
  8
0
  6
Continuous
 62
     7
370
    25
100
AcDbCircle
 10
161.2433501725
 20
471.9521437388
 30
0.0
 40
0.5
100
AcDbArc
 50
0.0
 51
180.0
  0
ARC
  5
20A
330
1F
100
AcDbEntity
  8
0
  6
Continuous
 62
     7
370
    25
100
AcDbCircle
 10
161.2433501725
 20
460.3521437386
 30
0.0
 40
0.5
100
AcDbArc
 50
180.0
 51
0.0
  0
LINE
  5
20B
330
1F
100
AcDbEntity
  8
0
  6
Continuous
 62
     7
370
    25
100
AcDbLine
 10
151.2846001725
 20
469.1521437387
 30
0.0
 11
150.7433501725
 21
468.6108937387
 31
0.0
  0
LINE
  5
20C
330
1F
100
AcDbEntity
  8
0
  6
Continuous
 62
     7
370
    25
100
AcDbLine
 10
150.7433501725
 20
463.6933937387
 30
0.0
 11
151.2846001725
 21
463.1521437387
 31
0.0
  0
LINE
  5
20D
330
1F
100
AcDbEntity
  8
0
  6
Continuous
 62
     7
370
    25
100
AcDbLine
 10
151.2846001725
 20
463.1521437387
 30
0.0
 11
156.1278037843
 21
463.1521437387
 31
0.0
  0
LINE
  5
20E
330
1F
100
AcDbEntity
  8
0
  6
Continuous
 62
     7
370
    25
100
AcDbLine
 10
156.1278037843
 20
469.1521437387
 30
0.0
 11
151.2846001725
 21
469.1521437387
 31
0.0
  0
LINE
  5
20F
330
1F
100
AcDbEntity
  8
0
  6
Continuous
 62
     7
370
    25
100
AcDbLine
 10
165.7433501725
 20
471.1521437387
 30
0.0
 11
165.4138670767
 21
471.7228252008
 31
0.0
  0
LINE
  5
210
330
1F
100
AcDbEntity
  8
0
  6
Continuous
 62
     7
370
    25
100
AcDbLine
 10
165.4138670767
 20
460.5814622766
 30
0.0
 11
165.7433501725
 21
461.1521437387
 31
0.0
  0
ARC
  5
211
330
1F
100
AcDbEntity
  8
0
  6
Continuous
 62
     7
370
    25
100
AcDbCircle
 10
664.2433501725
 20
460.3521437386
 30
0.0
 40
0.5000000000001137
100
AcDbArc
 50
180.0
 51
0.0
  0
ARC
  5
212
330
1F
100
AcDbEntity
  8
0
  6
Continuous
 62
     7
370
    25
100
AcDbCircle
 10
664.2433501725
 20
471.9521437388
 30
0.0
 40
0.5000000000001137
100
AcDbArc
 50
0.0
 51
180.0
  0
LINE
  5
213
330
1F
100
AcDbEntity
  8
0
  6
Continuous
 62
     7
370
    25
100
AcDbLine
 10
659.9709316097
 20
471.5463263508
 30
0.0
 11
659.7433501725
 21
471.1521437387
 31
0.0
  0
LINE
  5
214
330
1F
100
AcDbEntity
  8
0
  6
Continuous
 62
     7
370
    25
100
AcDbLine
 10
674.2021001725
 20
463.1521437387
 30
0.0
 11
674.7433501725
 21
463.6933937387
 31
0.0
  0
LINE
  5
215
330
1F
100
AcDbEntity
  8
0
  6
Continuous
 62
     7
370
    25
100
AcDbLine
 10
674.7433501725
 20
468.6108937387
 30
0.0
 11
674.2021001725
 21
469.1521437387
 31
0.0
  0
LINE
  5
216
330
1F
100
AcDbEntity
  8
0
  6
Continuous
 62
     7
370
    25
100
AcDbLine
 10
674.2021001725
 20
469.1521437387
 30
0.0
 11
669.3588965607
 21
469.1521437387
 31
0.0
  0
LINE
  5
217
330
1F
100
AcDbEntity
  8
0
  6
Continuous
 62
     7
370
    25
100
AcDbLine
 10
669.3588965607
 20
463.1521437387
 30
0.0
 11
674.2021001725
 21
463.1521437387
 31
0.0
  0
LINE
  5
218
330
1F
100
AcDbEntity
  8
0
  6
Continuous
 62
     7
370
    25
100
AcDbLine
 10
659.7433501725
 20
461.1521437387
 30
0.0
 11
659.9709316097
 21
460.7579611266
 31
0.0
  0
LINE
  5
219
330
1F
100
AcDbEntity
  8
0
  6
Continuous
 62
     7
370
    25
100
AcDbLine
 10
152.2433501725
 20
489.3521437387
 30
0.0
 11
158.2433501725
 21
489.3521437387
 31
0.0
  0
LINE
  5
21A
330
1F
100
AcDbEntity
  8
0
  6
Continuous
 62
     7
370
    25
100
AcDbLine
 10
667.2433501725
 20
489.3521437387
 30
0.0
 11
673.2433501725
 21
489.3521437387
 31
0.0
  0
LINE
  5
21B
330
1F
100
AcDbEntity
  8
0
  6
Continuous
 62
     7
370
    25
100
AcDbLine
 10
158.2433501725
 20
489.3521437387
 30
0.0
 11
161.1827378638
 21
489.3521437387
 31
0.0
  0
LINE
  5
21C
330
1F
100
AcDbEntity
  8
0
  6
Continuous
 62
     7
370
    25
100
AcDbLine
 10
664.3039624811
 20
489.3521437387
 30
0.0
 11
667.2433501725
 21
489.3521437387
 31
0.0
  0
LINE
  5
21D
330
1F
100
AcDbEntity
  8
0
  6
Continuous
 62
     7
370
    25
100
AcDbLine
 10
166.4933501725
 20
484.2521437387
 30
0.0
 11
166.4933501725
 21
484.7521437387
 31
0.0
  0
LINE
  5
21E
330
1F
100
AcDbEntity
  8
0
  6
Continuous
 62
     7
370
    25
100
AcDbLine
 10
175.9933501725
 20
484.7521437387
 30
0.0
 11
175.9933501725
 21
484.2521437387
 31
0.0
  0
LINE
  5
21F
330
1F
100
AcDbEntity
  8
0
  6
Continuous
 62
     7
370
    25
100
AcDbLine
 10
175.9933501725
 20
484.2521437387
 30
0.0
 11
166.4933501725
 21
484.2521437387
 31
0.0
  0
LINE
  5
220
330
1F
100
AcDbEntity
  8
0
  6
Continuous
 62
     7
370
    25
100
AcDbLine
 10
176.7567501725
 20
484.2521437387
 30
0.0
 11
175.9933501725
 21
484.2521437387
 31
0.0
  0
ARC
  5
221
330
1F
100
AcDbEntity
  8
0
  6
Continuous
 62
     7
370
    25
100
AcDbCircle
 10
165.7299501725
 20
485.4887437387
 30
0.0
 40
1.23660000000001
100
AcDbArc
 50
216.5600911005
 51
270.0
  0
LINE
  5
222
330
1F
100
AcDbEntity
  8
0
  6
Continuous
 62
     7
370
    25
100
AcDbLine
 10
166.4933501725
 20
484.2521437387
 30
0.0
 11
165.7299501725
 21
484.2521437387
 31
0.0
  0
ARC
  5
223
330
1F
100
AcDbEntity
  8
0
  6
Continuous
 62
     7
370
    25
100
AcDbCircle
 10
176.7567501725
 20
485.4887437387
 30
0.0
 40
1.23660000000001
100
AcDbArc
 50
270.0
 51
323.4399088995
  0
ARC
  5
224
330
1F
100
AcDbEntity
  8
0
  6
Continuous
 62
     7
370
    25
100
AcDbCircle
 10
158.2433501725
 20
488.7521437387
 30
0.0
 40
3.0
100
AcDbArc
 50
0.0
 51
90.0
  0
LINE
  5
225
330
1F
100
AcDbEntity
  8
0
  6
Continuous
 62
     7
370
    25
100
AcDbLine
 10
146.2433501725
 20
491.7521437387
 30
0.0
 11
158.2433501725
 21
491.7521437387
 31
0.0
  0
ARC
  5
226
330
1F
100
AcDbEntity
  8
0
  6
Continuous
 62
     7
370
    25
100
AcDbCircle
 10
146.2433501725
 20
488.7521437387
 30
0.0
 40
3.0
100
AcDbArc
 50
90.0
 51
180.0
  0
LINE
  5
227
330
1F
100
AcDbEntity
  8
0
  6
Continuous
 62
     7
370
    25
100
AcDbLine
 10
143.2433501725
 20
487.7521437387
 30
0.0
 11
143.2433501725
 21
488.7521437387
 31
0.0
  0
ARC
  5
228
330
1F
100
AcDbEntity
  8
0
  6
Continuous
 62
     7
370
    25
100
AcDbCircle
 10
140.2433501725
 20
487.7521437387
 30
0.0
 40
3.0
100
AcDbArc
 50
270.0
 51
0.0
  0
LINE
  5
229
330
1F
100
AcDbEntity
  8
0
  6
Continuous
 62
     7
370
    25
100
AcDbLine
 10
116.7140608506
 20
484.7521437387
 30
0.0
 11
140.2433501725
 21
484.7521437387
 31
0.0
  0
LINE
  5
22A
330
1F
100
AcDbEntity
  8
0
  6
Continuous
 62
     7
370
    25
100
AcDbLine
 10
116.7140608506
 20
494.3521437387
 30
0.0
 11
116.7140608506
 21
484.7521437387
 31
0.0
  0
LINE
  5
22B
330
1F
100
AcDbEntity
  8
0
  6
Continuous
 62
     7
370
    25
100
AcDbLine
 10
708.7726394944
 20
494.3521437387
 30
0.0
 11
708.7726394944
 21
484.7521437387
 31
0.0
  0
LINE
  5
22C
330
1F
100
AcDbEntity
  8
0
  6
Continuous
 62
     7
370
    25
100
AcDbLine
 10
685.2433501725
 20
484.7521437387
 30
0.0
 11
708.7726394944
 21
484.7521437387
 31
0.0
  0
ARC
  5
22D
330
1F
100
AcDbEntity
  8
0
  6
Continuous
 62
     7
370
    25
100
AcDbCircle
 10
685.2433501725
 20
487.7521437387
 30
0.0
 40
3.0
100
AcDbArc
 50
180.0
 51
270.0
  0
LINE
  5
22E
330
1F
100
AcDbEntity
  8
0
  6
Continuous
 62
     7
370
    25
100
AcDbLine
 10
682.2433501725
 20
487.7521437387
 30
0.0
 11
682.2433501725
 21
488.7521437387
 31
0.0
  0
ARC
  5
22F
330
1F
100
AcDbEntity
  8
0
  6
Continuous
 62
     7
370
    25
100
AcDbCircle
 10
679.2433501725
 20
488.7521437387
 30
0.0
 40
3.0
100
AcDbArc
 50
0.0
 51
90.0
  0
LINE
  5
230
330
1F
100
AcDbEntity
  8
0
  6
Continuous
 62
     7
370
    25
100
AcDbLine
 10
679.2433501725
 20
491.7521437387
 30
0.0
 11
667.2433501725
 21
491.7521437387
 31
0.0
  0
ARC
  5
231
330
1F
100
AcDbEntity
  8
0
  6
Continuous
 62
     7
370
    25
100
AcDbCircle
 10
667.2433501725
 20
488.7521437387
 30
0.0
 40
3.0
100
AcDbArc
 50
90.0
 51
180.0
  0
LINE
  5
232
330
1F
100
AcDbEntity
  8
0
  6
Continuous
 62
     7
370
    25
100
AcDbLine
 10
664.2433501725
 20
487.7521437387
 30
0.0
 11
664.2433501725
 21
488.7521437387
 31
0.0
  0
ARC
  5
233
330
1F
100
AcDbEntity
  8
0
  6
Continuous
 62
     7
370
    25
100
AcDbCircle
 10
661.2433501725
 20
487.7521437387
 30
0.0
 40
3.0
100
AcDbArc
 50
270.0
 51
0.0
  0
LINE
  5
234
330
1F
100
AcDbEntity
  8
0
  6
Continuous
 62
     7
370
    25
100
AcDbLine
 10
164.2433501725
 20
484.7521437387
 30
0.0
 11
661.2433501725
 21
484.7521437387
 31
0.0
  0
ARC
  5
235
330
1F
100
AcDbEntity
  8
0
  6
Continuous
 62
     7
370
    25
100
AcDbCircle
 10
164.2433501725
 20
487.7521437387
 30
0.0
 40
3.0
100
AcDbArc
 50
180.0
 51
270.0
  0
LINE
  5
236
330
1F
100
AcDbEntity
  8
0
  6
Continuous
 62
     7
370
    25
100
AcDbLine
 10
161.2433501725
 20
487.7521437387
 30
0.0
 11
161.2433501725
 21
488.7521437387
 31
0.0
  0
SPLINE
  5
237
330
1F
100
AcDbEntity
  8
0
  6
Continuous
 62
     7
370
    25
100
AcDbSpline
210
0.0
220
0.0
230
1.0
 70
     8
 71
     3
 72
    20
 73
    16
 74
     0
 42
0.000000001
 43
0.00000001
 40
0.0
 40
0.0
 40
0.0
 40
0.0
 40
0.125
 40
0.125
 40
0.2499999999999999
 40
0.2499999999999999
 40
0.3749999999999999
 40
0.3749999999999999
 40
0.4999999999999999
 40
0.4999999999999999
 40
0.7499999999999998
 40
0.7499999999999998
 40
0.8749999999999999
 40
0.8749999999999999
 40
1.0
 40
1.0
 40
1.0
 40
1.0
 10
707.8433501724775
 20
496.7521437387152
 30
0.0
 10
707.8823909033321
 20
496.7521437387152
 30
0.0
 10
707.9209096075318
 20
496.7366071782404
 30
0.0
 10
707.9983163588397
 20
496.6752888262798
 30
0.0
 10
708.0374607768265
 20
496.628865080693
 30
0.0
 10
708.1146115307417
 20
496.5089142105389
 30
0.0
 10
708.1529391124825
 20
496.4353095662554
 30
0.0
 10
708.2304854329593
 20
496.2605792001598
 30
0.0
 10
708.269461640628
 20
496.1597285712583
 30
0.0
 10
708.384956497073
 20
495.8284432912744
 30
0.0
 10
708.4628689407431
 20
495.5607631298905
 30
0.0
 10
708.5783488661439
 20
495.1280891038351
 30
0.0
 10
708.6172146620088
 20
494.9765710169839
 30
0.0
 10
708.6949889956774
 20
494.6671452595978
 30
0.0
 10
708.7335987626323
 20
494.5105229299039
 30
0.0
 10
708.7726394943587
 20
494.3521437387152
 30
0.0
  0
SPLINE
  5
238
330
1F
100
AcDbEntity
  8
0
  6
Continuous
 62
     7
370
    25
100
AcDbSpline
210
0.0
220
0.0
230
1.0
 70
     8
 71
     3
 72
    20
 73
    16
 74
     0
 42
0.000000001
 43
0.00000001
 40
0.0
 40
0.0
 40
0.0
 40
0.0
 40
0.1250000000000034
 40
0.1250000000000034
 40
0.2500000000000066
 40
0.2500000000000066
 40
0.3750000000000098
 40
0.3750000000000098
 40
0.500000000000013
 40
0.500000000000013
 40
0.7500000000000017
 40
0.7500000000000017
 40
0.8750000000000008
 40
0.8750000000000008
 40
1.0
 40
1.0
 40
1.0
 40
1.0
 10
116.7140608505962
 20
494.3521437387153
 30
0.0
 10
116.7531015814506
 20
494.510522926366
 30
0.0
 10
116.7916202856504
 20
494.6667686510577
 30
0.0
 10
116.8690270369584
 20
494.9747605004743
 30
0.0
 10
116.908171454945
 20
495.1274046079454
 30
0.0
 10
116.9853222088603
 20
495.4164888971325
 30
0.0
 10
117.0236497906014
 20
495.5542934353165
 30
0.0
 10
117.1011961110778
 20
495.8159121109554
 30
0.0
 10
117.1401723187465
 20
495.9386584176381
 30
0.0
 10
117.2556671751913
 20
496.2699827945858
 30
0.0
 10
117.3335796188616
 20
496.448993918614
 30
0.0
 10
117.4490595442626
 20
496.6286090179948
 30
0.0
 10
117.4879253401276
 20
496.6748533668626
 30
0.0
 10
117.565699673796
 20
496.7366066728738
 30
0.0
 10
117.6043094407507
 20
496.7521437387152
 30
0.0
 10
117.6433501724775
 20
496.7521437387152
 30
0.0
  0
LINE
  5
239
330
1F
100
AcDbEntity
  8
0
  6
Continuous
 62
     7
370
    25
100
AcDbLine
 10
117.6433501725
 20
496.7521437387
 30
0.0
 11
707.8433501725
 21
496.7521437387
 31
0.0
  0
SPLINE
  5
23A
330
1F
100
AcDbEntity
  8
0
  6
Continuous
 62
     7
370
    25
100
AcDbSpline
210
0.0
220
0.0
230
1.0
 70
     8
 71
     3
 72
     9
 73
     5
 74
     0
 42
0.000000001
 43
0.00000001
 40
0.0
 40
0.0
 40
0.0
 40
0.0
 40
0.4825784287294205
 40
0.9999999999999999
 40
0.9999999999999999
 40
0.9999999999999999
 40
0.9999999999999999
 10
116.8671799405311
 20
494.9646834778935
 30
0.0
 10
116.8033717474697
 20
494.876549136577
 30
0.0
 10
116.6711482802306
 20
494.693916975524
 30
0.0
 10
116.6528289757739
 20
494.4686840914794
 30
0.0
 10
116.6433501724775
 20
494.3521437387152
 30
0.0
  0
LINE
  5
23B
330
1F
100
AcDbEntity
  8
0
  6
Continuous
 62
     7
370
    25
100
AcDbLine
 10
115.2433501725
 20
494.3521437387
 30
0.0
 11
116.6433501725
 21
494.3521437387
 31
0.0
  0
SPLINE
  5
23C
330
1F
100
AcDbEntity
  8
0
  6
Continuous
 62
     7
370
    25
100
AcDbSpline
210
0.0
220
0.0
230
1.0
 70
     8
 71
     3
 72
    20
 73
    16
 74
     0
 42
0.000000001
 43
0.00000001
 40
0.0
 40
0.0
 40
0.0
 40
0.0
 40
0.1249999999999943
 40
0.1249999999999943
 40
0.2499999999999886
 40
0.2499999999999886
 40
0.3749999999999829
 40
0.3749999999999829
 40
0.4999999999999772
 40
0.4999999999999772
 40
0.7499999999999953
 40
0.7499999999999953
 40
0.8749999999999978
 40
0.8749999999999978
 40
1.0
 40
1.0
 40
1.0
 40
1.0
 10
117.6433501724775
 20
496.7521437387152
 30
0.0
 10
117.4849709848269
 20
496.7521437387152
 30
0.0
 10
117.3287252601351
 20
496.7366071782404
 30
0.0
 10
117.0207334107184
 20
496.6752888262798
 30
0.0
 10
116.8680893032473
 20
496.628865080693
 30
0.0
 10
116.5790050140603
 20
496.5089142105388
 30
0.0
 10
116.4412004758762
 20
496.4353095662554
 30
0.0
 10
116.1795818002372
 20
496.2605792001598
 30
0.0
 10
116.0568354935546
 20
496.1597285712583
 30
0.0
 10
115.7255111166069
 20
495.8284432912743
 30
0.0
 10
115.5464999925789
 20
495.5607631298904
 30
0.0
 10
115.3668848931979
 20
495.128089103835
 30
0.0
 10
115.3206405443303
 20
494.9765710169839
 30
0.0
 10
115.2588872383189
 20
494.6671452595978
 30
0.0
 10
115.2433501724775
 20
494.5105229299039
 30
0.0
 10
115.2433501724775
 20
494.3521437387152
 30
0.0
  0
SPLINE
  5
23D
330
1F
100
AcDbEntity
  8
0
  6
Continuous
 62
     7
370
    25
100
AcDbSpline
210
0.0
220
0.0
230
1.0
 70
     8
 71
     3
 72
    20
 73
    16
 74
     0
 42
0.000000001
 43
0.00000001
 40
0.0
 40
0.0
 40
0.0
 40
0.0
 40
0.1249999999999995
 40
0.1249999999999995
 40
0.2499999999999988
 40
0.2499999999999988
 40
0.3749999999999982
 40
0.3749999999999982
 40
0.4999999999999975
 40
0.4999999999999975
 40
0.7499999999999988
 40
0.7499999999999988
 40
0.8749999999999993
 40
0.8749999999999993
 40
1.0
 40
1.0
 40
1.0
 40
1.0
 10
710.2433501724774
 20
494.3521437387152
 30
0.0
 10
710.2433501724774
 20
494.5105229263659
 30
0.0
 10
710.2278136120027
 20
494.6667686510576
 30
0.0
 10
710.1664952600422
 20
494.9747605004742
 30
0.0
 10
710.1200715144553
 20
495.1274046079454
 30
0.0
 10
710.000120644301
 20
495.4164888971324
 30
0.0
 10
709.9265160000176
 20
495.5542934353165
 30
0.0
 10
709.751785633922
 20
495.8159121109554
 30
0.0
 10
709.6509350050205
 20
495.938658417638
 30
0.0
 10
709.3196497250367
 20
496.2699827945857
 30
0.0
 10
709.0519695636528
 20
496.448993918614
 30
0.0
 10
708.6192955375973
 20
496.6286090179949
 30
0.0
 10
708.4677774507462
 20
496.6748533668626
 30
0.0
 10
708.1583516933599
 20
496.7366066728738
 30
0.0
 10
708.0017293636661
 20
496.7521437387152
 30
0.0
 10
707.8433501724775
 20
496.7521437387152
 30
0.0
  0
LINE
  5
23E
330
1F
100
AcDbEntity
  8
0
  6
Continuous
 62
     7
370
    25
100
AcDbLine
 10
710.2433501725
 20
494.3521437387
 30
0.0
 11
708.8433501725
 21
494.3521437387
 31
0.0
  0
SPLINE
  5
23F
330
1F
100
AcDbEntity
  8
0
  6
Continuous
 62
     7
370
    25
100
AcDbSpline
210
0.0
220
0.0
230
1.0
 70
     8
 71
     3
 72
     9
 73
     5
 74
     0
 42
0.000000001
 43
0.00000001
 40
0.0
 40
0.0
 40
0.0
 40
0.0
 40
0.6784508005728973
 40
1.0
 40
1.0
 40
1.0
 40
1.0
 10
708.8433501724775
 20
494.3521437387152
 30
0.0
 10
708.8301006020131
 20
494.5028509431685
 30
0.0
 10
708.810571447573
 20
494.7249852590629
 30
0.0
 10
708.6697237939339
 20
494.8918183639522
 30
0.0
 10
708.6244343436651
 20
494.9454634152672
 30
0.0
  0
LINE
  5
240
330
1F
100
AcDbEntity
  8
0
  6
Continuous
 62
     7
370
    25
100
AcDbLine
 10
115.2433501725
 20
484.7521437387
 30
0.0
 11
116.6433501725
 21
484.7521437387
 31
0.0
  0
LINE
  5
241
330
1F
100
AcDbEntity
  8
0
  6
Continuous
 62
     7
370
    25
100
AcDbLine
 10
115.2433501725
 20
494.3521437387
 30
0.0
 11
115.2433501725
 21
484.7521437387
 31
0.0
  0
LINE
  5
242
330
1F
100
AcDbEntity
  8
0
  6
Continuous
 62
     7
370
    25
100
AcDbLine
 10
116.6433501725
 20
494.3521437387
 30
0.0
 11
116.6433501725
 21
484.7521437387
 31
0.0
  0
LINE
  5
243
330
1F
100
AcDbEntity
  8
0
  6
Continuous
 62
     7
370
    25
100
AcDbLine
 10
708.8433501725
 20
494.3521437387
 30
0.0
 11
708.8433501725
 21
484.7521437387
 31
0.0
  0
LINE
  5
244
330
1F
100
AcDbEntity
  8
0
  6
Continuous
 62
     7
370
    25
100
AcDbLine
 10
710.2433501725
 20
484.7521437387
 30
0.0
 11
708.8433501725
 21
484.7521437387
 31
0.0
  0
LINE
  5
245
330
1F
100
AcDbEntity
  8
0
  6
Continuous
 62
     7
370
    25
100
AcDbLine
 10
710.2433501725
 20
494.3521437387
 30
0.0
 11
710.2433501725
 21
484.7521437387
 31
0.0
  0
LINE
  5
246
330
1F
100
AcDbEntity
  8
0
  6
Continuous
 62
     7
370
    25
100
AcDbLine
 10
651.3748974581
 20
480.2521437387
 30
0.0
 11
651.4312394199
 21
480.2521437387
 31
0.0
  0
LINE
  5
247
330
1F
100
AcDbEntity
  8
0
  6
Continuous
 62
     7
370
    25
100
AcDbLine
 10
651.9312394199
 20
479.7521437387
 30
0.0
 11
651.8748974581
 21
479.7521437387
 31
0.0
  0
LINE
  5
248
330
1F
100
AcDbEntity
  8
0
  6
Continuous
 62
     7
370
    25
100
AcDbLine
 10
652.3213086987
 20
480.2521437387
 30
0.0
 11
655.7682983547
 21
480.2521437387
 31
0.0
  0
LINE
  5
249
330
1F
100
AcDbEntity
  8
0
  6
Continuous
 62
     7
370
    25
100
AcDbLine
 10
655.3622429784
 20
479.7521437387
 30
0.0
 11
652.7770007364
 21
479.7521437387
 31
0.0
  0
LINE
  5
24A
330
1F
100
AcDbEntity
  8
0
  6
Continuous
 62
     7
370
    25
100
AcDbLine
 10
655.7682983547
 20
480.2521437387
 30
0.0
 11
656.778955753
 21
480.2521437387
 31
0.0
  0
LINE
  5
24B
330
1F
100
AcDbEntity
  8
0
  6
Continuous
 62
     7
370
    25
100
AcDbLine
 10
656.3729003767
 20
479.7521437387
 30
0.0
 11
655.3622429784
 21
479.7521437387
 31
0.0
  0
LINE
  5
24C
330
1F
100
AcDbEntity
  8
0
  6
Continuous
 62
     7
370
    25
100
AcDbLine
 10
651.6084712691
 20
480.2521437387
 30
0.0
 11
652.3213086987
 21
480.2521437387
 31
0.0
  0
LINE
  5
24D
330
1F
100
AcDbEntity
  8
0
  6
Continuous
 62
     7
370
    25
100
AcDbLine
 10
652.7770007364
 20
479.7521437387
 30
0.0
 11
652.0641633068
 21
479.7521437387
 31
0.0
  0
LINE
  5
24E
330
1F
100
AcDbEntity
  8
0
  6
Continuous
 62
     7
370
    25
100
AcDbLine
 10
656.778955753
 20
480.2521437387
 30
0.0
 11
657.1547342479
 21
480.2521437387
 31
0.0
  0
LINE
  5
24F
330
1F
100
AcDbEntity
  8
0
  6
Continuous
 62
     7
370
    25
100
AcDbLine
 10
656.6547342479
 20
479.7521437387
 30
0.0
 11
656.3729003767
 21
479.7521437387
 31
0.0
  0
LINE
  5
250
330
1F
100
AcDbEntity
  8
0
  6
Continuous
 62
     7
370
    25
100
AcDbLine
 10
651.4312394199
 20
480.2521437387
 30
0.0
 11
651.6084712691
 21
480.2521437387
 31
0.0
  0
LINE
  5
251
330
1F
100
AcDbEntity
  8
0
  6
Continuous
 62
     7
370
    25
100
AcDbLine
 10
652.0641633068
 20
479.7521437387
 30
0.0
 11
651.9312394199
 21
479.7521437387
 31
0.0
  0
LINE
  5
252
330
1F
100
AcDbEntity
  8
0
  6
Continuous
 62
     7
370
    25
100
AcDbLine
 10
173.5812351183
 20
479.7521437387
 30
0.0
 11
172.0005729294
 21
479.7521437387
 31
0.0
  0
LINE
  5
253
330
1F
100
AcDbEntity
  8
0
  6
Continuous
 62
     7
370
    25
100
AcDbLine
 10
171.9736855331
 20
480.2521437387
 30
0.0
 11
174.0812351183
 21
480.2521437387
 31
0.0
  0
LINE
  5
254
330
1F
100
AcDbEntity
  8
0
  6
Continuous
 62
     7
370
    25
100
AcDbLine
 10
172.0005729294
 20
479.7521437387
 30
0.0
 11
170.2710282451
 21
479.7521437387
 31
0.0
  0
LINE
  5
255
330
1F
100
AcDbEntity
  8
0
  6
Continuous
 62
     7
370
    25
100
AcDbLine
 10
170.2441408488
 20
480.2521437387
 30
0.0
 11
171.9736855331
 21
480.2521437387
 31
0.0
  0
LINE
  5
256
330
1F
100
AcDbEntity
  8
0
  6
Continuous
 62
     7
370
    25
100
AcDbLine
 10
170.2710282451
 20
479.7521437387
 30
0.0
 11
168.851690434
 21
479.7521437387
 31
0.0
  0
LINE
  5
257
330
1F
100
AcDbEntity
  8
0
  6
Continuous
 62
     7
370
    25
100
AcDbLine
 10
168.351690434
 20
480.2521437387
 30
0.0
 11
170.2441408488
 21
480.2521437387
 31
0.0
  0
LINE
  5
258
330
1F
100
AcDbEntity
  8
0
  6
Continuous
 62
     7
370
    25
100
AcDbLine
 10
662.7433501725
 20
476.6521437387
 30
0.0
 11
663.9433501725
 21
476.6521437387
 31
0.0
  0
LINE
  5
259
330
1F
100
AcDbEntity
  8
0
  6
Continuous
 62
     7
370
    25
100
AcDbLine
 10
663.9433501725
 20
457.6521437387
 30
0.0
 11
660.7433501725
 21
457.6521437387
 31
0.0
  0
LINE
  5
25A
330
1F
100
AcDbEntity
  8
0
  6
Continuous
 62
     7
370
    25
100
AcDbLine
 10
660.7433501725
 20
457.6521437387
 30
0.0
 11
660.7433501725
 21
436.6521437387
 31
0.0
  0
ARC
  5
25B
330
1F
100
AcDbEntity
  8
0
  6
Continuous
 62
     7
370
    25
100
AcDbCircle
 10
657.7433501725
 20
436.6521437387
 30
0.0
 40
3.0
100
AcDbArc
 50
270.0
 51
0.0
  0
ARC
  5
25C
330
1F
100
AcDbEntity
  8
0
  6
Continuous
 62
     7
370
    25
100
AcDbCircle
 10
613.7433501725
 20
436.6521437387
 30
0.0
 40
3.000000000000227
100
AcDbArc
 50
180.0
 51
270.0
  0
LINE
  5
25D
330
1F
100
AcDbEntity
  8
0
  6
Continuous
 62
     7
370
    25
100
AcDbLine
 10
610.7433501725
 20
436.6521437387
 30
0.0
 11
610.7433501725
 21
452.7821437387
 31
0.0
  0
LINE
  5
25E
330
1F
100
AcDbEntity
  8
0
  6
Continuous
 62
     7
370
    25
100
AcDbLine
 10
610.7433501725
 20
452.7821437387
 30
0.0
 11
608.2433501725
 21
452.7821437387
 31
0.0
  0
LINE
  5
25F
330
1F
100
AcDbEntity
  8
0
  6
Continuous
 62
     7
370
    25
100
AcDbLine
 10
608.2433501725
 20
452.2900929311
 30
0.0
 11
608.2433501725
 21
452.7821437387
 31
0.0
  0
LINE
  5
260
330
1F
100
AcDbEntity
  8
0
  6
Continuous
 62
     7
370
    25
100
AcDbLine
 10
458.2433501725
 20
452.2900929311
 30
0.0
 11
458.2433501725
 21
452.7821437387
 31
0.0
  0
LINE
  5
261
330
1F
100
AcDbEntity
  8
0
  6
Continuous
 62
     7
370
    25
100
AcDbLine
 10
458.2433501725
 20
452.7821437387
 30
0.0
 11
455.7433501725
 21
452.7821437387
 31
0.0
  0
LINE
  5
262
330
1F
100
AcDbEntity
  8
0
  6
Continuous
 62
     7
370
    25
100
AcDbLine
 10
455.7433501725
 20
452.7821437387
 30
0.0
 11
455.7433501725
 21
436.6521437387
 31
0.0
  0
ARC
  5
263
330
1F
100
AcDbEntity
  8
0
  6
Continuous
 62
     7
370
    25
100
AcDbCircle
 10
452.7433501725
 20
436.6521437387
 30
0.0
 40
3.0
100
AcDbArc
 50
270.0
 51
0.0
  0
ARC
  5
264
330
1F
100
AcDbEntity
  8
0
  6
Continuous
 62
     7
370
    25
100
AcDbCircle
 10
372.7433501725
 20
436.6521437387
 30
0.0
 40
3.0
100
AcDbArc
 50
180.0
 51
270.0
  0
LINE
  5
265
330
1F
100
AcDbEntity
  8
0
  6
Continuous
 62
     7
370
    25
100
AcDbLine
 10
369.7433501725
 20
436.6521437387
 30
0.0
 11
369.7433501725
 21
452.7821437387
 31
0.0
  0
LINE
  5
266
330
1F
100
AcDbEntity
  8
0
  6
Continuous
 62
     7
370
    25
100
AcDbLine
 10
369.7433501725
 20
452.7821437387
 30
0.0
 11
367.2433501725
 21
452.7821437387
 31
0.0
  0
LINE
  5
267
330
1F
100
AcDbEntity
  8
0
  6
Continuous
 62
     7
370
    25
100
AcDbLine
 10
367.2433501725
 20
452.2900929311
 30
0.0
 11
367.2433501725
 21
452.7821437387
 31
0.0
  0
LINE
  5
268
330
1F
100
AcDbEntity
  8
0
  6
Continuous
 62
     7
370
    25
100
AcDbLine
 10
217.2433501725
 20
452.2900929311
 30
0.0
 11
217.2433501725
 21
452.7821437387
 31
0.0
  0
LINE
  5
269
330
1F
100
AcDbEntity
  8
0
  6
Continuous
 62
     7
370
    25
100
AcDbLine
 10
217.2433501725
 20
452.7821437387
 30
0.0
 11
214.7433501725
 21
452.7821437387
 31
0.0
  0
LINE
  5
26A
330
1F
100
AcDbEntity
  8
0
  6
Continuous
 62
     7
370
    25
100
AcDbLine
 10
214.7433501725
 20
452.7821437387
 30
0.0
 11
214.7433501725
 21
436.6521437387
 31
0.0
  0
ARC
  5
26B
330
1F
100
AcDbEntity
  8
0
  6
Continuous
 62
     7
370
    25
100
AcDbCircle
 10
211.7433501725
 20
436.6521437387
 30
0.0
 40
3.0
100
AcDbArc
 50
270.0
 51
0.0
  0
LINE
  5
26C
330
1F
100
AcDbEntity
  8
0
  6
Continuous
 62
     7
370
    25
100
AcDbLine
 10
211.7433501725
 20
433.6521437387
 30
0.0
 11
167.7433501725
 21
433.6521437387
 31
0.0
  0
ARC
  5
26D
330
1F
100
AcDbEntity
  8
0
  6
Continuous
 62
     7
370
    25
100
AcDbCircle
 10
167.7433501725
 20
436.6521437387
 30
0.0
 40
3.0
100
AcDbArc
 50
180.0
 51
270.0
  0
LINE
  5
26E
330
1F
100
AcDbEntity
  8
0
  6
Continuous
 62
     7
370
    25
100
AcDbLine
 10
164.7433501725
 20
436.6521437387
 30
0.0
 11
164.7433501725
 21
457.6521437387
 31
0.0
  0
LINE
  5
26F
330
1F
100
AcDbEntity
  8
0
  6
Continuous
 62
     7
370
    25
100
AcDbLine
 10
164.7433501725
 20
457.6521437387
 30
0.0
 11
161.5433501725
 21
457.6521437387
 31
0.0
  0
LINE
  5
270
330
1F
100
AcDbEntity
  8
0
  6
Continuous
 62
     7
370
    25
100
AcDbLine
 10
161.5433501725
 20
476.6521437387
 30
0.0
 11
162.7433501725
 21
476.6521437387
 31
0.0
  0
LINE
  5
271
330
1F
100
AcDbEntity
  8
0
  6
Continuous
 62
     7
370
    25
100
AcDbLine
 10
162.7433501725
 20
476.6521437387
 30
0.0
 11
162.7433501725
 21
476.8521437387
 31
0.0
  0
LINE
  5
272
330
1F
100
AcDbEntity
  8
0
  6
Continuous
 62
     7
370
    25
100
AcDbLine
 10
662.7433501725
 20
476.8521437387
 30
0.0
 11
662.7433501725
 21
476.6521437387
 31
0.0
  0
LINE
  5
273
330
1F
100
AcDbEntity
  8
0
  6
Continuous
 62
     7
370
    25
100
AcDbLine
 10
452.7433501725
 20
433.6521437387
 30
0.0
 11
372.7433501725
 21
433.6521437387
 31
0.0
  0
LINE
  5
274
330
1F
100
AcDbEntity
  8
0
  6
Continuous
 62
     7
370
    25
100
AcDbLine
 10
657.7433501725
 20
433.6521437387
 30
0.0
 11
613.7433501725
 21
433.6521437387
 31
0.0
  0
LINE
  5
275
330
1F
100
AcDbEntity
  8
0
  6
Continuous
 62
     7
370
    25
100
AcDbLine
 10
217.2433501725
 20
451.3900929311
 30
0.0
 11
217.2433501725
 21
452.2900929311
 31
0.0
  0
LINE
  5
276
330
1F
100
AcDbEntity
  8
0
  6
Continuous
 62
     7
370
    25
100
AcDbLine
 10
367.2433501725
 20
452.2900929311
 30
0.0
 11
367.2433501725
 21
451.3900929311
 31
0.0
  0
LINE
  5
277
330
1F
100
AcDbEntity
  8
0
  6
Continuous
 62
     7
370
    25
100
AcDbLine
 10
458.2433501725
 20
451.3900929311
 30
0.0
 11
458.2433501725
 21
452.2900929311
 31
0.0
  0
LINE
  5
278
330
1F
100
AcDbEntity
  8
0
  6
Continuous
 62
     7
370
    25
100
AcDbLine
 10
608.2433501725
 20
452.2900929311
 30
0.0
 11
608.2433501725
 21
451.3900929311
 31
0.0
  0
LINE
  5
279
330
1F
100
AcDbEntity
  8
0
  6
Continuous
 62
     7
370
    25
100
AcDbLine
 10
663.9433501725
 20
476.6521437387
 30
0.0
 11
664.7433501725
 21
476.6521437387
 31
0.0
  0
LINE
  5
27A
330
1F
100
AcDbEntity
  8
0
  6
Continuous
 62
     7
370
    25
100
AcDbLine
 10
665.7433501725
 20
457.6521437387
 30
0.0
 11
665.7433501725
 21
458.2521437387
 31
0.0
  0
LINE
  5
27B
330
1F
100
AcDbEntity
  8
0
  6
Continuous
 62
     7
370
    25
100
AcDbLine
 10
665.7433501725
 20
457.6521437387
 30
0.0
 11
663.9433501725
 21
457.6521437387
 31
0.0
  0
LINE
  5
27C
330
1F
100
AcDbEntity
  8
0
  6
Continuous
 62
     7
370
    25
100
AcDbLine
 10
159.7433501725
 20
457.6521437387
 30
0.0
 11
159.7433501725
 21
458.2521437387
 31
0.0
  0
LINE
  5
27D
330
1F
100
AcDbEntity
  8
0
  6
Continuous
 62
     7
370
    25
100
AcDbLine
 10
160.7433501725
 20
476.6521437387
 30
0.0
 11
161.5433501725
 21
476.6521437387
 31
0.0
  0
LINE
  5
27E
330
1F
100
AcDbEntity
  8
0
  6
Continuous
 62
     7
370
    25
100
AcDbLine
 10
161.5433501725
 20
457.6521437387
 30
0.0
 11
159.7433501725
 21
457.6521437387
 31
0.0
  0
LINE
  5
27F
330
1F
100
AcDbEntity
  8
0
  6
Continuous
 62
     7
370
    25
100
AcDbLine
 10
162.7433501725
 20
476.8521437387
 30
0.0
 11
162.7433501725
 21
478.6521437387
 31
0.0
  0
LINE
  5
280
330
1F
100
AcDbEntity
  8
0
  6
Continuous
 62
     7
370
    25
100
AcDbLine
 10
662.7433501725
 20
478.6521437387
 30
0.0
 11
662.7433501725
 21
476.8521437387
 31
0.0
  0
LINE
  5
281
330
1F
100
AcDbEntity
  8
0
  6
Continuous
 62
     7
370
    25
100
AcDbLine
 10
217.2433501725
 20
451.3900929311
 30
0.0
 11
217.2433501725
 21
444.7652218006
 31
0.0
  0
LINE
  5
282
330
1F
100
AcDbEntity
  8
0
  6
Continuous
 62
     7
370
    25
100
AcDbLine
 10
367.2433501725
 20
444.7652218006
 30
0.0
 11
367.2433501725
 21
451.3900929311
 31
0.0
  0
LINE
  5
283
330
1F
100
AcDbEntity
  8
0
  6
Continuous
 62
     7
370
    25
100
AcDbLine
 10
458.2433501725
 20
451.3900929311
 30
0.0
 11
458.2433501725
 21
444.7652218006
 31
0.0
  0
LINE
  5
284
330
1F
100
AcDbEntity
  8
0
  6
Continuous
 62
     7
370
    25
100
AcDbLine
 10
608.2433501725
 20
444.7652218006
 30
0.0
 11
608.2433501725
 21
451.3900929311
 31
0.0
  0
LINE
  5
285
330
1F
100
AcDbEntity
  8
0
  6
Continuous
 62
     7
370
    25
100
AcDbLine
 10
608.2433501725
 20
444.2652218006
 30
0.0
 11
608.2433501725
 21
444.7652218006
 31
0.0
  0
LINE
  5
286
330
1F
100
AcDbEntity
  8
0
  6
Continuous
 62
     7
370
    25
100
AcDbLine
 10
458.2433501725
 20
444.7652218006
 30
0.0
 11
458.2433501725
 21
444.2652218006
 31
0.0
  0
LINE
  5
287
330
1F
100
AcDbEntity
  8
0
  6
Continuous
 62
     7
370
    25
100
AcDbLine
 10
217.2433501725
 20
444.7652218006
 30
0.0
 11
217.2433501725
 21
444.2652218006
 31
0.0
  0
LINE
  5
288
330
1F
100
AcDbEntity
  8
0
  6
Continuous
 62
     7
370
    25
100
AcDbLine
 10
367.2433501725
 20
444.2652218006
 30
0.0
 11
367.2433501725
 21
444.7652218006
 31
0.0
  0
ARC
  5
289
330
1F
100
AcDbEntity
  8
0
  6
Continuous
 62
     7
370
    25
100
AcDbCircle
 10
461.2433501725
 20
437.7475303469
 30
0.0
 40
3.000000000000057
100
AcDbArc
 50
180.0
 51
270.0
  0
LINE
  5
28A
330
1F
100
AcDbEntity
  8
0
  6
Continuous
 62
     7
370
    25
100
AcDbLine
 10
458.2433501725
 20
437.7475303469
 30
0.0
 11
458.2433501725
 21
444.2652218006
 31
0.0
  0
LINE
  5
28B
330
1F
100
AcDbEntity
  8
0
  6
Continuous
 62
     7
370
    25
100
AcDbLine
 10
608.2433501725
 20
444.2652218006
 30
0.0
 11
608.2433501725
 21
437.7475303469
 31
0.0
  0
ARC
  5
28C
330
1F
100
AcDbEntity
  8
0
  6
Continuous
 62
     7
370
    25
100
AcDbCircle
 10
605.2433501725
 20
437.7475303469
 30
0.0
 40
3.0
100
AcDbArc
 50
270.0
 51
0.0
  0
LINE
  5
28D
330
1F
100
AcDbEntity
  8
0
  6
Continuous
 62
     7
370
    25
100
AcDbLine
 10
605.2433501725
 20
434.7475303469
 30
0.0
 11
461.2433501725
 21
434.7475303469
 31
0.0
  0
ARC
  5
28E
330
1F
100
AcDbEntity
  8
0
  6
Continuous
 62
     7
370
    25
100
AcDbCircle
 10
220.2433501725
 20
437.7475303469
 30
0.0
 40
3.0
100
AcDbArc
 50
180.0
 51
270.0
  0
LINE
  5
28F
330
1F
100
AcDbEntity
  8
0
  6
Continuous
 62
     7
370
    25
100
AcDbLine
 10
217.2433501725
 20
437.7475303469
 30
0.0
 11
217.2433501725
 21
444.2652218006
 31
0.0
  0
LINE
  5
290
330
1F
100
AcDbEntity
  8
0
  6
Continuous
 62
     7
370
    25
100
AcDbLine
 10
367.2433501725
 20
444.2652218006
 30
0.0
 11
367.2433501725
 21
437.7475303469
 31
0.0
  0
ARC
  5
291
330
1F
100
AcDbEntity
  8
0
  6
Continuous
 62
     7
370
    25
100
AcDbCircle
 10
364.2433501725
 20
437.7475303469
 30
0.0
 40
3.0
100
AcDbArc
 50
270.0
 51
0.0
  0
LINE
  5
292
330
1F
100
AcDbEntity
  8
0
  6
Continuous
 62
     7
370
    25
100
AcDbLine
 10
364.2433501725
 20
434.7475303469
 30
0.0
 11
220.2433501725
 21
434.7475303469
 31
0.0
  0
LINE
  5
293
330
1F
100
AcDbEntity
  8
0
  6
Continuous
 62
     7
370
    25
100
AcDbLine
 10
674.4021001725
 20
463.1521437387
 30
0.0
 11
674.4021001725
 21
463.3521437387
 31
0.0
  0
LINE
  5
294
330
1F
100
AcDbEntity
  8
0
  6
Continuous
 62
     7
370
    25
100
AcDbLine
 10
674.4021001725
 20
468.9521437387
 30
0.0
 11
674.4021001725
 21
469.1521437387
 31
0.0
  0
LINE
  5
295
330
1F
100
AcDbEntity
  8
0
  6
Continuous
 62
     7
370
    25
100
AcDbLine
 10
674.9433501725
 20
467.731547076
 30
0.0
 11
674.9433501725
 21
468.6108937387
 31
0.0
  0
LINE
  5
296
330
1F
100
AcDbEntity
  8
0
  6
Continuous
 62
     7
370
    25
100
AcDbLine
 10
674.9433501725
 20
463.6933937387
 30
0.0
 11
674.9433501725
 21
467.731547076
 31
0.0
  0
LINE
  5
297
330
1F
100
AcDbEntity
  8
0
  6
Continuous
 62
     7
370
    25
100
AcDbLine
 10
664.2433501725
 20
480.4521437387
 30
0.0
 11
664.2433501725
 21
478.6521437387
 31
0.0
  0
LINE
  5
298
330
1F
100
AcDbEntity
  8
0
  6
Continuous
 62
     7
370
    25
100
AcDbLine
 10
664.2433501725
 20
478.6521437387
 30
0.0
 11
161.2433501725
 21
478.6521437387
 31
0.0
  0
LINE
  5
299
330
1F
100
AcDbEntity
  8
0
  6
Continuous
 62
     7
370
    25
100
AcDbLine
 10
161.2433501725
 20
478.6521437387
 30
0.0
 11
161.2433501725
 21
480.4521437387
 31
0.0
  0
LINE
  5
29A
330
1F
100
AcDbEntity
  8
0
  6
Continuous
 62
     7
370
    25
100
AcDbLine
 10
664.2433501725
 20
480.4521437387
 30
0.0
 11
664.7433501725
 21
485.8271437387
 31
0.0
  0
LINE
  5
29B
330
1F
100
AcDbEntity
  8
0
  6
Continuous
 62
     7
370
    25
100
AcDbLine
 10
160.7433501725
 20
485.8271437387
 30
0.0
 11
161.2433501725
 21
480.4521437387
 31
0.0
  0
LINE
  5
29C
330
1F
100
AcDbEntity
  8
0
  6
Continuous
 62
     7
370
    25
100
AcDbLine
 10
150.5433501725
 20
463.9348056614
 30
0.0
 11
150.5433501725
 21
463.6933937387
 31
0.0
  0
LINE
  5
29D
330
1F
100
AcDbEntity
  8
0
  6
Continuous
 62
     7
370
    25
100
AcDbLine
 10
150.5433501725
 20
468.6108937387
 30
0.0
 11
150.5433501725
 21
463.9348056614
 31
0.0
  0
LINE
  5
29E
330
1F
100
AcDbEntity
  8
0
  6
Continuous
 62
     7
370
    25
100
AcDbLine
 10
151.0846001725
 20
469.1521437387
 30
0.0
 11
151.0846001725
 21
468.9521437387
 31
0.0
  0
LINE
  5
29F
330
1F
100
AcDbEntity
  8
0
  6
Continuous
 62
     7
370
    25
100
AcDbLine
 10
151.0846001725
 20
463.3521437387
 30
0.0
 11
151.0846001725
 21
463.1521437387
 31
0.0
  0
SPLINE
  5
2A0
330
1F
100
AcDbEntity
  8
0
  6
Continuous
 62
     7
370
    25
100
AcDbSpline
210
0.0
220
0.0
230
1.0
 70
    24
 71
     3
 72
    15
 73
    11
 74
     0
 42
0.000000001
 43
0.00000001
 40
0.0
 40
0.0
 40
0.0
 40
0.0
 40
0.0346967497918678
 40
0.221188495126967
 40
0.4076802404620659
 40
0.50807201526308
 40
0.6105942475634833
 40
0.7131164798638864
 40
0.8135082546649013
 40
1.0
 40
1.0
 40
1.0
 40
1.0
 10
161.7433501724775
 20
460.3788949293123
 30
0.0
 10
161.7433501724774
 20
460.3721738256809
 30
0.0
 10
161.7433501724775
 20
460.3293274263282
 30
0.0
 10
161.7433501724775
 20
460.8173683890866
 30
0.0
 10
161.7433501724774
 20
461.9132794465552
 30
0.0
 10
161.7433501724775
 20
463.1321765790027
 30
0.0
 10
161.7433501724775
 20
464.2123518068597
 30
0.0
 10
161.7433501724775
 20
465.3728287093253
 30
0.0
 10
161.7433501724774
 20
466.9034036044404
 30
0.0
 10
161.7433501724775
 20
467.9670294930905
 30
0.0
 10
161.7433501724775
 20
468.6584510437737
 30
0.0
  0
SPLINE
  5
2A1
330
1F
100
AcDbEntity
  8
0
  6
Continuous
 62
     7
370
    25
100
AcDbSpline
210
0.0
220
0.0
230
1.0
 70
    24
 71
     3
 72
    12
 73
     8
 74
     0
 42
0.000000001
 43
0.00000001
 40
0.0
 40
0.0
 40
0.0
 40
0.0
 40
0.3344405486782636
 40
0.5144757571369867
 40
0.6983315710265373
 40
0.8821873849160862
 40
1.0
 40
1.0
 40
1.0
 40
1.0
 10
161.7433501724775
 20
468.6584510437737
 30
0.0
 10
161.7433501724775
 20
469.2825965792755
 30
0.0
 10
161.7433501724775
 20
470.2427305947531
 30
0.0
 10
161.7433501724775
 20
471.1506415010484
 30
0.0
 10
161.7433501724775
 20
471.6563588389645
 30
0.0
 10
161.7433501724774
 20
471.9279785731027
 30
0.0
 10
161.7433501724775
 20
471.926118841643
 30
0.0
 10
161.7433501724775
 20
471.9253925481181
 30
0.0
  0
SPLINE
  5
2A2
330
1F
100
AcDbEntity
  8
0
  6
Continuous
 62
     7
370
    25
100
AcDbSpline
210
0.0
220
0.0
230
1.0
 70
     8
 71
     3
 72
     8
 73
     4
 74
     0
 42
0.000000001
 43
0.00000001
 40
0.0
 40
0.0
 40
0.0
 40
0.0
 40
1.0
 40
1.0
 40
1.0
 40
1.0
 10
165.7433501724705
 20
465.7687487110287
 30
0.0
 10
165.7433501724705
 20
466.7511271556015
 30
0.0
 10
165.569034872091
 20
467.7066183237912
 30
0.0
 10
165.2967681850791
 20
468.6470009731188
 30
0.0
  0
SPLINE
  5
2A3
330
1F
100
AcDbEntity
  8
0
  6
Continuous
 62
     7
370
    25
100
AcDbSpline
210
0.0
220
0.0
230
1.0
 70
     8
 71
     3
 72
     8
 73
     4
 74
     0
 42
0.000000001
 43
0.00000001
 40
0.0
 40
0.0
 40
0.0
 40
0.0
 40
1.0
 40
1.0
 40
1.0
 40
1.0
 10
165.2967681850791
 20
462.8904964489387
 30
0.0
 10
165.5690348720906
 20
463.8308790982645
 30
0.0
 10
165.7433501724705
 20
464.7863702664578
 30
0.0
 10
165.7433501724705
 20
465.7687487110287
 30
0.0
  0
LINE
  5
2A4
330
1F
100
AcDbEntity
  8
0
  6
Continuous
 62
     7
370
    25
100
AcDbLine
 10
161.7433501725
 20
462.8904964489
 30
0.0
 11
165.2967681851
 21
462.8904964489
 31
0.0
  0
LINE
  5
2A5
330
1F
100
AcDbEntity
  8
0
  6
Continuous
 62
     7
370
    25
100
AcDbLine
 10
161.7433501725
 20
468.6470009731
 30
0.0
 11
165.2967681851
 21
468.6470009731
 31
0.0
  0
LINE
  5
2A6
330
1F
100
AcDbEntity
  8
0
  6
Continuous
 62
     7
370
    25
100
AcDbLine
 10
165.7433501725
 20
465.768748711
 30
0.0
 11
165.7433501725
 21
470.277824618
 31
0.0
  0
SPLINE
  5
2A7
330
1F
100
AcDbEntity
  8
0
  6
Continuous
 62
     7
370
    25
100
AcDbSpline
210
0.0
220
0.0
230
1.0
 70
     8
 71
     3
 72
     8
 73
     4
 74
     0
 42
0.000000001
 43
0.00000001
 40
0.0
 40
0.0
 40
0.0
 40
0.0
 40
1.0
 40
1.0
 40
1.0
 40
1.0
 10
165.296768185079
 20
468.6470009731249
 30
0.0
 10
165.5690348720904
 20
469.1798237141898
 30
0.0
 10
165.7433501724703
 20
469.7212069730843
 30
0.0
 10
165.7433501724703
 20
470.2778246180128
 30
0.0
  0
LINE
  5
2A8
330
1F
100
AcDbEntity
  8
0
  6
Continuous
 62
     7
370
    25
100
AcDbLine
 10
165.7433501725
 20
461.6430678317
 30
0.0
 11
165.7433501725
 21
465.768748711
 31
0.0
  0
SPLINE
  5
2A9
330
1F
100
AcDbEntity
  8
0
  6
Continuous
 62
     7
370
    25
100
AcDbSpline
210
0.0
220
0.0
230
1.0
 70
     8
 71
     3
 72
     8
 73
     4
 74
     0
 42
0.000000001
 43
0.00000001
 40
0.0
 40
0.0
 40
0.0
 40
0.0
 40
1.0
 40
1.0
 40
1.0
 40
1.0
 10
165.7433501724703
 20
461.6430678317312
 30
0.0
 10
165.7433501724703
 20
462.0688286313745
 30
0.0
 10
165.5690348720909
 20
462.4829365406715
 30
0.0
 10
165.2967681850791
 20
462.8904964489332
 30
0.0
  0
SPLINE
  5
2AA
330
1F
100
AcDbEntity
  8
0
  6
Continuous
 62
     7
370
    25
100
AcDbSpline
210
0.0
220
0.0
230
1.0
 70
     8
 71
     3
 72
     8
 73
     4
 74
     0
 42
0.000000001
 43
0.00000001
 40
0.0
 40
0.0
 40
0.0
 40
0.0
 40
1.0
 40
1.0
 40
1.0
 40
1.0
 10
165.7433501724703
 20
470.2778246180128
 30
0.0
 10
165.7433501724703
 20
470.8344422629426
 30
0.0
 10
165.5690348720912
 20
471.3758255218345
 30
0.0
 10
165.2967681850791
 20
471.9086482629007
 30
0.0
  0
LINE
  5
2AB
330
1F
100
AcDbEntity
  8
0
  6
Continuous
 62
     7
370
    25
100
AcDbLine
 10
165.2967681851
 20
471.9086482629
 30
0.0
 11
161.7433501725
 21
471.9086482629
 31
0.0
  0
SPLINE
  5
2AC
330
1F
100
AcDbEntity
  8
0
  6
Continuous
 62
     7
370
    25
100
AcDbSpline
210
0.0
220
0.0
230
1.0
 70
     8
 71
     3
 72
     8
 73
     4
 74
     0
 42
0.000000001
 43
0.00000001
 40
0.0
 40
0.0
 40
0.0
 40
0.0
 40
1.0
 40
1.0
 40
1.0
 40
1.0
 10
165.296768185079
 20
460.3956392145292
 30
0.0
 10
165.5690348720904
 20
460.8031991227901
 30
0.0
 10
165.7433501724703
 20
461.2173070320887
 30
0.0
 10
165.7433501724703
 20
461.6430678317312
 30
0.0
  0
LINE
  5
2AD
330
1F
100
AcDbEntity
  8
0
  6
Continuous
 62
     7
370
    25
100
AcDbLine
 10
161.7433501725
 20
460.3956392145
 30
0.0
 11
165.2967681851
 21
460.3956392145
 31
0.0
  0
LINE
  5
2AE
330
1F
100
AcDbEntity
  8
0
  6
Continuous
 62
     7
370
    25
100
AcDbLine
 10
150.7433501725
 20
463.9348056614
 30
0.0
 11
150.7433501725
 21
463.6933937387
 31
0.0
  0
LINE
  5
2AF
330
1F
100
AcDbEntity
  8
0
  6
Continuous
 62
     7
370
    25
100
AcDbLine
 10
150.7433501725
 20
468.6108937387
 30
0.0
 11
150.7433501725
 21
463.9348056614
 31
0.0
  0
LINE
  5
2B0
330
1F
100
AcDbEntity
  8
0
  6
Continuous
 62
     7
370
    25
100
AcDbLine
 10
151.2846001725
 20
469.1521437387
 30
0.0
 11
151.2846001725
 21
463.1521437387
 31
0.0
  0
LINE
  5
2B1
330
1F
100
AcDbEntity
  8
0
  6
Continuous
 62
     7
370
    25
100
AcDbLine
 10
165.2967681851
 20
471.9086482629
 30
0.0
 11
165.3719559406
 21
471.6986277951
 31
0.0
  0
LINE
  5
2B2
330
1F
100
AcDbEntity
  8
0
  6
Continuous
 62
     7
370
    25
100
AcDbLine
 10
165.7433501725
 20
470.277824618
 30
0.0
 11
165.7433501725
 21
471.1521437387
 31
0.0
  0
LINE
  5
2B3
330
1F
100
AcDbEntity
  8
0
  6
Continuous
 62
     7
370
    25
100
AcDbLine
 10
165.7433501725
 20
461.1521437387
 30
0.0
 11
165.7433501725
 21
461.6430678317
 31
0.0
  0
LINE
  5
2B4
330
1F
100
AcDbEntity
  8
0
  6
Continuous
 62
     7
370
    25
100
AcDbLine
 10
158.6912293125
 20
458.2521437387
 30
0.0
 11
156.811844071
 21
458.2521437387
 31
0.0
  0
LWPOLYLINE
  5
2B5
330
1F
100
AcDbEntity
  8
0
  6
Continuous
 62
     7
370
    25
100
AcDbPolyline
 90
        9
 70
   128
 43
0.0
 10
156.811844071
 20
458.2521437387
 10
156.6783944312
 20
458.2905731779
 10
156.5500731862
 20
458.4043846737
 10
156.4318116495
 20
458.5892045141
 10
156.3281545457
 20
458.8379301763
 10
156.243085359
 20
459.1410032727
 10
156.1798732507
 20
459.486776874
 10
156.1409474266
 20
459.8619630947
 10
156.1278037843
 20
460.2521437387
  0
LWPOLYLINE
  5
2B6
330
1F
100
AcDbEntity
  8
0
  6
Continuous
 62
     7
370
    25
100
AcDbPolyline
 90
        9
 70
   128
 43
0.0
 10
158.0071890259
 20
460.2521437387
 10
158.0203326682
 20
459.8619630947
 10
158.0592584923
 20
459.486776874
 10
158.1224706006
 20
459.1410032727
 10
158.2075397872
 20
458.8379301763
 10
158.3111968911
 20
458.5892045141
 10
158.4294584278
 20
458.4043846737
 10
158.5577796727
 20
458.2905731779
 10
158.6912293125
 20
458.2521437387
  0
LINE
  5
2B7
330
1F
100
AcDbEntity
  8
0
  6
Continuous
 62
     7
370
    25
100
AcDbLine
 10
158.6912293125
 20
458.2521437387
 30
0.0
 11
160.5624280348
 21
458.2521437387
 31
0.0
  0
LINE
  5
2B8
330
1F
100
AcDbEntity
  8
0
  6
Continuous
 62
     7
370
    25
100
AcDbLine
 10
158.0071890259
 20
472.2521437387
 30
0.0
 11
158.0071890259
 21
460.2521437387
 31
0.0
  0
LWPOLYLINE
  5
2B9
330
1F
100
AcDbEntity
  8
0
  6
Continuous
 62
     7
370
    25
100
AcDbPolyline
 90
        9
 70
   128
 43
0.0
 10
158.6912293125
 20
474.2521437387
 10
158.5577796727
 20
474.2137142995
 10
158.4294584278
 20
474.0999028037
 10
158.3111968911
 20
473.9150829633
 10
158.2075397872
 20
473.6663573011
 10
158.1224706006
 20
473.3632842048
 10
158.0592584923
 20
473.0175106034
 10
158.0203326682
 20
472.6423243827
 10
158.0071890259
 20
472.2521437387
  0
LINE
  5
2BA
330
1F
100
AcDbEntity
  8
0
  6
Continuous
 62
     7
370
    25
100
AcDbLine
 10
160.5624280348
 20
474.2521437387
 30
0.0
 11
158.6912293125
 21
474.2521437387
 31
0.0
  0
LINE
  5
2BB
330
1F
100
AcDbEntity
  8
0
  6
Continuous
 62
     7
370
    25
100
AcDbLine
 10
156.1278037843
 20
472.2521437387
 30
0.0
 11
156.1278037843
 21
460.2521437387
 31
0.0
  0
LWPOLYLINE
  5
2BC
330
1F
100
AcDbEntity
  8
0
  6
Continuous
 62
     7
370
    25
100
AcDbPolyline
 90
        9
 70
   128
 43
0.0
 10
156.1278037843
 20
472.2521437387
 10
156.1409474266
 20
472.6423243827
 10
156.1798732507
 20
473.0175106034
 10
156.243085359
 20
473.3632842048
 10
156.3281545457
 20
473.6663573011
 10
156.4318116495
 20
473.9150829633
 10
156.5500731862
 20
474.0999028037
 10
156.6783944312
 20
474.2137142995
 10
156.811844071
 20
474.2521437387
  0
LINE
  5
2BD
330
1F
100
AcDbEntity
  8
0
  6
Continuous
 62
     7
370
    25
100
AcDbLine
 10
156.811844071
 20
474.2521437387
 30
0.0
 11
158.6912293125
 21
474.2521437387
 31
0.0
  0
LINE
  5
2BE
330
1F
100
AcDbEntity
  8
0
  6
Continuous
 62
     7
370
    25
100
AcDbLine
 10
160.7433501725
 20
458.2521437387
 30
0.0
 11
160.5624280348
 21
458.2521437387
 31
0.0
  0
LINE
  5
2BF
330
1F
100
AcDbEntity
  8
0
  6
Continuous
 62
     7
370
    25
100
AcDbLine
 10
160.5624280348
 20
474.2521437387
 30
0.0
 11
160.7381638221
 21
474.2521437387
 31
0.0
  0
LINE
  5
2C0
330
1F
100
AcDbEntity
  8
0
  6
Continuous
 62
     7
370
    25
100
AcDbLine
 10
160.7433501725
 20
474.2521437387
 30
0.0
 11
160.7433501725
 21
458.2521437387
 31
0.0
  0
LINE
  5
2C1
330
1F
100
AcDbEntity
  8
0
  6
Continuous
 62
     7
370
    25
100
AcDbLine
 10
160.7381638221
 20
474.2521437387
 30
0.0
 11
160.7433501725
 21
474.2521437387
 31
0.0
  0
LINE
  5
2C2
330
1F
100
AcDbEntity
  8
0
  6
Continuous
 62
     7
370
    25
100
AcDbLine
 10
160.7433501725
 20
474.2521437387
 30
0.0
 11
160.7433501725
 21
489.2521437387
 31
0.0
  0
LINE
  5
2C3
330
1F
100
AcDbEntity
  8
0
  6
Continuous
 62
     7
370
    25
100
AcDbLine
 10
158.7433501725
 20
474.2521437387
 30
0.0
 11
158.7433501725
 21
489.2521437387
 31
0.0
  0
LINE
  5
2C4
330
1F
100
AcDbEntity
  8
0
  6
Continuous
 62
     7
370
    25
100
AcDbLine
 10
158.7450173024
 20
489.3521437387
 30
0.0
 11
158.7433501725
 21
489.2521437387
 31
0.0
  0
LINE
  5
2C5
330
1F
100
AcDbEntity
  8
0
  6
Continuous
 62
     7
370
    25
100
AcDbLine
 10
160.7483627354
 20
489.3521437387
 30
0.0
 11
160.7433501725
 21
489.2521437387
 31
0.0
  0
LWPOLYLINE
  5
2C6
330
1F
100
AcDbEntity
  8
0
  6
Continuous
 62
     7
370
    25
100
AcDbPolyline
 90
        9
 70
   128
 43
0.0
 10
666.7954710324
 20
458.2521437387
 10
666.9289206722
 20
458.2905731779
 10
667.0572419172
 20
458.4043846737
 10
667.1755034539
 20
458.5892045141
 10
667.2791605577
 20
458.8379301763
 10
667.3642297444
 20
459.1410032727
 10
667.4274418527
 20
459.486776874
 10
667.4663676768
 20
459.8619630947
 10
667.4795113191
 20
460.2521437387
  0
LINE
  5
2C7
330
1F
100
AcDbEntity
  8
0
  6
Continuous
 62
     7
370
    25
100
AcDbLine
 10
664.9242723101
 20
458.2521437387
 30
0.0
 11
666.7954710324
 21
458.2521437387
 31
0.0
  0
LINE
  5
2C8
330
1F
100
AcDbEntity
  8
0
  6
Continuous
 62
     7
370
    25
100
AcDbLine
 10
666.7954710324
 20
474.2521437387
 30
0.0
 11
664.9242723101
 21
474.2521437387
 31
0.0
  0
LWPOLYLINE
  5
2C9
330
1F
100
AcDbEntity
  8
0
  6
Continuous
 62
     7
370
    25
100
AcDbPolyline
 90
        9
 70
   128
 43
0.0
 10
667.4795113191
 20
472.2521437387
 10
667.4663676768
 20
472.6423243827
 10
667.4274418527
 20
473.0175106034
 10
667.3642297444
 20
473.3632842048
 10
667.2791605577
 20
473.6663573011
 10
667.1755034539
 20
473.9150829633
 10
667.0572419172
 20
474.0999028037
 10
666.9289206722
 20
474.2137142995
 10
666.7954710324
 20
474.2521437387
  0
LINE
  5
2CA
330
1F
100
AcDbEntity
  8
0
  6
Continuous
 62
     7
370
    25
100
AcDbLine
 10
667.4795113191
 20
460.2521437387
 30
0.0
 11
667.4795113191
 21
472.2521437387
 31
0.0
  0
LWPOLYLINE
  5
2CB
330
1F
100
AcDbEntity
  8
0
  6
Continuous
 62
     7
370
    25
100
AcDbPolyline
 90
        9
 70
   128
 43
0.0
 10
669.3588965607
 20
460.2521437387
 10
669.3457529184
 20
459.8619630947
 10
669.3068270943
 20
459.486776874
 10
669.2436149859
 20
459.1410032727
 10
669.1585457993
 20
458.8379301763
 10
669.0548886955
 20
458.5892045141
 10
668.9366271588
 20
458.4043846737
 10
668.8083059138
 20
458.2905731779
 10
668.674856274
 20
458.2521437387
  0
LINE
  5
2CC
330
1F
100
AcDbEntity
  8
0
  6
Continuous
 62
     7
370
    25
100
AcDbLine
 10
668.674856274
 20
458.2521437387
 30
0.0
 11
666.7954710324
 21
458.2521437387
 31
0.0
  0
LINE
  5
2CD
330
1F
100
AcDbEntity
  8
0
  6
Continuous
 62
     7
370
    25
100
AcDbLine
 10
669.3588965607
 20
460.2521437387
 30
0.0
 11
669.3588965607
 21
472.2521437387
 31
0.0
  0
LINE
  5
2CE
330
1F
100
AcDbEntity
  8
0
  6
Continuous
 62
     7
370
    25
100
AcDbLine
 10
666.7954710324
 20
474.2521437387
 30
0.0
 11
668.674856274
 21
474.2521437387
 31
0.0
  0
LWPOLYLINE
  5
2CF
330
1F
100
AcDbEntity
  8
0
  6
Continuous
 62
     7
370
    25
100
AcDbPolyline
 90
        9
 70
   128
 43
0.0
 10
668.674856274
 20
474.2521437387
 10
668.8083059138
 20
474.2137142995
 10
668.9366271588
 20
474.0999028037
 10
669.0548886955
 20
473.9150829633
 10
669.1585457993
 20
473.6663573011
 10
669.2436149859
 20
473.3632842048
 10
669.3068270943
 20
473.0175106034
 10
669.3457529184
 20
472.6423243827
 10
669.3588965607
 20
472.2521437387
  0
LINE
  5
2D0
330
1F
100
AcDbEntity
  8
0
  6
Continuous
 62
     7
370
    25
100
AcDbLine
 10
664.7485365229
 20
474.2521437387
 30
0.0
 11
664.9242723101
 21
474.2521437387
 31
0.0
  0
LINE
  5
2D1
330
1F
100
AcDbEntity
  8
0
  6
Continuous
 62
     7
370
    25
100
AcDbLine
 10
664.7433501725
 20
458.2521437387
 30
0.0
 11
664.7433501725
 21
474.2521437387
 31
0.0
  0
LINE
  5
2D2
330
1F
100
AcDbEntity
  8
0
  6
Continuous
 62
     7
370
    25
100
AcDbLine
 10
664.9242723101
 20
458.2521437387
 30
0.0
 11
664.7433501725
 21
458.2521437387
 31
0.0
  0
LINE
  5
2D3
330
1F
100
AcDbEntity
  8
0
  6
Continuous
 62
     7
370
    25
100
AcDbLine
 10
664.7485365229
 20
474.2521437387
 30
0.0
 11
664.7433501725
 21
474.2521437387
 31
0.0
  0
LINE
  5
2D4
330
1F
100
AcDbEntity
  8
0
  6
Continuous
 62
     7
370
    25
100
AcDbLine
 10
664.7433501725
 20
489.2521437387
 30
0.0
 11
664.7433501725
 21
474.2521437387
 31
0.0
  0
LINE
  5
2D5
330
1F
100
AcDbEntity
  8
0
  6
Continuous
 62
     7
370
    25
100
AcDbLine
 10
666.7433501725
 20
489.2521437387
 30
0.0
 11
666.7433501725
 21
474.2521437387
 31
0.0
  0
LINE
  5
2D6
330
1F
100
AcDbEntity
  8
0
  6
Continuous
 62
     7
370
    25
100
AcDbLine
 10
664.7433501725
 20
489.2521437387
 30
0.0
 11
664.7383376096
 21
489.3521437387
 31
0.0
  0
LINE
  5
2D7
330
1F
100
AcDbEntity
  8
0
  6
Continuous
 62
     7
370
    25
100
AcDbLine
 10
666.7433501725
 20
489.2521437387
 30
0.0
 11
666.7416830426
 21
489.3521437387
 31
0.0
  0
SPLINE
  5
2D8
330
1F
100
AcDbEntity
  8
0
  6
Continuous
 62
     7
370
    25
100
AcDbSpline
210
0.0
220
0.0
230
1.0
 70
    24
 71
     3
 72
    19
 73
    15
 74
     0
 42
0.000000001
 43
0.00000001
 40
0.0
 40
0.0
 40
0.0
 40
0.0
 40
0.1260638187928846
 40
0.1939261817305605
 40
0.2632286813759842
 40
0.3325311810214081
 40
0.4003935439590838
 40
0.5264573627519683
 40
0.6525211815448532
 40
0.7203835444825296
 40
0.7896860441279527
 40
0.8589885437733759
 40
0.9268509067110522
 40
1.0
 40
1.0
 40
1.0
 40
1.0
 10
663.7433501724777
 20
471.8795320940938
 30
0.0
 10
663.7433501724777
 20
471.6879441831575
 30
0.0
 10
663.7433501724777
 20
471.3932211421662
 30
0.0
 10
663.7433501724776
 20
470.4659666193256
 30
0.0
 10
663.7433501724777
 20
469.5804105787931
 30
0.0
 10
663.7433501724777
 20
468.5440093692578
 30
0.0
 10
663.7433501724777
 20
467.1000559966084
 30
0.0
 10
663.7433501724777
 20
465.2152284138999
 30
0.0
 10
663.7433501724774
 20
463.4422182120733
 30
0.0
 10
663.7433501724777
 20
462.219914590333
 30
0.0
 10
663.7433501724777
 20
461.4192278751149
 30
0.0
 10
663.7433501724777
 20
460.8337372923418
 30
0.0
 10
663.7433501724777
 20
460.4058511537889
 30
0.0
 10
663.7433501724777
 20
460.4363634056916
 30
0.0
 10
663.7433501724777
 20
460.4521915066176
 30
0.0
  0
SPLINE
  5
2D9
330
1F
100
AcDbEntity
  8
0
  6
Continuous
 62
     7
370
    25
100
AcDbSpline
210
0.0
220
0.0
230
1.0
 70
     8
 71
     3
 72
     8
 73
     4
 74
     0
 42
0.000000001
 43
0.00000001
 40
0.0
 40
0.0
 40
0.0
 40
0.0
 40
1.0
 40
1.0
 40
1.0
 40
1.0
 10
659.7433501724847
 20
465.3634459466577
 30
0.0
 10
659.7433501724847
 20
464.3905016308781
 30
0.0
 10
659.9176654728641
 20
463.4441863834256
 30
0.0
 10
660.1899321598761
 20
462.5128345623675
 30
0.0
  0
SPLINE
  5
2DA
330
1F
100
AcDbEntity
  8
0
  6
Continuous
 62
     7
370
    25
100
AcDbSpline
210
0.0
220
0.0
230
1.0
 70
     8
 71
     3
 72
     8
 73
     4
 74
     0
 42
0.000000001
 43
0.00000001
 40
0.0
 40
0.0
 40
0.0
 40
0.0
 40
1.0
 40
1.0
 40
1.0
 40
1.0
 10
660.1899321598761
 20
468.2140573309481
 30
0.0
 10
659.9176654728647
 20
467.2827055098917
 30
0.0
 10
659.7433501724847
 20
466.3363902624357
 30
0.0
 10
659.7433501724847
 20
465.3634459466578
 30
0.0
  0
LINE
  5
2DB
330
1F
100
AcDbEntity
  8
0
  6
Continuous
 62
     7
370
    25
100
AcDbLine
 10
663.7433501725
 20
468.214057331
 30
0.0
 11
660.1899321599
 21
468.214057331
 31
0.0
  0
LINE
  5
2DC
330
1F
100
AcDbEntity
  8
0
  6
Continuous
 62
     7
370
    25
100
AcDbLine
 10
663.7433501725
 20
462.5128345624
 30
0.0
 11
660.1899321599
 21
462.5128345624
 31
0.0
  0
LINE
  5
2DD
330
1F
100
AcDbEntity
  8
0
  6
Continuous
 62
     7
370
    25
100
AcDbLine
 10
659.7433501725
 20
470.0337119191
 30
0.0
 11
659.7433501725
 21
465.3634459467
 31
0.0
  0
SPLINE
  5
2DE
330
1F
100
AcDbEntity
  8
0
  6
Continuous
 62
     7
370
    25
100
AcDbSpline
210
0.0
220
0.0
230
1.0
 70
     8
 71
     3
 72
     8
 73
     4
 74
     0
 42
0.000000001
 43
0.00000001
 40
0.0
 40
0.0
 40
0.0
 40
0.0
 40
1.0
 40
1.0
 40
1.0
 40
1.0
 10
659.7433501724847
 20
470.0337119191275
 30
0.0
 10
659.7433501724847
 20
469.4126442429082
 30
0.0
 10
659.9176654728641
 20
468.8085749224197
 30
0.0
 10
660.1899321598761
 20
468.2140573309544
 30
0.0
  0
SPLINE
  5
2DF
330
1F
100
AcDbEntity
  8
0
  6
Continuous
 62
     7
370
    25
100
AcDbSpline
210
0.0
220
0.0
230
1.0
 70
     8
 71
     3
 72
     8
 73
     4
 74
     0
 42
0.000000001
 43
0.00000001
 40
0.0
 40
0.0
 40
0.0
 40
0.0
 40
1.0
 40
1.0
 40
1.0
 40
1.0
 10
660.1899321598761
 20
471.8533665073005
 30
0.0
 10
659.9176654728647
 20
471.2588489158364
 30
0.0
 10
659.7433501724847
 20
470.6547795953456
 30
0.0
 10
659.7433501724847
 20
470.0337119191275
 30
0.0
  0
LINE
  5
2E0
330
1F
100
AcDbEntity
  8
0
  6
Continuous
 62
     7
370
    25
100
AcDbLine
 10
663.7433501725
 20
471.8533665073
 30
0.0
 11
660.1899321599
 21
471.8533665073
 31
0.0
  0
LINE
  5
2E1
330
1F
100
AcDbEntity
  8
0
  6
Continuous
 62
     7
370
    25
100
AcDbLine
 10
659.7433501725
 20
465.3634459467
 30
0.0
 11
659.7433501725
 21
461.4818777662
 31
0.0
  0
SPLINE
  5
2E2
330
1F
100
AcDbEntity
  8
0
  6
Continuous
 62
     7
370
    25
100
AcDbSpline
210
0.0
220
0.0
230
1.0
 70
     8
 71
     3
 72
     8
 73
     4
 74
     0
 42
0.000000001
 43
0.00000001
 40
0.0
 40
0.0
 40
0.0
 40
0.0
 40
1.0
 40
1.0
 40
1.0
 40
1.0
 10
660.189932159876
 20
462.5128345623624
 30
0.0
 10
659.9176654728645
 20
462.1760003327701
 30
0.0
 10
659.7433501724846
 20
461.8337544058048
 30
0.0
 10
659.7433501724846
 20
461.481877766245
 30
0.0
  0
SPLINE
  5
2E3
330
1F
100
AcDbEntity
  8
0
  6
Continuous
 62
     7
370
    25
100
AcDbSpline
210
0.0
220
0.0
230
1.0
 70
     8
 71
     3
 72
     8
 73
     4
 74
     0
 42
0.000000001
 43
0.00000001
 40
0.0
 40
0.0
 40
0.0
 40
0.0
 40
1.0
 40
1.0
 40
1.0
 40
1.0
 10
659.7433501724846
 20
461.481877766245
 30
0.0
 10
659.7433501724846
 20
461.1300011266845
 30
0.0
 10
659.917665472864
 20
460.7877551997204
 30
0.0
 10
660.189932159876
 20
460.4509209701274
 30
0.0
  0
LINE
  5
2E4
330
1F
100
AcDbEntity
  8
0
  6
Continuous
 62
     7
370
    25
100
AcDbLine
 10
663.7433501725
 20
460.4509209701
 30
0.0
 11
660.1899321599
 21
460.4509209701
 31
0.0
  0
LINE
  5
2E5
330
1F
100
AcDbEntity
  8
0
  6
Continuous
 62
     7
370
    25
100
AcDbLine
 10
660.0397259296
 20
471.5066079316
 30
0.0
 11
660.1899321599
 21
471.8533665073
 31
0.0
  0
LINE
  5
2E6
330
1F
100
AcDbEntity
  8
0
  6
Continuous
 62
     7
370
    25
100
AcDbLine
 10
659.7433501725
 20
471.1521437387
 30
0.0
 11
659.7433501725
 21
470.0337119191
 31
0.0
  0
LINE
  5
2E7
330
1F
100
AcDbEntity
  8
0
  6
Continuous
 62
     7
370
    25
100
AcDbLine
 10
674.7433501725
 20
465.7643015995
 30
0.0
 11
674.7433501725
 21
468.6108937387
 31
0.0
  0
LINE
  5
2E8
330
1F
100
AcDbEntity
  8
0
  6
Continuous
 62
     7
370
    25
100
AcDbLine
 10
674.7433501725
 20
463.6933937387
 30
0.0
 11
674.7433501725
 21
465.7643015995
 31
0.0
  0
LINE
  5
2E9
330
1F
100
AcDbEntity
  8
0
  6
Continuous
 62
     7
370
    25
100
AcDbLine
 10
674.2021001725
 20
463.1521437387
 30
0.0
 11
674.2021001725
 21
469.1521437387
 31
0.0
  0
LINE
  5
2EA
330
1F
100
AcDbEntity
  8
0
  6
Continuous
 62
     7
370
    25
100
AcDbLine
 10
659.7433501725
 20
461.4818777662
 30
0.0
 11
659.7433501725
 21
461.1521437387
 31
0.0
  0
LINE
  5
2EB
330
1F
100
AcDbEntity
  8
0
  6
Continuous
 62
     7
370
    25
100
AcDbLine
 10
658.9933501725
 20
484.2521437387
 30
0.0
 11
649.4933501725
 21
484.2521437387
 31
0.0
  0
LINE
  5
2EC
330
1F
100
AcDbEntity
  8
0
  6
Continuous
 62
     7
370
    25
100
AcDbLine
 10
649.4933501725
 20
484.2521437387
 30
0.0
 11
649.4933501725
 21
484.7521437387
 31
0.0
  0
LINE
  5
2ED
330
1F
100
AcDbEntity
  8
0
  6
Continuous
 62
     7
370
    25
100
AcDbLine
 10
658.9933501725
 20
484.7521437387
 30
0.0
 11
658.9933501725
 21
484.2521437387
 31
0.0
  0
LINE
  5
2EE
330
1F
100
AcDbEntity
  8
0
  6
Continuous
 62
     7
370
    25
100
AcDbLine
 10
649.4933501725
 20
484.2521437387
 30
0.0
 11
648.7299501725
 21
484.2521437387
 31
0.0
  0
ARC
  5
2EF
330
1F
100
AcDbEntity
  8
0
  6
Continuous
 62
     7
370
    25
100
AcDbCircle
 10
659.7567501725
 20
485.4887437387
 30
0.0
 40
1.23660000000001
100
AcDbArc
 50
270.0
 51
323.4399088995
  0
ARC
  5
2F0
330
1F
100
AcDbEntity
  8
0
  6
Continuous
 62
     7
370
    25
100
AcDbCircle
 10
648.7299501725
 20
485.4887437387
 30
0.0
 40
1.236599999999953
100
AcDbArc
 50
216.5600911005
 51
270.0
  0
LINE
  5
2F1
330
1F
100
AcDbEntity
  8
0
  6
Continuous
 62
     7
370
    25
100
AcDbLine
 10
659.7567501725
 20
484.2521437387
 30
0.0
 11
658.9933501725
 21
484.2521437387
 31
0.0
  0
ARC
  5
2F2
330
1F
100
AcDbEntity
  8
0
  6
Continuous
 62
     7
370
    25
100
AcDbCircle
 10
152.2433501725
 20
495.3521437387
 30
0.0
 40
6.0
100
AcDbArc
 50
216.8698976459
 51
270.0
  0
ARC
  5
2F3
330
1F
100
AcDbEntity
  8
0
  6
Continuous
 62
     7
370
    25
100
AcDbCircle
 10
673.2433501725
 20
495.3521437387
 30
0.0
 40
6.0
100
AcDbArc
 50
270.0
 51
323.1301023541
  0
ARC
  5
2F4
330
1F
100
AcDbEntity
  8
0
  6
Continuous
 62
     7
370
    25
100
AcDbCircle
 10
664.4433501725
 20
83.8722758703
 30
0.0
 40
0.5
100
AcDbArc
 50
180.0
 51
0.0
  0
ARC
  5
2F5
330
1F
100
AcDbEntity
  8
0
  6
Continuous
 62
     7
370
    25
100
AcDbCircle
 10
664.4433501725
 20
95.4722758705
 30
0.0
 40
0.5
100
AcDbArc
 50
0.0
 51
180.0
  0
LINE
  5
2F6
330
1F
100
AcDbEntity
  8
0
  6
Continuous
 62
     7
370
    25
100
AcDbLine
 10
674.4021001725
 20
86.6722758704
 30
0.0
 11
674.9433501725
 21
87.2135258704
 31
0.0
  0
LINE
  5
2F7
330
1F
100
AcDbEntity
  8
0
  6
Continuous
 62
     7
370
    25
100
AcDbLine
 10
674.9433501725
 20
92.1310258704
 30
0.0
 11
674.4021001725
 21
92.6722758704
 31
0.0
  0
LINE
  5
2F8
330
1F
100
AcDbEntity
  8
0
  6
Continuous
 62
     7
370
    25
100
AcDbLine
 10
674.4021001725
 20
92.6722758704
 30
0.0
 11
665.7433501725
 21
92.6722758704
 31
0.0
  0
LINE
  5
2F9
330
1F
100
AcDbEntity
  8
0
  6
Continuous
 62
     7
370
    25
100
AcDbLine
 10
665.7433501725
 20
86.6722758704
 30
0.0
 11
674.4021001725
 21
86.6722758704
 31
0.0
  0
LINE
  5
2FA
330
1F
100
AcDbEntity
  8
0
  6
Continuous
 62
     7
370
    25
100
AcDbLine
 10
647.7885647581
 20
81.0440986231
 30
0.0
 11
647.3933501725
 21
81.2722758704
 31
0.0
  0
LINE
  5
2FB
330
1F
100
AcDbEntity
  8
0
  6
Continuous
 62
     7
370
    25
100
AcDbLine
 10
641.0933501725
 20
81.2722758704
 30
0.0
 11
640.6628118775
 21
81.02370447
 31
0.0
  0
LINE
  5
2FC
330
1F
100
AcDbEntity
  8
0
  6
Continuous
 62
     7
370
    25
100
AcDbLine
 10
640.6628118775
 20
78.3208472709
 30
0.0
 11
641.0933501725
 21
78.0722758704
 31
0.0
  0
LINE
  5
2FD
330
1F
100
AcDbEntity
  8
0
  6
Continuous
 62
     7
370
    25
100
AcDbLine
 10
647.3933501725
 20
78.0722758704
 30
0.0
 11
647.7885647581
 21
78.3004531178
 31
0.0
  0
LINE
  5
2FE
330
1F
100
AcDbEntity
  8
0
  6
Continuous
 62
     7
370
    25
100
AcDbLine
 10
334.7885647581
 20
81.0440986231
 30
0.0
 11
334.3933501725
 21
81.2722758704
 31
0.0
  0
LINE
  5
2FF
330
1F
100
AcDbEntity
  8
0
  6
Continuous
 62
     7
370
    25
100
AcDbLine
 10
328.0933501725
 20
81.2722758704
 30
0.0
 11
327.6628118775
 21
81.02370447
 31
0.0
  0
LINE
  5
300
330
1F
100
AcDbEntity
  8
0
  6
Continuous
 62
     7
370
    25
100
AcDbLine
 10
327.6628118775
 20
78.3208472709
 30
0.0
 11
328.0933501725
 21
78.0722758704
 31
0.0
  0
LINE
  5
301
330
1F
100
AcDbEntity
  8
0
  6
Continuous
 62
     7
370
    25
100
AcDbLine
 10
334.3933501725
 20
78.0722758704
 30
0.0
 11
334.7885647581
 21
78.3004531178
 31
0.0
  0
LINE
  5
302
330
1F
100
AcDbEntity
  8
0
  6
Continuous
 62
     7
370
    25
100
AcDbLine
 10
497.7885647581
 20
81.0440986231
 30
0.0
 11
497.3933501725
 21
81.2722758704
 31
0.0
  0
LINE
  5
303
330
1F
100
AcDbEntity
  8
0
  6
Continuous
 62
     7
370
    25
100
AcDbLine
 10
491.0933501725
 20
81.2722758704
 30
0.0
 11
490.6628118775
 21
81.02370447
 31
0.0
  0
LINE
  5
304
330
1F
100
AcDbEntity
  8
0
  6
Continuous
 62
     7
370
    25
100
AcDbLine
 10
490.6628118775
 20
78.3208472709
 30
0.0
 11
491.0933501725
 21
78.0722758704
 31
0.0
  0
LINE
  5
305
330
1F
100
AcDbEntity
  8
0
  6
Continuous
 62
     7
370
    25
100
AcDbLine
 10
497.3933501725
 20
78.0722758704
 30
0.0
 11
497.7885647581
 21
78.3004531178
 31
0.0
  0
LINE
  5
306
330
1F
100
AcDbEntity
  8
0
  6
Continuous
 62
     7
370
    25
100
AcDbLine
 10
184.7885647581
 20
81.0440986231
 30
0.0
 11
184.3933501725
 21
81.2722758704
 31
0.0
  0
LINE
  5
307
330
1F
100
AcDbEntity
  8
0
  6
Continuous
 62
     7
370
    25
100
AcDbLine
 10
178.0933501725
 20
81.2722758704
 30
0.0
 11
177.6628118775
 21
81.02370447
 31
0.0
  0
LINE
  5
308
330
1F
100
AcDbEntity
  8
0
  6
Continuous
 62
     7
370
    25
100
AcDbLine
 10
177.6628118775
 20
78.3208472709
 30
0.0
 11
178.0933501725
 21
78.0722758704
 31
0.0
  0
LINE
  5
309
330
1F
100
AcDbEntity
  8
0
  6
Continuous
 62
     7
370
    25
100
AcDbLine
 10
184.3933501725
 20
78.0722758704
 30
0.0
 11
184.7885647581
 21
78.3004531178
 31
0.0
  0
LINE
  5
30A
330
1F
100
AcDbEntity
  8
0
  6
Continuous
 62
     7
370
    25
100
AcDbLine
 10
160.2433501725
 20
64.6222758704
 30
0.0
 11
665.2433501725
 21
64.6222758704
 31
0.0
  0
LINE
  5
30B
330
1F
100
AcDbEntity
  8
0
  6
Continuous
 62
     7
370
    25
100
AcDbLine
 10
642.2433501725
 20
86.3722758704
 30
0.0
 11
642.2433501725
 21
81.2722758704
 31
0.0
  0
LINE
  5
30C
330
1F
100
AcDbEntity
  8
0
  6
Continuous
 62
     7
370
    25
100
AcDbLine
 10
642.2433501725
 20
78.0722758704
 30
0.0
 11
642.2433501725
 21
77.9722758704
 31
0.0
  0
LINE
  5
30D
330
1F
100
AcDbEntity
  8
0
  6
Continuous
 62
     7
370
    25
100
AcDbLine
 10
646.2433501725
 20
77.9722758704
 30
0.0
 11
646.2433501725
 21
78.0722758704
 31
0.0
  0
LINE
  5
30E
330
1F
100
AcDbEntity
  8
0
  6
Continuous
 62
     7
370
    25
100
AcDbLine
 10
646.2433501725
 20
81.2722758704
 30
0.0
 11
646.2433501725
 21
86.3722758704
 31
0.0
  0
LINE
  5
30F
330
1F
100
AcDbEntity
  8
0
  6
Continuous
 62
     7
370
    25
100
AcDbLine
 10
329.2433501725
 20
86.3722758704
 30
0.0
 11
329.2433501725
 21
81.2722758704
 31
0.0
  0
LINE
  5
310
330
1F
100
AcDbEntity
  8
0
  6
Continuous
 62
     7
370
    25
100
AcDbLine
 10
329.2433501725
 20
78.0722758704
 30
0.0
 11
329.2433501725
 21
77.9722758704
 31
0.0
  0
LINE
  5
311
330
1F
100
AcDbEntity
  8
0
  6
Continuous
 62
     7
370
    25
100
AcDbLine
 10
333.2433501725
 20
77.9722758704
 30
0.0
 11
333.2433501725
 21
78.0722758704
 31
0.0
  0
LINE
  5
312
330
1F
100
AcDbEntity
  8
0
  6
Continuous
 62
     7
370
    25
100
AcDbLine
 10
333.2433501725
 20
81.2722758704
 30
0.0
 11
333.2433501725
 21
86.3722758704
 31
0.0
  0
LINE
  5
313
330
1F
100
AcDbEntity
  8
0
  6
Continuous
 62
     7
370
    25
100
AcDbLine
 10
492.2433501725
 20
86.3722758704
 30
0.0
 11
492.2433501725
 21
81.2722758704
 31
0.0
  0
LINE
  5
314
330
1F
100
AcDbEntity
  8
0
  6
Continuous
 62
     7
370
    25
100
AcDbLine
 10
492.2433501725
 20
78.0722758704
 30
0.0
 11
492.2433501725
 21
77.9722758704
 31
0.0
  0
LINE
  5
315
330
1F
100
AcDbEntity
  8
0
  6
Continuous
 62
     7
370
    25
100
AcDbLine
 10
496.2433501725
 20
77.9722758704
 30
0.0
 11
496.2433501725
 21
78.0722758704
 31
0.0
  0
LINE
  5
316
330
1F
100
AcDbEntity
  8
0
  6
Continuous
 62
     7
370
    25
100
AcDbLine
 10
496.2433501725
 20
81.2722758704
 30
0.0
 11
496.2433501725
 21
86.3722758704
 31
0.0
  0
LINE
  5
317
330
1F
100
AcDbEntity
  8
0
  6
Continuous
 62
     7
370
    25
100
AcDbLine
 10
179.2433501725
 20
86.3722758704
 30
0.0
 11
179.2433501725
 21
81.2722758704
 31
0.0
  0
LINE
  5
318
330
1F
100
AcDbEntity
  8
0
  6
Continuous
 62
     7
370
    25
100
AcDbLine
 10
179.2433501725
 20
78.0722758704
 30
0.0
 11
179.2433501725
 21
77.9722758704
 31
0.0
  0
LINE
  5
319
330
1F
100
AcDbEntity
  8
0
  6
Continuous
 62
     7
370
    25
100
AcDbLine
 10
183.2433501725
 20
77.9722758704
 30
0.0
 11
183.2433501725
 21
78.0722758704
 31
0.0
  0
LINE
  5
31A
330
1F
100
AcDbEntity
  8
0
  6
Continuous
 62
     7
370
    25
100
AcDbLine
 10
183.2433501725
 20
81.2722758704
 30
0.0
 11
183.2433501725
 21
86.3722758704
 31
0.0
  0
ARC
  5
31B
330
1F
100
AcDbEntity
  8
0
  6
Continuous
 62
     7
370
    25
100
AcDbCircle
 10
161.0433501725
 20
95.4722758705
 30
0.0
 40
0.5
100
AcDbArc
 50
360.0
 51
180.0
  0
ARC
  5
31C
330
1F
100
AcDbEntity
  8
0
  6
Continuous
 62
     7
370
    25
100
AcDbCircle
 10
161.0433501725
 20
83.8722758703
 30
0.0
 40
0.5
100
AcDbArc
 50
180.0
 51
0.0
  0
LINE
  5
31D
330
1F
100
AcDbEntity
  8
0
  6
Continuous
 62
     7
370
    25
100
AcDbLine
 10
151.0846001725
 20
86.6722758704
 30
0.0
 11
159.7433501725
 21
86.6722758704
 31
0.0
  0
LINE
  5
31E
330
1F
100
AcDbEntity
  8
0
  6
Continuous
 62
     7
370
    25
100
AcDbLine
 10
159.7433501725
 20
92.6722758704
 30
0.0
 11
151.0846001725
 21
92.6722758704
 31
0.0
  0
LINE
  5
31F
330
1F
100
AcDbEntity
  8
0
  6
Continuous
 62
     7
370
    25
100
AcDbLine
 10
151.0846001725
 20
92.6722758704
 30
0.0
 11
150.5433501725
 21
92.1310258704
 31
0.0
  0
LINE
  5
320
330
1F
100
AcDbEntity
  8
0
  6
Continuous
 62
     7
370
    25
100
AcDbLine
 10
150.5433501725
 20
87.2135258704
 30
0.0
 11
151.0846001725
 21
86.6722758704
 31
0.0
  0
LINE
  5
321
330
1F
100
AcDbEntity
  8
0
  6
Continuous
 62
     7
370
    25
100
AcDbLine
 10
165.5433501725
 20
94.6722758704
 30
0.0
 11
165.2138670767
 21
95.2429573325
 31
0.0
  0
LINE
  5
322
330
1F
100
AcDbEntity
  8
0
  6
Continuous
 62
     7
370
    25
100
AcDbLine
 10
165.2138670767
 20
84.1015944083
 30
0.0
 11
165.5433501725
 21
84.6722758704
 31
0.0
  0
LINE
  5
323
330
1F
100
AcDbEntity
  8
0
  6
Continuous
 62
     7
370
    25
100
AcDbLine
 10
673.2433501725
 20
66.4722758704
 30
0.0
 11
667.2433501725
 21
66.4722758704
 31
0.0
  0
LINE
  5
324
330
1F
100
AcDbEntity
  8
0
  6
Continuous
 62
     7
370
    25
100
AcDbLine
 10
158.2433501725
 20
66.4722758704
 30
0.0
 11
152.2433501725
 21
66.4722758704
 31
0.0
  0
LINE
  5
325
330
1F
100
AcDbEntity
  8
0
  6
Continuous
 62
     7
370
    25
100
AcDbLine
 10
667.2433501725
 20
66.4722758704
 30
0.0
 11
665.0712571492
 21
66.4722758704
 31
0.0
  0
LINE
  5
326
330
1F
100
AcDbEntity
  8
0
  6
Continuous
 62
     7
370
    25
100
AcDbLine
 10
160.4154431957
 20
66.4722758704
 30
0.0
 11
158.2433501725
 21
66.4722758704
 31
0.0
  0
SPLINE
  5
327
330
1F
100
AcDbEntity
  8
0
  6
Continuous
 62
     7
370
    25
100
AcDbSpline
210
0.0
220
0.0
230
1.0
 70
    24
 71
     3
 72
     9
 73
     5
 74
     0
 42
0.000000001
 43
0.00000001
 40
0.0
 40
0.0
 40
0.0
 40
0.0
 40
0.5153941859613909
 40
1.0
 40
1.0
 40
1.0
 40
1.0
 10
664.9433501724772
 20
95.34728587043355
 30
0.0
 10
664.9433501724772
 20
95.3910277184888
 30
0.0
 10
664.9433501724772
 20
95.47589838495482
 30
0.0
 10
664.9433501724772
 20
95.45314194971144
 30
0.0
 10
664.9433501724772
 20
95.4421140488857
 30
0.0
  0
SPLINE
  5
328
330
1F
100
AcDbEntity
  8
0
  6
Continuous
 62
     7
370
    25
100
AcDbSpline
210
0.0
220
0.0
230
1.0
 70
    24
 71
     3
 72
    17
 73
    13
 74
     0
 42
0.000000001
 43
0.00000001
 40
0.0
 40
0.0
 40
0.0
 40
0.0
 40
0.0359921626376355
 40
0.1205930661280419
 40
0.2034359252874597
 40
0.3573281084250891
 40
0.5112202915627195
 40
0.594063150722137
 40
0.6786640542125442
 40
0.7632649577029517
 40
0.8461078168623679
 40
1.0
 40
1.0
 40
1.0
 40
1.0
 10
663.9433501724772
 20
95.44211404889663
 30
0.0
 10
663.9433501724772
 20
95.44926543593792
 30
0.0
 10
663.943350172477
 20
95.47322642152965
 30
0.0
 10
663.9433501724772
 20
95.255221495294
 30
0.0
 10
663.9433501724772
 20
94.68343439820693
 30
0.0
 10
663.9433501724772
 20
93.48641782211658
 30
0.0
 10
663.9433501724772
 20
91.84036106223951
 30
0.0
 10
663.9433501724772
 20
90.35517071002572
 30
0.0
 10
663.9433501724772
 20
89.1591425856515
 30
0.0
 10
663.9433501724772
 20
87.98937717286208
 30
0.0
 10
663.9433501724772
 20
86.56742999227828
 30
0.0
 10
663.9433501724772
 20
85.75516271241811
 30
0.0
 10
663.9433501724772
 20
85.22713955295657
 30
0.0
  0
SPLINE
  5
329
330
1F
100
AcDbEntity
  8
0
  6
Continuous
 62
     7
370
    25
100
AcDbSpline
210
0.0
220
0.0
230
1.0
 70
     8
 71
     3
 72
     8
 73
     4
 74
     0
 42
0.000000001
 43
0.00000001
 40
0.0
 40
0.0
 40
0.0
 40
0.0
 40
1.0
 40
1.0
 40
1.0
 40
1.0
 10
659.9433501724843
 20
92.8840772681112
 30
0.0
 10
659.9433501724843
 20
92.12895646180326
 30
0.0
 10
660.1176654728638
 20
91.39450298785981
 30
0.0
 10
660.3899321598756
 20
90.67166291708948
 30
0.0
  0
SPLINE
  5
32A
330
1F
100
AcDbEntity
  8
0
  6
Continuous
 62
     7
370
    25
100
AcDbSpline
210
0.0
220
0.0
230
1.0
 70
     8
 71
     3
 72
     8
 73
     4
 74
     0
 42
0.000000001
 43
0.00000001
 40
0.0
 40
0.0
 40
0.0
 40
0.0
 40
1.0
 40
1.0
 40
1.0
 40
1.0
 10
660.3899321598756
 20
95.09649161913299
 30
0.0
 10
660.1176654728641
 20
94.37365154836372
 30
0.0
 10
659.9433501724843
 20
93.63919807441802
 30
0.0
 10
659.9433501724843
 20
92.8840772681112
 30
0.0
  0
LINE
  5
32B
330
1F
100
AcDbEntity
  8
0
  6
Continuous
 62
     7
370
    25
100
AcDbLine
 10
660.3899321599
 20
95.0964916191
 30
0.0
 11
663.9433501725
 21
95.0964916191
 31
0.0
  0
LINE
  5
32C
330
1F
100
AcDbEntity
  8
0
  6
Continuous
 62
     7
370
    25
100
AcDbLine
 10
663.9433501725
 20
90.6716629171
 30
0.0
 11
660.3899321599
 21
90.6716629171
 31
0.0
  0
SPLINE
  5
32D
330
1F
100
AcDbEntity
  8
0
  6
Continuous
 62
     7
370
    25
100
AcDbSpline
210
0.0
220
0.0
230
1.0
 70
     8
 71
     3
 72
     8
 73
     4
 74
     0
 42
0.000000001
 43
0.00000001
 40
0.0
 40
0.0
 40
0.0
 40
0.0
 40
1.0
 40
1.0
 40
1.0
 40
1.0
 10
659.9433501724842
 20
87.9595550427342
 30
0.0
 10
659.9433501724842
 20
87.03388346411391
 30
0.0
 10
660.1176654728636
 20
86.1335471192946
 30
0.0
 10
660.3899321598756
 20
85.24744716838542
 30
0.0
  0
SPLINE
  5
32E
330
1F
100
AcDbEntity
  8
0
  6
Continuous
 62
     7
370
    25
100
AcDbSpline
210
0.0
220
0.0
230
1.0
 70
     8
 71
     3
 72
     8
 73
     4
 74
     0
 42
0.000000001
 43
0.00000001
 40
0.0
 40
0.0
 40
0.0
 40
0.0
 40
1.0
 40
1.0
 40
1.0
 40
1.0
 10
660.3899321598756
 20
90.67166291708287
 30
0.0
 10
660.1176654728641
 20
89.78556296617536
 30
0.0
 10
659.9433501724842
 20
88.88522662135273
 30
0.0
 10
659.9433501724842
 20
87.9595550427342
 30
0.0
  0
LINE
  5
32F
330
1F
100
AcDbEntity
  8
0
  6
Continuous
 62
     7
370
    25
100
AcDbLine
 10
663.9433501725
 20
85.2474471684
 30
0.0
 11
660.3899321599
 21
85.2474471684
 31
0.0
  0
LINE
  5
330
330
1F
100
AcDbEntity
  8
0
  6
Continuous
 62
     7
370
    25
100
AcDbLine
 10
659.9433501725
 20
92.8840772681
 30
0.0
 11
659.9433501725
 21
87.9595550427
 31
0.0
  0
SPLINE
  5
331
330
1F
100
AcDbEntity
  8
0
  6
Continuous
 62
     7
370
    25
100
AcDbSpline
210
0.0
220
0.0
230
1.0
 70
     8
 71
     3
 72
     8
 73
     4
 74
     0
 42
0.000000001
 43
0.00000001
 40
0.0
 40
0.0
 40
0.0
 40
0.0
 40
1.0
 40
1.0
 40
1.0
 40
1.0
 10
660.3899321598756
 20
85.247447168381
 30
0.0
 10
660.1176654728642
 20
85.08418728824259
 30
0.0
 10
659.9433501724843
 20
84.91830441736617
 30
0.0
 10
659.9433501724843
 20
84.7477536450543
 30
0.0
  0
LINE
  5
332
330
1F
100
AcDbEntity
  8
0
  6
Continuous
 62
     7
370
    25
100
AcDbLine
 10
659.9433501725
 20
87.9595550427
 30
0.0
 11
659.9433501725
 21
84.7477536451
 31
0.0
  0
SPLINE
  5
333
330
1F
100
AcDbEntity
  8
0
  6
Continuous
 62
     7
370
    25
100
AcDbSpline
210
0.0
220
0.0
230
1.0
 70
     8
 71
     3
 72
     8
 73
     4
 74
     0
 42
0.000000001
 43
0.00000001
 40
0.0
 40
0.0
 40
0.0
 40
0.0
 40
1.0
 40
1.0
 40
1.0
 40
1.0
 10
659.9433501724843
 20
94.59679809580858
 30
0.0
 10
659.9433501724843
 20
94.76734886812088
 30
0.0
 10
660.1176654728636
 20
94.93323173899647
 30
0.0
 10
660.3899321598756
 20
95.09649161913529
 30
0.0
  0
LINE
  5
334
330
1F
100
AcDbEntity
  8
0
  6
Continuous
 62
     7
370
    25
100
AcDbLine
 10
659.9433501725
 20
92.8840772681
 30
0.0
 11
659.9433501725
 21
94.6676378362
 31
0.0
  0
SPLINE
  5
335
330
1F
100
AcDbEntity
  8
0
  6
Continuous
 62
     7
370
    25
100
AcDbSpline
210
0.0
220
0.0
230
1.0
 70
     8
 71
     3
 72
     8
 73
     4
 74
     0
 42
0.000000001
 43
0.00000001
 40
0.0
 40
0.0
 40
0.0
 40
0.0
 40
1.0
 40
1.0
 40
1.0
 40
1.0
 10
659.9433501724843
 20
84.7477536450543
 30
0.0
 10
659.9433501724843
 20
84.5772028727421
 30
0.0
 10
660.1176654728638
 20
84.4113200018663
 30
0.0
 10
660.3899321598756
 20
84.24806012172759
 30
0.0
  0
LINE
  5
336
330
1F
100
AcDbEntity
  8
0
  6
Continuous
 62
     7
370
    25
100
AcDbLine
 10
663.9433501725
 20
84.2480601217
 30
0.0
 11
660.3899321599
 21
84.2480601217
 31
0.0
  0
LINE
  5
337
330
1F
100
AcDbEntity
  8
0
  6
Continuous
 62
     7
370
    25
100
AcDbLine
 10
674.9433501725
 20
87.2135258704
 30
0.0
 11
674.9433501725
 21
92.1310258704
 31
0.0
  0
LINE
  5
338
330
1F
100
AcDbEntity
  8
0
  6
Continuous
 62
     7
370
    25
100
AcDbLine
 10
674.4021001725
 20
91.599356709
 30
0.0
 11
674.4021001725
 21
92.6722758704
 31
0.0
  0
LINE
  5
339
330
1F
100
AcDbEntity
  8
0
  6
Continuous
 62
     7
370
    25
100
AcDbLine
 10
674.4021001725
 20
86.6722758704
 30
0.0
 11
674.4021001725
 21
91.599356709
 31
0.0
  0
ARC
  5
33A
330
1F
100
AcDbEntity
  8
0
  6
Continuous
 62
     7
370
    25
100
AcDbCircle
 10
667.2433501725
 20
67.0722758704
 30
0.0
 40
3.0
100
AcDbArc
 50
227.6305369016
 51
270.0
  0
LINE
  5
33B
330
1F
100
AcDbEntity
  8
0
  6
Continuous
 62
     7
370
    25
100
AcDbLine
 10
679.2433501725
 20
64.0722758704
 30
0.0
 11
667.2433501725
 21
64.0722758704
 31
0.0
  0
ARC
  5
33C
330
1F
100
AcDbEntity
  8
0
  6
Continuous
 62
     7
370
    25
100
AcDbCircle
 10
679.2433501725
 20
67.0722758704
 30
0.0
 40
3.0
100
AcDbArc
 50
270.0
 51
0.0
  0
LINE
  5
33D
330
1F
100
AcDbEntity
  8
0
  6
Continuous
 62
     7
370
    25
100
AcDbLine
 10
682.2433501725
 20
68.0722758704
 30
0.0
 11
682.2433501725
 21
67.0722758704
 31
0.0
  0
ARC
  5
33E
330
1F
100
AcDbEntity
  8
0
  6
Continuous
 62
     7
370
    25
100
AcDbCircle
 10
685.2433501725
 20
68.0722758704
 30
0.0
 40
2.999999999999986
100
AcDbArc
 50
90.0
 51
180.0
  0
LINE
  5
33F
330
1F
100
AcDbEntity
  8
0
  6
Continuous
 62
     7
370
    25
100
AcDbLine
 10
708.7726394944
 20
71.0722758704
 30
0.0
 11
685.2433501725
 21
71.0722758704
 31
0.0
  0
LINE
  5
340
330
1F
100
AcDbEntity
  8
0
  6
Continuous
 62
     7
370
    25
100
AcDbLine
 10
708.7726394944
 20
61.4722758704
 30
0.0
 11
708.7726394944
 21
71.0722758704
 31
0.0
  0
LINE
  5
341
330
1F
100
AcDbEntity
  8
0
  6
Continuous
 62
     7
370
    25
100
AcDbLine
 10
116.7140608506
 20
61.4722758704
 30
0.0
 11
116.7140608506
 21
71.0722758704
 31
0.0
  0
LINE
  5
342
330
1F
100
AcDbEntity
  8
0
  6
Continuous
 62
     7
370
    25
100
AcDbLine
 10
140.2433501725
 20
71.0722758704
 30
0.0
 11
116.7140608506
 21
71.0722758704
 31
0.0
  0
ARC
  5
343
330
1F
100
AcDbEntity
  8
0
  6
Continuous
 62
     7
370
    25
100
AcDbCircle
 10
140.2433501725
 20
68.0722758704
 30
0.0
 40
2.999999999999986
100
AcDbArc
 50
0.0
 51
90.0
  0
LINE
  5
344
330
1F
100
AcDbEntity
  8
0
  6
Continuous
 62
     7
370
    25
100
AcDbLine
 10
143.2433501725
 20
68.0722758704
 30
0.0
 11
143.2433501725
 21
67.0722758704
 31
0.0
  0
ARC
  5
345
330
1F
100
AcDbEntity
  8
0
  6
Continuous
 62
     7
370
    25
100
AcDbCircle
 10
146.2433501725
 20
67.0722758704
 30
0.0
 40
3.0
100
AcDbArc
 50
180.0
 51
270.0
  0
LINE
  5
346
330
1F
100
AcDbEntity
  8
0
  6
Continuous
 62
     7
370
    25
100
AcDbLine
 10
146.2433501725
 20
64.0722758704
 30
0.0
 11
158.2433501725
 21
64.0722758704
 31
0.0
  0
ARC
  5
347
330
1F
100
AcDbEntity
  8
0
  6
Continuous
 62
     7
370
    25
100
AcDbCircle
 10
158.2433501725
 20
67.0722758704
 30
0.0
 40
3.0
100
AcDbArc
 50
270.0
 51
312.3694630984
  0
SPLINE
  5
348
330
1F
100
AcDbEntity
  8
0
  6
Continuous
 62
     7
370
    25
100
AcDbSpline
210
0.0
220
0.0
230
1.0
 70
     8
 71
     3
 72
    20
 73
    16
 74
     0
 42
0.000000001
 43
0.00000001
 40
0.0
 40
0.0
 40
0.0
 40
0.0
 40
0.125
 40
0.125
 40
0.2499999999999999
 40
0.2499999999999999
 40
0.3749999999999999
 40
0.3749999999999999
 40
0.4999999999999999
 40
0.4999999999999999
 40
0.7499999999999998
 40
0.7499999999999998
 40
0.8749999999999998
 40
0.8749999999999998
 40
1.0
 40
1.0
 40
1.0
 40
1.0
 10
117.6433501724775
 20
59.07227587043354
 30
0.0
 10
117.6043094416228
 20
59.07227587043354
 30
0.0
 10
117.5657907374231
 20
59.08781243090839
 30
0.0
 10
117.4883839861151
 20
59.14913078286898
 30
0.0
 10
117.4492395681285
 20
59.19555452845578
 30
0.0
 10
117.3720888142134
 20
59.31550539860991
 30
0.0
 10
117.3337612324724
 20
59.38911004289332
 30
0.0
 10
117.2562149119958
 20
59.56384040898896
 30
0.0
 10
117.217238704327
 20
59.6646910378905
 30
0.0
 10
117.101743847882
 20
59.99597631787444
 30
0.0
 10
117.023831404212
 20
60.26365647925832
 30
0.0
 10
116.908351478811
 20
60.69633050531374
 30
0.0
 10
116.869485682946
 20
60.84784859216488
 30
0.0
 10
116.7917113492775
 20
61.15727434955101
 30
0.0
 10
116.7531015823228
 20
61.31389667924479
 30
0.0
 10
116.7140608505962
 20
61.47227587043352
 30
0.0
  0
LINE
  5
349
330
1F
100
AcDbEntity
  8
0
  6
Continuous
 62
     7
370
    25
100
AcDbLine
 10
707.8433501725
 20
59.0722758704
 30
0.0
 11
117.6433501725
 21
59.0722758704
 31
0.0
  0
SPLINE
  5
34A
330
1F
100
AcDbEntity
  8
0
  6
Continuous
 62
     7
370
    25
100
AcDbSpline
210
0.0
220
0.0
230
1.0
 70
     8
 71
     3
 72
    20
 73
    16
 74
     0
 42
0.000000001
 43
0.00000001
 40
0.0
 40
0.0
 40
0.0
 40
0.0
 40
0.1249999999999983
 40
0.1249999999999983
 40
0.2499999999999964
 40
0.2499999999999964
 40
0.3749999999999945
 40
0.3749999999999945
 40
0.4999999999999926
 40
0.4999999999999926
 40
0.7499999999999963
 40
0.7499999999999963
 40
0.8749999999999981
 40
0.8749999999999981
 40
1.0
 40
1.0
 40
1.0
 40
1.0
 10
708.7726394943587
 20
61.4722758704335
 30
0.0
 10
708.7335987635043
 20
61.3138966827828
 30
0.0
 10
708.6950800593044
 20
61.15765095809111
 30
0.0
 10
708.6176733079964
 20
60.84965910867452
 30
0.0
 10
708.5785288900099
 20
60.69701500120337
 30
0.0
 10
708.5013781360947
 20
60.40793071201632
 30
0.0
 10
708.4630505543537
 20
60.27012617383227
 30
0.0
 10
708.3855042338771
 20
60.00850749819337
 30
0.0
 10
708.3465280262085
 20
59.88576119151072
 30
0.0
 10
708.2310331697634
 20
59.55443681456303
 30
0.0
 10
708.1531207260931
 20
59.37542569053482
 30
0.0
 10
708.0376408006923
 20
59.19581059115394
 30
0.0
 10
707.9987750048273
 20
59.14956624228622
 30
0.0
 10
707.921000671159
 20
59.087812936275
 30
0.0
 10
707.8823909042043
 20
59.07227587043355
 30
0.0
 10
707.8433501724775
 20
59.07227587043354
 30
0.0
  0
LINE
  5
34B
330
1F
100
AcDbEntity
  8
0
  6
Continuous
 62
     7
370
    25
100
AcDbLine
 10
115.2433501725
 20
61.4722758704
 30
0.0
 11
116.6433501725
 21
61.4722758704
 31
0.0
  0
SPLINE
  5
34C
330
1F
100
AcDbEntity
  8
0
  6
Continuous
 62
     7
370
    25
100
AcDbSpline
210
0.0
220
0.0
230
1.0
 70
     8
 71
     3
 72
     9
 73
     5
 74
     0
 42
0.000000001
 43
0.00000001
 40
0.0
 40
0.0
 40
0.0
 40
0.0
 40
0.6784508005729719
 40
0.9999999999999999
 40
0.9999999999999999
 40
0.9999999999999999
 40
0.9999999999999999
 10
116.6433501724775
 20
61.47227587043353
 30
0.0
 10
116.656599742942
 20
61.32156866598025
 30
0.0
 10
116.6761288973823
 20
61.09943435008584
 30
0.0
 10
116.8169765510211
 20
60.93260124519669
 30
0.0
 10
116.8622660012899
 20
60.87895619388164
 30
0.0
  0
SPLINE
  5
34D
330
1F
100
AcDbEntity
  8
0
  6
Continuous
 62
     7
370
    25
100
AcDbSpline
210
0.0
220
0.0
230
1.0
 70
     8
 71
     3
 72
    20
 73
    16
 74
     0
 42
0.000000001
 43
0.00000001
 40
0.0
 40
0.0
 40
0.0
 40
0.0
 40
0.1249999999999996
 40
0.1249999999999996
 40
0.2499999999999993
 40
0.2499999999999993
 40
0.374999999999999
 40
0.374999999999999
 40
0.4999999999999987
 40
0.4999999999999987
 40
0.7500000000000007
 40
0.7500000000000007
 40
0.8750000000000003
 40
0.8750000000000003
 40
1.0
 40
1.0
 40
1.0
 40
1.0
 10
115.2433501724775
 20
61.47227587043353
 30
0.0
 10
115.2433501724774
 20
61.31389668278283
 30
0.0
 10
115.2588867329523
 20
61.15765095809115
 30
0.0
 10
115.320205084913
 20
60.84965910867453
 30
0.0
 10
115.3666288304999
 20
60.69701500120343
 30
0.0
 10
115.4865797006541
 20
60.40793071201636
 30
0.0
 10
115.5601843449373
 20
60.27012617383227
 30
0.0
 10
115.7349147110329
 20
60.00850749819337
 30
0.0
 10
115.8357653399346
 20
59.88576119151073
 30
0.0
 10
116.1670506199185
 20
59.55443681456305
 30
0.0
 10
116.4347307813024
 20
59.3754256905348
 30
0.0
 10
116.8674048073578
 20
59.19581059115394
 30
0.0
 10
117.0189228942088
 20
59.14956624228621
 30
0.0
 10
117.3283486515949
 20
59.08781293627499
 30
0.0
 10
117.4849709812887
 20
59.07227587043354
 30
0.0
 10
117.6433501724775
 20
59.07227587043354
 30
0.0
  0
SPLINE
  5
34E
330
1F
100
AcDbEntity
  8
0
  6
Continuous
 62
     7
370
    25
100
AcDbSpline
210
0.0
220
0.0
230
1.0
 70
     8
 71
     3
 72
    20
 73
    16
 74
     0
 42
0.000000001
 43
0.00000001
 40
0.0
 40
0.0
 40
0.0
 40
0.0
 40
0.1249999999999939
 40
0.1249999999999939
 40
0.2499999999999879
 40
0.2499999999999879
 40
0.3749999999999818
 40
0.3749999999999818
 40
0.4999999999999758
 40
0.4999999999999758
 40
0.7499999999999959
 40
0.7499999999999959
 40
0.8749999999999979
 40
0.8749999999999979
 40
1.0
 40
1.0
 40
1.0
 40
1.0
 10
707.8433501724775
 20
59.07227587043354
 30
0.0
 10
708.0017293601281
 20
59.07227587043354
 30
0.0
 10
708.1579750848197
 20
59.08781243090841
 30
0.0
 10
708.4659669342362
 20
59.149130782869
 30
0.0
 10
708.6186110417076
 20
59.19555452845578
 30
0.0
 10
708.9076953308947
 20
59.31550539860991
 30
0.0
 10
709.0454998690786
 20
59.38911004289335
 30
0.0
 10
709.3071185447176
 20
59.56384040898898
 30
0.0
 10
709.4298648514001
 20
59.66469103789058
 30
0.0
 10
709.7611892283477
 20
59.9959763178745
 30
0.0
 10
709.9402003523762
 20
60.26365647925835
 30
0.0
 10
710.119815451757
 20
60.69633050531375
 30
0.0
 10
710.1660598006249
 20
60.84784859216488
 30
0.0
 10
710.2278131066362
 20
61.15727434955101
 30
0.0
 10
710.2433501724776
 20
61.31389667924479
 30
0.0
 10
710.2433501724774
 20
61.47227587043353
 30
0.0
  0
SPLINE
  5
34F
330
1F
100
AcDbEntity
  8
0
  6
Continuous
 62
     7
370
    25
100
AcDbSpline
210
0.0
220
0.0
230
1.0
 70
     8
 71
     3
 72
     9
 73
     5
 74
     0
 42
0.000000001
 43
0.00000001
 40
0.0
 40
0.0
 40
0.0
 40
0.0
 40
0.4825784287293433
 40
1.0
 40
1.0
 40
1.0
 40
1.0
 10
708.6195204044238
 20
60.85973613125538
 30
0.0
 10
708.6833285974852
 20
60.9478704725718
 30
0.0
 10
708.8155520647246
 20
61.13050263362482
 30
0.0
 10
708.833871369181
 20
61.35573551766938
 30
0.0
 10
708.8433501724775
 20
61.47227587043353
 30
0.0
  0
LINE
  5
350
330
1F
100
AcDbEntity
  8
0
  6
Continuous
 62
     7
370
    25
100
AcDbLine
 10
710.2433501725
 20
61.4722758704
 30
0.0
 11
708.8433501725
 21
61.4722758704
 31
0.0
  0
LINE
  5
351
330
1F
100
AcDbEntity
  8
0
  6
Continuous
 62
     7
370
    25
100
AcDbLine
 10
708.8433501725
 20
61.4722758704
 30
0.0
 11
708.8433501725
 21
71.0722758704
 31
0.0
  0
LINE
  5
352
330
1F
100
AcDbEntity
  8
0
  6
Continuous
 62
     7
370
    25
100
AcDbLine
 10
710.2433501725
 20
71.0722758704
 30
0.0
 11
708.8433501725
 21
71.0722758704
 31
0.0
  0
LINE
  5
353
330
1F
100
AcDbEntity
  8
0
  6
Continuous
 62
     7
370
    25
100
AcDbLine
 10
710.2433501725
 20
61.4722758704
 30
0.0
 11
710.2433501725
 21
71.0722758704
 31
0.0
  0
LINE
  5
354
330
1F
100
AcDbEntity
  8
0
  6
Continuous
 62
     7
370
    25
100
AcDbLine
 10
116.6433501725
 20
61.4722758704
 30
0.0
 11
116.6433501725
 21
71.0722758704
 31
0.0
  0
LINE
  5
355
330
1F
100
AcDbEntity
  8
0
  6
Continuous
 62
     7
370
    25
100
AcDbLine
 10
115.2433501725
 20
71.0722758704
 30
0.0
 11
116.6433501725
 21
71.0722758704
 31
0.0
  0
LINE
  5
356
330
1F
100
AcDbEntity
  8
0
  6
Continuous
 62
     7
370
    25
100
AcDbLine
 10
115.2433501725
 20
61.4722758704
 30
0.0
 11
115.2433501725
 21
71.0722758704
 31
0.0
  0
LINE
  5
357
330
1F
100
AcDbEntity
  8
0
  6
Continuous
 62
     7
370
    25
100
AcDbLine
 10
664.9433501725
 20
95.1722758704
 30
0.0
 11
664.9433501725
 21
98.1722758704
 31
0.0
  0
LINE
  5
358
330
1F
100
AcDbEntity
  8
0
  6
Continuous
 62
     7
370
    25
100
AcDbLine
 10
664.9433501725
 20
98.1722758704
 30
0.0
 11
665.7433501725
 21
98.1722758704
 31
0.0
  0
LINE
  5
359
330
1F
100
AcDbEntity
  8
0
  6
Continuous
 62
     7
370
    25
100
AcDbLine
 10
665.7433501725
 20
98.1722758704
 30
0.0
 11
665.7433501725
 21
95.1722758704
 31
0.0
  0
LINE
  5
35A
330
1F
100
AcDbEntity
  8
0
  6
Continuous
 62
     7
370
    25
100
AcDbLine
 10
665.7433501725
 20
95.1722758704
 30
0.0
 11
665.7433501725
 21
78.1722758704
 31
0.0
  0
LINE
  5
35B
330
1F
100
AcDbEntity
  8
0
  6
Continuous
 62
     7
370
    25
100
AcDbLine
 10
664.9433501725
 20
95.1722758704
 30
0.0
 11
664.9433501725
 21
78.1722758704
 31
0.0
  0
LINE
  5
35C
330
1F
100
AcDbEntity
  8
0
  6
Continuous
 62
     7
370
    25
100
AcDbLine
 10
160.5433501725
 20
78.1722758704
 30
0.0
 11
160.5433501725
 21
95.1722758704
 31
0.0
  0
LINE
  5
35D
330
1F
100
AcDbEntity
  8
0
  6
Continuous
 62
     7
370
    25
100
AcDbLine
 10
159.7433501725
 20
78.1722758704
 30
0.0
 11
159.7433501725
 21
95.1722758704
 31
0.0
  0
LINE
  5
35E
330
1F
100
AcDbEntity
  8
0
  6
Continuous
 62
     7
370
    25
100
AcDbLine
 10
159.7433501725
 20
98.1722758704
 30
0.0
 11
160.5433501725
 21
98.1722758704
 31
0.0
  0
LINE
  5
35F
330
1F
100
AcDbEntity
  8
0
  6
Continuous
 62
     7
370
    25
100
AcDbLine
 10
160.5433501725
 20
98.1722758704
 30
0.0
 11
160.5433501725
 21
95.1722758704
 31
0.0
  0
LINE
  5
360
330
1F
100
AcDbEntity
  8
0
  6
Continuous
 62
     7
370
    25
100
AcDbLine
 10
159.7433501725
 20
95.1722758704
 30
0.0
 11
159.7433501725
 21
98.1722758704
 31
0.0
  0
LINE
  5
361
330
1F
100
AcDbEntity
  8
0
  6
Continuous
 62
     7
370
    25
100
AcDbLine
 10
160.5433501725
 20
75.1722758704
 30
0.0
 11
159.7433501725
 21
75.1722758704
 31
0.0
  0
LINE
  5
362
330
1F
100
AcDbEntity
  8
0
  6
Continuous
 62
     7
370
    25
100
AcDbLine
 10
160.5433501725
 20
78.1722758704
 30
0.0
 11
160.5433501725
 21
75.1722758704
 31
0.0
  0
LINE
  5
363
330
1F
100
AcDbEntity
  8
0
  6
Continuous
 62
     7
370
    25
100
AcDbLine
 10
159.7433501725
 20
75.1722758704
 30
0.0
 11
159.7433501725
 21
78.1722758704
 31
0.0
  0
LINE
  5
364
330
1F
100
AcDbEntity
  8
0
  6
Continuous
 62
     7
370
    25
100
AcDbLine
 10
665.7433501725
 20
75.1722758704
 30
0.0
 11
664.9433501725
 21
75.1722758704
 31
0.0
  0
LINE
  5
365
330
1F
100
AcDbEntity
  8
0
  6
Continuous
 62
     7
370
    25
100
AcDbLine
 10
665.7433501725
 20
78.1722758704
 30
0.0
 11
665.7433501725
 21
75.1722758704
 31
0.0
  0
LINE
  5
366
330
1F
100
AcDbEntity
  8
0
  6
Continuous
 62
     7
370
    25
100
AcDbLine
 10
664.9433501725
 20
75.1722758704
 30
0.0
 11
664.9433501725
 21
78.1722758704
 31
0.0
  0
LINE
  5
367
330
1F
100
AcDbEntity
  8
0
  6
Continuous
 62
     7
370
    25
100
AcDbLine
 10
662.7433501725
 20
77.9722758704
 30
0.0
 11
162.7433501725
 21
77.9722758704
 31
0.0
  0
LINE
  5
368
330
1F
100
AcDbEntity
  8
0
  6
Continuous
 62
     7
370
    25
100
AcDbLine
 10
662.7433501725
 20
77.1722758704
 30
0.0
 11
662.7433501725
 21
77.9722758704
 31
0.0
  0
LINE
  5
369
330
1F
100
AcDbEntity
  8
0
  6
Continuous
 62
     7
370
    25
100
AcDbLine
 10
162.7433501725
 20
77.1722758704
 30
0.0
 11
162.7433501725
 21
77.9722758704
 31
0.0
  0
LINE
  5
36A
330
1F
100
AcDbEntity
  8
0
  6
Continuous
 62
     7
370
    25
100
AcDbLine
 10
458.2433501725
 20
118.0768892622
 30
0.0
 11
458.2433501725
 21
111.5591978086
 31
0.0
  0
ARC
  5
36B
330
1F
100
AcDbEntity
  8
0
  6
Continuous
 62
     7
370
    25
100
AcDbCircle
 10
605.2433501725
 20
118.0768892622
 30
0.0
 40
3.0
100
AcDbArc
 50
0.0
 51
90.0
  0
LINE
  5
36C
330
1F
100
AcDbEntity
  8
0
  6
Continuous
 62
     7
370
    25
100
AcDbLine
 10
608.2433501725
 20
111.5591978086
 30
0.0
 11
608.2433501725
 21
118.0768892622
 31
0.0
  0
ARC
  5
36D
330
1F
100
AcDbEntity
  8
0
  6
Continuous
 62
     7
370
    25
100
AcDbCircle
 10
461.2433501725
 20
118.0768892622
 30
0.0
 40
3.000000000000057
100
AcDbArc
 50
90.0
 51
180.0
  0
LINE
  5
36E
330
1F
100
AcDbEntity
  8
0
  6
Continuous
 62
     7
370
    25
100
AcDbLine
 10
605.2433501725
 20
121.0768892622
 30
0.0
 11
461.2433501725
 21
121.0768892622
 31
0.0
  0
LINE
  5
36F
330
1F
100
AcDbEntity
  8
0
  6
Continuous
 62
     7
370
    25
100
AcDbLine
 10
217.2433501725
 20
118.0768892622
 30
0.0
 11
217.2433501725
 21
111.5591978086
 31
0.0
  0
LINE
  5
370
330
1F
100
AcDbEntity
  8
0
  6
Continuous
 62
     7
370
    25
100
AcDbLine
 10
367.2433501725
 20
111.5591978086
 30
0.0
 11
367.2433501725
 21
118.0768892622
 31
0.0
  0
ARC
  5
371
330
1F
100
AcDbEntity
  8
0
  6
Continuous
 62
     7
370
    25
100
AcDbCircle
 10
364.2433501725
 20
118.0768892622
 30
0.0
 40
3.0
100
AcDbArc
 50
0.0
 51
90.0
  0
ARC
  5
372
330
1F
100
AcDbEntity
  8
0
  6
Continuous
 62
     7
370
    25
100
AcDbCircle
 10
220.2433501725
 20
118.0768892622
 30
0.0
 40
3.0
100
AcDbArc
 50
90.0
 51
180.0
  0
LINE
  5
373
330
1F
100
AcDbEntity
  8
0
  6
Continuous
 62
     7
370
    25
100
AcDbLine
 10
364.2433501725
 20
121.0768892622
 30
0.0
 11
220.2433501725
 21
121.0768892622
 31
0.0
  0
LINE
  5
374
330
1F
100
AcDbEntity
  8
0
  6
Continuous
 62
     7
370
    25
100
AcDbLine
 10
217.2433501725
 20
110.6591978086
 30
0.0
 11
217.2433501725
 21
111.5591978086
 31
0.0
  0
LINE
  5
375
330
1F
100
AcDbEntity
  8
0
  6
Continuous
 62
     7
370
    25
100
AcDbLine
 10
367.2433501725
 20
111.5591978086
 30
0.0
 11
367.2433501725
 21
110.6591978086
 31
0.0
  0
LINE
  5
376
330
1F
100
AcDbEntity
  8
0
  6
Continuous
 62
     7
370
    25
100
AcDbLine
 10
458.2433501725
 20
110.6591978086
 30
0.0
 11
458.2433501725
 21
111.5591978086
 31
0.0
  0
LINE
  5
377
330
1F
100
AcDbEntity
  8
0
  6
Continuous
 62
     7
370
    25
100
AcDbLine
 10
608.2433501725
 20
111.5591978086
 30
0.0
 11
608.2433501725
 21
110.6591978086
 31
0.0
  0
LINE
  5
378
330
1F
100
AcDbEntity
  8
0
  6
Continuous
 62
     7
370
    25
100
AcDbLine
 10
458.2433501725
 20
104.034326678
 30
0.0
 11
458.2433501725
 21
110.6591978086
 31
0.0
  0
LINE
  5
379
330
1F
100
AcDbEntity
  8
0
  6
Continuous
 62
     7
370
    25
100
AcDbLine
 10
608.2433501725
 20
110.6591978086
 30
0.0
 11
608.2433501725
 21
104.034326678
 31
0.0
  0
LINE
  5
37A
330
1F
100
AcDbEntity
  8
0
  6
Continuous
 62
     7
370
    25
100
AcDbLine
 10
217.2433501725
 20
104.034326678
 30
0.0
 11
217.2433501725
 21
110.6591978086
 31
0.0
  0
LINE
  5
37B
330
1F
100
AcDbEntity
  8
0
  6
Continuous
 62
     7
370
    25
100
AcDbLine
 10
367.2433501725
 20
110.6591978086
 30
0.0
 11
367.2433501725
 21
104.034326678
 31
0.0
  0
LINE
  5
37C
330
1F
100
AcDbEntity
  8
0
  6
Continuous
 62
     7
370
    25
100
AcDbLine
 10
160.5433501725
 20
79.1722758704
 30
0.0
 11
161.5433501725
 21
79.1722758704
 31
0.0
  0
LINE
  5
37D
330
1F
100
AcDbEntity
  8
0
  6
Continuous
 62
     7
370
    25
100
AcDbLine
 10
161.5433501725
 20
98.1722758704
 30
0.0
 11
160.5433501725
 21
98.1722758704
 31
0.0
  0
LINE
  5
37E
330
1F
100
AcDbEntity
  8
0
  6
Continuous
 62
     7
370
    25
100
AcDbLine
 10
663.9433501725
 20
79.1722758704
 30
0.0
 11
664.9433501725
 21
79.1722758704
 31
0.0
  0
LINE
  5
37F
330
1F
100
AcDbEntity
  8
0
  6
Continuous
 62
     7
370
    25
100
AcDbLine
 10
664.9433501725
 20
98.1722758704
 30
0.0
 11
663.9433501725
 21
98.1722758704
 31
0.0
  0
LINE
  5
380
330
1F
100
AcDbEntity
  8
0
  6
Continuous
 62
     7
370
    25
100
AcDbLine
 10
162.7433501725
 20
78.9722758704
 30
0.0
 11
162.7433501725
 21
77.9722758704
 31
0.0
  0
LINE
  5
381
330
1F
100
AcDbEntity
  8
0
  6
Continuous
 62
     7
370
    25
100
AcDbLine
 10
662.7433501725
 20
77.9722758704
 30
0.0
 11
662.7433501725
 21
78.9722758704
 31
0.0
  0
LINE
  5
382
330
1F
100
AcDbEntity
  8
0
  6
Continuous
 62
     7
370
    25
100
AcDbLine
 10
217.2433501725
 20
104.034326678
 30
0.0
 11
217.2433501725
 21
103.534326678
 31
0.0
  0
LINE
  5
383
330
1F
100
AcDbEntity
  8
0
  6
Continuous
 62
     7
370
    25
100
AcDbLine
 10
367.2433501725
 20
103.534326678
 30
0.0
 11
367.2433501725
 21
104.034326678
 31
0.0
  0
LINE
  5
384
330
1F
100
AcDbEntity
  8
0
  6
Continuous
 62
     7
370
    25
100
AcDbLine
 10
458.2433501725
 20
104.034326678
 30
0.0
 11
458.2433501725
 21
103.534326678
 31
0.0
  0
LINE
  5
385
330
1F
100
AcDbEntity
  8
0
  6
Continuous
 62
     7
370
    25
100
AcDbLine
 10
608.2433501725
 20
103.534326678
 30
0.0
 11
608.2433501725
 21
104.034326678
 31
0.0
  0
LINE
  5
386
330
1F
100
AcDbEntity
  8
0
  6
Continuous
 62
     7
370
    25
100
AcDbLine
 10
162.7433501725
 20
79.1722758704
 30
0.0
 11
162.7433501725
 21
78.9722758704
 31
0.0
  0
LINE
  5
387
330
1F
100
AcDbEntity
  8
0
  6
Continuous
 62
     7
370
    25
100
AcDbLine
 10
161.5433501725
 20
79.1722758704
 30
0.0
 11
162.7433501725
 21
79.1722758704
 31
0.0
  0
LINE
  5
388
330
1F
100
AcDbEntity
  8
0
  6
Continuous
 62
     7
370
    25
100
AcDbLine
 10
164.7433501725
 20
98.1722758704
 30
0.0
 11
161.5433501725
 21
98.1722758704
 31
0.0
  0
LINE
  5
389
330
1F
100
AcDbEntity
  8
0
  6
Continuous
 62
     7
370
    25
100
AcDbLine
 10
164.7433501725
 20
119.1722758704
 30
0.0
 11
164.7433501725
 21
98.1722758704
 31
0.0
  0
ARC
  5
38A
330
1F
100
AcDbEntity
  8
0
  6
Continuous
 62
     7
370
    25
100
AcDbCircle
 10
167.7433501725
 20
119.1722758704
 30
0.0
 40
3.0
100
AcDbArc
 50
90.0
 51
180.0
  0
LINE
  5
38B
330
1F
100
AcDbEntity
  8
0
  6
Continuous
 62
     7
370
    25
100
AcDbLine
 10
211.7433501725
 20
122.1722758704
 30
0.0
 11
167.7433501725
 21
122.1722758704
 31
0.0
  0
ARC
  5
38C
330
1F
100
AcDbEntity
  8
0
  6
Continuous
 62
     7
370
    25
100
AcDbCircle
 10
211.7433501725
 20
119.1722758704
 30
0.0
 40
3.0
100
AcDbArc
 50
0.0
 51
90.0
  0
LINE
  5
38D
330
1F
100
AcDbEntity
  8
0
  6
Continuous
 62
     7
370
    25
100
AcDbLine
 10
214.7433501725
 20
119.1722758704
 30
0.0
 11
214.7433501725
 21
103.0422758704
 31
0.0
  0
LINE
  5
38E
330
1F
100
AcDbEntity
  8
0
  6
Continuous
 62
     7
370
    25
100
AcDbLine
 10
214.7433501725
 20
103.0422758704
 30
0.0
 11
217.2433501725
 21
103.0422758704
 31
0.0
  0
LINE
  5
38F
330
1F
100
AcDbEntity
  8
0
  6
Continuous
 62
     7
370
    25
100
AcDbLine
 10
217.2433501725
 20
103.534326678
 30
0.0
 11
217.2433501725
 21
103.0422758704
 31
0.0
  0
LINE
  5
390
330
1F
100
AcDbEntity
  8
0
  6
Continuous
 62
     7
370
    25
100
AcDbLine
 10
367.2433501725
 20
103.534326678
 30
0.0
 11
367.2433501725
 21
103.0422758704
 31
0.0
  0
LINE
  5
391
330
1F
100
AcDbEntity
  8
0
  6
Continuous
 62
     7
370
    25
100
AcDbLine
 10
367.2433501725
 20
103.0422758704
 30
0.0
 11
369.7433501725
 21
103.0422758704
 31
0.0
  0
LINE
  5
392
330
1F
100
AcDbEntity
  8
0
  6
Continuous
 62
     7
370
    25
100
AcDbLine
 10
369.7433501725
 20
103.0422758704
 30
0.0
 11
369.7433501725
 21
119.1722758704
 31
0.0
  0
ARC
  5
393
330
1F
100
AcDbEntity
  8
0
  6
Continuous
 62
     7
370
    25
100
AcDbCircle
 10
372.7433501725
 20
119.1722758704
 30
0.0
 40
3.0
100
AcDbArc
 50
90.0
 51
180.0
  0
LINE
  5
394
330
1F
100
AcDbEntity
  8
0
  6
Continuous
 62
     7
370
    25
100
AcDbLine
 10
452.7433501725
 20
122.1722758704
 30
0.0
 11
372.7433501725
 21
122.1722758704
 31
0.0
  0
ARC
  5
395
330
1F
100
AcDbEntity
  8
0
  6
Continuous
 62
     7
370
    25
100
AcDbCircle
 10
452.7433501725
 20
119.1722758704
 30
0.0
 40
3.0
100
AcDbArc
 50
0.0
 51
90.0
  0
LINE
  5
396
330
1F
100
AcDbEntity
  8
0
  6
Continuous
 62
     7
370
    25
100
AcDbLine
 10
455.7433501725
 20
119.1722758704
 30
0.0
 11
455.7433501725
 21
103.0422758704
 31
0.0
  0
LINE
  5
397
330
1F
100
AcDbEntity
  8
0
  6
Continuous
 62
     7
370
    25
100
AcDbLine
 10
455.7433501725
 20
103.0422758704
 30
0.0
 11
458.2433501725
 21
103.0422758704
 31
0.0
  0
LINE
  5
398
330
1F
100
AcDbEntity
  8
0
  6
Continuous
 62
     7
370
    25
100
AcDbLine
 10
458.2433501725
 20
103.534326678
 30
0.0
 11
458.2433501725
 21
103.0422758704
 31
0.0
  0
LINE
  5
399
330
1F
100
AcDbEntity
  8
0
  6
Continuous
 62
     7
370
    25
100
AcDbLine
 10
608.2433501725
 20
103.534326678
 30
0.0
 11
608.2433501725
 21
103.0422758704
 31
0.0
  0
LINE
  5
39A
330
1F
100
AcDbEntity
  8
0
  6
Continuous
 62
     7
370
    25
100
AcDbLine
 10
608.2433501725
 20
103.0422758704
 30
0.0
 11
610.7433501725
 21
103.0422758704
 31
0.0
  0
LINE
  5
39B
330
1F
100
AcDbEntity
  8
0
  6
Continuous
 62
     7
370
    25
100
AcDbLine
 10
610.7433501725
 20
103.0422758704
 30
0.0
 11
610.7433501725
 21
119.1722758704
 31
0.0
  0
ARC
  5
39C
330
1F
100
AcDbEntity
  8
0
  6
Continuous
 62
     7
370
    25
100
AcDbCircle
 10
613.7433501725
 20
119.1722758704
 30
0.0
 40
3.000000000000227
100
AcDbArc
 50
90.0
 51
180.0
  0
LINE
  5
39D
330
1F
100
AcDbEntity
  8
0
  6
Continuous
 62
     7
370
    25
100
AcDbLine
 10
657.7433501725
 20
122.1722758704
 30
0.0
 11
613.7433501725
 21
122.1722758704
 31
0.0
  0
ARC
  5
39E
330
1F
100
AcDbEntity
  8
0
  6
Continuous
 62
     7
370
    25
100
AcDbCircle
 10
657.7433501725
 20
119.1722758704
 30
0.0
 40
3.0
100
AcDbArc
 50
0.0
 51
90.0
  0
LINE
  5
39F
330
1F
100
AcDbEntity
  8
0
  6
Continuous
 62
     7
370
    25
100
AcDbLine
 10
660.7433501725
 20
98.1722758704
 30
0.0
 11
660.7433501725
 21
119.1722758704
 31
0.0
  0
LINE
  5
3A0
330
1F
100
AcDbEntity
  8
0
  6
Continuous
 62
     7
370
    25
100
AcDbLine
 10
663.9433501725
 20
98.1722758704
 30
0.0
 11
660.7433501725
 21
98.1722758704
 31
0.0
  0
LINE
  5
3A1
330
1F
100
AcDbEntity
  8
0
  6
Continuous
 62
     7
370
    25
100
AcDbLine
 10
662.7433501725
 20
79.1722758704
 30
0.0
 11
663.9433501725
 21
79.1722758704
 31
0.0
  0
LINE
  5
3A2
330
1F
100
AcDbEntity
  8
0
  6
Continuous
 62
     7
370
    25
100
AcDbLine
 10
662.7433501725
 20
78.9722758704
 30
0.0
 11
662.7433501725
 21
79.1722758704
 31
0.0
  0
SPLINE
  5
3A3
330
1F
100
AcDbEntity
  8
0
  6
Continuous
 62
     7
370
    25
100
AcDbSpline
210
0.0
220
0.0
230
1.0
 70
     8
 71
     3
 72
    12
 73
     8
 74
     0
 42
0.000000001
 43
0.00000001
 40
0.0
 40
0.0
 40
0.0
 40
0.0
 40
0.5000000000000077
 40
0.5000000000000077
 40
0.7500000000000038
 40
0.7500000000000038
 40
1.0
 40
1.0
 40
1.0
 40
1.0
 10
647.3790898953345
 20
80.7575958850485
 30
0.0
 10
646.7625595054143
 20
80.94809017447201
 30
0.0
 10
646.1367916329644
 20
81.0697645875344
 30
0.0
 10
645.1737299235796
 20
81.07042077806561
 30
0.0
 10
644.85303688845
 20
81.04058677627124
 30
0.0
 10
644.2230786384539
 20
80.93165690616364
 30
0.0
 10
643.9118493704229
 20
80.85296171910076
 30
0.0
 10
643.6032000401384
 20
80.75759588504802
 30
0.0
  0
LINE
  5
3A4
330
1F
100
AcDbEntity
  8
0
  6
Continuous
 62
     7
370
    25
100
AcDbLine
 10
647.3790898953
 20
80.757595885
 30
0.0
 11
647.3790898953
 21
78.5869558558
 31
0.0
  0
SPLINE
  5
3A5
330
1F
100
AcDbEntity
  8
0
  6
Continuous
 62
     7
370
    25
100
AcDbSpline
210
0.0
220
0.0
230
1.0
 70
     8
 71
     3
 72
    12
 73
     8
 74
     0
 42
0.000000001
 43
0.00000001
 40
0.0
 40
0.0
 40
0.0
 40
0.0
 40
0.4999999999999887
 40
0.4999999999999887
 40
0.7499999999999943
 40
0.7499999999999943
 40
1.0
 40
1.0
 40
1.0
 40
1.0
 10
643.6032000401383
 20
78.58695585581854
 30
0.0
 10
644.2197304300586
 20
78.39646156639502
 30
0.0
 10
644.8454983025084
 20
78.27478715333267
 30
0.0
 10
645.8085600118933
 20
78.27413096280142
 30
0.0
 10
646.129253047023
 20
78.3039649645958
 30
0.0
 10
646.7592112970189
 20
78.4128948347034
 30
0.0
 10
647.0704405650498
 20
78.49159002176627
 30
0.0
 10
647.3790898953345
 20
78.58695585581903
 30
0.0
  0
LINE
  5
3A6
330
1F
100
AcDbEntity
  8
0
  6
Continuous
 62
     7
370
    25
100
AcDbLine
 10
643.6032000401
 20
80.757595885
 30
0.0
 11
643.6032000401
 21
78.5869558558
 31
0.0
  0
SPLINE
  5
3A7
330
1F
100
AcDbEntity
  8
0
  6
Continuous
 62
     7
370
    25
100
AcDbSpline
210
0.0
220
0.0
230
1.0
 70
     8
 71
     3
 72
    14
 73
    10
 74
     0
 42
0.000000001
 43
0.00000001
 40
0.0
 40
0.0
 40
0.0
 40
0.0
 40
0.25
 40
0.25
 40
0.5
 40
0.5
 40
0.75
 40
0.75
 40
1.0
 40
1.0
 40
1.0
 40
1.0
 10
647.3790898953343
 20
80.75759588504752
 30
0.0
 10
647.4311476042252
 20
80.85247049435813
 30
0.0
 10
647.4844811425532
 20
80.9320754192339
 30
0.0
 10
647.5914131501814
 20
81.04091203412811
 30
0.0
 10
647.6451665166289
 20
81.0702356398186
 30
0.0
 10
647.7533455680526
 20
81.07017085807301
 30
0.0
 10
647.8081742646406
 20
81.04001466474665
 30
0.0
 10
647.9150812473005
 20
80.93042946338095
 30
0.0
 10
647.9675027622728
 20
80.85188648957877
 30
0.0
 10
648.019240027675
 20
80.75759588504752
 30
0.0
  0
SPLINE
  5
3A8
330
1F
100
AcDbEntity
  8
0
  6
Continuous
 62
     7
370
    25
100
AcDbSpline
210
0.0
220
0.0
230
1.0
 70
     8
 71
     3
 72
    12
 73
     8
 74
     0
 42
0.000000001
 43
0.00000001
 40
0.0
 40
0.0
 40
0.0
 40
0.0
 40
0.4999999999999921
 40
0.4999999999999921
 40
0.749999999999996
 40
0.749999999999996
 40
1.0
 40
1.0
 40
1.0
 40
1.0
 10
643.6032000401386
 20
80.7575958850485
 30
0.0
 10
643.0911938884336
 20
80.94809017447201
 30
0.0
 10
642.5715163421654
 20
81.06976458753438
 30
0.0
 10
641.7717284846028
 20
81.07042077806561
 30
0.0
 10
641.5054045377549
 20
81.04058677627123
 30
0.0
 10
640.9822470347535
 20
80.93165690616364
 30
0.0
 10
640.7237824036051
 20
80.85296171910076
 30
0.0
 10
640.4674603172831
 20
80.757595885048
 30
0.0
  0
SPLINE
  5
3A9
330
1F
100
AcDbEntity
  8
0
  6
Continuous
 62
     7
370
    25
100
AcDbSpline
210
0.0
220
0.0
230
1.0
 70
     8
 71
     3
 72
     9
 73
     5
 74
     0
 42
0.000000001
 43
0.00000001
 40
0.0
 40
0.0
 40
0.0
 40
0.0
 40
0.3722348086954455
 40
1.0
 40
1.0
 40
1.0
 40
1.0
 10
640.4674603172831
 20
80.75759588504751
 30
0.0
 10
640.4954265509548
 20
80.8095201938211
 30
0.0
 10
640.5705571755457
 20
80.94901361990762
 30
0.0
 10
640.6491010337023
 20
80.95702234601272
 30
0.0
 10
640.6984081338438
 20
80.9620499454882
 30
0.0
  0
LINE
  5
3AA
330
1F
100
AcDbEntity
  8
0
  6
Continuous
 62
     7
370
    25
100
AcDbLine
 10
647.3933501725
 20
81.2722758704
 30
0.0
 11
641.0933501725
 21
81.2722758704
 31
0.0
  0
SPLINE
  5
3AB
330
1F
100
AcDbEntity
  8
0
  6
Continuous
 62
     7
370
    25
100
AcDbSpline
210
0.0
220
0.0
230
1.0
 70
     8
 71
     3
 72
     9
 73
     5
 74
     0
 42
0.000000001
 43
0.00000001
 40
0.0
 40
0.0
 40
0.0
 40
0.0
 40
0.6277651913045468
 40
1.0
 40
1.0
 40
1.0
 40
1.0
 10
640.6984081338438
 20
78.38250179537886
 30
0.0
 10
640.6491010337023
 20
78.38752939485433
 30
0.0
 10
640.5705571755458
 20
78.39553812095946
 30
0.0
 10
640.4954265509548
 20
78.53503154704596
 30
0.0
 10
640.4674603172831
 20
78.58695585581954
 30
0.0
  0
SPLINE
  5
3AC
330
1F
100
AcDbEntity
  8
0
  6
Continuous
 62
     7
370
    25
100
AcDbSpline
210
0.0
220
0.0
230
1.0
 70
     8
 71
     3
 72
    12
 73
     8
 74
     0
 42
0.000000001
 43
0.00000001
 40
0.0
 40
0.0
 40
0.0
 40
0.0
 40
0.5000000000000078
 40
0.5000000000000078
 40
0.7500000000000039
 40
0.7500000000000039
 40
1.0
 40
1.0
 40
1.0
 40
1.0
 10
640.467460317283
 20
78.58695585581854
 30
0.0
 10
640.979466468988
 20
78.39646156639503
 30
0.0
 10
641.4991440152562
 20
78.27478715333267
 30
0.0
 10
642.2989318728186
 20
78.27413096280142
 30
0.0
 10
642.5652558196667
 20
78.30396496459582
 30
0.0
 10
643.0884133226681
 20
78.4128948347034
 30
0.0
 10
643.3468779538164
 20
78.49159002176629
 30
0.0
 10
643.6032000401385
 20
78.58695585581904
 30
0.0
  0
SPLINE
  5
3AD
330
1F
100
AcDbEntity
  8
0
  6
Continuous
 62
     7
370
    25
100
AcDbSpline
210
0.0
220
0.0
230
1.0
 70
     8
 71
     3
 72
    14
 73
    10
 74
     0
 42
0.000000001
 43
0.00000001
 40
0.0
 40
0.0
 40
0.0
 40
0.0
 40
0.25
 40
0.25
 40
0.5
 40
0.5
 40
0.75
 40
0.75
 40
1.0
 40
1.0
 40
1.0
 40
1.0
 10
647.3790898953343
 20
78.58695585581951
 30
0.0
 10
647.4311476042252
 20
78.49208124650892
 30
0.0
 10
647.4844811425532
 20
78.41247632163316
 30
0.0
 10
647.5914131501814
 20
78.30363970673892
 30
0.0
 10
647.6451665166289
 20
78.27431610104843
 30
0.0
 10
647.7533455680526
 20
78.27438088279402
 30
0.0
 10
647.8081742646406
 20
78.3045370761204
 30
0.0
 10
647.9150812473005
 20
78.4141222774861
 30
0.0
 10
647.9675027622728
 20
78.49266525128827
 30
0.0
 10
648.019240027675
 20
78.58695585581953
 30
0.0
  0
LINE
  5
3AE
330
1F
100
AcDbEntity
  8
0
  6
Continuous
 62
     7
370
    25
100
AcDbLine
 10
647.3933501725
 20
78.0722758704
 30
0.0
 11
641.0933501725
 21
78.0722758704
 31
0.0
  0
LINE
  5
3AF
330
1F
100
AcDbEntity
  8
0
  6
Continuous
 62
     7
370
    25
100
AcDbLine
 10
640.4674603173
 20
80.757595885
 30
0.0
 11
640.4674603173
 21
78.5869558558
 31
0.0
  0
LINE
  5
3B0
330
1F
100
AcDbEntity
  8
0
  6
Continuous
 62
     7
370
    25
100
AcDbLine
 10
648.0192400277
 20
80.757595885
 30
0.0
 11
648.0192400277
 21
78.5869558558
 31
0.0
  0
SPLINE
  5
3B1
330
1F
100
AcDbEntity
  8
0
  6
Continuous
 62
     7
370
    25
100
AcDbSpline
210
0.0
220
0.0
230
1.0
 70
     8
 71
     3
 72
    14
 73
    10
 74
     0
 42
0.000000001
 43
0.00000001
 40
0.0
 40
0.0
 40
0.0
 40
0.0
 40
0.25
 40
0.25
 40
0.5
 40
0.5
 40
0.75
 40
0.75
 40
1.0
 40
1.0
 40
1.0
 40
1.0
 10
334.3790898953344
 20
80.75759588504755
 30
0.0
 10
334.4311476042251
 20
80.85247049435814
 30
0.0
 10
334.4844811425532
 20
80.93207541923391
 30
0.0
 10
334.5914131501814
 20
81.04091203412813
 30
0.0
 10
334.6451665166289
 20
81.07023563981863
 30
0.0
 10
334.7533455680526
 20
81.07017085807304
 30
0.0
 10
334.8081742646406
 20
81.04001466474668
 30
0.0
 10
334.9150812473005
 20
80.93042946338097
 30
0.0
 10
334.9675027622728
 20
80.85188648957879
 30
0.0
 10
335.0192400276749
 20
80.75759588504754
 30
0.0
  0
SPLINE
  5
3B2
330
1F
100
AcDbEntity
  8
0
  6
Continuous
 62
     7
370
    25
100
AcDbSpline
210
0.0
220
0.0
230
1.0
 70
     8
 71
     3
 72
    12
 73
     8
 74
     0
 42
0.000000001
 43
0.00000001
 40
0.0
 40
0.0
 40
0.0
 40
0.0
 40
0.4999999999999936
 40
0.4999999999999936
 40
0.7499999999999968
 40
0.7499999999999968
 40
1.0
 40
1.0
 40
1.0
 40
1.0
 10
334.3790898953345
 20
80.75759588504852
 30
0.0
 10
333.7625595054142
 20
80.94809017447204
 30
0.0
 10
333.1367916329644
 20
81.06976458753441
 30
0.0
 10
332.1737299235795
 20
81.07042077806564
 30
0.0
 10
331.8530368884499
 20
81.04058677627124
 30
0.0
 10
331.2230786384539
 20
80.93165690616367
 30
0.0
 10
330.911849370423
 20
80.85296171910078
 30
0.0
 10
330.6032000401383
 20
80.75759588504803
 30
0.0
  0
SPLINE
  5
3B3
330
1F
100
AcDbEntity
  8
0
  6
Continuous
 62
     7
370
    25
100
AcDbSpline
210
0.0
220
0.0
230
1.0
 70
     8
 71
     3
 72
    12
 73
     8
 74
     0
 42
0.000000001
 43
0.00000001
 40
0.0
 40
0.0
 40
0.0
 40
0.0
 40
0.4999999999999968
 40
0.4999999999999968
 40
0.7499999999999983
 40
0.7499999999999983
 40
1.0
 40
1.0
 40
1.0
 40
1.0
 10
330.6032000401385
 20
80.75759588504852
 30
0.0
 10
330.0911938884337
 20
80.94809017447204
 30
0.0
 10
329.5715163421654
 20
81.06976458753441
 30
0.0
 10
328.7717284846029
 20
81.07042077806564
 30
0.0
 10
328.5054045377548
 20
81.04058677627124
 30
0.0
 10
327.9822470347534
 20
80.93165690616365
 30
0.0
 10
327.7237824036051
 20
80.85296171910078
 30
0.0
 10
327.467460317283
 20
80.75759588504803
 30
0.0
  0
SPLINE
  5
3B4
330
1F
100
AcDbEntity
  8
0
  6
Continuous
 62
     7
370
    25
100
AcDbSpline
210
0.0
220
0.0
230
1.0
 70
     8
 71
     3
 72
     9
 73
     5
 74
     0
 42
0.000000001
 43
0.00000001
 40
0.0
 40
0.0
 40
0.0
 40
0.0
 40
0.3722348086954455
 40
0.9999999999999999
 40
0.9999999999999999
 40
0.9999999999999999
 40
0.9999999999999999
 10
327.4674603172831
 20
80.75759588504754
 30
0.0
 10
327.4954265509548
 20
80.80952019382111
 30
0.0
 10
327.5705571755457
 20
80.94901361990763
 30
0.0
 10
327.6491010337023
 20
80.95702234601274
 30
0.0
 10
327.6984081338439
 20
80.96204994548822
 30
0.0
  0
LINE
  5
3B5
330
1F
100
AcDbEntity
  8
0
  6
Continuous
 62
     7
370
    25
100
AcDbLine
 10
334.3933501725
 20
81.2722758704
 30
0.0
 11
328.0933501725
 21
81.2722758704
 31
0.0
  0
LINE
  5
3B6
330
1F
100
AcDbEntity
  8
0
  6
Continuous
 62
     7
370
    25
100
AcDbLine
 10
334.3790898953
 20
80.757595885
 30
0.0
 11
334.3790898953
 21
78.5869558558
 31
0.0
  0
SPLINE
  5
3B7
330
1F
100
AcDbEntity
  8
0
  6
Continuous
 62
     7
370
    25
100
AcDbSpline
210
0.0
220
0.0
230
1.0
 70
     8
 71
     3
 72
    12
 73
     8
 74
     0
 42
0.000000001
 43
0.00000001
 40
0.0
 40
0.0
 40
0.0
 40
0.0
 40
0.4999999999999936
 40
0.4999999999999936
 40
0.7499999999999968
 40
0.7499999999999968
 40
1.0
 40
1.0
 40
1.0
 40
1.0
 10
330.6032000401383
 20
78.58695585581857
 30
0.0
 10
331.2197304300586
 20
78.39646156639506
 30
0.0
 10
331.8454983025084
 20
78.27478715333267
 30
0.0
 10
332.8085600118932
 20
78.27413096280144
 30
0.0
 10
333.1292530470229
 20
78.30396496459582
 30
0.0
 10
333.7592112970189
 20
78.41289483470342
 30
0.0
 10
334.0704405650498
 20
78.49159002176629
 30
0.0
 10
334.3790898953345
 20
78.58695585581904
 30
0.0
  0
LINE
  5
3B8
330
1F
100
AcDbEntity
  8
0
  6
Continuous
 62
     7
370
    25
100
AcDbLine
 10
330.6032000401
 20
80.757595885
 30
0.0
 11
330.6032000401
 21
78.5869558558
 31
0.0
  0
SPLINE
  5
3B9
330
1F
100
AcDbEntity
  8
0
  6
Continuous
 62
     7
370
    25
100
AcDbSpline
210
0.0
220
0.0
230
1.0
 70
     8
 71
     3
 72
     9
 73
     5
 74
     0
 42
0.000000001
 43
0.00000001
 40
0.0
 40
0.0
 40
0.0
 40
0.0
 40
0.6277651913045479
 40
1.0
 40
1.0
 40
1.0
 40
1.0
 10
327.6984081338439
 20
78.38250179537887
 30
0.0
 10
327.6491010337024
 20
78.38752939485435
 30
0.0
 10
327.5705571755457
 20
78.39553812095949
 30
0.0
 10
327.4954265509548
 20
78.53503154704597
 30
0.0
 10
327.4674603172832
 20
78.58695585581955
 30
0.0
  0
SPLINE
  5
3BA
330
1F
100
AcDbEntity
  8
0
  6
Continuous
 62
     7
370
    25
100
AcDbSpline
210
0.0
220
0.0
230
1.0
 70
     8
 71
     3
 72
    12
 73
     8
 74
     0
 42
0.000000001
 43
0.00000001
 40
0.0
 40
0.0
 40
0.0
 40
0.0
 40
0.5000000000000032
 40
0.5000000000000032
 40
0.7500000000000016
 40
0.7500000000000016
 40
1.0
 40
1.0
 40
1.0
 40
1.0
 10
327.467460317283
 20
78.58695585581857
 30
0.0
 10
327.9794664689879
 20
78.39646156639506
 30
0.0
 10
328.4991440152561
 20
78.27478715333268
 30
0.0
 10
329.2989318728187
 20
78.27413096280145
 30
0.0
 10
329.5652558196667
 20
78.30396496459583
 30
0.0
 10
330.0884133226681
 20
78.41289483470342
 30
0.0
 10
330.3468779538164
 20
78.49159002176631
 30
0.0
 10
330.6032000401385
 20
78.58695585581906
 30
0.0
  0
SPLINE
  5
3BB
330
1F
100
AcDbEntity
  8
0
  6
Continuous
 62
     7
370
    25
100
AcDbSpline
210
0.0
220
0.0
230
1.0
 70
     8
 71
     3
 72
    14
 73
    10
 74
     0
 42
0.000000001
 43
0.00000001
 40
0.0
 40
0.0
 40
0.0
 40
0.0
 40
0.25
 40
0.25
 40
0.5
 40
0.5
 40
0.75
 40
0.75
 40
1.0
 40
1.0
 40
1.0
 40
1.0
 10
334.3790898953344
 20
78.58695585581954
 30
0.0
 10
334.4311476042251
 20
78.49208124650893
 30
0.0
 10
334.4844811425532
 20
78.41247632163319
 30
0.0
 10
334.5914131501814
 20
78.30363970673895
 30
0.0
 10
334.6451665166289
 20
78.27431610104846
 30
0.0
 10
334.7533455680526
 20
78.27438088279405
 30
0.0
 10
334.8081742646406
 20
78.30453707612041
 30
0.0
 10
334.9150812473005
 20
78.41412227748611
 30
0.0
 10
334.9675027622728
 20
78.4926652512883
 30
0.0
 10
335.0192400276749
 20
78.58695585581954
 30
0.0
  0
LINE
  5
3BC
330
1F
100
AcDbEntity
  8
0
  6
Continuous
 62
     7
370
    25
100
AcDbLine
 10
334.3933501725
 20
78.0722758704
 30
0.0
 11
328.0933501725
 21
78.0722758704
 31
0.0
  0
LINE
  5
3BD
330
1F
100
AcDbEntity
  8
0
  6
Continuous
 62
     7
370
    25
100
AcDbLine
 10
327.4674603173
 20
80.757595885
 30
0.0
 11
327.4674603173
 21
78.5869558558
 31
0.0
  0
LINE
  5
3BE
330
1F
100
AcDbEntity
  8
0
  6
Continuous
 62
     7
370
    25
100
AcDbLine
 10
335.0192400277
 20
80.757595885
 30
0.0
 11
335.0192400277
 21
78.5869558558
 31
0.0
  0
SPLINE
  5
3BF
330
1F
100
AcDbEntity
  8
0
  6
Continuous
 62
     7
370
    25
100
AcDbSpline
210
0.0
220
0.0
230
1.0
 70
     8
 71
     3
 72
    12
 73
     8
 74
     0
 42
0.000000001
 43
0.00000001
 40
0.0
 40
0.0
 40
0.0
 40
0.0
 40
0.4999999999999936
 40
0.4999999999999936
 40
0.7499999999999968
 40
0.7499999999999968
 40
1.0
 40
1.0
 40
1.0
 40
1.0
 10
497.3790898953345
 20
80.7575958850485
 30
0.0
 10
496.7625595054142
 20
80.94809017447201
 30
0.0
 10
496.1367916329645
 20
81.06976458753438
 30
0.0
 10
495.1737299235796
 20
81.07042077806561
 30
0.0
 10
494.8530368884498
 20
81.04058677627123
 30
0.0
 10
494.223078638454
 20
80.93165690616364
 30
0.0
 10
493.911849370423
 20
80.85296171910076
 30
0.0
 10
493.6032000401383
 20
80.75759588504802
 30
0.0
  0
LINE
  5
3C0
330
1F
100
AcDbEntity
  8
0
  6
Continuous
 62
     7
370
    25
100
AcDbLine
 10
497.3790898953
 20
80.757595885
 30
0.0
 11
497.3790898953
 21
78.5869558558
 31
0.0
  0
SPLINE
  5
3C1
330
1F
100
AcDbEntity
  8
0
  6
Continuous
 62
     7
370
    25
100
AcDbSpline
210
0.0
220
0.0
230
1.0
 70
     8
 71
     3
 72
    12
 73
     8
 74
     0
 42
0.000000001
 43
0.00000001
 40
0.0
 40
0.0
 40
0.0
 40
0.0
 40
0.4999999999999936
 40
0.4999999999999936
 40
0.7499999999999968
 40
0.7499999999999968
 40
1.0
 40
1.0
 40
1.0
 40
1.0
 10
493.6032000401383
 20
78.58695585581854
 30
0.0
 10
494.2197304300586
 20
78.39646156639503
 30
0.0
 10
494.8454983025084
 20
78.27478715333267
 30
0.0
 10
495.8085600118933
 20
78.27413096280141
 30
0.0
 10
496.129253047023
 20
78.3039649645958
 30
0.0
 10
496.759211297019
 20
78.4128948347034
 30
0.0
 10
497.0704405650498
 20
78.49159002176627
 30
0.0
 10
497.3790898953345
 20
78.58695585581903
 30
0.0
  0
LINE
  5
3C2
330
1F
100
AcDbEntity
  8
0
  6
Continuous
 62
     7
370
    25
100
AcDbLine
 10
493.6032000401
 20
80.757595885
 30
0.0
 11
493.6032000401
 21
78.5869558558
 31
0.0
  0
SPLINE
  5
3C3
330
1F
100
AcDbEntity
  8
0
  6
Continuous
 62
     7
370
    25
100
AcDbSpline
210
0.0
220
0.0
230
1.0
 70
     8
 71
     3
 72
    14
 73
    10
 74
     0
 42
0.000000001
 43
0.00000001
 40
0.0
 40
0.0
 40
0.0
 40
0.0
 40
0.25
 40
0.25
 40
0.5
 40
0.5
 40
0.75
 40
0.75
 40
1.0
 40
1.0
 40
1.0
 40
1.0
 10
497.3790898953344
 20
80.75759588504752
 30
0.0
 10
497.4311476042252
 20
80.85247049435813
 30
0.0
 10
497.4844811425533
 20
80.9320754192339
 30
0.0
 10
497.5914131501814
 20
81.04091203412811
 30
0.0
 10
497.6451665166289
 20
81.0702356398186
 30
0.0
 10
497.7533455680526
 20
81.07017085807301
 30
0.0
 10
497.8081742646406
 20
81.04001466474665
 30
0.0
 10
497.9150812473005
 20
80.93042946338095
 30
0.0
 10
497.9675027622729
 20
80.85188648957877
 30
0.0
 10
498.0192400276749
 20
80.75759588504752
 30
0.0
  0
SPLINE
  5
3C4
330
1F
100
AcDbEntity
  8
0
  6
Continuous
 62
     7
370
    25
100
AcDbSpline
210
0.0
220
0.0
230
1.0
 70
     8
 71
     3
 72
    12
 73
     8
 74
     0
 42
0.000000001
 43
0.00000001
 40
0.0
 40
0.0
 40
0.0
 40
0.0
 40
0.4999999999999968
 40
0.4999999999999968
 40
0.7499999999999983
 40
0.7499999999999983
 40
1.0
 40
1.0
 40
1.0
 40
1.0
 10
493.6032000401386
 20
80.75759588504849
 30
0.0
 10
493.0911938884337
 20
80.94809017447201
 30
0.0
 10
492.5715163421654
 20
81.06976458753438
 30
0.0
 10
491.7717284846029
 20
81.07042077806561
 30
0.0
 10
491.5054045377548
 20
81.04058677627123
 30
0.0
 10
490.9822470347535
 20
80.93165690616364
 30
0.0
 10
490.7237824036051
 20
80.85296171910076
 30
0.0
 10
490.467460317283
 20
80.757595885048
 30
0.0
  0
SPLINE
  5
3C5
330
1F
100
AcDbEntity
  8
0
  6
Continuous
 62
     7
370
    25
100
AcDbSpline
210
0.0
220
0.0
230
1.0
 70
     8
 71
     3
 72
     9
 73
     5
 74
     0
 42
0.000000001
 43
0.00000001
 40
0.0
 40
0.0
 40
0.0
 40
0.0
 40
0.3722348086954455
 40
0.9999999999999999
 40
0.9999999999999999
 40
0.9999999999999999
 40
0.9999999999999999
 10
490.4674603172832
 20
80.75759588504751
 30
0.0
 10
490.4954265509549
 20
80.8095201938211
 30
0.0
 10
490.5705571755458
 20
80.94901361990762
 30
0.0
 10
490.6491010337024
 20
80.95702234601272
 30
0.0
 10
490.6984081338439
 20
80.96204994548819
 30
0.0
  0
LINE
  5
3C6
330
1F
100
AcDbEntity
  8
0
  6
Continuous
 62
     7
370
    25
100
AcDbLine
 10
497.3933501725
 20
81.2722758704
 30
0.0
 11
491.0933501725
 21
81.2722758704
 31
0.0
  0
SPLINE
  5
3C7
330
1F
100
AcDbEntity
  8
0
  6
Continuous
 62
     7
370
    25
100
AcDbSpline
210
0.0
220
0.0
230
1.0
 70
     8
 71
     3
 72
     9
 73
     5
 74
     0
 42
0.000000001
 43
0.00000001
 40
0.0
 40
0.0
 40
0.0
 40
0.0
 40
0.6277651913045473
 40
1.0
 40
1.0
 40
1.0
 40
1.0
 10
490.6984081338438
 20
78.38250179537884
 30
0.0
 10
490.6491010337024
 20
78.38752939485433
 30
0.0
 10
490.5705571755458
 20
78.39553812095946
 30
0.0
 10
490.4954265509549
 20
78.53503154704596
 30
0.0
 10
490.4674603172832
 20
78.58695585581954
 30
0.0
  0
SPLINE
  5
3C8
330
1F
100
AcDbEntity
  8
0
  6
Continuous
 62
     7
370
    25
100
AcDbSpline
210
0.0
220
0.0
230
1.0
 70
     8
 71
     3
 72
    12
 73
     8
 74
     0
 42
0.000000001
 43
0.00000001
 40
0.0
 40
0.0
 40
0.0
 40
0.0
 40
0.5000000000000032
 40
0.5000000000000032
 40
0.7500000000000016
 40
0.7500000000000016
 40
1.0
 40
1.0
 40
1.0
 40
1.0
 10
490.467460317283
 20
78.58695585581854
 30
0.0
 10
490.979466468988
 20
78.39646156639505
 30
0.0
 10
491.4991440152563
 20
78.27478715333265
 30
0.0
 10
492.2989318728187
 20
78.27413096280144
 30
0.0
 10
492.5652558196667
 20
78.30396496459582
 30
0.0
 10
493.0884133226681
 20
78.41289483470341
 30
0.0
 10
493.3468779538165
 20
78.49159002176629
 30
0.0
 10
493.6032000401385
 20
78.58695585581904
 30
0.0
  0
SPLINE
  5
3C9
330
1F
100
AcDbEntity
  8
0
  6
Continuous
 62
     7
370
    25
100
AcDbSpline
210
0.0
220
0.0
230
1.0
 70
     8
 71
     3
 72
    14
 73
    10
 74
     0
 42
0.000000001
 43
0.00000001
 40
0.0
 40
0.0
 40
0.0
 40
0.0
 40
0.25
 40
0.25
 40
0.5
 40
0.5
 40
0.75
 40
0.75
 40
1.0
 40
1.0
 40
1.0
 40
1.0
 10
497.3790898953344
 20
78.58695585581951
 30
0.0
 10
497.4311476042252
 20
78.49208124650892
 30
0.0
 10
497.4844811425533
 20
78.41247632163316
 30
0.0
 10
497.5914131501814
 20
78.30363970673892
 30
0.0
 10
497.6451665166289
 20
78.27431610104843
 30
0.0
 10
497.7533455680526
 20
78.27438088279402
 30
0.0
 10
497.8081742646406
 20
78.3045370761204
 30
0.0
 10
497.9150812473005
 20
78.4141222774861
 30
0.0
 10
497.9675027622729
 20
78.49266525128827
 30
0.0
 10
498.0192400276749
 20
78.58695585581953
 30
0.0
  0
LINE
  5
3CA
330
1F
100
AcDbEntity
  8
0
  6
Continuous
 62
     7
370
    25
100
AcDbLine
 10
497.3933501725
 20
78.0722758704
 30
0.0
 11
491.0933501725
 21
78.0722758704
 31
0.0
  0
LINE
  5
3CB
330
1F
100
AcDbEntity
  8
0
  6
Continuous
 62
     7
370
    25
100
AcDbLine
 10
490.4674603173
 20
80.757595885
 30
0.0
 11
490.4674603173
 21
78.5869558558
 31
0.0
  0
LINE
  5
3CC
330
1F
100
AcDbEntity
  8
0
  6
Continuous
 62
     7
370
    25
100
AcDbLine
 10
498.0192400277
 20
80.757595885
 30
0.0
 11
498.0192400277
 21
78.5869558558
 31
0.0
  0
SPLINE
  5
3CD
330
1F
100
AcDbEntity
  8
0
  6
Continuous
 62
     7
370
    25
100
AcDbSpline
210
0.0
220
0.0
230
1.0
 70
     8
 71
     3
 72
    12
 73
     8
 74
     0
 42
0.000000001
 43
0.00000001
 40
0.0
 40
0.0
 40
0.0
 40
0.0
 40
0.5000000000000077
 40
0.5000000000000077
 40
0.7500000000000038
 40
0.7500000000000038
 40
1.0
 40
1.0
 40
1.0
 40
1.0
 10
184.3790898953345
 20
80.75759588504854
 30
0.0
 10
183.7625595054142
 20
80.94809017447206
 30
0.0
 10
183.1367916329644
 20
81.06976458753442
 30
0.0
 10
182.1737299235795
 20
81.07042077806565
 30
0.0
 10
181.8530368884498
 20
81.04058677627128
 30
0.0
 10
181.223078638454
 20
80.93165690616368
 30
0.0
 10
180.911849370423
 20
80.8529617191008
 30
0.0
 10
180.6032000401383
 20
80.75759588504805
 30
0.0
  0
LINE
  5
3CE
330
1F
100
AcDbEntity
  8
0
  6
Continuous
 62
     7
370
    25
100
AcDbLine
 10
184.3790898953
 20
80.757595885
 30
0.0
 11
184.3790898953
 21
78.5869558558
 31
0.0
  0
SPLINE
  5
3CF
330
1F
100
AcDbEntity
  8
0
  6
Continuous
 62
     7
370
    25
100
AcDbSpline
210
0.0
220
0.0
230
1.0
 70
     8
 71
     3
 72
    12
 73
     8
 74
     0
 42
0.000000001
 43
0.00000001
 40
0.0
 40
0.0
 40
0.0
 40
0.0
 40
0.4999999999999887
 40
0.4999999999999887
 40
0.7499999999999943
 40
0.7499999999999943
 40
1.0
 40
1.0
 40
1.0
 40
1.0
 10
180.6032000401383
 20
78.58695585581859
 30
0.0
 10
181.2197304300586
 20
78.39646156639506
 30
0.0
 10
181.8454983025083
 20
78.2747871533327
 30
0.0
 10
182.8085600118932
 20
78.27413096280146
 30
0.0
 10
183.1292530470229
 20
78.30396496459585
 30
0.0
 10
183.7592112970189
 20
78.41289483470344
 30
0.0
 10
184.0704405650498
 20
78.49159002176631
 30
0.0
 10
184.3790898953344
 20
78.58695585581907
 30
0.0
  0
LINE
  5
3D0
330
1F
100
AcDbEntity
  8
0
  6
Continuous
 62
     7
370
    25
100
AcDbLine
 10
180.6032000401
 20
80.757595885
 30
0.0
 11
180.6032000401
 21
78.5869558558
 31
0.0
  0
SPLINE
  5
3D1
330
1F
100
AcDbEntity
  8
0
  6
Continuous
 62
     7
370
    25
100
AcDbSpline
210
0.0
220
0.0
230
1.0
 70
     8
 71
     3
 72
    14
 73
    10
 74
     0
 42
0.000000001
 43
0.00000001
 40
0.0
 40
0.0
 40
0.0
 40
0.0
 40
0.25
 40
0.25
 40
0.5
 40
0.5
 40
0.75
 40
0.75
 40
1.0
 40
1.0
 40
1.0
 40
1.0
 10
184.3790898953343
 20
80.75759588504756
 30
0.0
 10
184.4311476042251
 20
80.85247049435817
 30
0.0
 10
184.4844811425532
 20
80.93207541923393
 30
0.0
 10
184.5914131501814
 20
81.04091203412816
 30
0.0
 10
184.6451665166289
 20
81.07023563981866
 30
0.0
 10
184.7533455680527
 20
81.07017085807306
 30
0.0
 10
184.8081742646405
 20
81.04001466474669
 30
0.0
 10
184.9150812473004
 20
80.93042946338099
 30
0.0
 10
184.9675027622728
 20
80.85188648957882
 30
0.0
 10
185.0192400276749
 20
80.75759588504755
 30
0.0
  0
SPLINE
  5
3D2
330
1F
100
AcDbEntity
  8
0
  6
Continuous
 62
     7
370
    25
100
AcDbSpline
210
0.0
220
0.0
230
1.0
 70
     8
 71
     3
 72
    12
 73
     8
 74
     0
 42
0.000000001
 43
0.00000001
 40
0.0
 40
0.0
 40
0.0
 40
0.0
 40
0.4999999999999921
 40
0.4999999999999921
 40
0.749999999999996
 40
0.749999999999996
 40
1.0
 40
1.0
 40
1.0
 40
1.0
 10
180.6032000401385
 20
80.75759588504854
 30
0.0
 10
180.0911938884336
 20
80.94809017447206
 30
0.0
 10
179.5715163421654
 20
81.06976458753442
 30
0.0
 10
178.7717284846028
 20
81.07042077806565
 30
0.0
 10
178.5054045377548
 20
81.04058677627127
 30
0.0
 10
177.9822470347534
 20
80.9316569061637
 30
0.0
 10
177.723782403605
 20
80.8529617191008
 30
0.0
 10
177.467460317283
 20
80.75759588504805
 30
0.0
  0
SPLINE
  5
3D3
330
1F
100
AcDbEntity
  8
0
  6
Continuous
 62
     7
370
    25
100
AcDbSpline
210
0.0
220
0.0
230
1.0
 70
     8
 71
     3
 72
     9
 73
     5
 74
     0
 42
0.000000001
 43
0.00000001
 40
0.0
 40
0.0
 40
0.0
 40
0.0
 40
0.3722348086954467
 40
1.0
 40
1.0
 40
1.0
 40
1.0
 10
177.467460317283
 20
80.75759588504755
 30
0.0
 10
177.4954265509548
 20
80.80952019382113
 30
0.0
 10
177.5705571755456
 20
80.94901361990765
 30
0.0
 10
177.6491010337022
 20
80.95702234601276
 30
0.0
 10
177.6984081338438
 20
80.96204994548825
 30
0.0
  0
LINE
  5
3D4
330
1F
100
AcDbEntity
  8
0
  6
Continuous
 62
     7
370
    25
100
AcDbLine
 10
184.3933501725
 20
81.2722758704
 30
0.0
 11
178.0933501725
 21
81.2722758704
 31
0.0
  0
SPLINE
  5
3D5
330
1F
100
AcDbEntity
  8
0
  6
Continuous
 62
     7
370
    25
100
AcDbSpline
210
0.0
220
0.0
230
1.0
 70
     8
 71
     3
 72
     9
 73
     5
 74
     0
 42
0.000000001
 43
0.00000001
 40
0.0
 40
0.0
 40
0.0
 40
0.0
 40
0.6277651913045432
 40
1.0
 40
1.0
 40
1.0
 40
1.0
 10
177.6984081338438
 20
78.3825017953789
 30
0.0
 10
177.6491010337024
 20
78.38752939485437
 30
0.0
 10
177.5705571755457
 20
78.39553812095949
 30
0.0
 10
177.4954265509548
 20
78.535031547046
 30
0.0
 10
177.4674603172831
 20
78.58695585581957
 30
0.0
  0
SPLINE
  5
3D6
330
1F
100
AcDbEntity
  8
0
  6
Continuous
 62
     7
370
    25
100
AcDbSpline
210
0.0
220
0.0
230
1.0
 70
     8
 71
     3
 72
    12
 73
     8
 74
     0
 42
0.000000001
 43
0.00000001
 40
0.0
 40
0.0
 40
0.0
 40
0.0
 40
0.5000000000000078
 40
0.5000000000000078
 40
0.7500000000000039
 40
0.7500000000000039
 40
1.0
 40
1.0
 40
1.0
 40
1.0
 10
177.467460317283
 20
78.58695585581859
 30
0.0
 10
177.9794664689879
 20
78.39646156639508
 30
0.0
 10
178.4991440152561
 20
78.2747871533327
 30
0.0
 10
179.2989318728187
 20
78.27413096280146
 30
0.0
 10
179.5652558196666
 20
78.30396496459585
 30
0.0
 10
180.0884133226681
 20
78.41289483470344
 30
0.0
 10
180.3468779538163
 20
78.49159002176633
 30
0.0
 10
180.6032000401385
 20
78.58695585581907
 30
0.0
  0
SPLINE
  5
3D7
330
1F
100
AcDbEntity
  8
0
  6
Continuous
 62
     7
370
    25
100
AcDbSpline
210
0.0
220
0.0
230
1.0
 70
     8
 71
     3
 72
    14
 73
    10
 74
     0
 42
0.000000001
 43
0.00000001
 40
0.0
 40
0.0
 40
0.0
 40
0.0
 40
0.25
 40
0.25
 40
0.5
 40
0.5
 40
0.75
 40
0.75
 40
1.0
 40
1.0
 40
1.0
 40
1.0
 10
184.3790898953343
 20
78.58695585581955
 30
0.0
 10
184.4311476042251
 20
78.49208124650896
 30
0.0
 10
184.4844811425532
 20
78.41247632163319
 30
0.0
 10
184.5914131501814
 20
78.30363970673896
 30
0.0
 10
184.6451665166289
 20
78.27431610104847
 30
0.0
 10
184.7533455680527
 20
78.27438088279406
 30
0.0
 10
184.8081742646405
 20
78.30453707612043
 30
0.0
 10
184.9150812473004
 20
78.41412227748614
 30
0.0
 10
184.9675027622728
 20
78.49266525128832
 30
0.0
 10
185.0192400276749
 20
78.58695585581957
 30
0.0
  0
LINE
  5
3D8
330
1F
100
AcDbEntity
  8
0
  6
Continuous
 62
     7
370
    25
100
AcDbLine
 10
184.3933501725
 20
78.0722758704
 30
0.0
 11
178.0933501725
 21
78.0722758704
 31
0.0
  0
LINE
  5
3D9
330
1F
100
AcDbEntity
  8
0
  6
Continuous
 62
     7
370
    25
100
AcDbLine
 10
177.4674603173
 20
80.757595885
 30
0.0
 11
177.4674603173
 21
78.5869558558
 31
0.0
  0
LINE
  5
3DA
330
1F
100
AcDbEntity
  8
0
  6
Continuous
 62
     7
370
    25
100
AcDbLine
 10
185.0192400277
 20
80.757595885
 30
0.0
 11
185.0192400277
 21
78.5869558558
 31
0.0
  0
LINE
  5
3DB
330
1F
100
AcDbEntity
  8
0
  6
Continuous
 62
     7
370
    25
100
AcDbLine
 10
664.2433501725
 20
75.3722758704
 30
0.0
 11
665.164280405
 21
65.4722758704
 31
0.0
  0
LINE
  5
3DC
330
1F
100
AcDbEntity
  8
0
  6
Continuous
 62
     7
370
    25
100
AcDbLine
 10
160.3224199399
 20
65.4722758704
 30
0.0
 11
161.2433501725
 21
75.3722758704
 31
0.0
  0
LINE
  5
3DD
330
1F
100
AcDbEntity
  8
0
  6
Continuous
 62
     7
370
    25
100
AcDbLine
 10
161.2433501725
 20
77.1722758704
 30
0.0
 11
664.2433501725
 21
77.1722758704
 31
0.0
  0
LINE
  5
3DE
330
1F
100
AcDbEntity
  8
0
  6
Continuous
 62
     7
370
    25
100
AcDbLine
 10
664.2433501725
 20
77.1722758704
 30
0.0
 11
664.2433501725
 21
75.3722758704
 31
0.0
  0
LINE
  5
3DF
330
1F
100
AcDbEntity
  8
0
  6
Continuous
 62
     7
370
    25
100
AcDbLine
 10
161.2433501725
 20
75.3722758704
 30
0.0
 11
161.2433501725
 21
77.1722758704
 31
0.0
  0
LINE
  5
3E0
330
1F
100
AcDbEntity
  8
0
  6
Continuous
 62
     7
370
    25
100
AcDbLine
 10
160.2433501725
 20
64.6222758704
 30
0.0
 11
160.3224199399
 21
65.4722758704
 31
0.0
  0
LINE
  5
3E1
330
1F
100
AcDbEntity
  8
0
  6
Continuous
 62
     7
370
    25
100
AcDbLine
 10
665.164280405
 20
65.4722758704
 30
0.0
 11
665.2433501725
 21
64.6222758704
 31
0.0
  0
LINE
  5
3E2
330
1F
100
AcDbEntity
  8
0
  6
Continuous
 62
     7
370
    25
100
AcDbLine
 10
643.9265580143
 20
86.3722758704
 30
0.0
 11
646.2433501725
 21
86.3722758704
 31
0.0
  0
LINE
  5
3E3
330
1F
100
AcDbEntity
  8
0
  6
Continuous
 62
     7
370
    25
100
AcDbLine
 10
642.2433501725
 20
86.3722758704
 30
0.0
 11
643.9265580143
 21
86.3722758704
 31
0.0
  0
LINE
  5
3E4
330
1F
100
AcDbEntity
  8
0
  6
Continuous
 62
     7
370
    25
100
AcDbLine
 10
330.9265580143
 20
86.3722758704
 30
0.0
 11
333.2433501725
 21
86.3722758704
 31
0.0
  0
LINE
  5
3E5
330
1F
100
AcDbEntity
  8
0
  6
Continuous
 62
     7
370
    25
100
AcDbLine
 10
329.2433501725
 20
86.3722758704
 30
0.0
 11
330.9265580143
 21
86.3722758704
 31
0.0
  0
LINE
  5
3E6
330
1F
100
AcDbEntity
  8
0
  6
Continuous
 62
     7
370
    25
100
AcDbLine
 10
493.9265580143
 20
86.3722758704
 30
0.0
 11
496.2433501725
 21
86.3722758704
 31
0.0
  0
LINE
  5
3E7
330
1F
100
AcDbEntity
  8
0
  6
Continuous
 62
     7
370
    25
100
AcDbLine
 10
492.2433501725
 20
86.3722758704
 30
0.0
 11
493.9265580143
 21
86.3722758704
 31
0.0
  0
LINE
  5
3E8
330
1F
100
AcDbEntity
  8
0
  6
Continuous
 62
     7
370
    25
100
AcDbLine
 10
180.9265580143
 20
86.3722758704
 30
0.0
 11
183.2433501725
 21
86.3722758704
 31
0.0
  0
LINE
  5
3E9
330
1F
100
AcDbEntity
  8
0
  6
Continuous
 62
     7
370
    25
100
AcDbLine
 10
179.2433501725
 20
86.3722758704
 30
0.0
 11
180.9265580143
 21
86.3722758704
 31
0.0
  0
LINE
  5
3EA
330
1F
100
AcDbEntity
  8
0
  6
Continuous
 62
     7
370
    25
100
AcDbLine
 10
665.7433501725
 20
97.5722758704
 30
0.0
 11
666.7433501725
 21
97.5722758704
 31
0.0
  0
LINE
  5
3EB
330
1F
100
AcDbEntity
  8
0
  6
Continuous
 62
     7
370
    25
100
AcDbLine
 10
666.7433501725
 20
97.5722758704
 30
0.0
 11
666.7433501725
 21
95.5722758704
 31
0.0
  0
LINE
  5
3EC
330
1F
100
AcDbEntity
  8
0
  6
Continuous
 62
     7
370
    25
100
AcDbLine
 10
664.7433501725
 20
79.1722758704
 30
0.0
 11
664.7433501725
 21
69.9972758704
 31
0.0
  0
LINE
  5
3ED
330
1F
100
AcDbEntity
  8
0
  6
Continuous
 62
     7
370
    25
100
AcDbLine
 10
666.7433501725
 20
95.5722758704
 30
0.0
 11
666.7433501725
 21
92.6722758704
 31
0.0
  0
LINE
  5
3EE
330
1F
100
AcDbEntity
  8
0
  6
Continuous
 62
     7
370
    25
100
AcDbLine
 10
666.7433501725
 20
86.6722758704
 30
0.0
 11
666.7433501725
 21
66.5722758704
 31
0.0
  0
LINE
  5
3EF
330
1F
100
AcDbEntity
  8
0
  6
Continuous
 62
     7
370
    25
100
AcDbLine
 10
666.7416830426
 20
66.4722758704
 30
0.0
 11
666.7433501725
 21
66.5722758704
 31
0.0
  0
LINE
  5
3F0
330
1F
100
AcDbEntity
  8
0
  6
Continuous
 62
     7
370
    25
100
AcDbLine
 10
666.8036575517
 20
97.5722758704
 30
0.0
 11
666.7433501725
 21
97.5722758704
 31
0.0
  0
LINE
  5
3F1
330
1F
100
AcDbEntity
  8
0
  6
Continuous
 62
     7
370
    25
100
AcDbLine
 10
666.7433501725
 20
81.5722758704
 30
0.0
 11
666.8036575517
 21
81.5722758704
 31
0.0
  0
LWPOLYLINE
  5
3F2
330
1F
100
AcDbEntity
  8
0
  6
Continuous
 62
     7
370
    25
100
AcDbPolyline
 90
        9
 70
   128
 43
0.0
 10
669.3588965607
 20
95.5722758704
 10
669.3457529184
 20
95.9624565145
 10
669.3068270943
 20
96.3376427352
 10
669.2436149859
 20
96.6834163365
 10
669.1585457993
 20
96.9864894328
 10
669.0548886955
 20
97.235215095
 10
668.9366271588
 20
97.4200349355
 10
668.8083059138
 20
97.5338464312
 10
668.674856274
 20
97.5722758704
  0
LINE
  5
3F3
330
1F
100
AcDbEntity
  8
0
  6
Continuous
 62
     7
370
    25
100
AcDbLine
 10
669.3588965607
 20
95.5722758704
 30
0.0
 11
669.3588965607
 21
92.6722758704
 31
0.0
  0
LINE
  5
3F4
330
1F
100
AcDbEntity
  8
0
  6
Continuous
 62
     7
370
    25
100
AcDbLine
 10
669.3588965607
 20
86.6722758704
 30
0.0
 11
669.3588965607
 21
83.5722758704
 31
0.0
  0
LWPOLYLINE
  5
3F5
330
1F
100
AcDbEntity
  8
0
  6
Continuous
 62
     7
370
    25
100
AcDbPolyline
 90
        9
 70
   128
 43
0.0
 10
668.674856274
 20
81.5722758704
 10
668.8083059138
 20
81.6107053096
 10
668.9366271588
 20
81.7245168054
 10
669.0548886955
 20
81.9093366458
 10
669.1585457993
 20
82.1580623081
 10
669.2436149859
 20
82.4611354044
 10
669.3068270943
 20
82.8069090057
 10
669.3457529184
 20
83.1820952264
 10
669.3588965607
 20
83.5722758704
  0
LINE
  5
3F6
330
1F
100
AcDbEntity
  8
0
  6
Continuous
 62
     7
370
    25
100
AcDbLine
 10
668.674856274
 20
81.5722758704
 30
0.0
 11
666.8036575517
 21
81.5722758704
 31
0.0
  0
LINE
  5
3F7
330
1F
100
AcDbEntity
  8
0
  6
Continuous
 62
     7
370
    25
100
AcDbLine
 10
666.8036575517
 20
97.5722758704
 30
0.0
 11
668.674856274
 21
97.5722758704
 31
0.0
  0
LINE
  5
3F8
330
1F
100
AcDbEntity
  8
0
  6
Continuous
 62
     7
370
    25
100
AcDbLine
 10
158.7433501725
 20
97.5722758704
 30
0.0
 11
159.7433501725
 21
97.5722758704
 31
0.0
  0
LINE
  5
3F9
330
1F
100
AcDbEntity
  8
0
  6
Continuous
 62
     7
370
    25
100
AcDbLine
 10
158.7433501725
 20
95.5722758704
 30
0.0
 11
158.7433501725
 21
97.5722758704
 31
0.0
  0
LINE
  5
3FA
330
1F
100
AcDbEntity
  8
0
  6
Continuous
 62
     7
370
    25
100
AcDbLine
 10
158.7433501725
 20
66.5722758704
 30
0.0
 11
158.7433501725
 21
86.6722758704
 31
0.0
  0
LINE
  5
3FB
330
1F
100
AcDbEntity
  8
0
  6
Continuous
 62
     7
370
    25
100
AcDbLine
 10
158.7433501725
 20
92.6722758704
 30
0.0
 11
158.7433501725
 21
95.5722758704
 31
0.0
  0
LINE
  5
3FC
330
1F
100
AcDbEntity
  8
0
  6
Continuous
 62
     7
370
    25
100
AcDbLine
 10
160.7433501725
 20
69.9972758704
 30
0.0
 11
160.7433501725
 21
79.1722758704
 31
0.0
  0
LINE
  5
3FD
330
1F
100
AcDbEntity
  8
0
  6
Continuous
 62
     7
370
    25
100
AcDbLine
 10
158.7433501725
 20
66.5722758704
 30
0.0
 11
158.7450173024
 21
66.4722758704
 31
0.0
  0
LINE
  5
3FE
330
1F
100
AcDbEntity
  8
0
  6
Continuous
 62
     7
370
    25
100
AcDbLine
 10
158.6830427933
 20
81.5722758704
 30
0.0
 11
158.7433501725
 21
81.5722758704
 31
0.0
  0
LINE
  5
3FF
330
1F
100
AcDbEntity
  8
0
  6
Continuous
 62
     7
370
    25
100
AcDbLine
 10
158.7433501725
 20
97.5722758704
 30
0.0
 11
158.6830427933
 21
97.5722758704
 31
0.0
  0
LWPOLYLINE
  5
400
330
1F
100
AcDbEntity
  8
0
  6
Continuous
 62
     7
370
    25
100
AcDbPolyline
 90
        9
 70
   128
 43
0.0
 10
156.811844071
 20
97.5722758704
 10
156.6783944312
 20
97.5338464312
 10
156.5500731862
 20
97.4200349355
 10
156.4318116495
 20
97.235215095
 10
156.3281545457
 20
96.9864894328
 10
156.243085359
 20
96.6834163365
 10
156.1798732507
 20
96.3376427352
 10
156.1409474266
 20
95.9624565145
 10
156.1278037843
 20
95.5722758704
  0
LINE
  5
401
330
1F
100
AcDbEntity
  8
0
  6
Continuous
 62
     7
370
    25
100
AcDbLine
 10
156.811844071
 20
97.5722758704
 30
0.0
 11
158.6830427933
 21
97.5722758704
 31
0.0
  0
LINE
  5
402
330
1F
100
AcDbEntity
  8
0
  6
Continuous
 62
     7
370
    25
100
AcDbLine
 10
158.6830427933
 20
81.5722758704
 30
0.0
 11
156.811844071
 21
81.5722758704
 31
0.0
  0
LWPOLYLINE
  5
403
330
1F
100
AcDbEntity
  8
0
  6
Continuous
 62
     7
370
    25
100
AcDbPolyline
 90
        9
 70
   128
 43
0.0
 10
156.1278037843
 20
83.5722758704
 10
156.1409474266
 20
83.1820952264
 10
156.1798732507
 20
82.8069090057
 10
156.243085359
 20
82.4611354044
 10
156.3281545457
 20
82.1580623081
 10
156.4318116495
 20
81.9093366458
 10
156.5500731862
 20
81.7245168054
 10
156.6783944312
 20
81.6107053096
 10
156.811844071
 20
81.5722758704
  0
LINE
  5
404
330
1F
100
AcDbEntity
  8
0
  6
Continuous
 62
     7
370
    25
100
AcDbLine
 10
156.1278037843
 20
83.5722758704
 30
0.0
 11
156.1278037843
 21
86.6722758704
 31
0.0
  0
LINE
  5
405
330
1F
100
AcDbEntity
  8
0
  6
Continuous
 62
     7
370
    25
100
AcDbLine
 10
156.1278037843
 20
92.6722758704
 30
0.0
 11
156.1278037843
 21
95.5722758704
 31
0.0
  0
SPLINE
  5
406
330
1F
100
AcDbEntity
  8
0
  6
Continuous
 62
     7
370
    25
100
AcDbSpline
210
0.0
220
0.0
230
1.0
 70
    24
 71
     3
 72
     9
 73
     5
 74
     0
 42
0.000000001
 43
0.00000001
 40
0.0
 40
0.0
 40
0.0
 40
0.0
 40
0.7059102712407792
 40
0.9999999999999999
 40
0.9999999999999999
 40
0.9999999999999999
 40
0.9999999999999999
 10
160.5433501724775
 20
95.44552467982335
 30
0.0
 10
160.5433501724776
 20
95.45577744911994
 30
0.0
 10
160.5433501724776
 20
95.4703016311786
 30
0.0
 10
160.5433501724776
 20
95.3752496745704
 30
0.0
 10
160.5433501724775
 20
95.34729587043347
 30
0.0
  0
SPLINE
  5
407
330
1F
100
AcDbEntity
  8
0
  6
Continuous
 62
     7
370
    25
100
AcDbSpline
210
0.0
220
0.0
230
1.0
 70
    24
 71
     3
 72
    12
 73
     8
 74
     0
 42
0.000000001
 43
0.00000001
 40
0.0
 40
0.0
 40
0.0
 40
0.0
 40
0.3344405486782615
 40
0.5144757571369827
 40
0.6983315710265334
 40
0.8821873849160792
 40
1.0
 40
1.0
 40
1.0
 40
1.0
 10
161.5433501724775
 20
92.17858317548988
 30
0.0
 10
161.5433501724775
 20
92.80272871099174
 30
0.0
 10
161.5433501724775
 20
93.76286272646931
 30
0.0
 10
161.5433501724776
 20
94.67077363276458
 30
0.0
 10
161.5433501724775
 20
95.17649097068073
 30
0.0
 10
161.5433501724775
 20
95.44811070481893
 30
0.0
 10
161.5433501724776
 20
95.44625097335918
 30
0.0
 10
161.5433501724775
 20
95.4455246798343
 30
0.0
  0
SPLINE
  5
408
330
1F
100
AcDbEntity
  8
0
  6
Continuous
 62
     7
370
    25
100
AcDbSpline
210
0.0
220
0.0
230
1.0
 70
    24
 71
     3
 72
    15
 73
    11
 74
     0
 42
0.000000001
 43
0.00000001
 40
0.0
 40
0.0
 40
0.0
 40
0.0
 40
0.034696749791865
 40
0.2211884951269639
 40
0.4076802404620633
 40
0.5080720152630784
 40
0.6105942475634817
 40
0.7131164798638854
 40
0.8135082546649
 40
1.0
 40
1.0
 40
1.0
 40
1.0
 10
161.5433501724775
 20
83.89902706102859
 30
0.0
 10
161.5433501724776
 20
83.89230595739716
 30
0.0
 10
161.5433501724776
 20
83.84945955804436
 30
0.0
 10
161.5433501724775
 20
84.33750052080285
 30
0.0
 10
161.5433501724775
 20
85.43341157827142
 30
0.0
 10
161.5433501724776
 20
86.6523087107189
 30
0.0
 10
161.5433501724775
 20
87.73248393857585
 30
0.0
 10
161.5433501724775
 20
88.89296084104156
 30
0.0
 10
161.5433501724775
 20
90.42353573615667
 30
0.0
 10
161.5433501724775
 20
91.48716162480675
 30
0.0
 10
161.5433501724775
 20
92.17858317548988
 30
0.0
  0
SPLINE
  5
409
330
1F
100
AcDbEntity
  8
0
  6
Continuous
 62
     7
370
    25
100
AcDbSpline
210
0.0
220
0.0
230
1.0
 70
     8
 71
     3
 72
     8
 73
     4
 74
     0
 42
0.000000001
 43
0.00000001
 40
0.0
 40
0.0
 40
0.0
 40
0.0
 40
1.0
 40
1.0
 40
1.0
 40
1.0
 10
165.5433501724705
 20
89.28888084274497
 30
0.0
 10
165.5433501724705
 20
90.27125928731775
 30
0.0
 10
165.3690348720911
 20
91.22675045550749
 30
0.0
 10
165.0967681850791
 20
92.16713310483506
 30
0.0
  0
SPLINE
  5
40A
330
1F
100
AcDbEntity
  8
0
  6
Continuous
 62
     7
370
    25
100
AcDbSpline
210
0.0
220
0.0
230
1.0
 70
     8
 71
     3
 72
     8
 73
     4
 74
     0
 42
0.000000001
 43
0.00000001
 40
0.0
 40
0.0
 40
0.0
 40
0.0
 40
1.0
 40
1.0
 40
1.0
 40
1.0
 10
165.0967681850792
 20
86.41062858065499
 30
0.0
 10
165.3690348720906
 20
87.35101122998077
 30
0.0
 10
165.5433501724705
 20
88.30650239817406
 30
0.0
 10
165.5433501724705
 20
89.28888084274497
 30
0.0
  0
LINE
  5
40B
330
1F
100
AcDbEntity
  8
0
  6
Continuous
 62
     7
370
    25
100
AcDbLine
 10
161.5433501725
 20
86.4106285807
 30
0.0
 11
165.0967681851
 21
86.4106285807
 31
0.0
  0
LINE
  5
40C
330
1F
100
AcDbEntity
  8
0
  6
Continuous
 62
     7
370
    25
100
AcDbLine
 10
161.5433501725
 20
92.1671331048
 30
0.0
 11
165.0967681851
 21
92.1671331048
 31
0.0
  0
LINE
  5
40D
330
1F
100
AcDbEntity
  8
0
  6
Continuous
 62
     7
370
    25
100
AcDbLine
 10
165.5433501725
 20
89.2888808427
 30
0.0
 11
165.5433501725
 21
93.7979567497
 31
0.0
  0
SPLINE
  5
40E
330
1F
100
AcDbEntity
  8
0
  6
Continuous
 62
     7
370
    25
100
AcDbSpline
210
0.0
220
0.0
230
1.0
 70
     8
 71
     3
 72
     8
 73
     4
 74
     0
 42
0.000000001
 43
0.00000001
 40
0.0
 40
0.0
 40
0.0
 40
0.0
 40
1.0
 40
1.0
 40
1.0
 40
1.0
 10
165.096768185079
 20
92.16713310484117
 30
0.0
 10
165.3690348720905
 20
92.69995584590602
 30
0.0
 10
165.5433501724704
 20
93.24133910480062
 30
0.0
 10
165.5433501724704
 20
93.79795674972904
 30
0.0
  0
LINE
  5
40F
330
1F
100
AcDbEntity
  8
0
  6
Continuous
 62
     7
370
    25
100
AcDbLine
 10
165.5433501725
 20
85.1631999634
 30
0.0
 11
165.5433501725
 21
89.2888808427
 31
0.0
  0
SPLINE
  5
410
330
1F
100
AcDbEntity
  8
0
  6
Continuous
 62
     7
370
    25
100
AcDbSpline
210
0.0
220
0.0
230
1.0
 70
     8
 71
     3
 72
     8
 73
     4
 74
     0
 42
0.000000001
 43
0.00000001
 40
0.0
 40
0.0
 40
0.0
 40
0.0
 40
1.0
 40
1.0
 40
1.0
 40
1.0
 10
165.5433501724704
 20
85.16319996344745
 30
0.0
 10
165.5433501724704
 20
85.58896076309067
 30
0.0
 10
165.369034872091
 20
86.00306867238773
 30
0.0
 10
165.0967681850791
 20
86.41062858064939
 30
0.0
  0
SPLINE
  5
411
330
1F
100
AcDbEntity
  8
0
  6
Continuous
 62
     7
370
    25
100
AcDbSpline
210
0.0
220
0.0
230
1.0
 70
     8
 71
     3
 72
     8
 73
     4
 74
     0
 42
0.000000001
 43
0.00000001
 40
0.0
 40
0.0
 40
0.0
 40
0.0
 40
1.0
 40
1.0
 40
1.0
 40
1.0
 10
165.5433501724704
 20
93.79795674972904
 30
0.0
 10
165.5433501724704
 20
94.3545743946585
 30
0.0
 10
165.3690348720909
 20
94.89595765355112
 30
0.0
 10
165.096768185079
 20
95.42878039461692
 30
0.0
  0
LINE
  5
412
330
1F
100
AcDbEntity
  8
0
  6
Continuous
 62
     7
370
    25
100
AcDbLine
 10
161.5433501725
 20
95.4287803946
 30
0.0
 11
165.0967681851
 21
95.4287803946
 31
0.0
  0
SPLINE
  5
413
330
1F
100
AcDbEntity
  8
0
  6
Continuous
 62
     7
370
    25
100
AcDbSpline
210
0.0
220
0.0
230
1.0
 70
     8
 71
     3
 72
     8
 73
     4
 74
     0
 42
0.000000001
 43
0.00000001
 40
0.0
 40
0.0
 40
0.0
 40
0.0
 40
1.0
 40
1.0
 40
1.0
 40
1.0
 10
165.0967681850791
 20
83.91577134624545
 30
0.0
 10
165.3690348720905
 20
84.32333125450651
 30
0.0
 10
165.5433501724704
 20
84.73743916380486
 30
0.0
 10
165.5433501724704
 20
85.16319996344745
 30
0.0
  0
LINE
  5
414
330
1F
100
AcDbEntity
  8
0
  6
Continuous
 62
     7
370
    25
100
AcDbLine
 10
165.0967681851
 20
83.9157713462
 30
0.0
 11
161.5433501725
 21
83.9157713462
 31
0.0
  0
LINE
  5
415
330
1F
100
AcDbEntity
  8
0
  6
Continuous
 62
     7
370
    25
100
AcDbLine
 10
151.0846001725
 20
86.9668303262
 30
0.0
 11
151.0846001725
 21
86.6722758704
 31
0.0
  0
LINE
  5
416
330
1F
100
AcDbEntity
  8
0
  6
Continuous
 62
     7
370
    25
100
AcDbLine
 10
151.0846001725
 20
92.6722758704
 30
0.0
 11
151.0846001725
 21
86.9668303262
 31
0.0
  0
LINE
  5
417
330
1F
100
AcDbEntity
  8
0
  6
Continuous
 62
     7
370
    25
100
AcDbLine
 10
150.5433501725
 20
92.1310258704
 30
0.0
 11
150.5433501725
 21
87.2135258704
 31
0.0
  0
LINE
  5
418
330
1F
100
AcDbEntity
  8
0
  6
Continuous
 62
     7
370
    25
100
AcDbLine
 10
165.0967681851
 20
95.4287803946
 30
0.0
 11
165.1719559406
 21
95.2187599268
 31
0.0
  0
LINE
  5
419
330
1F
100
AcDbEntity
  8
0
  6
Continuous
 62
     7
370
    25
100
AcDbLine
 10
165.5433501725
 20
93.7979567497
 30
0.0
 11
165.5433501725
 21
94.6722758704
 31
0.0
  0
LINE
  5
41A
330
1F
100
AcDbEntity
  8
0
  6
Continuous
 62
     7
370
    25
100
AcDbLine
 10
165.5433501725
 20
84.6722758704
 30
0.0
 11
165.5433501725
 21
85.1631999634
 31
0.0
  0
ARC
  5
41B
330
1F
100
AcDbEntity
  8
0
  6
Continuous
 62
     7
370
    25
100
AcDbCircle
 10
673.2433501725
 20
60.4722758704
 30
0.0
 40
6.000000000000071
100
AcDbArc
 50
36.8698976459
 51
90.0
  0
ARC
  5
41C
330
1F
100
AcDbEntity
  8
0
  6
Continuous
 62
     7
370
    25
100
AcDbCircle
 10
152.2433501725
 20
60.4722758704
 30
0.0
 40
6.000000000000014
100
AcDbArc
 50
90.0
 51
143.1301023541
  0
LINE
  5
41D
330
1F
100
AcDbEntity
  8
0
  6
Continuous
 62
     7
370
    25
100
AcDbLine
 10
10.2517808339
 20
372.6075204992
 30
0.0
 11
9.8888430556
 21
371.9788938271
 31
0.0
  0
LINE
  5
41E
330
1F
100
AcDbEntity
  8
0
  6
Continuous
 62
     7
370
    25
100
AcDbLine
 10
9.8888430556
 20
365.6788938271
 30
0.0
 11
10.2517808339
 21
365.050267155
 31
0.0
  0
LINE
  5
41F
330
1F
100
AcDbEntity
  8
0
  6
Continuous
 62
     7
370
    25
100
AcDbLine
 10
8.1888430556
 20
372.8288938271
 30
0.0
 11
6.1888430556
 21
372.8288938271
 31
0.0
  0
LINE
  5
420
330
1F
100
AcDbEntity
  8
0
  6
Continuous
 62
     7
370
    25
100
AcDbLine
 10
6.1888430556
 20
364.8288938271
 30
0.0
 11
8.1888430556
 21
364.8288938271
 31
0.0
  0
ARC
  5
421
330
1F
100
AcDbEntity
  8
0
  6
Continuous
 62
     7
370
    25
100
AcDbCircle
 10
13.1170462859
 20
368.8288938271
 30
0.0
 40
8.000000000000007
100
AcDbArc
 50
195.2747479997
 51
210.0
  0
ARC
  5
422
330
1F
100
AcDbEntity
  8
0
  6
Continuous
 62
     7
370
    25
100
AcDbCircle
 10
13.1170462859
 20
368.8288938271
 30
0.0
 40
8.000000000000007
100
AcDbArc
 50
150.0
 51
164.7252520003
  0
LINE
  5
423
330
1F
100
AcDbEntity
  8
0
  6
Continuous
 62
     7
370
    25
100
AcDbLine
 10
9.8888430556
 20
370.8288938271
 30
0.0
 11
9.7888430556
 21
370.8288938271
 31
0.0
  0
LINE
  5
424
330
1F
100
AcDbEntity
  8
0
  6
Continuous
 62
     7
370
    25
100
AcDbLine
 10
9.7888430556
 20
366.8288938271
 30
0.0
 11
9.8888430556
 21
366.8288938271
 31
0.0
  0
CIRCLE
  5
425
330
1F
100
AcDbEntity
  8
0
  6
Continuous
 62
     7
370
    25
100
AcDbCircle
 10
21.4888430556
 20
393.8288938271
 30
0.0
 40
2.458750000016593
  0
CIRCLE
  5
426
330
1F
100
AcDbEntity
  8
0
  6
Continuous
 62
     7
370
    25
100
AcDbCircle
 10
21.4888430556
 20
393.8288938271
 30
0.0
 40
3.000000000000005
  0
LINE
  5
427
330
1F
100
AcDbEntity
  8
0
  6
Continuous
 62
     7
370
    25
100
AcDbLine
 10
2.8888430556
 20
171.2996045052
 30
0.0
 11
2.8888430556
 21
364.358183149
 31
0.0
  0
LINE
  5
428
330
1F
100
AcDbEntity
  8
0
  6
Continuous
 62
     7
370
    25
100
AcDbLine
 10
-6.7111569444
 20
171.2996045052
 30
0.0
 11
2.8888430556
 21
171.2996045052
 31
0.0
  0
LINE
  5
429
330
1F
100
AcDbEntity
  8
0
  6
Continuous
 62
     7
370
    25
100
AcDbLine
 10
-6.7111569444
 20
364.358183149
 30
0.0
 11
2.8888430556
 21
364.358183149
 31
0.0
  0
SPLINE
  5
42A
330
1F
100
AcDbEntity
  8
0
  6
Continuous
 62
     7
370
    25
100
AcDbSpline
210
0.0
220
0.0
230
1.0
 70
     8
 71
     3
 72
    20
 73
    16
 74
     0
 42
0.000000001
 43
0.00000001
 40
0.0
 40
0.0
 40
0.0
 40
0.0
 40
0.1249999999999939
 40
0.1249999999999939
 40
0.2499999999999879
 40
0.2499999999999879
 40
0.3749999999999818
 40
0.3749999999999818
 40
0.4999999999999758
 40
0.4999999999999758
 40
0.7499999999999959
 40
0.7499999999999959
 40
0.8749999999999979
 40
0.8749999999999979
 40
1.0
 40
1.0
 40
1.0
 40
1.0
 10
-9.111156944408709
 20
363.4288938270935
 30
0.0
 10
-9.111156944408709
 20
363.4679345579481
 30
0.0
 10
-9.095620383933845
 20
363.5064532621479
 30
0.0
 10
-9.034302031973255
 20
363.5838600134558
 30
0.0
 10
-8.987878286386472
 20
363.6230044314425
 30
0.0
 10
-8.867927416232341
 20
363.7001551853577
 30
0.0
 10
-8.794322771948908
 20
363.7384827670987
 30
0.0
 10
-8.619592405853274
 20
363.8160290875753
 30
0.0
 10
-8.51874177695167
 20
363.8550052952439
 30
0.0
 10
-8.187456496967751
 20
363.970500151689
 30
0.0
 10
-7.919776335583901
 20
364.0484125953591
 30
0.0
 10
-7.487102309528495
 20
364.16389252076
 30
0.0
 10
-7.335584222677372
 20
364.202758316625
 30
0.0
 10
-7.026158465291244
 20
364.2805326502935
 30
0.0
 10
-6.869536135597463
 20
364.3191424172482
 30
0.0
 10
-6.711156944408724
 20
364.3581831489749
 30
0.0
  0
SPLINE
  5
42B
330
1F
100
AcDbEntity
  8
0
  6
Continuous
 62
     7
370
    25
100
AcDbSpline
210
0.0
220
0.0
230
1.0
 70
     8
 71
     3
 72
    20
 73
    16
 74
     0
 42
0.000000001
 43
0.00000001
 40
0.0
 40
0.0
 40
0.0
 40
0.0
 40
0.1249999999999995
 40
0.1249999999999995
 40
0.2499999999999988
 40
0.2499999999999988
 40
0.3749999999999982
 40
0.3749999999999982
 40
0.4999999999999975
 40
0.4999999999999975
 40
0.7499999999999988
 40
0.7499999999999988
 40
0.8749999999999993
 40
0.8749999999999993
 40
1.0
 40
1.0
 40
1.0
 40
1.0
 10
-6.711156944408724
 20
171.2996045052123
 30
0.0
 10
-6.869536132059428
 20
171.3386452360668
 30
0.0
 10
-7.025781856751113
 20
171.3771639402666
 30
0.0
 10
-7.333773706167737
 20
171.4545706915746
 30
0.0
 10
-7.486417813638836
 20
171.4937151095612
 30
0.0
 10
-7.775502102825907
 20
171.5708658634764
 30
0.0
 10
-7.913306641009983
 20
171.6091934452175
 30
0.0
 10
-8.174925316648894
 20
171.686739765694
 30
0.0
 10
-8.297671623331517
 20
171.7257159733627
 30
0.0
 10
-8.62899600027921
 20
171.8412108298077
 30
0.0
 10
-8.808007124307471
 20
171.9191232734777
 30
0.0
 10
-8.987622223688357
 20
172.0346031988786
 30
0.0
 10
-9.033866572556041
 20
172.0734689947437
 30
0.0
 10
-9.095619878567263
 20
172.1512433284122
 30
0.0
 10
-9.111156944408709
 20
172.189853095367
 30
0.0
 10
-9.111156944408709
 20
172.2288938270936
 30
0.0
  0
LINE
  5
42C
330
1F
100
AcDbEntity
  8
0
  6
Continuous
 62
     7
370
    25
100
AcDbLine
 10
-9.1111569444
 20
172.2288938271
 30
0.0
 11
-9.1111569444
 21
363.4288938271
 31
0.0
  0
SPLINE
  5
42D
330
1F
100
AcDbEntity
  8
0
  6
Continuous
 62
     7
370
    25
100
AcDbSpline
210
0.0
220
0.0
230
1.0
 70
     8
 71
     3
 72
    20
 73
    16
 74
     0
 42
0.000000001
 43
0.00000001
 40
0.0
 40
0.0
 40
0.0
 40
0.0
 40
0.1249999999999983
 40
0.1249999999999983
 40
0.2499999999999964
 40
0.2499999999999964
 40
0.3749999999999945
 40
0.3749999999999945
 40
0.4999999999999926
 40
0.4999999999999926
 40
0.7499999999999963
 40
0.7499999999999963
 40
0.8749999999999981
 40
0.8749999999999981
 40
1.0
 40
1.0
 40
1.0
 40
1.0
 10
-6.711156944408759
 20
365.8288938270936
 30
0.0
 10
-6.869536132059459
 20
365.8288938270936
 30
0.0
 10
-7.025781856751148
 20
365.8133572666187
 30
0.0
 10
-7.333773706167734
 20
365.7520389146581
 30
0.0
 10
-7.486417813638884
 20
365.7056151690713
 30
0.0
 10
-7.775502102825932
 20
365.5856642989172
 30
0.0
 10
-7.913306641009987
 20
365.5120596546337
 30
0.0
 10
-8.174925316648887
 20
365.3373292885381
 30
0.0
 10
-8.297671623331535
 20
365.2364786596366
 30
0.0
 10
-8.628996000279221
 20
364.9051933796526
 30
0.0
 10
-8.808007124307435
 20
364.6375132182687
 30
0.0
 10
-8.987622223688321
 20
364.2048391922133
 30
0.0
 10
-9.033866572556036
 20
364.0533211053622
 30
0.0
 10
-9.095619878567256
 20
363.7438953479761
 30
0.0
 10
-9.111156944408703
 20
363.5872730182824
 30
0.0
 10
-9.111156944408709
 20
363.4288938270936
 30
0.0
  0
LINE
  5
42E
330
1F
100
AcDbEntity
  8
0
  6
Continuous
 62
     7
370
    25
100
AcDbLine
 10
-6.7111569444
 20
365.8288938271
 30
0.0
 11
-6.7111569444
 21
364.4288938271
 31
0.0
  0
SPLINE
  5
42F
330
1F
100
AcDbEntity
  8
0
  6
Continuous
 62
     7
370
    25
100
AcDbSpline
210
0.0
220
0.0
230
1.0
 70
     8
 71
     3
 72
     9
 73
     5
 74
     0
 42
0.000000001
 43
0.00000001
 40
0.0
 40
0.0
 40
0.0
 40
0.0
 40
0.7584558214377574
 40
1.0
 40
1.0
 40
1.0
 40
1.0
 10
-6.711156944408738
 20
364.4288938270935
 30
0.0
 10
-6.862864722345003
 20
364.4178392912601
 30
0.0
 10
-7.062886626915114
 20
364.4032642355733
 30
0.0
 10
-7.213440718306544
 20
364.2801678519735
 30
0.0
 10
-7.249806182640873
 20
364.2504346371129
 30
0.0
  0
SPLINE
  5
430
330
1F
100
AcDbEntity
  8
0
  6
Continuous
 62
     7
370
    25
100
AcDbSpline
210
0.0
220
0.0
230
1.0
 70
     8
 71
     3
 72
    20
 73
    16
 74
     0
 42
0.000000001
 43
0.00000001
 40
0.0
 40
0.0
 40
0.0
 40
0.0
 40
0.125
 40
0.125
 40
0.2499999999999999
 40
0.2499999999999999
 40
0.3749999999999999
 40
0.3749999999999999
 40
0.4999999999999999
 40
0.4999999999999999
 40
0.7499999999999998
 40
0.7499999999999998
 40
0.8749999999999999
 40
0.8749999999999999
 40
1.0
 40
1.0
 40
1.0
 40
1.0
 10
-9.111156944408723
 20
172.2288938270937
 30
0.0
 10
-9.111156944408723
 20
172.070514639443
 30
0.0
 10
-9.09562038393388
 20
171.9142689147513
 30
0.0
 10
-9.03430203197329
 20
171.6062770653347
 30
0.0
 10
-8.987878286386492
 20
171.4536329578635
 30
0.0
 10
-8.867927416232355
 20
171.1645486686764
 30
0.0
 10
-8.794322771948936
 20
171.0267441304924
 30
0.0
 10
-8.619592405853314
 20
170.7651254548535
 30
0.0
 10
-8.518741776951757
 20
170.6423791481708
 30
0.0
 10
-8.187456496967831
 20
170.3110547712232
 30
0.0
 10
-7.919776335583939
 20
170.1320436471949
 30
0.0
 10
-7.487102309528519
 20
169.952428547814
 30
0.0
 10
-7.335584222677386
 20
169.9061841989463
 30
0.0
 10
-7.026158465291279
 20
169.844430892935
 30
0.0
 10
-6.869536135597449
 20
169.8288938270936
 30
0.0
 10
-6.71115694440871
 20
169.8288938270936
 30
0.0
  0
SPLINE
  5
431
330
1F
100
AcDbEntity
  8
0
  6
Continuous
 62
     7
370
    25
100
AcDbSpline
210
0.0
220
0.0
230
1.0
 70
     8
 71
     3
 72
     9
 73
     5
 74
     0
 42
0.000000001
 43
0.00000001
 40
0.0
 40
0.0
 40
0.0
 40
0.0
 40
0.4258694941523309
 40
1.0
 40
1.0
 40
1.0
 40
1.0
 10
-7.267548371417839
 20
171.4189723897708
 30
0.0
 10
-7.197144194812998
 20
171.3690507649263
 30
0.0
 10
-7.031825528950403
 20
171.2518279407278
 30
0.0
 10
-6.828113966694024
 20
171.2372585555663
 30
0.0
 10
-6.711156944408752
 20
171.2288938270936
 30
0.0
  0
LINE
  5
432
330
1F
100
AcDbEntity
  8
0
  6
Continuous
 62
     7
370
    25
100
AcDbLine
 10
-6.7111569444
 20
169.8288938271
 30
0.0
 11
-6.7111569444
 21
171.2288938271
 31
0.0
  0
LINE
  5
433
330
1F
100
AcDbEntity
  8
0
  6
Continuous
 62
     7
370
    25
100
AcDbLine
 10
-6.7111569444
 20
364.4288938271
 30
0.0
 11
2.8888430556
 21
364.4288938271
 31
0.0
  0
LINE
  5
434
330
1F
100
AcDbEntity
  8
0
  6
Continuous
 62
     7
370
    25
100
AcDbLine
 10
-6.7111569444
 20
365.8288938271
 30
0.0
 11
2.8888430556
 21
365.8288938271
 31
0.0
  0
LINE
  5
435
330
1F
100
AcDbEntity
  8
0
  6
Continuous
 62
     7
370
    25
100
AcDbLine
 10
2.8888430556
 20
365.8288938271
 30
0.0
 11
2.8888430556
 21
364.4288938271
 31
0.0
  0
LINE
  5
436
330
1F
100
AcDbEntity
  8
0
  6
Continuous
 62
     7
370
    25
100
AcDbLine
 10
2.8888430556
 20
169.8288938271
 30
0.0
 11
2.8888430556
 21
171.2288938271
 31
0.0
  0
LINE
  5
437
330
1F
100
AcDbEntity
  8
0
  6
Continuous
 62
     7
370
    25
100
AcDbLine
 10
-6.7111569444
 20
171.2288938271
 30
0.0
 11
2.8888430556
 21
171.2288938271
 31
0.0
  0
LINE
  5
438
330
1F
100
AcDbEntity
  8
0
  6
Continuous
 62
     7
370
    25
100
AcDbLine
 10
-6.7111569444
 20
169.8288938271
 30
0.0
 11
2.8888430556
 21
169.8288938271
 31
0.0
  0
ARC
  5
439
330
1F
100
AcDbEntity
  8
0
  6
Continuous
 62
     7
370
    25
100
AcDbCircle
 10
26.9888430556
 20
397.3288938271
 30
0.0
 40
3.000000000000004
100
AcDbArc
 50
0.0
 51
90.0
  0
LINE
  5
43A
330
1F
100
AcDbEntity
  8
0
  6
Continuous
 62
     7
370
    25
100
AcDbLine
 10
29.9888430556
 20
363.1288938271
 30
0.0
 11
29.9888430556
 21
397.3288938271
 31
0.0
  0
LINE
  5
43B
330
1F
100
AcDbEntity
  8
0
  6
Continuous
 62
     7
370
    25
100
AcDbLine
 10
10.9888430556
 20
380.3288938271
 30
0.0
 11
10.9888430556
 21
363.1288938271
 31
0.0
  0
LINE
  5
43C
330
1F
100
AcDbEntity
  8
0
  6
Continuous
 62
     7
370
    25
100
AcDbLine
 10
6.9888430556
 20
380.3288938271
 30
0.0
 11
10.9888430556
 21
380.3288938271
 31
0.0
  0
LINE
  5
43D
330
1F
100
AcDbEntity
  8
0
  6
Continuous
 62
     7
370
    25
100
AcDbLine
 10
6.9888430556
 20
397.3288938271
 30
0.0
 11
6.9888430556
 21
380.3288938271
 31
0.0
  0
ARC
  5
43E
330
1F
100
AcDbEntity
  8
0
  6
Continuous
 62
     7
370
    25
100
AcDbCircle
 10
9.9888430556
 20
397.3288938271
 30
0.0
 40
3.0
100
AcDbArc
 50
90.0
 51
180.0
  0
LINE
  5
43F
330
1F
100
AcDbEntity
  8
0
  6
Continuous
 62
     7
370
    25
100
AcDbLine
 10
26.9888430556
 20
400.3288938271
 30
0.0
 11
9.9888430556
 21
400.3288938271
 31
0.0
  0
CIRCLE
  5
440
330
1F
100
AcDbEntity
  8
0
  6
Continuous
 62
     7
370
    25
100
AcDbCircle
 10
21.4888430556
 20
393.8288938271
 30
0.0
 40
3.250000000000057
  0
CIRCLE
  5
441
330
1F
100
AcDbEntity
  8
0
  6
Continuous
 62
     7
370
    25
100
AcDbCircle
 10
21.4888430556
 20
368.8288938271
 30
0.0
 40
3.250000000000057
  0
LINE
  5
442
330
1F
100
AcDbEntity
  8
0
  6
Continuous
 62
     7
370
    25
100
AcDbLine
 10
10.9888430556
 20
361.3288938271
 30
0.0
 11
10.9888430556
 21
363.1288938271
 31
0.0
  0
LINE
  5
443
330
1F
100
AcDbEntity
  8
0
  6
Continuous
 62
     7
370
    25
100
AcDbLine
 10
29.9888430556
 20
363.1288938271
 30
0.0
 11
29.9888430556
 21
361.3288938271
 31
0.0
  0
LINE
  5
444
330
1F
100
AcDbEntity
  8
0
  6
Continuous
 62
     7
370
    25
100
AcDbLine
 10
29.9888430556
 20
361.3288938271
 30
0.0
 11
10.9888430556
 21
361.3288938271
 31
0.0
  0
LINE
  5
445
330
1F
100
AcDbEntity
  8
0
  6
Continuous
 62
     7
370
    25
100
AcDbLine
 10
10.7888430556
 20
362.1288938271
 30
0.0
 11
10.9888430556
 21
362.1288938271
 31
0.0
  0
LINE
  5
446
330
1F
100
AcDbEntity
  8
0
  6
Continuous
 62
     7
370
    25
100
AcDbLine
 10
10.7888430556
 20
361.3288938271
 30
0.0
 11
10.9888430556
 21
361.3288938271
 31
0.0
  0
ARC
  5
447
330
1F
100
AcDbEntity
  8
0
  6
Continuous
 62
     7
370
    25
100
AcDbCircle
 10
10.7888430556
 20
363.1288938271
 30
0.0
 40
1.0
100
AcDbArc
 50
180.0
 51
270.0
  0
ARC
  5
448
330
1F
100
AcDbEntity
  8
0
  6
Continuous
 62
     7
370
    25
100
AcDbCircle
 10
10.7888430556
 20
363.1288938271
 30
0.0
 40
1.800000000000011
100
AcDbArc
 50
180.0
 51
270.0
  0
LINE
  5
449
330
1F
100
AcDbEntity
  8
0
  6
Continuous
 62
     7
370
    25
100
AcDbLine
 10
8.9888430556
 20
373.3288938271
 30
0.0
 11
9.7888430556
 21
373.3288938271
 31
0.0
  0
LINE
  5
44A
330
1F
100
AcDbEntity
  8
0
  6
Continuous
 62
     7
370
    25
100
AcDbLine
 10
9.7888430556
 20
363.1288938271
 30
0.0
 11
9.7888430556
 21
373.3288938271
 31
0.0
  0
LINE
  5
44B
330
1F
100
AcDbEntity
  8
0
  6
Continuous
 62
     7
370
    25
100
AcDbLine
 10
29.9888430556
 20
362.1288938271
 30
0.0
 11
50.9888430556
 21
362.1288938271
 31
0.0
  0
LINE
  5
44C
330
1F
100
AcDbEntity
  8
0
  6
Continuous
 62
     7
370
    25
100
AcDbLine
 10
29.9888430556
 20
361.3288938271
 30
0.0
 11
50.9888430556
 21
361.3288938271
 31
0.0
  0
LINE
  5
44D
330
1F
100
AcDbEntity
  8
0
  6
Continuous
 62
     7
370
    25
100
AcDbLine
 10
53.9888430556
 20
362.1288938271
 30
0.0
 11
53.9888430556
 21
361.3288938271
 31
0.0
  0
LINE
  5
44E
330
1F
100
AcDbEntity
  8
0
  6
Continuous
 62
     7
370
    25
100
AcDbLine
 10
50.9888430556
 20
362.1288938271
 30
0.0
 11
53.9888430556
 21
362.1288938271
 31
0.0
  0
LINE
  5
44F
330
1F
100
AcDbEntity
  8
0
  6
Continuous
 62
     7
370
    25
100
AcDbLine
 10
53.9888430556
 20
361.3288938271
 30
0.0
 11
50.9888430556
 21
361.3288938271
 31
0.0
  0
LINE
  5
450
330
1F
100
AcDbEntity
  8
0
  6
Continuous
 62
     7
370
    25
100
AcDbLine
 10
52.8934564474
 20
366.3288938271
 30
0.0
 11
52.8934564474
 21
365.5288938271
 31
0.0
  0
LINE
  5
451
330
1F
100
AcDbEntity
  8
0
  6
Continuous
 62
     7
370
    25
100
AcDbLine
 10
49.8934564474
 20
366.3288938271
 30
0.0
 11
52.8934564474
 21
366.3288938271
 31
0.0
  0
LINE
  5
452
330
1F
100
AcDbEntity
  8
0
  6
Continuous
 62
     7
370
    25
100
AcDbLine
 10
52.8934564474
 20
365.5288938271
 30
0.0
 11
49.8934564474
 21
365.5288938271
 31
0.0
  0
ARC
  5
453
330
1F
100
AcDbEntity
  8
0
  6
Continuous
 62
     7
370
    25
100
AcDbCircle
 10
43.3757649938
 20
364.5288938271
 30
0.0
 40
1.000000000000004
100
AcDbArc
 50
90.0
 51
120.0
  0
ARC
  5
454
330
1F
100
AcDbEntity
  8
0
  6
Continuous
 62
     7
370
    25
100
AcDbCircle
 10
43.3757649938
 20
364.5288938271
 30
0.0
 40
1.800000000000125
100
AcDbArc
 50
90.0
 51
120.0
  0
LINE
  5
455
330
1F
100
AcDbEntity
  8
0
  6
Continuous
 62
     7
370
    25
100
AcDbLine
 10
43.3757649938
 20
366.3288938271
 30
0.0
 11
49.8934564474
 21
366.3288938271
 31
0.0
  0
LINE
  5
456
330
1F
100
AcDbEntity
  8
0
  6
Continuous
 62
     7
370
    25
100
AcDbLine
 10
43.3757649938
 20
365.5288938271
 30
0.0
 11
49.8934564474
 21
365.5288938271
 31
0.0
  0
LINE
  5
457
330
1F
100
AcDbEntity
  8
0
  6
Continuous
 62
     7
370
    25
100
AcDbLine
 10
42.8757649938
 20
365.3949192309
 30
0.0
 11
37.2188430556
 21
362.1288938271
 31
0.0
  0
LINE
  5
458
330
1F
100
AcDbEntity
  8
0
  6
Continuous
 62
     7
370
    25
100
AcDbLine
 10
42.4757649938
 20
366.0877395539
 30
0.0
 11
35.8508938632
 21
362.2628684233
 31
0.0
  0
ARC
  5
459
330
1F
100
AcDbEntity
  8
0
  6
Continuous
 62
     7
370
    25
100
AcDbCircle
 10
35.3508938632
 20
363.1288938271
 30
0.0
 40
1.000000000000026
100
AcDbArc
 50
270.0
 51
300.0
  0
CIRCLE
  5
45A
330
1F
100
AcDbEntity
  8
0
  6
Continuous
 62
     7
370
    25
100
AcDbCircle
 10
21.4888430556
 20
368.8288938271
 30
0.0
 40
2.458750000016595
  0
CIRCLE
  5
45B
330
1F
100
AcDbEntity
  8
0
  6
Continuous
 62
     7
370
    25
100
AcDbCircle
 10
21.4888430556
 20
368.8288938271
 30
0.0
 40
3.000000000000048
  0
SPLINE
  5
45C
330
1F
100
AcDbEntity
  8
0
  6
Continuous
 62
     7
370
    25
100
AcDbSpline
210
0.0
220
0.0
230
1.0
 70
     8
 71
     3
 72
    12
 73
     8
 74
     0
 42
0.000000001
 43
0.00000001
 40
0.0
 40
0.0
 40
0.0
 40
0.0
 40
0.5000000000000078
 40
0.5000000000000078
 40
0.7500000000000039
 40
0.7500000000000039
 40
1.0
 40
1.0
 40
1.0
 40
1.0
 10
10.40352304097628
 20
367.3880645052232
 30
0.0
 10
10.21302875155277
 20
366.9717634215687
 30
0.0
 10
10.09135433849041
 20
366.5492248935803
 30
0.0
 10
10.09069814795916
 20
365.8989347541195
 30
0.0
 10
10.12053214975356
 20
365.682392536205
 30
0.0
 10
10.22946201986115
 20
365.2570245309648
 30
0.0
 10
10.30815720692403
 20
365.0468725519796
 30
0.0
 10
10.40352304097678
 20
364.8384626296668
 30
0.0
  0
LINE
  5
45D
330
1F
100
AcDbEntity
  8
0
  6
Continuous
 62
     7
370
    25
100
AcDbLine
 10
10.403523041
 20
364.8384626297
 30
0.0
 11
10.3056480037
 21
365.08136738
 31
0.0
  0
SPLINE
  5
45E
330
1F
100
AcDbEntity
  8
0
  6
Continuous
 62
     7
370
    25
100
AcDbSpline
210
0.0
220
0.0
230
1.0
 70
     8
 71
     3
 72
    12
 73
     8
 74
     0
 42
0.000000001
 43
0.00000001
 40
0.0
 40
0.0
 40
0.0
 40
0.0
 40
0.4999999999999887
 40
0.4999999999999887
 40
0.7499999999999943
 40
0.7499999999999943
 40
1.0
 40
1.0
 40
1.0
 40
1.0
 10
10.40352304097629
 20
372.8193250245206
 30
0.0
 10
10.21302875155276
 20
372.5840652320775
 30
0.0
 10
10.0913543384904
 20
372.3452805392271
 30
0.0
 10
10.09069814795917
 20
371.97778900667
 30
0.0
 10
10.12053214975355
 20
371.8554168120207
 30
0.0
 10
10.22946201986115
 20
371.6150331268612
 30
0.0
 10
10.30815720692402
 20
371.4962721797996
 30
0.0
 10
10.40352304097677
 20
371.37849570265
 30
0.0
  0
SPLINE
  5
45F
330
1F
100
AcDbEntity
  8
0
  6
Continuous
 62
     7
370
    25
100
AcDbSpline
210
0.0
220
0.0
230
1.0
 70
     8
 71
     3
 72
    14
 73
    10
 74
     0
 42
0.000000001
 43
0.00000001
 40
0.0
 40
0.0
 40
0.0
 40
0.0
 40
0.25
 40
0.25
 40
0.5
 40
0.5
 40
0.75
 40
0.75
 40
1.0
 40
1.0
 40
1.0
 40
1.0
 10
10.40352304097726
 20
371.37849570265
 30
0.0
 10
10.30864843166666
 20
371.0539894733614
 30
0.0
 10
10.22904350679091
 20
370.721530250967
 30
0.0
 10
10.12020689189667
 20
370.0549603360589
 30
0.0
 10
10.09088328620618
 20
369.7198840787836
 30
0.0
 10
10.09094806795177
 20
369.045540608556
 30
0.0
 10
10.12110426127813
 20
368.7037611878771
 30
0.0
 10
10.23068946264385
 20
368.0373472682723
 30
0.0
 10
10.30923243644602
 20
367.7105732223195
 30
0.0
 10
10.40352304097727
 20
367.3880645052232
 30
0.0
  0
LINE
  5
460
330
1F
100
AcDbEntity
  8
0
  6
Continuous
 62
     7
370
    25
100
AcDbLine
 10
9.8888430556
 20
365.6788938271
 30
0.0
 11
9.8888430556
 21
371.9788938271
 31
0.0
  0
LINE
  5
461
330
1F
100
AcDbEntity
  8
0
  6
Continuous
 62
     7
370
    25
100
AcDbLine
 10
10.9888430556
 20
367.3880645052
 30
0.0
 11
10.403523041
 21
367.3880645052
 31
0.0
  0
LINE
  5
462
330
1F
100
AcDbEntity
  8
0
  6
Continuous
 62
     7
370
    25
100
AcDbLine
 10
10.9888430556
 20
371.3784957027
 30
0.0
 11
10.403523041
 21
371.3784957027
 31
0.0
  0
LINE
  5
463
330
1F
100
AcDbEntity
  8
0
  6
Continuous
 62
     7
370
    25
100
AcDbLine
 10
10.9888430556
 20
364.8384626297
 30
0.0
 11
10.403523041
 21
364.8384626297
 31
0.0
  0
LINE
  5
464
330
1F
100
AcDbEntity
  8
0
  6
Continuous
 62
     7
370
    25
100
AcDbLine
 10
10.9888430556
 20
372.8193250245
 30
0.0
 11
10.403523041
 21
372.8193250245
 31
0.0
  0
LINE
  5
465
330
1F
100
AcDbEntity
  8
0
  6
Continuous
 62
     7
370
    25
100
AcDbLine
 10
7.1888430556
 20
378.8288938271
 30
0.0
 11
-2.7111569444
 21
378.8288938271
 31
0.0
  0
LINE
  5
466
330
1F
100
AcDbEntity
  8
0
  6
Continuous
 62
     7
370
    25
100
AcDbLine
 10
7.1888430556
 20
378.0288938271
 30
0.0
 11
7.1888430556
 21
378.8288938271
 31
0.0
  0
LINE
  5
467
330
1F
100
AcDbEntity
  8
0
  6
Continuous
 62
     7
370
    25
100
AcDbLine
 10
-2.7111569444
 20
378.0288938271
 30
0.0
 11
7.1888430556
 21
378.0288938271
 31
0.0
  0
LINE
  5
468
330
1F
100
AcDbEntity
  8
0
  6
Continuous
 62
     7
370
    25
100
AcDbLine
 10
-2.7111569444
 20
378.0288938271
 30
0.0
 11
-2.7111569444
 21
377.9288938271
 31
0.0
  0
LINE
  5
469
330
1F
100
AcDbEntity
  8
0
  6
Continuous
 62
     7
370
    25
100
AcDbLine
 10
-2.7111569444
 20
377.9288938271
 30
0.0
 11
2.4388430556
 21
377.9288938271
 31
0.0
  0
LINE
  5
46A
330
1F
100
AcDbEntity
  8
0
  6
Continuous
 62
     7
370
    25
100
AcDbLine
 10
2.4388430556
 20
377.1288938271
 30
0.0
 11
2.4388430556
 21
377.9288938271
 31
0.0
  0
LINE
  5
46B
330
1F
100
AcDbEntity
  8
0
  6
Continuous
 62
     7
370
    25
100
AcDbLine
 10
-2.7111569444
 20
377.1288938271
 30
0.0
 11
2.4388430556
 21
377.1288938271
 31
0.0
  0
ARC
  5
46C
330
1F
100
AcDbEntity
  8
0
  6
Continuous
 62
     7
370
    25
100
AcDbCircle
 10
-2.7111569444
 20
377.9788938271
 30
0.0
 40
0.8500000000000227
100
AcDbArc
 50
90.0
 51
270.0
  0
LINE
  5
46D
330
1F
100
AcDbEntity
  8
0
  6
Continuous
 62
     7
370
    25
100
AcDbLine
 10
7.1888430556
 20
359.6288938271
 30
0.0
 11
2.8888430556
 21
359.6288938271
 31
0.0
  0
LINE
  5
46E
330
1F
100
AcDbEntity
  8
0
  6
Continuous
 62
     7
370
    25
100
AcDbLine
 10
7.1888430556
 20
358.8288938271
 30
0.0
 11
7.1888430556
 21
359.6288938271
 31
0.0
  0
LINE
  5
46F
330
1F
100
AcDbEntity
  8
0
  6
Continuous
 62
     7
370
    25
100
AcDbLine
 10
7.1888430556
 20
358.8288938271
 30
0.0
 11
2.8888430556
 21
358.8288938271
 31
0.0
  0
ARC
  5
470
330
1F
100
AcDbEntity
  8
0
  6
Continuous
 62
     7
370
    25
100
AcDbCircle
 10
7.1888430556
 20
360.6288938271
 30
0.0
 40
1.000000000000029
100
AcDbArc
 50
270.0
 51
0.0
  0
LINE
  5
471
330
1F
100
AcDbEntity
  8
0
  6
Continuous
 62
     7
370
    25
100
AcDbLine
 10
8.9888430556
 20
360.6288938271
 30
0.0
 11
8.9888430556
 21
377.0288938271
 31
0.0
  0
LINE
  5
472
330
1F
100
AcDbEntity
  8
0
  6
Continuous
 62
     7
370
    25
100
AcDbLine
 10
8.1888430556
 20
360.6288938271
 30
0.0
 11
8.1888430556
 21
377.0288938271
 31
0.0
  0
ARC
  5
473
330
1F
100
AcDbEntity
  8
0
  6
Continuous
 62
     7
370
    25
100
AcDbCircle
 10
7.1888430556
 20
377.0288938271
 30
0.0
 40
1.800000000000068
100
AcDbArc
 50
0.0
 51
90.0
  0
ARC
  5
474
330
1F
100
AcDbEntity
  8
0
  6
Continuous
 62
     7
370
    25
100
AcDbCircle
 10
7.1888430556
 20
360.6288938271
 30
0.0
 40
1.800000000000125
100
AcDbArc
 50
270.0
 51
0.0
  0
ARC
  5
475
330
1F
100
AcDbEntity
  8
0
  6
Continuous
 62
     7
370
    25
100
AcDbCircle
 10
7.1888430556
 20
377.0288938271
 30
0.0
 40
1.000000000000114
100
AcDbArc
 50
0.0
 51
90.0
  0
LINE
  5
476
330
1F
100
AcDbEntity
  8
0
  6
Continuous
 62
     7
370
    25
100
AcDbLine
 10
6.1888430556
 20
372.8288938271
 30
0.0
 11
6.1888430556
 21
364.8288938271
 31
0.0
  0
LWPOLYLINE
  5
477
330
1F
100
AcDbEntity
  8
0
  6
Continuous
 62
     7
370
    25
100
AcDbPolyline
 90
        3
 70
   128
 43
0.0
 10
5.182798939
 20
369.5526752297
 10
5.178398414
 20
369.5099799009
 10
5.1621735653
 20
369.326281572
  0
ARC
  5
478
330
1F
100
AcDbEntity
  8
0
  6
Continuous
 62
     7
370
    25
100
AcDbCircle
 10
5.6865664898
 20
369.6394094095
 30
0.0
 40
0.6107675350086563
100
AcDbArc
 50
210.8424581413
 51
243.3898036633
  0
ARC
  5
479
330
1F
100
AcDbEntity
  8
0
  6
Continuous
 62
     7
370
    25
100
AcDbCircle
 10
14.5695004112
 20
368.4978964582
 30
0.0
 40
9.175815043622805
100
AcDbArc
 50
177.9327321272
 51
179.656210104
  0
ARC
  5
47A
330
1F
100
AcDbEntity
  8
0
  6
Continuous
 62
     7
370
    25
100
AcDbCircle
 10
12.9258229533
 20
368.734756552
 30
0.0
 40
7.786288415097193
100
AcDbArc
 50
184.3702527064
 51
195.2299003794
  0
ARC
  5
47B
330
1F
100
AcDbEntity
  8
0
  6
Continuous
 62
     7
370
    25
100
AcDbCircle
 10
5.6341146206
 20
366.7843927108
 30
0.0
 40
0.2406805056722078
100
AcDbArc
 50
156.7420981705
 51
203.2579018295
  0
ARC
  5
47C
330
1F
100
AcDbEntity
  8
0
  6
Continuous
 62
     7
370
    25
100
AcDbCircle
 10
12.9258229533
 20
368.9248318469
 30
0.0
 40
7.786288415097506
100
AcDbArc
 50
184.3702527064
 51
195.2299003794
  0
ARC
  5
47D
330
1F
100
AcDbEntity
  8
0
  6
Continuous
 62
     7
370
    25
100
AcDbCircle
 10
5.6865664898
 20
368.0183782446
 30
0.0
 40
0.6107675350076571
100
AcDbArc
 50
116.6101963367
 51
149.1575418587
  0
ARC
  5
47E
330
1F
100
AcDbEntity
  8
0
  6
Continuous
 62
     7
370
    25
100
AcDbCircle
 10
14.4926286312
 20
369.1568753397
 30
0.0
 40
9.098942710249297
100
AcDbArc
 50
176.2668736478
 51
183.7331263522
  0
ARC
  5
47F
330
1F
100
AcDbEntity
  8
0
  6
Continuous
 62
     7
370
    25
100
AcDbCircle
 10
5.6865664898
 20
369.2032290294
 30
0.0
 40
0.6107675350079267
100
AcDbArc
 50
116.6101963367
 51
149.1575418587
  0
ARC
  5
480
330
1F
100
AcDbEntity
  8
0
  6
Continuous
 62
     7
370
    25
100
AcDbCircle
 10
12.9258229533
 20
368.9230311022
 30
0.0
 40
7.786288415097737
100
AcDbArc
 50
164.7700996206
 51
175.6297472936
  0
ARC
  5
481
330
1F
100
AcDbEntity
  8
0
  6
Continuous
 62
     7
370
    25
100
AcDbCircle
 10
5.5460768342
 20
370.8944962039
 30
0.0
 40
0.1522432420596468
100
AcDbArc
 50
150.9451665855
 51
179.144911655
  0
LINE
  5
482
330
1F
100
AcDbEntity
  8
0
  6
Continuous
 62
     7
370
    25
100
AcDbLine
 10
5.1621735653
 20
369.516356867
 30
0.0
 11
5.4007292232
 21
369.516356867
 31
0.0
  0
LINE
  5
483
330
1F
100
AcDbEntity
  8
0
  6
Continuous
 62
     7
370
    25
100
AcDbLine
 10
5.1621735653
 20
368.1414307872
 30
0.0
 11
5.1790405571
 21
368.1414307872
 31
0.0
  0
LINE
  5
484
330
1F
100
AcDbEntity
  8
0
  6
Continuous
 62
     7
370
    25
100
AcDbLine
 10
5.1621735653
 20
369.326281572
 30
0.0
 11
5.3952238817
 21
369.326281572
 31
0.0
  0
ARC
  5
485
330
1F
100
AcDbEntity
  8
0
  6
Continuous
 62
     7
370
    25
100
AcDbCircle
 10
27.4473319448
 20
305.0843670035
 30
0.0
 40
1.942508566655299
100
AcDbArc
 50
268.2745645851
 51
358.1637932023
  0
LINE
  5
486
330
1F
100
AcDbEntity
  8
0
  6
Continuous
 62
     7
370
    25
100
AcDbLine
 10
29.3888430556
 20
305.0221244276
 30
0.0
 11
29.3888430556
 21
304.338084141
 31
0.0
  0
ARC
  5
487
330
1F
100
AcDbEntity
  8
0
  6
Continuous
 62
     7
370
    25
100
AcDbCircle
 10
27.4473319448
 20
304.4003267168
 30
0.0
 40
1.942508566655177
100
AcDbArc
 50
268.2745645851
 51
358.1637932023
  0
LINE
  5
488
330
1F
100
AcDbEntity
  8
0
  6
Continuous
 62
     7
370
    25
100
AcDbLine
 10
27.3888430556
 20
302.4586988994
 30
0.0
 11
15.3888430556
 21
302.4586988994
 31
0.0
  0
LINE
  5
489
330
1F
100
AcDbEntity
  8
0
  6
Continuous
 62
     7
370
    25
100
AcDbLine
 10
27.3888430556
 20
303.142739186
 30
0.0
 11
15.3888430556
 21
303.142739186
 31
0.0
  0
LINE
  5
48A
330
1F
100
AcDbEntity
  8
0
  6
Continuous
 62
     7
370
    25
100
AcDbLine
 10
29.3888430556
 20
310.1632006645
 30
0.0
 11
29.3888430556
 21
305.0221244276
 31
0.0
  0
ARC
  5
48B
330
1F
100
AcDbEntity
  8
0
  6
Continuous
 62
     7
370
    25
100
AcDbCircle
 10
15.3303541664
 20
305.0843670035
 30
0.0
 40
1.942508566655243
100
AcDbArc
 50
181.8362067977
 51
271.7254354149
  0
LINE
  5
48C
330
1F
100
AcDbEntity
  8
0
  6
Continuous
 62
     7
370
    25
100
AcDbLine
 10
13.3888430556
 20
305.0221244276
 30
0.0
 11
13.3888430556
 21
310.1632006645
 31
0.0
  0
LINE
  5
48D
330
1F
100
AcDbEntity
  8
0
  6
Continuous
 62
     7
370
    25
100
AcDbLine
 10
13.3888430556
 20
304.338084141
 30
0.0
 11
13.3888430556
 21
305.0221244276
 31
0.0
  0
ARC
  5
48E
330
1F
100
AcDbEntity
  8
0
  6
Continuous
 62
     7
370
    25
100
AcDbCircle
 10
15.3303541664
 20
304.4003267168
 30
0.0
 40
1.942508566655161
100
AcDbArc
 50
181.8362067977
 51
271.7254354149
  0
LINE
  5
48F
330
1F
100
AcDbEntity
  8
0
  6
Continuous
 62
     7
370
    25
100
AcDbLine
 10
29.3888430556
 20
310.1632006645
 30
0.0
 11
29.3888430556
 21
310.5052208078
 31
0.0
  0
LINE
  5
490
330
1F
100
AcDbEntity
  8
0
  6
Continuous
 62
     7
370
    25
100
AcDbLine
 10
13.3888430556
 20
310.5052208078
 30
0.0
 11
13.3888430556
 21
310.1632006645
 31
0.0
  0
LINE
  5
491
330
1F
100
AcDbEntity
  8
0
  6
Continuous
 62
     7
370
    25
100
AcDbLine
 10
2.8888430556
 20
310.3288938271
 30
0.0
 11
13.3888430556
 21
310.3288938271
 31
0.0
  0
LINE
  5
492
330
1F
100
AcDbEntity
  8
0
  6
Continuous
 62
     7
370
    25
100
AcDbLine
 10
29.3888430556
 20
310.5052208078
 30
0.0
 11
29.3888430556
 21
323.3288938271
 31
0.0
  0
ARC
  5
493
330
1F
100
AcDbEntity
  8
0
  6
Continuous
 62
     7
370
    25
100
AcDbCircle
 10
27.3888430556
 20
323.3288938271
 30
0.0
 40
2.0
100
AcDbArc
 50
0.0
 51
90.0
  0
LINE
  5
494
330
1F
100
AcDbEntity
  8
0
  6
Continuous
 62
     7
370
    25
100
AcDbLine
 10
27.3888430556
 20
325.3288938271
 30
0.0
 11
2.8888430556
 21
325.3288938271
 31
0.0
  0
CIRCLE
  5
495
330
1F
100
AcDbEntity
  8
0
  6
Continuous
 62
     7
370
    25
100
AcDbCircle
 10
21.4888430556
 20
317.8288938271
 30
0.0
 40
3.499999999999996
  0
ARC
  5
496
330
1F
100
AcDbEntity
  8
0
  6
Continuous
 62
     7
370
    25
100
AcDbCircle
 10
22.2231459888
 20
219.3612364974
 30
0.0
 40
0.2500000000000673
100
AcDbArc
 50
4.3943592384
 51
124.4117254238
  0
LINE
  5
497
330
1F
100
AcDbEntity
  8
0
  6
Continuous
 62
     7
370
    25
100
AcDbLine
 10
21.5105847288
 20
219.1761524875
 30
0.0
 11
22.0818620266
 21
219.567485963
 31
0.0
  0
ARC
  5
498
330
1F
100
AcDbEntity
  8
0
  6
Continuous
 62
     7
370
    25
100
AcDbCircle
 10
21.3693007666
 20
219.382401953
 30
0.0
 40
0.2500000000000087
100
AcDbArc
 50
244.3977000997
 51
304.4117254239
  0
LINE
  5
499
330
1F
100
AcDbEntity
  8
0
  6
Continuous
 62
     7
370
    25
100
AcDbLine
 10
20.6367411311
 20
219.4562032137
 30
0.0
 11
21.2612702794
 21
219.1569481577
 31
0.0
  0
ARC
  5
49A
330
1F
100
AcDbEntity
  8
0
  6
Continuous
 62
     7
370
    25
100
AcDbCircle
 10
20.5287106439
 20
219.2307494184
 30
0.0
 40
0.2500000000001965
100
AcDbArc
 50
64.3977000997
 51
184.3943592384
  0
LINE
  5
49B
330
1F
100
AcDbEntity
  8
0
  6
Continuous
 62
     7
370
    25
100
AcDbLine
 10
20.332464532
 20
218.5216633154
 30
0.0
 11
20.2794455688
 21
219.2115942014
 31
0.0
  0
ARC
  5
49C
330
1F
100
AcDbEntity
  8
0
  6
Continuous
 62
     7
370
    25
100
AcDbCircle
 10
20.0831994569
 20
218.5025080984
 30
0.0
 40
0.2500000000003085
100
AcDbArc
 50
304.3747947261
 51
4.3943592384
  0
LINE
  5
49D
330
1F
100
AcDbEntity
  8
0
  6
Continuous
 62
     7
370
    25
100
AcDbLine
 10
19.6524078356
 20
217.904919785
 30
0.0
 11
20.2243504491
 21
218.2961676094
 31
0.0
  0
ARC
  5
49E
330
1F
100
AcDbEntity
  8
0
  6
Continuous
 62
     7
370
    25
100
AcDbCircle
 10
19.7935588278
 20
217.698579296
 30
0.0
 40
0.2500000000004243
100
AcDbArc
 50
124.3747947261
 51
244.3977000997
  0
LINE
  5
49F
330
1F
100
AcDbEntity
  8
0
  6
Continuous
 62
     7
370
    25
100
AcDbLine
 10
20.310294832
 20
217.1737567172
 30
0.0
 11
19.6855283407
 21
217.4731255007
 31
0.0
  0
ARC
  5
4A0
330
1F
100
AcDbEntity
  8
0
  6
Continuous
 62
     7
370
    25
100
AcDbCircle
 10
20.2022643448
 20
216.9483029219
 30
0.0
 40
0.2500000000000087
100
AcDbArc
 50
4.3966030432
 51
64.3977000997
  0
LINE
  5
4A1
330
1F
100
AcDbEntity
  8
0
  6
Continuous
 62
     7
370
    25
100
AcDbLine
 10
20.5046841463
 20
216.2761149773
 30
0.0
 11
20.4515286695
 21
216.9674679006
 31
0.0
  0
ARC
  5
4A2
330
1F
100
AcDbEntity
  8
0
  6
Continuous
 62
     7
370
    25
100
AcDbCircle
 10
20.7539484711
 20
216.2952799559
 30
0.0
 40
0.249999999999953
100
AcDbArc
 50
184.3966030432
 51
304.4058729733
  0
LINE
  5
4A3
330
1F
100
AcDbEntity
  8
0
  6
Continuous
 62
     7
370
    25
100
AcDbLine
 10
21.4671140145
 20
216.4806920881
 30
0.0
 11
20.8952113653
 21
216.0890160601
 31
0.0
  0
ARC
  5
4A4
330
1F
100
AcDbEntity
  8
0
  6
Continuous
 62
     7
370
    25
100
AcDbCircle
 10
21.6083769087
 20
216.2744281923
 30
0.0
 40
0.2500000000000103
100
AcDbArc
 50
64.3977000997
 51
124.4058729733
  0
LINE
  5
4A5
330
1F
100
AcDbEntity
  8
0
  6
Continuous
 62
     7
370
    25
100
AcDbLine
 10
22.3409691358
 20
216.2006113147
 30
0.0
 11
21.7164073959
 21
216.4998819876
 31
0.0
  0
ARC
  5
4A6
330
1F
100
AcDbEntity
  8
0
  6
Continuous
 62
     7
370
    25
100
AcDbCircle
 10
22.448999623
 20
216.4260651101
 30
0.0
 40
0.2500000000000098
100
AcDbArc
 50
244.3977000997
 51
4.3921686445
  0
LINE
  5
4A7
330
1F
100
AcDbEntity
  8
0
  6
Continuous
 62
     7
370
    25
100
AcDbLine
 10
22.6451881346
 20
217.136246593
 30
0.0
 11
22.6982654302
 21
216.4452107969
 31
0.0
  0
ARC
  5
4A8
330
1F
100
AcDbEntity
  8
0
  6
Continuous
 62
     7
370
    25
100
AcDbCircle
 10
22.8944539419
 20
217.1553922798
 30
0.0
 40
0.2500000000008278
100
AcDbArc
 50
124.4117254238
 51
184.3921686444
  0
LINE
  5
4A9
330
1F
100
AcDbEntity
  8
0
  6
Continuous
 62
     7
370
    25
100
AcDbLine
 10
23.3245665038
 20
217.7530568926
 30
0.0
 11
22.7531699797
 21
217.3616417453
 31
0.0
  0
ARC
  5
4AA
330
1F
100
AcDbEntity
  8
0
  6
Continuous
 62
     7
370
    25
100
AcDbCircle
 10
23.1832825416
 20
217.9593063581
 30
0.0
 40
0.2500000000001752
100
AcDbArc
 50
304.4117254238
 51
64.3977000997
  0
LINE
  5
4AB
330
1F
100
AcDbEntity
  8
0
  6
Continuous
 62
     7
370
    25
100
AcDbLine
 10
22.666671787
 20
218.4840689212
 30
0.0
 11
23.2913130288
 21
218.1847601535
 31
0.0
  0
ARC
  5
4AC
330
1F
100
AcDbEntity
  8
0
  6
Continuous
 62
     7
370
    25
100
AcDbCircle
 10
22.7747022742
 20
218.7095227166
 30
0.0
 40
0.2499999999999995
100
AcDbArc
 50
184.3943592385
 51
244.3977000997
  0
LINE
  5
4AD
330
1F
100
AcDbEntity
  8
0
  6
Continuous
 62
     7
370
    25
100
AcDbLine
 10
22.4724110639
 20
219.3803917144
 30
0.0
 11
22.5254371991
 21
218.6903674996
 31
0.0
  0
LINE
  5
4AE
330
1F
100
AcDbEntity
  8
0
  6
Continuous
 62
     7
370
    25
100
AcDbLine
 10
27.3888430556
 20
202.4586988994
 30
0.0
 11
15.3888430556
 21
202.4586988994
 31
0.0
  0
LINE
  5
4AF
330
1F
100
AcDbEntity
  8
0
  6
Continuous
 62
     7
370
    25
100
AcDbLine
 10
27.3888430556
 20
203.142739186
 30
0.0
 11
15.3888430556
 21
203.142739186
 31
0.0
  0
LINE
  5
4B0
330
1F
100
AcDbEntity
  8
0
  6
Continuous
 62
     7
370
    25
100
AcDbLine
 10
29.3888430556
 20
210.1632006645
 30
0.0
 11
29.3888430556
 21
205.0221244276
 31
0.0
  0
ARC
  5
4B1
330
1F
100
AcDbEntity
  8
0
  6
Continuous
 62
     7
370
    25
100
AcDbCircle
 10
27.4473319448
 20
205.0843670035
 30
0.0
 40
1.942508566655218
100
AcDbArc
 50
268.2745645851
 51
358.1637932023
  0
ARC
  5
4B2
330
1F
100
AcDbEntity
  8
0
  6
Continuous
 62
     7
370
    25
100
AcDbCircle
 10
15.3303541664
 20
205.0843670035
 30
0.0
 40
1.942508566655239
100
AcDbArc
 50
181.8362067977
 51
271.7254354149
  0
LINE
  5
4B3
330
1F
100
AcDbEntity
  8
0
  6
Continuous
 62
     7
370
    25
100
AcDbLine
 10
13.3888430556
 20
205.0221244276
 30
0.0
 11
13.3888430556
 21
210.1632006645
 31
0.0
  0
LINE
  5
4B4
330
1F
100
AcDbEntity
  8
0
  6
Continuous
 62
     7
370
    25
100
AcDbLine
 10
29.3888430556
 20
205.0221244276
 30
0.0
 11
29.3888430556
 21
204.338084141
 31
0.0
  0
ARC
  5
4B5
330
1F
100
AcDbEntity
  8
0
  6
Continuous
 62
     7
370
    25
100
AcDbCircle
 10
27.4473319448
 20
204.4003267168
 30
0.0
 40
1.942508566655271
100
AcDbArc
 50
268.2745645851
 51
358.1637932023
  0
LINE
  5
4B6
330
1F
100
AcDbEntity
  8
0
  6
Continuous
 62
     7
370
    25
100
AcDbLine
 10
13.3888430556
 20
204.338084141
 30
0.0
 11
13.3888430556
 21
205.0221244276
 31
0.0
  0
ARC
  5
4B7
330
1F
100
AcDbEntity
  8
0
  6
Continuous
 62
     7
370
    25
100
AcDbCircle
 10
15.3303541664
 20
204.4003267168
 30
0.0
 40
1.942508566655275
100
AcDbArc
 50
181.8362067977
 51
271.7254354149
  0
LINE
  5
4B8
330
1F
100
AcDbEntity
  8
0
  6
Continuous
 62
     7
370
    25
100
AcDbLine
 10
13.3888430556
 20
210.5052208078
 30
0.0
 11
13.3888430556
 21
210.1632006645
 31
0.0
  0
LINE
  5
4B9
330
1F
100
AcDbEntity
  8
0
  6
Continuous
 62
     7
370
    25
100
AcDbLine
 10
29.3888430556
 20
210.1632006645
 30
0.0
 11
29.3888430556
 21
210.5052208078
 31
0.0
  0
LINE
  5
4BA
330
1F
100
AcDbEntity
  8
0
  6
Continuous
 62
     7
370
    25
100
AcDbLine
 10
2.8888430556
 20
210.3288938271
 30
0.0
 11
13.3888430556
 21
210.3288938271
 31
0.0
  0
LINE
  5
4BB
330
1F
100
AcDbEntity
  8
0
  6
Continuous
 62
     7
370
    25
100
AcDbLine
 10
27.3888430556
 20
225.3288938271
 30
0.0
 11
2.8888430556
 21
225.3288938271
 31
0.0
  0
ARC
  5
4BC
330
1F
100
AcDbEntity
  8
0
  6
Continuous
 62
     7
370
    25
100
AcDbCircle
 10
27.3888430556
 20
223.3288938271
 30
0.0
 40
2.0
100
AcDbArc
 50
0.0
 51
90.0
  0
LINE
  5
4BD
330
1F
100
AcDbEntity
  8
0
  6
Continuous
 62
     7
370
    25
100
AcDbLine
 10
29.3888430556
 20
210.5052208078
 30
0.0
 11
29.3888430556
 21
223.3288938271
 31
0.0
  0
CIRCLE
  5
4BE
330
1F
100
AcDbEntity
  8
0
  6
Continuous
 62
     7
370
    25
100
AcDbCircle
 10
21.4888430556
 20
217.8288938271
 30
0.0
 40
3.499999999999996
  0
CIRCLE
  5
4BF
330
1F
100
AcDbEntity
  8
0
  6
Continuous
 62
     7
370
    25
100
AcDbCircle
 10
21.4888430556
 20
317.8288938271
 30
0.0
 40
2.458750000016647
  0
CIRCLE
  5
4C0
330
1F
100
AcDbEntity
  8
0
  6
Continuous
 62
     7
370
    25
100
AcDbCircle
 10
21.4888430556
 20
317.8288938271
 30
0.0
 40
2.999999999999996
  0
ENDSEC
  0
SECTION
  2
OBJECTS
  0
DICTIONARY
  5
C
330
0
100
AcDbDictionary
281
     1
  3
ACAD_GROUP
350
D
  3
ACAD_LAYOUT
350
1A
  3
ACAD_MLINESTYLE
350
17
  3
ACAD_PLOTSETTINGS
350
19
  3
ACAD_PLOTSTYLENAME
350
E
  3
ACAD_SCALELIST
350
47
  0
DICTIONARY
  5
D
102
{ACAD_REACTORS
330
C
102
}
330
C
100
AcDbDictionary
281
     1
  0
DICTIONARY
  5
1A
102
{ACAD_REACTORS
330
C
102
}
330
C
100
AcDbDictionary
281
     1
  3
Layout1
350
1E
  3
Layout2
350
26
  3
Model
350
22
  0
DICTIONARY
  5
17
102
{ACAD_REACTORS
330
C
102
}
330
C
100
AcDbDictionary
281
     1
  3
Standard
350
18
  0
DICTIONARY
  5
19
102
{ACAD_REACTORS
330
C
102
}
330
C
100
AcDbDictionary
281
     1
  0
ACDBDICTIONARYWDFLT
  5
E
102
{ACAD_REACTORS
330
C
102
}
330
C
100
AcDbDictionary
281
     1
  3
Normal
350
F
100
AcDbDictionaryWithDefault
340
F
  0
DICTIONARY
  5
47
102
{ACAD_REACTORS
330
C
102
}
330
C
100
AcDbDictionary
281
     1
  3
A0
350
48
  3
A1
350
49
  3
A2
350
4A
  3
A3
350
4B
  3
A4
350
4C
  3
A5
350
4D
  3
A6
350
4E
  3
A7
350
4F
  3
A8
350
50
  3
A9
350
51
  3
B0
350
52
  3
B1
350
53
  3
B2
350
54
  3
B3
350
55
  3
B4
350
56
  3
B5
350
57
  3
B6
350
58
  3
B7
350
59
  3
B8
350
5A
  3
B9
350
5B
  3
C0
350
5C
  3
C1
350
5D
  3
C2
350
5E
  3
C3
350
5F
  3
C4
350
60
  3
C5
350
61
  3
C6
350
62
  3
C7
350
63
  3
C8
350
64
  3
C9
350
65
  3
D0
350
66
  3
D1
350
67
  3
D2
350
68
  0
LAYOUT
  5
1E
102
{ACAD_REACTORS
330
1A
102
}
330
1A
100
AcDbPlotSettings
  1

  2
none_device
  4

  6

 40
0.0
 41
0.0
 42
0.0
 43
0.0
 44
0.0
 45
0.0
 46
0.0
 47
0.0
 48
0.0
 49
0.0
140
0.0
141
0.0
142
1.0
143
1.0
 70
   688
 72
     1
 73
     0
 74
     5
  7

 75
    16
147
1.0
148
0.0
149
0.0
100
AcDbLayout
  1
Layout1
 70
     1
 71
     1
 10
0.0
 20
0.0
 11
420.0
 21
297.0
 12
0.0
 22
0.0
 32
0.0
 14
1.0000000000E+20
 24
1.0000000000E+20
 34
1.0000000000E+20
 15
-1.0000000000E+20
 25
-1.0000000000E+20
 35
-1.0000000000E+20
146
0.0
 13
0.0
 23
0.0
 33
0.0
 16
1.0
 26
0.0
 36
0.0
 17
0.0
 27
1.0
 37
0.0
 76
     0
330
1B
  0
LAYOUT
  5
26
102
{ACAD_REACTORS
330
1A
102
}
330
1A
100
AcDbPlotSettings
  1

  2
none_device
  4

  6

 40
0.0
 41
0.0
 42
0.0
 43
0.0
 44
0.0
 45
0.0
 46
0.0
 47
0.0
 48
0.0
 49
0.0
140
0.0
141
0.0
142
1.0
143
1.0
 70
   688
 72
     1
 73
     0
 74
     5
  7

 75
    16
147
1.0
148
0.0
149
0.0
100
AcDbLayout
  1
Layout2
 70
     1
 71
     2
 10
0.0
 20
0.0
 11
0.0
 21
0.0
 12
0.0
 22
0.0
 32
0.0
 14
0.0
 24
0.0
 34
0.0
 15
0.0
 25
0.0
 35
0.0
146
0.0
 13
0.0
 23
0.0
 33
0.0
 16
1.0
 26
0.0
 36
0.0
 17
0.0
 27
1.0
 37
0.0
 76
     0
330
23
  0
LAYOUT
  5
22
102
{ACAD_REACTORS
330
1A
102
}
330
1A
100
AcDbPlotSettings
  1

  2
none_device
  4
Letter_(8.50_x_11.00_Inches)
  6

 40
6.35
 41
6.35
 42
6.35000508
 43
6.35000508
 44
215.9
 45
279.4
 46
0.0
 47
0.0
 48
0.0
 49
0.0
140
0.0
141
0.0
142
1.0
143
1.0
 70
  1712
 72
     1
 73
     0
 74
     0
  7

 75
     0
147
1.0
148
0.0
149
0.0
100
AcDbLayout
  1
Model
 70
     1
 71
     0
 10
0.0
 20
0.0
 11
841.0
 21
594.0
 12
0.0
 22
0.0
 32
0.0
 14
0.0
 24
0.0
 34
0.0
 15
841.0
 25
594.0
 35
0.0
146
0.0
 13
0.0
 23
0.0
 33
0.0
 16
1.0
 26
0.0
 36
0.0
 17
0.0
 27
1.0
 37
0.0
 76
     0
330
1F
331
29
  0
MLINESTYLE
  5
18
102
{ACAD_REACTORS
330
17
102
}
330
17
100
AcDbMlineStyle
  2
Standard
 70
     0
  3

 62
   256
 51
90.0
 52
90.0
 71
     2
 49
0.5
 62
   256
  6
BYLAYER
 49
-0.5
 62
   256
  6
BYLAYER
  0
ACDBPLACEHOLDER
  5
F
102
{ACAD_REACTORS
330
E
102
}
330
E
  0
SCALE
  5
48
102
{ACAD_REACTORS
330
47
102
}
330
47
100
AcDbScale
 70
     0
300
1:1
140
1.0
141
1.0
290
     1
  0
SCALE
  5
49
102
{ACAD_REACTORS
330
47
102
}
330
47
100
AcDbScale
 70
     0
300
1:2
140
1.0
141
2.0
290
     0
  0
SCALE
  5
4A
102
{ACAD_REACTORS
330
47
102
}
330
47
100
AcDbScale
 70
     0
300
1:4
140
1.0
141
4.0
290
     0
  0
SCALE
  5
4B
102
{ACAD_REACTORS
330
47
102
}
330
47
100
AcDbScale
 70
     0
300
1:5
140
1.0
141
5.0
290
     0
  0
SCALE
  5
4C
102
{ACAD_REACTORS
330
47
102
}
330
47
100
AcDbScale
 70
     0
300
1:8
140
1.0
141
8.0
290
     0
  0
SCALE
  5
4D
102
{ACAD_REACTORS
330
47
102
}
330
47
100
AcDbScale
 70
     0
300
1:10
140
1.0
141
10.0
290
     0
  0
SCALE
  5
4E
102
{ACAD_REACTORS
330
47
102
}
330
47
100
AcDbScale
 70
     0
300
1:16
140
1.0
141
16.0
290
     0
  0
SCALE
  5
4F
102
{ACAD_REACTORS
330
47
102
}
330
47
100
AcDbScale
 70
     0
300
1:20
140
1.0
141
20.0
290
     0
  0
SCALE
  5
50
102
{ACAD_REACTORS
330
47
102
}
330
47
100
AcDbScale
 70
     0
300
1:30
140
1.0
141
30.0
290
     0
  0
SCALE
  5
51
102
{ACAD_REACTORS
330
47
102
}
330
47
100
AcDbScale
 70
     0
300
1:40
140
1.0
141
40.0
290
     0
  0
SCALE
  5
52
102
{ACAD_REACTORS
330
47
102
}
330
47
100
AcDbScale
 70
     0
300
1:50
140
1.0
141
50.0
290
     0
  0
SCALE
  5
53
102
{ACAD_REACTORS
330
47
102
}
330
47
100
AcDbScale
 70
     0
300
1:100
140
1.0
141
100.0
290
     0
  0
SCALE
  5
54
102
{ACAD_REACTORS
330
47
102
}
330
47
100
AcDbScale
 70
     0
300
2:1
140
2.0
141
1.0
290
     0
  0
SCALE
  5
55
102
{ACAD_REACTORS
330
47
102
}
330
47
100
AcDbScale
 70
     0
300
4:1
140
4.0
141
1.0
290
     0
  0
SCALE
  5
56
102
{ACAD_REACTORS
330
47
102
}
330
47
100
AcDbScale
 70
     0
300
8:1
140
8.0
141
1.0
290
     0
  0
SCALE
  5
57
102
{ACAD_REACTORS
330
47
102
}
330
47
100
AcDbScale
 70
     0
300
10:1
140
10.0
141
1.0
290
     0
  0
SCALE
  5
58
102
{ACAD_REACTORS
330
47
102
}
330
47
100
AcDbScale
 70
     0
300
100:1
140
100.0
141
1.0
290
     0
  0
SCALE
  5
59
102
{ACAD_REACTORS
330
47
102
}
330
47
100
AcDbScale
 70
     0
300
1/128" = 1'-0"
140
0.0078125
141
12.0
290
     0
  0
SCALE
  5
5A
102
{ACAD_REACTORS
330
47
102
}
330
47
100
AcDbScale
 70
     0
300
1/64" = 1'-0"
140
0.015625
141
12.0
290
     0
  0
SCALE
  5
5B
102
{ACAD_REACTORS
330
47
102
}
330
47
100
AcDbScale
 70
     0
300
1/32" = 1'-0"
140
0.03125
141
12.0
290
     0
  0
SCALE
  5
5C
102
{ACAD_REACTORS
330
47
102
}
330
47
100
AcDbScale
 70
     0
300
1/16" = 1'-0"
140
0.0625
141
12.0
290
     0
  0
SCALE
  5
5D
102
{ACAD_REACTORS
330
47
102
}
330
47
100
AcDbScale
 70
     0
300
3/32" = 1'-0"
140
0.09375
141
12.0
290
     0
  0
SCALE
  5
5E
102
{ACAD_REACTORS
330
47
102
}
330
47
100
AcDbScale
 70
     0
300
1/8" = 1'-0"
140
0.125
141
12.0
290
     0
  0
SCALE
  5
5F
102
{ACAD_REACTORS
330
47
102
}
330
47
100
AcDbScale
 70
     0
300
3/16" = 1'-0"
140
0.1875
141
12.0
290
     0
  0
SCALE
  5
60
102
{ACAD_REACTORS
330
47
102
}
330
47
100
AcDbScale
 70
     0
300
1/4" = 1'-0"
140
0.25
141
12.0
290
     0
  0
SCALE
  5
61
102
{ACAD_REACTORS
330
47
102
}
330
47
100
AcDbScale
 70
     0
300
3/8" = 1'-0"
140
0.375
141
12.0
290
     0
  0
SCALE
  5
62
102
{ACAD_REACTORS
330
47
102
}
330
47
100
AcDbScale
 70
     0
300
1/2" = 1'-0"
140
0.5
141
12.0
290
     0
  0
SCALE
  5
63
102
{ACAD_REACTORS
330
47
102
}
330
47
100
AcDbScale
 70
     0
300
3/4" = 1'-0"
140
0.75
141
12.0
290
     0
  0
SCALE
  5
64
102
{ACAD_REACTORS
330
47
102
}
330
47
100
AcDbScale
 70
     0
300
1" = 1'-0"
140
1.0
141
12.0
290
     0
  0
SCALE
  5
65
102
{ACAD_REACTORS
330
47
102
}
330
47
100
AcDbScale
 70
     0
300
1-1/2" = 1'-0"
140
1.5
141
12.0
290
     0
  0
SCALE
  5
66
102
{ACAD_REACTORS
330
47
102
}
330
47
100
AcDbScale
 70
     0
300
3" = 1'-0"
140
3.0
141
12.0
290
     0
  0
SCALE
  5
67
102
{ACAD_REACTORS
330
47
102
}
330
47
100
AcDbScale
 70
     0
300
6" = 1'-0"
140
6.0
141
12.0
290
     0
  0
SCALE
  5
68
102
{ACAD_REACTORS
330
47
102
}
330
47
100
AcDbScale
 70
     0
300
1'-0" = 1'-0"
140
12.0
141
12.0
290
     0
  0
ENDSEC
  0
EOF
