  0
SECTION
  2
HEADER
  9
$ACADVER
  1
AC1015
  9
$ACADMAINTVER
 70
     6
  9
$DWGCODEPAGE
  3
ANSI_1251
  9
$INSBASE
 10
0.0
 20
0.0
 30
0.0
  9
$EXTMIN
 10
0.0
 20
0.0
 30
0.0
  9
$EXTMAX
 10
420.0
 20
297.0
 30
0.0
  9
$LIMMIN
 10
0.0
 20
0.0
  9
$LIMMAX
 10
420.0
 20
297.0
  9
$ORTHOMODE
 70
     0
  9
$REGENMODE
 70
     1
  9
$FILLMODE
 70
     1
  9
$QTEXTMODE
 70
     0
  9
$MIRRTEXT
 70
     1
  9
$LTSCALE
 40
1.0
  9
$ATTMODE
 70
     1
  9
$TEXTSIZE
 40
5.0
  9
$TRACEWID
 40
1.0
  9
$TEXTSTYLE
  7
Standard
  9
$CLAYER
  8
0
  9
$CELTYPE
  6
ByLayer
  9
$CECOLOR
 62
   256
  9
$CELTSCALE
 40
1.0
  9
$DISPSILH
 70
     0
  9
$DIMSCALE
 40
1.0
  9
$DIMASZ
 40
5.0
  9
$DIMEXO
 40
0.0
  9
$DIMDLI
 40
3.75
  9
$DIMRND
 40
0.0
  9
$DIMDLE
 40
0.0
  9
$DIMEXE
 40
1.0
  9
$DIMTP
 40
0.0
  9
$DIMTM
 40
0.0
  9
$DIMTXT
 40
3.5
  9
$DIMCEN
 40
2.5
  9
$DIMTSZ
 40
0.0
  9
$DIMTOL
 70
     0
  9
$DIMLIM
 70
     0
  9
$DIMTIH
 70
     1
  9
$DIMTOH
 70
     1
  9
$DIMSE1
 70
     0
  9
$DIMSE2
 70
     0
  9
$DIMTAD
 70
     1
  9
$DIMZIN
 70
     0
  9
$DIMBLK
  1

  9
$DIMASO
 70
     1
  9
$DIMSHO
 70
     1
  9
$DIMPOST
  1

  9
$DIMAPOST
  1

  9
$DIMALT
 70
     0
  9
$DIMALTD
 70
     3
  9
$DIMALTF
 40
0.0393700787
  9
$DIMLFAC
 40
1.0
  9
$DIMTOFL
 70
     1
  9
$DIMTVP
 40
0.0
  9
$DIMTIX
 70
     0
  9
$DIMSOXD
 70
     0
  9
$DIMSAH
 70
     0
  9
$DIMBLK1
  1

  9
$DIMBLK2
  1

  9
$DIMSTYLE
  2
ISO-25
  9
$DIMCLRD
 70
     0
  9
$DIMCLRE
 70
     0
  9
$DIMCLRT
 70
     0
  9
$DIMTFAC
 40
1.0
  9
$DIMGAP
 40
1.5
  9
$DIMJUST
 70
     0
  9
$DIMSD1
 70
     0
  9
$DIMSD2
 70
     0
  9
$DIMTOLJ
 70
     0
  9
$DIMTZIN
 70
     0
  9
$DIMALTZ
 70
     0
  9
$DIMALTTZ
 70
     0
  9
$DIMUPT
 70
     0
  9
$DIMDEC
 70
     1
  9
$DIMTDEC
 70
     1
  9
$DIMALTU
 70
     2
  9
$DIMALTTD
 70
     3
  9
$DIMTXSTY
  7
Standard
  9
$DIMAUNIT
 70
     0
  9
$DIMADEC
 70
     2
  9
$DIMALTRND
 40
0.0
  9
$DIMAZIN
 70
     0
  9
$DIMDSEP
 70
    44
  9
$DIMATFIT
 70
     3
  9
$DIMFRAC
 70
     0
  9
$DIMLDRBLK
  1

  9
$DIMLUNIT
 70
     2
  9
$DIMLWD
 70
    -2
  9
$DIMLWE
 70
    -2
  9
$DIMTMOVE
 70
     0
  9
$LUNITS
 70
     2
  9
$LUPREC
 70
     1
  9
$SKETCHINC
 40
1.0
  9
$FILLETRAD
 40
0.0
  9
$AUNITS
 70
     0
  9
$AUPREC
 70
     2
  9
$MENU
  1
.
  9
$ELEVATION
 40
0.0
  9
$PELEVATION
 40
0.0
  9
$THICKNESS
 40
0.0
  9
$LIMCHECK
 70
     0
  9
$CHAMFERA
 40
0.0
  9
$CHAMFERB
 40
0.0
  9
$CHAMFERC
 40
0.0
  9
$CHAMFERD
 40
0.0
  9
$SKPOLY
 70
     0
  9
$TDCREATE
 40
2460697.705003183
  9
$TDUCREATE
 40
2460697.580003183
  9
$TDUPDATE
 40
2460697.705003553
  9
$TDUUPDATE
 40
2460697.580003553
  9
$TDINDWG
 40
0.0000000116
  9
$TDUSRTIMER
 40
0.0000000116
  9
$USRTIMER
 70
     1
  9
$ANGBASE
 50
0.0
  9
$ANGDIR
 70
     0
  9
$PDMODE
 70
     0
  9
$PDSIZE
 40
-1.0
  9
$PLINEWID
 40
0.0
  9
$SPLFRAME
 70
     0
  9
$SPLINETYPE
 70
     6
  9
$SPLINESEGS
 70
     8
  9
$HANDSEED
  5
21E
  9
$SURFTAB1
 70
     6
  9
$SURFTAB2
 70
     6
  9
$SURFTYPE
 70
     6
  9
$SURFU
 70
     6
  9
$SURFV
 70
     6
  9
$UCSBASE
  2

  9
$UCSNAME
  2

  9
$UCSORG
 10
0.0
 20
0.0
 30
0.0
  9
$UCSXDIR
 10
1.0
 20
0.0
 30
0.0
  9
$UCSYDIR
 10
0.0
 20
1.0
 30
0.0
  9
$UCSORTHOREF
  2

  9
$UCSORTHOVIEW
 70
     0
  9
$UCSORGTOP
 10
0.0
 20
0.0
 30
0.0
  9
$UCSORGBOTTOM
 10
0.0
 20
0.0
 30
0.0
  9
$UCSORGLEFT
 10
0.0
 20
0.0
 30
0.0
  9
$UCSORGRIGHT
 10
0.0
 20
0.0
 30
0.0
  9
$UCSORGFRONT
 10
0.0
 20
0.0
 30
0.0
  9
$UCSORGBACK
 10
0.0
 20
0.0
 30
0.0
  9
$PUCSBASE
  2

  9
$PUCSNAME
  2

  9
$PUCSORG
 10
0.0
 20
0.0
 30
0.0
  9
$PUCSXDIR
 10
1.0
 20
0.0
 30
0.0
  9
$PUCSYDIR
 10
0.0
 20
1.0
 30
0.0
  9
$PUCSORTHOREF
  2

  9
$PUCSORTHOVIEW
 70
     0
  9
$PUCSORGTOP
 10
0.0
 20
0.0
 30
0.0
  9
$PUCSORGBOTTOM
 10
0.0
 20
0.0
 30
0.0
  9
$PUCSORGLEFT
 10
0.0
 20
0.0
 30
0.0
  9
$PUCSORGRIGHT
 10
0.0
 20
0.0
 30
0.0
  9
$PUCSORGFRONT
 10
0.0
 20
0.0
 30
0.0
  9
$PUCSORGBACK
 10
0.0
 20
0.0
 30
0.0
  9
$USERI1
 70
     0
  9
$USERI2
 70
     0
  9
$USERI3
 70
     0
  9
$USERI4
 70
     0
  9
$USERI5
 70
     0
  9
$USERR1
 40
0.0
  9
$USERR2
 40
0.0
  9
$USERR3
 40
0.0
  9
$USERR4
 40
0.0
  9
$USERR5
 40
0.0
  9
$WORLDVIEW
 70
     1
  9
$SHADEDGE
 70
     3
  9
$SHADEDIF
 70
    70
  9
$TILEMODE
 70
     1
  9
$MAXACTVP
 70
    64
  9
$PINSBASE
 10
0.0
 20
0.0
 30
0.0
  9
$PLIMCHECK
 70
     0
  9
$PEXTMIN
 10
1.0000000000E+20
 20
1.0000000000E+20
 30
1.0000000000E+20
  9
$PEXTMAX
 10
-1.0000000000E+20
 20
-1.0000000000E+20
 30
-1.0000000000E+20
  9
$PLIMMIN
 10
0.0
 20
0.0
  9
$PLIMMAX
 10
420.0
 20
297.0
  9
$UNITMODE
 70
     0
  9
$VISRETAIN
 70
     1
  9
$PLINEGEN
 70
     0
  9
$PSLTSCALE
 70
     1
  9
$TREEDEPTH
 70
  3020
  9
$CMLSTYLE
  2
Standard
  9
$CMLJUST
 70
     0
  9
$CMLSCALE
 40
20.0
  9
$PROXYGRAPHICS
 70
     1
  9
$MEASUREMENT
 70
     1
  9
$CELWEIGHT
370
    -1
  9
$ENDCAPS
280
     0
  9
$JOINSTYLE
280
     0
  9
$LWDISPLAY
290
     1
  9
$INSUNITS
 70
     4
  9
$HYPERLINKBASE
  1

  9
$STYLESHEET
  1

  9
$XEDIT
290
     1
  9
$CEPSNTYPE
380
     0
  9
$PSTYLEMODE
290
     1
  9
$FINGERPRINTGUID
  2
{91bbbeb9-aef1-4f1f-8d7f-6823b421a5be}
  9
$VERSIONGUID
  2
{FAEB1C32-E019-11D5-929B-00C0DF256EC4}
  9
$EXTNAMES
290
     1
  9
$PSVPSCALE
 40
0.0
  9
$OLESTARTUP
290
     0
  0
ENDSEC
  0
SECTION
  2
CLASSES
  0
CLASS
  1
ACDBDICTIONARYWDFLT
  2
AcDbDictionaryWithDefault
  3
ObjectDBX Classes
 90
        0
280
     0
281
     0
  0
CLASS
  1
VISUALSTYLE
  2
AcDbVisualStyle
  3
ObjectDBX Classes
 90
     4095
280
     0
281
     0
  0
CLASS
  1
MATERIAL
  2
AcDbMaterial
  3
ObjectDBX Classes
 90
     1153
280
     0
281
     0
  0
CLASS
  1
SCALE
  2
AcDbScale
  3
ObjectDBX Classes
 90
     1153
280
     0
281
     0
  0
CLASS
  1
TABLESTYLE
  2
AcDbTableStyle
  3
ObjectDBX Classes
 90
     4095
280
     0
281
     0
  0
CLASS
  1
MLEADERSTYLE
  2
AcDbMLeaderStyle
  3
ACDB_MLEADERSTYLE_CLASS
 90
     4095
280
     0
281
     0
  0
CLASS
  1
SUN
  2
AcDbSun
  3
SCENEOE
 90
     1153
280
     0
281
     0
  0
CLASS
  1
ACDBPLACEHOLDER
  2
AcDbPlaceHolder
  3
ObjectDBX Classes
 90
        0
280
     0
281
     0
  0
CLASS
  1
LAYOUT
  2
AcDbLayout
  3
ObjectDBX Classes
 90
        0
280
     0
281
     0
  0
ENDSEC
  0
SECTION
  2
TABLES
  0
TABLE
  2
VPORT
  5
8
330
0
100
AcDbSymbolTable
 70
     1
  0
VPORT
  5
29
330
8
100
AcDbSymbolTableRecord
100
AcDbViewportTableRecord
  2
*Active
 70
     0
 10
0.0
 20
0.0
 11
1.0
 21
1.0
 12
210.0
 22
148.5
 13
0.0
 23
0.0
 14
10.0
 24
10.0
 15
10.0
 25
10.0
 16
0.0
 26
0.0
 36
1.0
 17
0.0
 27
0.0
 37
0.0
 40
297.0
 41
1.4141414141
 42
50.0
 43
0.0
 44
0.0
 50
0.0
 51
0.0
 71
     0
 72
  2000
 73
     1
 74
     3
 75
     0
 76
     0
 77
     0
 78
     0
281
     0
 65
     1
110
0.0
120
0.0
130
0.0
111
1.0
121
0.0
131
0.0
112
0.0
122
1.0
132
0.0
 79
     0
146
0.0
  0
ENDTAB
  0
TABLE
  2
LTYPE
  5
5
330
0
100
AcDbSymbolTable
 70
     6
  0
LTYPE
  5
14
330
5
100
AcDbSymbolTableRecord
100
AcDbLinetypeTableRecord
  2
ByBlock
 70
     0
  3

 72
    65
 73
     0
 40
0.0
  0
LTYPE
  5
15
330
5
100
AcDbSymbolTableRecord
100
AcDbLinetypeTableRecord
  2
ByLayer
 70
     0
  3

 72
    65
 73
     0
 40
0.0
  0
LTYPE
  5
16
330
5
100
AcDbSymbolTableRecord
100
AcDbLinetypeTableRecord
  2
Continuous
 70
     0
  3
Solid line
 72
    65
 73
     0
 40
0.0
  0
LTYPE
  5
5E
330
5
100
AcDbSymbolTableRecord
100
AcDbLinetypeTableRecord
  2
HIDDEN
 70
     0
  3
Hidden __ __ __ __ __ __ __ __ __ __ __ __ __ __
 72
    65
 73
     2
 40
1.905
 49
1.27
 74
     0
 49
-0.635
 74
     0
  0
LTYPE
  5
5F
330
5
100
AcDbSymbolTableRecord
100
AcDbLinetypeTableRecord
  2
PHANTOM
 70
     0
  3
Phantom ______  __  __  ______  __  __  ______
 72
    65
 73
     6
 40
12.7
 49
6.35
 74
     0
 49
-1.27
 74
     0
 49
1.27
 74
     0
 49
-1.27
 74
     0
 49
1.27
 74
     0
 49
-1.27
 74
     0
  0
LTYPE
  5
60
330
5
100
AcDbSymbolTableRecord
100
AcDbLinetypeTableRecord
  2
CENTER
 70
     0
  3
Center ____ _ ____ _ ____ _ ____ _ ____ _ ____
 72
    65
 73
     4
 40
10.16
 49
6.35
 74
     0
 49
-1.27
 74
     0
 49
1.27
 74
     0
 49
-1.27
 74
     0
  0
LTYPE
  5
61
330
5
100
AcDbSymbolTableRecord
100
AcDbLinetypeTableRecord
  2
CENTERX2
 70
     0
  3
Center (2x) ________  __  ________  __  _____
 72
    65
 73
     4
 40
20.32
 49
12.7
 74
     0
 49
-2.54
 74
     0
 49
2.54
 74
     0
 49
-2.54
 74
     0
  0
LTYPE
  5
62
330
5
100
AcDbSymbolTableRecord
100
AcDbLinetypeTableRecord
  2
DOT2
 70
     0
  3
Dot (.5x) ........................................
 72
    65
 73
     2
 40
0.635
 49
0.0
 74
     0
 49
-0.635
 74
     0
  0
ENDTAB
  0
TABLE
  2
LAYER
  5
2
330
0
100
AcDbSymbolTable
 70
     3
  0
LAYER
  5
10
330
2
100
AcDbSymbolTableRecord
100
AcDbLayerTableRecord
  2
0
 70
     0
 62
     7
  6
Continuous
370
    -3
390
F
  0
LAYER
  5
63
330
2
100
AcDbSymbolTableRecord
100
AcDbLayerTableRecord
  2
ВОДЯНОЙ_ЗНАК
 70
     0
 62
    11
  6
Continuous
370
    -3
390
F
  0
LAYER
  5
64
330
2
100
AcDbSymbolTableRecord
100
AcDbLayerTableRecord
  2
ОСНОВНОЙ
 70
     0
 62
     7
  6
Continuous
370
    -3
390
F
  0
ENDTAB
  0
TABLE
  2
STYLE
  5
3
330
0
100
AcDbSymbolTable
 70
     1
  0
STYLE
  5
11
330
3
100
AcDbSymbolTableRecord
100
AcDbTextStyleTableRecord
  2
Standard
 70
     0
 40
0.0
 41
1.0
 50
0.0
 71
     0
 42
5.0
  3
txt
  4

  0
ENDTAB
  0
TABLE
  2
VIEW
  5
6
330
0
100
AcDbSymbolTable
 70
     0
  0
ENDTAB
  0
TABLE
  2
UCS
  5
7
330
0
100
AcDbSymbolTable
 70
     0
  0
ENDTAB
  0
TABLE
  2
APPID
  5
9
330
0
100
AcDbSymbolTable
 70
     1
  0
APPID
  5
12
330
9
100
AcDbSymbolTableRecord
100
AcDbRegAppTableRecord
  2
ACAD
 70
     0
  0
ENDTAB
  0
TABLE
  2
DIMSTYLE
  5
A
330
0
100
AcDbSymbolTable
 70
     1
100
AcDbDimStyleTable
  0
DIMSTYLE
105
27
330
A
100
AcDbSymbolTableRecord
100
AcDbDimStyleTableRecord
  2
ISO-25
 70
     0
 41
2.5
 42
0.625
 43
3.75
 44
1.25
 73
     0
 74
     0
 77
     1
 78
     8
140
2.5
141
2.5
143
0.0393700787
147
0.625
171
     3
172
     1
178
     0
271
     2
272
     2
274
     3
278
    44
283
     0
284
     8
340
11
  0
ENDTAB
  0
TABLE
  2
BLOCK_RECORD
  5
1
330
0
100
AcDbSymbolTable
 70
     1
  0
BLOCK_RECORD
  5
1F
330
1
100
AcDbSymbolTableRecord
100
AcDbBlockTableRecord
  2
*Model_Space
340
22
  0
BLOCK_RECORD
  5
1B
330
1
100
AcDbSymbolTableRecord
100
AcDbBlockTableRecord
  2
*Paper_Space
340
1E
  0
BLOCK_RECORD
  5
23
330
1
100
AcDbSymbolTableRecord
100
AcDbBlockTableRecord
  2
*Paper_Space0
340
26
  0
ENDTAB
  0
ENDSEC
  0
SECTION
  2
BLOCKS
  0
BLOCK
  5
20
330
1F
100
AcDbEntity
  8
0
100
AcDbBlockBegin
  2
*Model_Space
 70
     0
 10
0.0
 20
0.0
 30
0.0
  3
*Model_Space
  1

  0
ENDBLK
  5
21
330
1F
100
AcDbEntity
  8
0
100
AcDbBlockEnd
  0
BLOCK
  5
1C
330
1B
100
AcDbEntity
 67
     1
  8
0
100
AcDbBlockBegin
  2
*Paper_Space
 70
     0
 10
0.0
 20
0.0
 30
0.0
  3
*Paper_Space
  1

  0
ENDBLK
  5
1D
330
1B
100
AcDbEntity
 67
     1
  8
0
100
AcDbBlockEnd
  0
BLOCK
  5
24
330
23
100
AcDbEntity
  8
0
100
AcDbBlockBegin
  2
*Paper_Space0
 70
     0
 10
0.0
 20
0.0
 30
0.0
  3
*Paper_Space0
  1

  0
ENDBLK
  5
25
330
23
100
AcDbEntity
  8
0
100
AcDbBlockEnd
  0
ENDSEC
  0
SECTION
  2
ENTITIES
  0
ARC
  5
65
330
1F
100
AcDbEntity
  8
0
  6
Continuous
 62
     7
100
AcDbCircle
 10
1150.9814083835
 20
-77.3794468951
 30
0.0
 40
3.825687437598894
100
AcDbArc
 50
0.0914128928
 51
180.0914128928
  0
LINE
  5
66
330
1F
100
AcDbEntity
  8
0
  6
Continuous
 62
     7
100
AcDbLine
 10
1154.1141902056
 20
-77.3744486754
 30
0.0
 11
1154.807090952
 21
-77.3733431819
 31
0.0
  0
ARC
  5
67
330
1F
100
AcDbEntity
  8
0
  6
Continuous
 62
     7
100
AcDbCircle
 10
1150.9814083835
 20
-77.3794468951
 30
0.0
 40
3.132785809343728
100
AcDbArc
 50
0.0914128928
 51
180.0914128928
  0
LINE
  5
68
330
1F
100
AcDbEntity
  8
0
  6
Continuous
 62
     7
100
AcDbLine
 10
1147.8486265614
 20
-77.3844451148
 30
0.0
 11
1147.155725815
 21
-77.3855506083
 31
0.0
  0
LINE
  5
69
330
1F
100
AcDbEntity
  8
0
  6
Continuous
 62
     7
100
AcDbLine
 10
932.1062536641
 20
-78.6235659676
 30
0.0
 11
931.4703342276
 21
-78.898737072
 31
0.0
  0
ARC
  5
6A
330
1F
100
AcDbEntity
  8
0
  6
Continuous
 62
     7
100
AcDbCircle
 10
934.9814083835
 20
-77.3794468951
 30
0.0
 40
3.825687437599508
100
AcDbArc
 50
23.398800266
 51
203.398800266
  0
LINE
  5
6B
330
1F
100
AcDbEntity
  8
0
  6
Continuous
 62
     7
100
AcDbLine
 10
937.8565631029
 20
-76.1353278226
 30
0.0
 11
938.4924825394
 21
-75.8601567182
 31
0.0
  0
ARC
  5
6C
330
1F
100
AcDbEntity
  8
0
  6
Continuous
 62
     7
100
AcDbCircle
 10
934.9814083835
 20
-77.3794468951
 30
0.0
 40
3.13278580934404
100
AcDbArc
 50
23.398800266
 51
203.398800266
  0
ARC
  5
6D
330
1F
100
AcDbEntity
  8
0
  6
Continuous
 62
     7
100
AcDbCircle
 10
934.9814083835
 20
-77.3794468951
 30
0.0
 40
3.825687437599508
100
AcDbArc
 50
203.398800266
 51
23.398800266
  0
ARC
  5
6E
330
1F
100
AcDbEntity
  8
0
  6
Continuous
 62
     7
100
AcDbCircle
 10
934.9814083835
 20
-77.3794468951
 30
0.0
 40
3.13278580934404
100
AcDbArc
 50
203.398800266
 51
23.398800266
  0
ARC
  5
6F
330
1F
100
AcDbEntity
  8
0
  6
Continuous
 62
     7
100
AcDbCircle
 10
929.1038695256
 20
-79.9227389632
 30
0.0
 40
4.154201555956344
100
AcDbArc
 50
23.398800266
 51
39.3620797277
  0
ARC
  5
70
330
1F
100
AcDbEntity
  8
0
  6
Continuous
 62
     7
100
AcDbCircle
 10
929.1038695256
 20
-79.9227389632
 30
0.0
 40
4.154201555956348
100
AcDbArc
 50
7.4355208042
 51
23.398800266
  0
ARC
  5
71
330
1F
100
AcDbEntity
  8
0
  6
Continuous
 62
     7
100
AcDbCircle
 10
933.5206162546
 20
-79.3463191218
 30
0.0
 40
0.3000000000005688
100
AcDbArc
 50
187.4355208042
 51
279.3620797277
  0
ARC
  5
72
330
1F
100
AcDbEntity
  8
0
  6
Continuous
 62
     7
100
AcDbCircle
 10
934.2451944948
 20
-83.7411908918
 30
0.0
 40
4.154201555956283
100
AcDbArc
 50
67.4355208042
 51
99.3620797277
  0
ARC
  5
73
330
1F
100
AcDbEntity
  8
0
  6
Continuous
 62
     7
100
AcDbCircle
 10
940.1227333526
 20
-81.1978988237
 30
0.0
 40
4.154201555956263
100
AcDbArc
 50
127.4355208042
 51
159.3620797277
  0
ARC
  5
74
330
1F
100
AcDbEntity
  8
0
  6
Continuous
 62
     7
100
AcDbCircle
 10
937.4151657623
 20
-77.6610938751
 30
0.0
 40
0.300000000000621
100
AcDbArc
 50
307.4355208042
 51
23.398800266
  0
ARC
  5
75
330
1F
100
AcDbEntity
  8
0
  6
Continuous
 62
     7
100
AcDbCircle
 10
937.4151657623
 20
-77.6610938751
 30
0.0
 40
0.300000000000621
100
AcDbArc
 50
23.398800266
 51
39.3620797277
  0
ARC
  5
76
330
1F
100
AcDbEntity
  8
0
  6
Continuous
 62
     7
100
AcDbCircle
 10
936.4422005124
 20
-75.4125746684
 30
0.0
 40
0.3000000000004847
100
AcDbArc
 50
23.398800266
 51
99.3620797277
  0
ARC
  5
77
330
1F
100
AcDbEntity
  8
0
  6
Continuous
 62
     7
100
AcDbCircle
 10
935.7176222722
 20
-71.0177028984
 30
0.0
 40
4.154201555956336
100
AcDbArc
 50
247.4355208042
 51
279.3620797277
  0
ARC
  5
78
330
1F
100
AcDbEntity
  8
0
  6
Continuous
 62
     7
100
AcDbCircle
 10
934.0084431337
 20
-75.1309276885
 30
0.0
 40
0.2999999999998183
100
AcDbArc
 50
67.4355208042
 51
159.3620797277
  0
ARC
  5
79
330
1F
100
AcDbEntity
  8
0
  6
Continuous
 62
     7
100
AcDbCircle
 10
929.8400834143
 20
-73.5609949665
 30
0.0
 40
4.15420155595645
100
AcDbArc
 50
307.4355208042
 51
339.3620797277
  0
ARC
  5
7A
330
1F
100
AcDbEntity
  8
0
  6
Continuous
 62
     7
100
AcDbCircle
 10
932.5476510047
 20
-77.0977999151
 30
0.0
 40
0.3000000000005847
100
AcDbArc
 50
127.4355208042
 51
219.3620797277
  0
ARC
  5
7B
330
1F
100
AcDbEntity
  8
0
  6
Continuous
 62
     7
100
AcDbCircle
 10
935.9543736333
 20
-79.6279661017
 30
0.0
 40
0.3000000000005931
100
AcDbArc
 50
247.4355208042
 51
339.3620797277
  0
ARC
  5
7C
330
1F
100
AcDbEntity
  8
0
  6
Continuous
 62
     7
100
AcDbCircle
 10
940.8589472414
 20
-74.836154827
 30
0.0
 40
4.154201555956158
100
AcDbArc
 50
187.4355208042
 51
219.3620797277
  0
ARC
  5
7D
330
1F
100
AcDbEntity
  8
0
  6
Continuous
 62
     7
100
AcDbCircle
 10
936.4422005124
 20
-75.4125746684
 30
0.0
 40
0.3000000000005271
100
AcDbArc
 50
7.4355208043
 51
23.398800266
  0
ARC
  5
7E
330
1F
100
AcDbEntity
  8
0
  6
Continuous
 62
     7
100
AcDbCircle
 10
1150.9814083835
 20
-77.3794468951
 30
0.0
 40
3.132785809343728
100
AcDbArc
 50
180.0914128928
 51
0.0914128928
  0
ARC
  5
7F
330
1F
100
AcDbEntity
  8
0
  6
Continuous
 62
     7
100
AcDbCircle
 10
1153.1012134896
 20
-76.1510632774
 30
0.0
 40
0.3000000000004762
100
AcDbArc
 50
344.1281334311
 51
76.0546923546
  0
ARC
  5
80
330
1F
100
AcDbEntity
  8
0
  6
Continuous
 62
     7
100
AcDbCircle
 10
1154.17465637
 20
-71.828143907
 30
0.0
 40
4.154201555956347
100
AcDbArc
 50
224.1281334311
 51
256.0546923546
  0
ARC
  5
81
330
1F
100
AcDbEntity
  8
0
  6
Continuous
 62
     7
100
AcDbCircle
 10
1148.857694412
 20
-76.157833631
 30
0.0
 40
0.3000000000007211
100
AcDbArc
 50
104.1281334311
 51
180.0914128928
  0
ARC
  5
82
330
1F
100
AcDbEntity
  8
0
  6
Continuous
 62
     7
100
AcDbCircle
 10
1148.857694412
 20
-76.157833631
 30
0.0
 40
0.3000000000008378
100
AcDbArc
 50
180.0914128928
 51
196.0546923546
  0
ARC
  5
83
330
1F
100
AcDbEntity
  8
0
  6
Continuous
 62
     7
100
AcDbCircle
 10
1144.5772149784
 20
-77.3896645123
 30
0.0
 40
4.154201555956079
100
AcDbArc
 50
344.1281334311
 51
16.0546923546
  0
ARC
  5
84
330
1F
100
AcDbEntity
  8
0
  6
Continuous
 62
     7
100
AcDbCircle
 10
1148.8616032774
 20
-78.6078305128
 30
0.0
 40
0.3000000000005649
100
AcDbArc
 50
180.0914128928
 51
256.0546923546
  0
ARC
  5
85
330
1F
100
AcDbEntity
  8
0
  6
Continuous
 62
     7
100
AcDbCircle
 10
1148.8616032774
 20
-78.6078305128
 30
0.0
 40
0.3000000000006405
100
AcDbArc
 50
164.1281334311
 51
180.0914128928
  0
ARC
  5
86
330
1F
100
AcDbEntity
  8
0
  6
Continuous
 62
     7
100
AcDbCircle
 10
1157.3856017886
 20
-77.3692292779
 30
0.0
 40
4.154201555956136
100
AcDbArc
 50
164.1281334311
 51
180.0914128928
  0
ARC
  5
87
330
1F
100
AcDbEntity
  8
0
  6
Continuous
 62
     7
100
AcDbCircle
 10
1157.3856017886
 20
-77.3692292779
 30
0.0
 40
4.154201555956048
100
AcDbArc
 50
180.0914128928
 51
196.0546923546
  0
ARC
  5
88
330
1F
100
AcDbEntity
  8
0
  6
Continuous
 62
     7
100
AcDbCircle
 10
1150.9774995181
 20
-74.9294500133
 30
0.0
 40
0.3000000000006942
100
AcDbArc
 50
44.1281334311
 51
136.0546923546
  0
ARC
  5
89
330
1F
100
AcDbEntity
  8
0
  6
Continuous
 62
     7
100
AcDbCircle
 10
1147.7704629649
 20
-71.8383615242
 30
0.0
 40
4.154201555956261
100
AcDbArc
 50
284.1281334311
 51
316.0546923546
  0
ARC
  5
8A
330
1F
100
AcDbEntity
  8
0
  6
Continuous
 62
     7
100
AcDbCircle
 10
1153.105122355
 20
-78.6010601592
 30
0.0
 40
0.30000000000058
100
AcDbArc
 50
284.128133431
 51
16.0546923546
  0
ARC
  5
8B
330
1F
100
AcDbEntity
  8
0
  6
Continuous
 62
     7
100
AcDbCircle
 10
1147.788160397
 20
-82.9307498833
 30
0.0
 40
4.154201555956294
100
AcDbArc
 50
44.1281334311
 51
76.0546923546
  0
ARC
  5
8C
330
1F
100
AcDbEntity
  8
0
  6
Continuous
 62
     7
100
AcDbCircle
 10
1150.9853172489
 20
-79.8294437769
 30
0.0
 40
0.2999999999999368
100
AcDbArc
 50
224.1281334311
 51
316.0546923546
  0
ARC
  5
8D
330
1F
100
AcDbEntity
  8
0
  6
Continuous
 62
     7
100
AcDbCircle
 10
1154.1923538021
 20
-82.9205322661
 30
0.0
 40
4.154201555956384
100
AcDbArc
 50
104.1281334311
 51
136.0546923546
  0
ARC
  5
8E
330
1F
100
AcDbEntity
  8
0
  6
Continuous
 62
     7
100
AcDbCircle
 10
1150.9814083835
 20
-77.3794468951
 30
0.0
 40
3.825687437598894
100
AcDbArc
 50
180.0914128928
 51
0.0914128928
  0
LINE
  5
8F
330
1F
100
AcDbEntity
  8
0
  6
Continuous
 62
     7
100
AcDbLine
 10
931.4703342276
 20
-78.898737072
 30
0.0
 11
930.3073320045
 21
-79.4019841625
 31
0.0
  0
ARC
  5
90
330
1F
100
AcDbEntity
  8
0
  6
Continuous
 62
     7
100
AcDbCircle
 10
934.9814083835
 20
-77.3794468951
 30
0.0
 40
5.092901628255867
100
AcDbArc
 50
23.398800266
 51
203.398800266
  0
LINE
  5
91
330
1F
100
AcDbEntity
  8
0
  6
Continuous
 62
     7
100
AcDbLine
 10
938.4924825394
 20
-75.8601567182
 30
0.0
 11
939.6554847625
 21
-75.3569096277
 31
0.0
  0
ARC
  5
92
330
1F
100
AcDbEntity
  8
0
  6
Continuous
 62
     7
100
AcDbCircle
 10
1150.9814083835
 20
-77.3794468951
 30
0.0
 40
5.092901628255436
100
AcDbArc
 50
0.0914128928
 51
180.0914128928
  0
LINE
  5
93
330
1F
100
AcDbEntity
  8
0
  6
Continuous
 62
     7
100
AcDbLine
 10
1154.807090952
 20
-77.3733431819
 30
0.0
 11
1156.0743035298
 21
-77.3713213983
 31
0.0
  0
LINE
  5
94
330
1F
100
AcDbEntity
  8
0
  6
Continuous
 62
     7
100
AcDbLine
 10
1147.155725815
 20
-77.3855506083
 30
0.0
 11
1145.8885132372
 21
-77.3875723919
 31
0.0
  0
ARC
  5
95
330
1F
100
AcDbEntity
  8
0
  6
Continuous
 62
     7
100
AcDbCircle
 10
1150.9814083835
 20
-77.3794468951
 30
0.0
 40
5.092901628255436
100
AcDbArc
 50
180.0914128928
 51
0.0914128928
  0
ARC
  5
96
330
1F
100
AcDbEntity
  8
0
  6
Continuous
 62
     7
100
AcDbCircle
 10
934.9814083835
 20
-77.3794468951
 30
0.0
 40
5.092901628255867
100
AcDbArc
 50
203.398800266
 51
23.398800266
  0
LINE
  5
97
330
1F
100
AcDbEntity
  8
0
  6
Continuous
 62
     7
100
AcDbLine
 10
930.3073320045
 20
-79.4019841625
 30
0.0
 11
929.5666070287
 21
-79.7225060682
 31
0.0
  0
ARC
  5
98
330
1F
100
AcDbEntity
  8
0
  6
Continuous
 62
     7
100
AcDbCircle
 10
934.9814083835
 20
-77.3794468951
 30
0.0
 40
5.900000000000244
100
AcDbArc
 50
23.398800266
 51
203.398800266
  0
LINE
  5
99
330
1F
100
AcDbEntity
  8
0
  6
Continuous
 62
     7
100
AcDbLine
 10
939.6554847625
 20
-75.3569096277
 30
0.0
 11
940.3962097383
 21
-75.036387722
 31
0.0
  0
ARC
  5
9A
330
1F
100
AcDbEntity
  8
0
  6
Continuous
 62
     7
100
AcDbCircle
 10
1150.9814083835
 20
-77.3794468951
 30
0.0
 40
5.90000000000001
100
AcDbArc
 50
0.0914128928
 51
180.0914128928
  0
LINE
  5
9B
330
1F
100
AcDbEntity
  8
0
  6
Continuous
 62
     7
100
AcDbLine
 10
1156.0743035298
 20
-77.3713213983
 30
0.0
 11
1156.8814008743
 21
-77.3700337089
 31
0.0
  0
LINE
  5
9C
330
1F
100
AcDbEntity
  8
0
  6
Continuous
 62
     7
100
AcDbLine
 10
1145.8885132372
 20
-77.3875723919
 30
0.0
 11
1145.0814158927
 21
-77.3888600813
 31
0.0
  0
ARC
  5
9D
330
1F
100
AcDbEntity
  8
0
  6
Continuous
 62
     7
100
AcDbCircle
 10
1150.9814083835
 20
-77.3794468951
 30
0.0
 40
5.90000000000001
100
AcDbArc
 50
180.0914128928
 51
0.0914128928
  0
ARC
  5
9E
330
1F
100
AcDbEntity
  8
0
  6
Continuous
 62
     7
100
AcDbCircle
 10
934.9814083835
 20
-77.3794468951
 30
0.0
 40
5.900000000000244
100
AcDbArc
 50
203.398800266
 51
23.398800266
  0
LINE
  5
9F
330
1F
100
AcDbEntity
  8
0
  6
Continuous
 62
     7
100
AcDbLine
 10
1382.4814083835
 20
315.6205531073
 30
0.0
 11
1382.4814083835
 21
17.5347666673
 31
0.0
  0
LINE
  5
A0
330
1F
100
AcDbEntity
  8
0
  6
Continuous
 62
     7
100
AcDbLine
 10
1382.4814083835
 20
17.5347666673
 30
0.0
 11
1364.4814083835
 21
-0.4652333327
 31
0.0
  0
LINE
  5
A1
330
1F
100
AcDbEntity
  8
0
  6
Continuous
 62
     7
100
AcDbLine
 10
1364.4814083835
 20
-0.4652333327
 30
0.0
 11
1347.7314083835
 21
-0.4652333327
 31
0.0
  0
LINE
  5
A2
330
1F
100
AcDbEntity
  8
0
  6
Continuous
 62
     7
100
AcDbLine
 10
1347.7314083835
 20
-0.4652333327
 30
0.0
 11
1347.7314083835
 21
-1.5007672387
 31
0.0
  0
LINE
  5
A3
330
1F
100
AcDbEntity
  8
0
  6
Continuous
 62
     7
100
AcDbLine
 10
1347.7314083835
 20
-1.5007672387
 30
0.0
 11
738.2314083835
 21
-1.5007672387
 31
0.0
  0
LINE
  5
A4
330
1F
100
AcDbEntity
  8
0
  6
Continuous
 62
     7
100
AcDbLine
 10
738.2314083835
 20
-0.4652333327
 30
0.0
 11
738.2314083835
 21
-1.5007672387
 31
0.0
  0
LINE
  5
A5
330
1F
100
AcDbEntity
  8
0
  6
Continuous
 62
     7
100
AcDbLine
 10
738.2314083835
 20
-0.4652333327
 30
0.0
 11
721.4814083835
 21
-0.4652333327
 31
0.0
  0
LINE
  5
A6
330
1F
100
AcDbEntity
  8
0
  6
Continuous
 62
     7
100
AcDbLine
 10
721.4814083835
 20
-0.4652333327
 30
0.0
 11
703.4814083835
 21
17.5347666673
 31
0.0
  0
LINE
  5
A7
330
1F
100
AcDbEntity
  8
0
  6
Continuous
 62
     7
100
AcDbLine
 10
703.4814083835
 20
17.5347666673
 30
0.0
 11
703.4814083835
 21
315.6205531073
 31
0.0
  0
LINE
  5
A8
330
1F
100
AcDbEntity
  8
0
  6
Continuous
 62
     7
100
AcDbLine
 10
703.4814083835
 20
315.6205531073
 30
0.0
 11
721.4814083835
 21
333.6205531073
 31
0.0
  0
LINE
  5
A9
330
1F
100
AcDbEntity
  8
0
  6
Continuous
 62
     7
100
AcDbLine
 10
721.4814083835
 20
333.6205531073
 30
0.0
 11
1364.4814083835
 21
333.6205531073
 31
0.0
  0
ARC
  5
AA
330
1F
100
AcDbEntity
  8
0
  6
Continuous
 62
     7
100
AcDbCircle
 10
717.9814083835
 20
40.6205531073
 30
0.0
 40
3.500000000000114
100
AcDbArc
 50
180.0
 51
0.0
  0
ARC
  5
AB
330
1F
100
AcDbEntity
  8
0
  6
Continuous
 62
     7
100
AcDbCircle
 10
717.9814083835
 20
40.6205531073
 30
0.0
 40
3.500000000000114
100
AcDbArc
 50
0.0
 51
180.0
  0
ARC
  5
AC
330
1F
100
AcDbEntity
  8
0
  6
Continuous
 62
     7
100
AcDbCircle
 10
1367.9814083835
 20
40.6205531073
 30
0.0
 40
3.5
100
AcDbArc
 50
180.0
 51
0.0
  0
ARC
  5
AD
330
1F
100
AcDbEntity
  8
0
  6
Continuous
 62
     7
100
AcDbCircle
 10
1367.9814083835
 20
40.6205531073
 30
0.0
 40
3.5
100
AcDbArc
 50
0.0
 51
180.0
  0
ARC
  5
AE
330
1F
100
AcDbEntity
  8
0
  6
Continuous
 62
     7
100
AcDbCircle
 10
717.9814083835
 20
307.6205531073
 30
0.0
 40
3.500000000000114
100
AcDbArc
 50
180.0
 51
0.0
  0
ARC
  5
AF
330
1F
100
AcDbEntity
  8
0
  6
Continuous
 62
     7
100
AcDbCircle
 10
717.9814083835
 20
307.6205531073
 30
0.0
 40
3.500000000000114
100
AcDbArc
 50
0.0
 51
180.0
  0
ARC
  5
B0
330
1F
100
AcDbEntity
  8
0
  6
Continuous
 62
     7
100
AcDbCircle
 10
934.9814083835
 20
322.6205531073
 30
0.0
 40
3.5
100
AcDbArc
 50
180.0
 51
0.0
  0
ARC
  5
B1
330
1F
100
AcDbEntity
  8
0
  6
Continuous
 62
     7
100
AcDbCircle
 10
934.9814083835
 20
322.6205531073
 30
0.0
 40
3.5
100
AcDbArc
 50
0.0
 51
180.0
  0
ARC
  5
B2
330
1F
100
AcDbEntity
  8
0
  6
Continuous
 62
     7
100
AcDbCircle
 10
1150.9814083835
 20
322.6205531073
 30
0.0
 40
3.500000000000227
100
AcDbArc
 50
180.0
 51
0.0
  0
ARC
  5
B3
330
1F
100
AcDbEntity
  8
0
  6
Continuous
 62
     7
100
AcDbCircle
 10
1150.9814083835
 20
322.6205531073
 30
0.0
 40
3.500000000000227
100
AcDbArc
 50
0.0
 51
180.0
  0
ARC
  5
B4
330
1F
100
AcDbEntity
  8
0
  6
Continuous
 62
     7
100
AcDbCircle
 10
1367.9814083835
 20
307.6205531073
 30
0.0
 40
3.5
100
AcDbArc
 50
180.0
 51
0.0
  0
ARC
  5
B5
330
1F
100
AcDbEntity
  8
0
  6
Continuous
 62
     7
100
AcDbCircle
 10
1367.9814083835
 20
307.6205531073
 30
0.0
 40
3.5
100
AcDbArc
 50
0.0
 51
180.0
  0
LINE
  5
B6
330
1F
100
AcDbEntity
  8
0
  6
Continuous
 62
     7
100
AcDbLine
 10
1364.4814083835
 20
333.6205531073
 30
0.0
 11
1382.4814083835
 21
315.6205531073
 31
0.0
  0
LINE
  5
B7
330
1F
100
AcDbEntity
  8
0
  6
Continuous
 62
     7
100
AcDbLine
 10
1347.7314083835
 20
-2.7078740199
 30
0.0
 11
1347.7314083835
 21
-3.0007672387
 31
0.0
  0
LINE
  5
B8
330
1F
100
AcDbEntity
  8
0
  6
Continuous
 62
     7
100
AcDbLine
 10
738.2314083835
 20
-3.0007672387
 30
0.0
 11
1347.7314083835
 21
-3.0007672387
 31
0.0
  0
LINE
  5
B9
330
1F
100
AcDbEntity
  8
0
  6
Continuous
 62
     7
100
AcDbLine
 10
738.2314083835
 20
-2.7078740199
 30
0.0
 11
738.2314083835
 21
-3.0007672387
 31
0.0
  0
LINE
  5
BA
330
1F
100
AcDbEntity
  8
0
  6
Continuous
 62
     7
100
AcDbLine
 10
738.2314083835
 20
-2.2330002857
 30
0.0
 11
738.2314083835
 21
-2.7078740199
 31
0.0
  0
LINE
  5
BB
330
1F
100
AcDbEntity
  8
0
  6
Continuous
 62
     7
100
AcDbLine
 10
1347.7314083835
 20
-2.7078740199
 30
0.0
 11
1347.7314083835
 21
-2.2330002857
 31
0.0
  0
LINE
  5
BC
330
1F
100
AcDbEntity
  8
0
  6
Continuous
 62
     7
100
AcDbLine
 10
1347.7314083835
 20
-2.2330002857
 30
0.0
 11
1347.7314083835
 21
-1.5007672387
 31
0.0
  0
LINE
  5
BD
330
1F
100
AcDbEntity
  8
0
  6
Continuous
 62
     7
100
AcDbLine
 10
738.2314083835
 20
-2.2330002857
 30
0.0
 11
738.2314083835
 21
-1.5007672387
 31
0.0
  0
LINE
  5
BE
330
1F
100
AcDbEntity
  8
0
  6
Continuous
 62
     7
100
AcDbLine
 10
1347.7314083835
 20
-86.3794468951
 30
0.0
 11
1347.7314083835
 21
-88.8794468951
 31
0.0
  0
LINE
  5
BF
330
1F
100
AcDbEntity
  8
0
  6
Continuous
 62
     7
100
AcDbLine
 10
1347.7314083835
 20
-88.8794468951
 30
0.0
 11
738.2314083835
 21
-88.8794468951
 31
0.0
  0
LINE
  5
C0
330
1F
100
AcDbEntity
  8
0
  6
Continuous
 62
     7
100
AcDbLine
 10
738.2314083835
 20
-86.3794468951
 30
0.0
 11
738.2314083835
 21
-88.8794468951
 31
0.0
  0
LINE
  5
C1
330
1F
100
AcDbEntity
  8
0
  6
Continuous
 62
     7
100
AcDbLine
 10
738.2314083835
 20
-86.3794468951
 30
0.0
 11
738.2314083835
 21
-3.414980801
 31
0.0
  0
LINE
  5
C2
330
1F
100
AcDbEntity
  8
0
  6
Continuous
 62
     7
100
AcDbLine
 10
1347.7314083835
 20
-3.414980801
 30
0.0
 11
1347.7314083835
 21
-86.3794468951
 31
0.0
  0
LINE
  5
C3
330
1F
100
AcDbEntity
  8
0
  6
Continuous
 62
     7
100
AcDbLine
 10
1347.7314083835
 20
-3.414980801
 30
0.0
 11
1347.7314083835
 21
-3.0007672387
 31
0.0
  0
LINE
  5
C4
330
1F
100
AcDbEntity
  8
0
  6
Continuous
 62
     7
100
AcDbLine
 10
738.2314083835
 20
-3.414980801
 30
0.0
 11
738.2314083835
 21
-3.0007672387
 31
0.0
  0
LINE
  5
C5
330
1F
100
AcDbEntity
  8
0
  6
Continuous
 62
     7
100
AcDbLine
 10
640.1596303238
 20
-83.2794468951
 30
0.0
 11
642.9996229328
 21
-83.2794468951
 31
0.0
  0
ARC
  5
C6
330
1F
100
AcDbEntity
  8
0
  6
Continuous
 62
     7
100
AcDbCircle
 10
640.1596303238
 20
-81.7794468951
 30
0.0
 40
1.50000000000004
100
AcDbArc
 50
207.5120026239
 51
270.0
  0
ARC
  5
C7
330
1F
100
AcDbEntity
  8
0
  6
Continuous
 62
     7
100
AcDbCircle
 10
640.1596303238
 20
-72.9794468951
 30
0.0
 40
1.500000000000033
100
AcDbArc
 50
90.0
 51
152.4879973761
  0
LINE
  5
C8
330
1F
100
AcDbEntity
  8
0
  6
Continuous
 62
     7
100
AcDbLine
 10
642.9996229328
 20
-71.4794468951
 30
0.0
 11
640.1596303238
 21
-71.4794468951
 31
0.0
  0
LINE
  5
C9
330
1F
100
AcDbEntity
  8
0
  6
Continuous
 62
     7
100
AcDbLine
 10
638.1692518066
 20
-81.2051343327
 30
0.0
 11
638.8292591975
 21
-82.4723485234
 31
0.0
  0
LINE
  5
CA
330
1F
100
AcDbEntity
  8
0
  6
Continuous
 62
     7
100
AcDbLine
 10
638.8292591975
 20
-72.2865452669
 30
0.0
 11
638.1692518066
 21
-73.5537594575
 31
0.0
  0
ARC
  5
CB
330
1F
100
AcDbEntity
  8
0
  6
Continuous
 62
     7
100
AcDbCircle
 10
639.4996229328
 20
-80.5122327045
 30
0.0
 40
1.500000000000121
100
AcDbArc
 50
180.0
 51
207.5120026238
  0
ARC
  5
CC
330
1F
100
AcDbEntity
  8
0
  6
Continuous
 62
     7
100
AcDbCircle
 10
639.4996229328
 20
-74.2466610858
 30
0.0
 40
1.500000000000127
100
AcDbArc
 50
152.4879973762
 51
180.0
  0
LINE
  5
CD
330
1F
100
AcDbEntity
  8
0
  6
Continuous
 62
     7
100
AcDbLine
 10
645.9996229328
 20
-80.3794468951
 30
0.0
 11
651.6996229328
 21
-80.3794468951
 31
0.0
  0
LINE
  5
CE
330
1F
100
AcDbEntity
  8
0
  6
Continuous
 62
     7
100
AcDbLine
 10
651.6996229328
 20
-80.3794468951
 30
0.0
 11
652.1996229328
 21
-79.8794468951
 31
0.0
  0
LINE
  5
CF
330
1F
100
AcDbEntity
  8
0
  6
Continuous
 62
     7
100
AcDbLine
 10
642.9996229328
 20
-80.3794468951
 30
0.0
 11
644.4996229328
 21
-80.3794468951
 31
0.0
  0
LINE
  5
D0
330
1F
100
AcDbEntity
  8
0
  6
Continuous
 62
     7
100
AcDbLine
 10
651.6996229328
 20
-74.3794468951
 30
0.0
 11
645.9996229328
 21
-74.3794468951
 31
0.0
  0
LINE
  5
D1
330
1F
100
AcDbEntity
  8
0
  6
Continuous
 62
     7
100
AcDbLine
 10
652.1996229328
 20
-74.8794468951
 30
0.0
 11
651.6996229328
 21
-74.3794468951
 31
0.0
  0
LINE
  5
D2
330
1F
100
AcDbEntity
  8
0
  6
Continuous
 62
     7
100
AcDbLine
 10
644.4996229328
 20
-74.3794468951
 30
0.0
 11
642.9996229328
 21
-74.3794468951
 31
0.0
  0
LINE
  5
D3
330
1F
100
AcDbEntity
  8
0
  6
Continuous
 62
     7
100
AcDbLine
 10
642.9996229328
 20
315.6205531073
 30
0.0
 11
644.4996229328
 21
315.6205531073
 31
0.0
  0
LINE
  5
D4
330
1F
100
AcDbEntity
  8
0
  6
Continuous
 62
     7
100
AcDbLine
 10
642.9996229328
 20
333.6205531073
 30
0.0
 11
642.9996229328
 21
315.6205531073
 31
0.0
  0
LINE
  5
D5
330
1F
100
AcDbEntity
  8
0
  6
Continuous
 62
     7
100
AcDbLine
 10
642.9996229328
 20
333.6205531073
 30
0.0
 11
644.4996229328
 21
333.6205531073
 31
0.0
  0
LINE
  5
D6
330
1F
100
AcDbEntity
  8
0
  6
Continuous
 62
     7
100
AcDbLine
 10
644.4996229328
 20
333.6205531073
 30
0.0
 11
644.4996229328
 21
315.6205531073
 31
0.0
  0
LINE
  5
D7
330
1F
100
AcDbEntity
  8
0
  6
Continuous
 62
     7
100
AcDbLine
 10
642.9996229328
 20
17.5347666673
 30
0.0
 11
644.4996229328
 21
17.5347666673
 31
0.0
  0
LINE
  5
D8
330
1F
100
AcDbEntity
  8
0
  6
Continuous
 62
     7
100
AcDbLine
 10
642.9996229328
 20
315.6205531073
 30
0.0
 11
642.9996229328
 21
17.5347666673
 31
0.0
  0
LINE
  5
D9
330
1F
100
AcDbEntity
  8
0
  6
Continuous
 62
     7
100
AcDbLine
 10
644.4996229328
 20
315.6205531073
 30
0.0
 11
644.4996229328
 21
17.5347666673
 31
0.0
  0
LINE
  5
DA
330
1F
100
AcDbEntity
  8
0
  6
Continuous
 62
     7
100
AcDbLine
 10
642.9996229328
 20
-0.4652333327
 30
0.0
 11
644.4996229328
 21
-0.4652333327
 31
0.0
  0
LINE
  5
DB
330
1F
100
AcDbEntity
  8
0
  6
Continuous
 62
     7
100
AcDbLine
 10
642.9996229328
 20
17.5347666673
 30
0.0
 11
642.9996229328
 21
-0.4652333327
 31
0.0
  0
LINE
  5
DC
330
1F
100
AcDbEntity
  8
0
  6
Continuous
 62
     7
100
AcDbLine
 10
644.4996229328
 20
17.5347666673
 30
0.0
 11
644.4996229328
 21
-0.4652333327
 31
0.0
  0
LINE
  5
DD
330
1F
100
AcDbEntity
  8
0
  6
Continuous
 62
     7
100
AcDbLine
 10
653.9996229328
 20
-88.8794468951
 30
0.0
 11
653.9996229328
 21
-87.3794468951
 31
0.0
  0
LINE
  5
DE
330
1F
100
AcDbEntity
  8
0
  6
Continuous
 62
     7
100
AcDbLine
 10
650.9996229328
 20
-88.8794468951
 30
0.0
 11
650.9996229328
 21
-87.3794468951
 31
0.0
  0
LINE
  5
DF
330
1F
100
AcDbEntity
  8
0
  6
Continuous
 62
     7
100
AcDbLine
 10
653.9996229328
 20
-88.8794468951
 30
0.0
 11
650.9996229328
 21
-88.8794468951
 31
0.0
  0
LINE
  5
E0
330
1F
100
AcDbEntity
  8
0
  6
Continuous
 62
     7
100
AcDbLine
 10
653.9996229328
 20
-87.3794468951
 30
0.0
 11
650.9996229328
 21
-87.3794468951
 31
0.0
  0
LINE
  5
E1
330
1F
100
AcDbEntity
  8
0
  6
Continuous
 62
     7
100
AcDbLine
 10
646.9996229328
 20
-87.3794468951
 30
0.0
 11
646.9996229328
 21
-88.8794468951
 31
0.0
  0
LINE
  5
E2
330
1F
100
AcDbEntity
  8
0
  6
Continuous
 62
     7
100
AcDbLine
 10
650.9996229328
 20
-88.8794468951
 30
0.0
 11
646.9996229328
 21
-88.8794468951
 31
0.0
  0
LINE
  5
E3
330
1F
100
AcDbEntity
  8
0
  6
Continuous
 62
     7
100
AcDbLine
 10
650.9996229328
 20
-87.3794468951
 30
0.0
 11
646.9996229328
 21
-87.3794468951
 31
0.0
  0
LINE
  5
E4
330
1F
100
AcDbEntity
  8
0
  6
Continuous
 62
     7
100
AcDbLine
 10
644.4996229328
 20
-86.3794468951
 30
0.0
 11
644.4996229328
 21
-88.8794468951
 31
0.0
  0
LINE
  5
E5
330
1F
100
AcDbEntity
  8
0
  6
Continuous
 62
     7
100
AcDbLine
 10
645.9996229328
 20
-86.3794468951
 30
0.0
 11
644.4996229328
 21
-86.3794468951
 31
0.0
  0
LINE
  5
E6
330
1F
100
AcDbEntity
  8
0
  6
Continuous
 62
     7
100
AcDbLine
 10
645.9996229328
 20
-86.3794468951
 30
0.0
 11
645.9996229328
 21
-87.3794468951
 31
0.0
  0
LINE
  5
E7
330
1F
100
AcDbEntity
  8
0
  6
Continuous
 62
     7
100
AcDbLine
 10
646.9996229328
 20
-88.8794468951
 30
0.0
 11
644.4996229328
 21
-88.8794468951
 31
0.0
  0
LINE
  5
E8
330
1F
100
AcDbEntity
  8
0
  6
Continuous
 62
     7
100
AcDbLine
 10
646.9996229328
 20
-87.3794468951
 30
0.0
 11
645.9996229328
 21
-87.3794468951
 31
0.0
  0
LINE
  5
E9
330
1F
100
AcDbEntity
  8
0
  6
Continuous
 62
     7
100
AcDbLine
 10
644.4996229328
 20
-3.414980801
 30
0.0
 11
644.4996229328
 21
-86.3794468951
 31
0.0
  0
LINE
  5
EA
330
1F
100
AcDbEntity
  8
0
  6
Continuous
 62
     7
100
AcDbLine
 10
644.4996229328
 20
-3.414980801
 30
0.0
 11
645.9996229328
 21
-3.414980801
 31
0.0
  0
LINE
  5
EB
330
1F
100
AcDbEntity
  8
0
  6
Continuous
 62
     7
100
AcDbLine
 10
645.9996229328
 20
-3.414980801
 30
0.0
 11
645.9996229328
 21
-86.3794468951
 31
0.0
  0
LINE
  5
EC
330
1F
100
AcDbEntity
  8
0
  6
Continuous
 62
     7
100
AcDbLine
 10
645.2673898858
 20
-1.6472138481
 30
0.0
 11
644.7925161516
 21
-1.1723401139
 31
0.0
  0
LINE
  5
ED
330
1F
100
AcDbEntity
  8
0
  6
Continuous
 62
     7
100
AcDbLine
 10
644.206729714
 20
-2.7078740199
 30
0.0
 11
645.2673898858
 21
-1.6472138481
 31
0.0
  0
LINE
  5
EE
330
1F
100
AcDbEntity
  8
0
  6
Continuous
 62
     7
100
AcDbLine
 10
644.7925161516
 20
-1.1723401139
 30
0.0
 11
643.7318559798
 21
-2.2330002857
 31
0.0
  0
LINE
  5
EF
330
1F
100
AcDbEntity
  8
0
  6
Continuous
 62
     7
100
AcDbLine
 10
644.206729714
 20
-2.7078740199
 30
0.0
 11
643.7318559798
 21
-2.2330002857
 31
0.0
  0
LINE
  5
F0
330
1F
100
AcDbEntity
  8
0
  6
Continuous
 62
     7
100
AcDbLine
 10
645.2673898858
 20
-1.6472138481
 30
0.0
 11
645.9996229328
 21
-2.3794468951
 31
0.0
  0
LINE
  5
F1
330
1F
100
AcDbEntity
  8
0
  6
Continuous
 62
     7
100
AcDbLine
 10
644.4996229328
 20
-3.414980801
 30
0.0
 11
644.4996229328
 21
-3.0007672387
 31
0.0
  0
LINE
  5
F2
330
1F
100
AcDbEntity
  8
0
  6
Continuous
 62
     7
100
AcDbLine
 10
644.206729714
 20
-2.7078740199
 30
0.0
 11
644.4996229328
 21
-3.0007672387
 31
0.0
  0
LINE
  5
F3
330
1F
100
AcDbEntity
  8
0
  6
Continuous
 62
     7
100
AcDbLine
 10
645.9996229328
 20
-3.414980801
 30
0.0
 11
645.9996229328
 21
-2.3794468951
 31
0.0
  0
LINE
  5
F4
330
1F
100
AcDbEntity
  8
0
  6
Continuous
 62
     7
100
AcDbLine
 10
644.7925161516
 20
-1.1723401139
 30
0.0
 11
644.4996229328
 21
-0.8794468951
 31
0.0
  0
LINE
  5
F5
330
1F
100
AcDbEntity
  8
0
  6
Continuous
 62
     7
100
AcDbLine
 10
643.7318559798
 20
-2.2330002857
 30
0.0
 11
642.9996229328
 21
-1.5007672387
 31
0.0
  0
LINE
  5
F6
330
1F
100
AcDbEntity
  8
0
  6
Continuous
 62
     7
100
AcDbLine
 10
644.4996229328
 20
-0.4652333327
 30
0.0
 11
644.4996229328
 21
-0.8794468951
 31
0.0
  0
LINE
  5
F7
330
1F
100
AcDbEntity
  8
0
  6
Continuous
 62
     7
100
AcDbLine
 10
642.9996229328
 20
-0.4652333327
 30
0.0
 11
642.9996229328
 21
-1.5007672387
 31
0.0
  0
LINE
  5
F8
330
1F
100
AcDbEntity
  8
0
  6
Continuous
 62
     7
100
AcDbLine
 10
640.1596303238
 20
-77.3700337089
 30
0.0
 11
642.9996229328
 21
-77.3700337089
 31
0.0
  0
LINE
  5
F9
330
1F
100
AcDbEntity
  8
0
  6
Continuous
 62
     7
100
AcDbLine
 10
642.9996229328
 20
-77.3700337089
 30
0.0
 11
642.9996229328
 21
-83.2794468951
 31
0.0
  0
LWPOLYLINE
  5
FA
330
1F
100
AcDbEntity
  8
0
  6
Continuous
 62
     7
100
AcDbPolyline
 90
        9
 70
   128
 43
0.0
 10
638.8292591975
 20
-77.3713213983
 10
638.9357720224
 20
-77.3710431889
 10
639.0649953311
 20
-77.370790656
 10
639.2145311958
 20
-77.370568486
 10
639.3816047594
 20
-77.3703808013
 10
639.5631157272
 20
-77.3702310849
 10
639.7556958973
 20
-77.3701221149
 10
639.9557716625
 20
-77.3700559135
 10
640.1596303238
 20
-77.3700337089
  0
LINE
  5
FB
330
1F
100
AcDbEntity
  8
0
  6
Continuous
 62
     7
100
AcDbLine
 10
642.9996229328
 20
-71.4794468951
 30
0.0
 11
642.9996229328
 21
-77.3700337089
 31
0.0
  0
LINE
  5
FC
330
1F
100
AcDbEntity
  8
0
  6
Continuous
 62
     7
100
AcDbLine
 10
638.1692518066
 20
-77.3733431819
 30
0.0
 11
638.8292591975
 21
-77.3713213983
 31
0.0
  0
ARC
  5
FD
330
1F
100
AcDbEntity
  8
0
  6
Continuous
 62
     7
100
AcDbCircle
 10
638.1490272779
 20
-87.2846848776
 30
0.0
 40
9.911362330196228
100
AcDbArc
 50
89.8830856041
 51
90.8637120053
  0
LINE
  5
FE
330
1F
100
AcDbEntity
  8
0
  6
Continuous
 62
     7
100
AcDbLine
 10
637.9996229328
 20
-77.3744486754
 30
0.0
 11
637.9996229328
 21
-80.5122327045
 31
0.0
  0
LINE
  5
FF
330
1F
100
AcDbEntity
  8
0
  6
Continuous
 62
     7
100
AcDbLine
 10
637.9996229328
 20
-74.2466610858
 30
0.0
 11
637.9996229328
 21
-77.3744486754
 31
0.0
  0
LINE
  5
100
330
1F
100
AcDbEntity
  8
0
  6
Continuous
 62
     7
100
AcDbLine
 10
651.6996229328
 20
-77.3746605293
 30
0.0
 11
645.9996229328
 21
-77.3746605293
 31
0.0
  0
LINE
  5
101
330
1F
100
AcDbEntity
  8
0
  6
Continuous
 62
     7
100
AcDbLine
 10
651.6996229328
 20
-77.3746605293
 30
0.0
 11
651.6996229328
 21
-80.3794468951
 31
0.0
  0
LINE
  5
102
330
1F
100
AcDbEntity
  8
0
  6
Continuous
 62
     7
100
AcDbLine
 10
652.1996229328
 20
-77.3754582569
 30
0.0
 11
651.6996229328
 21
-77.3746605293
 31
0.0
  0
LINE
  5
103
330
1F
100
AcDbEntity
  8
0
  6
Continuous
 62
     7
100
AcDbLine
 10
652.1996229328
 20
-77.3754582569
 30
0.0
 11
652.1996229328
 21
-79.8794468951
 31
0.0
  0
LINE
  5
104
330
1F
100
AcDbEntity
  8
0
  6
Continuous
 62
     7
100
AcDbLine
 10
644.4996229328
 20
-77.3746605293
 30
0.0
 11
642.9996229328
 21
-77.3746605293
 31
0.0
  0
LINE
  5
105
330
1F
100
AcDbEntity
  8
0
  6
Continuous
 62
     7
100
AcDbLine
 10
651.6996229328
 20
-74.3794468951
 30
0.0
 11
651.6996229328
 21
-77.3746605293
 31
0.0
  0
LINE
  5
106
330
1F
100
AcDbEntity
  8
0
  6
Continuous
 62
     7
100
AcDbLine
 10
652.1996229328
 20
-74.8794468951
 30
0.0
 11
652.1996229328
 21
-77.3754582569
 31
0.0
  0
LINE
  5
107
330
1F
100
AcDbEntity
  8
0
  6
Continuous
 62
     7
100
AcDbLine
 10
640.1596303238
 20
-77.3700337089
 30
0.0
 11
640.1596303238
 21
-83.2794468951
 31
0.0
  0
LINE
  5
108
330
1F
100
AcDbEntity
  8
0
  6
Continuous
 62
     7
100
AcDbLine
 10
638.8292591975
 20
-77.3713213983
 30
0.0
 11
638.8292591975
 21
-82.4723485234
 31
0.0
  0
LINE
  5
109
330
1F
100
AcDbEntity
  8
0
  6
Continuous
 62
     7
100
AcDbLine
 10
640.1596303238
 20
-71.4794468951
 30
0.0
 11
640.1596303238
 21
-77.3700337089
 31
0.0
  0
LINE
  5
10A
330
1F
100
AcDbEntity
  8
0
  6
Continuous
 62
     7
100
AcDbLine
 10
638.8292591975
 20
-72.2865452669
 30
0.0
 11
638.8292591975
 21
-77.3713213983
 31
0.0
  0
LINE
  5
10B
330
1F
100
AcDbEntity
  8
0
  6
Continuous
 62
     7
100
AcDbLine
 10
638.1692518066
 20
-77.3733431819
 30
0.0
 11
638.1692518066
 21
-81.2051343327
 31
0.0
  0
LINE
  5
10C
330
1F
100
AcDbEntity
  8
0
  6
Continuous
 62
     7
100
AcDbLine
 10
638.1692518066
 20
-73.5537594575
 30
0.0
 11
638.1692518066
 21
-77.3733431819
 31
0.0
  0
LINE
  5
10D
330
1F
100
AcDbEntity
  8
0
  6
Continuous
 62
     7
100
AcDbLine
 10
940.8814083835
 20
396.0991149872
 30
0.0
 11
940.8814083835
 21
398.9391075962
 31
0.0
  0
ARC
  5
10E
330
1F
100
AcDbEntity
  8
0
  6
Continuous
 62
     7
100
AcDbCircle
 10
939.3814083835
 20
398.9391075962
 30
0.0
 40
1.500000000000114
100
AcDbArc
 50
0.0
 51
62.4879973761
  0
LINE
  5
10F
330
1F
100
AcDbEntity
  8
0
  6
Continuous
 62
     7
100
AcDbLine
 10
940.0743100118
 20
400.2694787225
 30
0.0
 11
938.8070958211
 21
400.9294861135
 31
0.0
  0
ARC
  5
110
330
1F
100
AcDbEntity
  8
0
  6
Continuous
 62
     7
100
AcDbCircle
 10
938.1141941928
 20
399.5991149872
 30
0.0
 40
1.500000000000007
100
AcDbArc
 50
62.4879973762
 51
90.0
  0
LINE
  5
111
330
1F
100
AcDbEntity
  8
0
  6
Continuous
 62
     7
100
AcDbLine
 10
937.9814083835
 20
394.5991149872
 30
0.0
 11
937.9814083835
 21
396.0991149872
 31
0.0
  0
ARC
  5
112
330
1F
100
AcDbEntity
  8
0
  6
Continuous
 62
     7
100
AcDbCircle
 10
930.5814083835
 20
398.9391075962
 30
0.0
 40
1.499999999999956
100
AcDbArc
 50
117.5120026239
 51
180.0
  0
LINE
  5
113
330
1F
100
AcDbEntity
  8
0
  6
Continuous
 62
     7
100
AcDbLine
 10
929.0814083835
 20
398.9391075962
 30
0.0
 11
929.0814083835
 21
396.0991149872
 31
0.0
  0
LINE
  5
114
330
1F
100
AcDbEntity
  8
0
  6
Continuous
 62
     7
100
AcDbLine
 10
931.1557209459
 20
400.9294861135
 30
0.0
 11
929.8885067552
 21
400.2694787225
 31
0.0
  0
ARC
  5
115
330
1F
100
AcDbEntity
  8
0
  6
Continuous
 62
     7
100
AcDbCircle
 10
931.8486225742
 20
399.5991149872
 30
0.0
 40
1.500000000000059
100
AcDbArc
 50
90.0
 51
117.5120026239
  0
LINE
  5
116
330
1F
100
AcDbEntity
  8
0
  6
Continuous
 62
     7
100
AcDbLine
 10
931.9814083835
 20
396.0991149872
 30
0.0
 11
931.9814083835
 21
394.5991149872
 31
0.0
  0
LINE
  5
117
330
1F
100
AcDbEntity
  8
0
  6
Continuous
 62
     7
100
AcDbLine
 10
738.2314083835
 20
392.0991149872
 30
0.0
 11
738.2314083835
 21
388.0991149872
 31
0.0
  0
LINE
  5
118
330
1F
100
AcDbEntity
  8
0
  6
Continuous
 62
     7
100
AcDbLine
 10
1347.7314083835
 20
388.0991149872
 30
0.0
 11
1347.7314083835
 21
392.0991149872
 31
0.0
  0
LINE
  5
119
330
1F
100
AcDbEntity
  8
0
  6
Continuous
 62
     7
100
AcDbLine
 10
1344.7314083835
 20
385.0991149872
 30
0.0
 11
1347.7314083835
 21
388.0991149872
 31
0.0
  0
LINE
  5
11A
330
1F
100
AcDbEntity
  8
0
  6
Continuous
 62
     7
100
AcDbLine
 10
738.2314083835
 20
388.0991149872
 30
0.0
 11
741.2314083835
 21
385.0991149872
 31
0.0
  0
LINE
  5
11B
330
1F
100
AcDbEntity
  8
0
  6
Continuous
 62
     7
100
AcDbLine
 10
741.2314083835
 20
385.0991149872
 30
0.0
 11
1344.7314083835
 21
385.0991149872
 31
0.0
  0
LINE
  5
11C
330
1F
100
AcDbEntity
  8
0
  6
Continuous
 62
     7
100
AcDbLine
 10
1347.7314083835
 20
394.5991149872
 30
0.0
 11
738.2314083835
 21
394.5991149872
 31
0.0
  0
LINE
  5
11D
330
1F
100
AcDbEntity
  8
0
  6
Continuous
 62
     7
100
AcDbLine
 10
1347.7314083835
 20
392.0991149872
 30
0.0
 11
1347.7314083835
 21
394.5991149872
 31
0.0
  0
LINE
  5
11E
330
1F
100
AcDbEntity
  8
0
  6
Continuous
 62
     7
100
AcDbLine
 10
738.2314083835
 20
392.0991149872
 30
0.0
 11
738.2314083835
 21
394.5991149872
 31
0.0
  0
LINE
  5
11F
330
1F
100
AcDbEntity
  8
0
  6
Continuous
 62
     7
100
AcDbLine
 10
940.8814083835
 20
396.0991149872
 30
0.0
 11
929.5666070287
 21
396.0991149872
 31
0.0
  0
LINE
  5
120
330
1F
100
AcDbEntity
  8
0
  6
Continuous
 62
     7
100
AcDbLine
 10
929.5666070287
 20
398.9391075962
 30
0.0
 11
929.5666070287
 21
396.0991149872
 31
0.0
  0
ARC
  5
121
330
1F
100
AcDbEntity
  8
0
  6
Continuous
 62
     7
100
AcDbCircle
 10
931.0871071841
 20
398.9639186962
 30
0.0
 40
1.520702572214615
100
AcDbArc
 50
120.8487132719
 51
180.9348536747
  0
LINE
  5
122
330
1F
100
AcDbEntity
  8
0
  6
Continuous
 62
     7
100
AcDbLine
 10
1156.8814008743
 20
398.9391075962
 30
0.0
 11
1156.8814008743
 21
396.0991149872
 31
0.0
  0
LINE
  5
123
330
1F
100
AcDbEntity
  8
0
  6
Continuous
 62
     7
100
AcDbLine
 10
1145.0814158927
 20
398.9391075962
 30
0.0
 11
1145.0814158927
 21
396.0991149872
 31
0.0
  0
LINE
  5
124
330
1F
100
AcDbEntity
  8
0
  6
Continuous
 62
     7
100
AcDbLine
 10
1156.8814008743
 20
398.9391075962
 30
0.0
 11
1145.0814158927
 21
398.9391075962
 31
0.0
  0
LINE
  5
125
330
1F
100
AcDbEntity
  8
0
  6
Continuous
 62
     7
100
AcDbLine
 10
1156.8814008743
 20
396.0991149872
 30
0.0
 11
1145.0814158927
 21
396.0991149872
 31
0.0
  0
ARC
  5
126
330
1F
100
AcDbEntity
  8
0
  6
Continuous
 62
     7
100
AcDbCircle
 10
1155.3814006525
 20
398.9391079967
 30
0.0
 40
1.500000221800241
100
AcDbArc
 50
359.9999847038
 51
62.4879479963
  0
ARC
  5
127
330
1F
100
AcDbEntity
  8
0
  6
Continuous
 62
     7
100
AcDbCircle
 10
1146.5814161145
 20
398.9391079967
 30
0.0
 40
1.500000221800241
100
AcDbArc
 50
117.5120520037
 51
180.0000152962
  0
LINE
  5
128
330
1F
100
AcDbEntity
  8
0
  6
Continuous
 62
     7
100
AcDbLine
 10
1156.0743035298
 20
400.2694787225
 30
0.0
 11
1145.8885132372
 21
400.2694787225
 31
0.0
  0
LINE
  5
129
330
1F
100
AcDbEntity
  8
0
  6
Continuous
 62
     7
100
AcDbLine
 10
1154.807090952
 20
400.9294861135
 30
0.0
 11
1156.0743035298
 21
400.2694787225
 31
0.0
  0
LINE
  5
12A
330
1F
100
AcDbEntity
  8
0
  6
Continuous
 62
     7
100
AcDbLine
 10
1147.155725815
 20
400.9294861135
 30
0.0
 11
1145.8885132372
 21
400.2694787225
 31
0.0
  0
LINE
  5
12B
330
1F
100
AcDbEntity
  8
0
  6
Continuous
 62
     7
100
AcDbLine
 10
1154.807090952
 20
400.9294861135
 30
0.0
 11
1147.155725815
 21
400.9294861135
 31
0.0
  0
LINE
  5
12C
330
1F
100
AcDbEntity
  8
0
  6
Continuous
 62
     7
100
AcDbLine
 10
931.4703342276
 20
400.9294861135
 30
0.0
 11
930.3073320045
 21
400.2694787225
 31
0.0
  0
ARC
  5
12D
330
1F
100
AcDbEntity
  8
0
  6
Continuous
 62
     7
100
AcDbCircle
 10
1154.1141901654
 20
399.5991184251
 30
0.0
 40
1.499996562079021
100
AcDbArc
 50
62.487965228
 51
89.9999984626
  0
ARC
  5
12E
330
1F
100
AcDbEntity
  8
0
  6
Continuous
 62
     7
100
AcDbCircle
 10
1147.8486266016
 20
399.5991184251
 30
0.0
 40
1.499996562078082
100
AcDbArc
 50
90.0000015373
 51
117.512034772
  0
LINE
  5
12F
330
1F
100
AcDbEntity
  8
0
  6
Continuous
 62
     7
100
AcDbLine
 10
1154.1141902056
 20
401.0991149872
 30
0.0
 11
1147.8486265614
 21
401.0991149872
 31
0.0
  0
ARC
  5
130
330
1F
100
AcDbEntity
  8
0
  6
Continuous
 62
     7
100
AcDbCircle
 10
932.1089707397
 20
399.8121195682
 30
0.0
 40
1.286998287104268
100
AcDbArc
 50
90.1209613726
 51
119.7503446782
  0
LINE
  5
131
330
1F
100
AcDbEntity
  8
0
  6
Continuous
 62
     7
100
AcDbLine
 10
938.1141941928
 20
401.0991149872
 30
0.0
 11
932.1062536641
 21
401.0991149872
 31
0.0
  0
LINE
  5
132
330
1F
100
AcDbEntity
  8
0
  6
Continuous
 62
     7
100
AcDbLine
 10
1147.9814122017
 20
394.5991149872
 30
0.0
 11
1147.9814122017
 21
396.0991149872
 31
0.0
  0
LINE
  5
133
330
1F
100
AcDbEntity
  8
0
  6
Continuous
 62
     7
100
AcDbLine
 10
1153.9814045653
 20
394.5991149872
 30
0.0
 11
1153.9814045653
 21
396.0991149872
 31
0.0
  0
LINE
  5
134
330
1F
100
AcDbEntity
  8
0
  6
Continuous
 62
     7
100
AcDbLine
 10
932.228119559
 20
394.5991149872
 30
0.0
 11
932.228119559
 21
396.0991149872
 31
0.0
  0
LINE
  5
135
330
1F
100
AcDbEntity
  8
0
  6
Continuous
 62
     7
100
AcDbLine
 10
929.5666070287
 20
396.0991149872
 30
0.0
 11
929.0814083835
 21
396.0991149872
 31
0.0
  0
LINE
  5
136
330
1F
100
AcDbEntity
  8
0
  6
Continuous
 62
     7
100
AcDbLine
 10
932.1062536641
 20
401.0991149872
 30
0.0
 11
931.8486225742
 21
401.0991149872
 31
0.0
  0
LINE
  5
137
330
1F
100
AcDbEntity
  8
0
  6
Continuous
 62
     7
100
AcDbLine
 10
738.2314083835
 20
395.3668819402
 30
0.0
 11
738.2314083835
 21
394.892008206
 31
0.0
  0
LINE
  5
138
330
1F
100
AcDbEntity
  8
0
  6
Continuous
 62
     7
100
AcDbLine
 10
738.2314083835
 20
395.3668819402
 30
0.0
 11
738.2314083835
 21
396.0991149872
 31
0.0
  0
LINE
  5
139
330
1F
100
AcDbEntity
  8
0
  6
Continuous
 62
     7
100
AcDbLine
 10
1347.7314083835
 20
396.0991149872
 30
0.0
 11
1156.8814008743
 21
396.0991149872
 31
0.0
  0
LINE
  5
13A
330
1F
100
AcDbEntity
  8
0
  6
Continuous
 62
     7
100
AcDbLine
 10
1145.0814158927
 20
396.0991149872
 30
0.0
 11
940.8814083835
 21
396.0991149872
 31
0.0
  0
LINE
  5
13B
330
1F
100
AcDbEntity
  8
0
  6
Continuous
 62
     7
100
AcDbLine
 10
929.0814083835
 20
396.0991149872
 30
0.0
 11
738.2314083835
 21
396.0991149872
 31
0.0
  0
LINE
  5
13C
330
1F
100
AcDbEntity
  8
0
  6
Continuous
 62
     7
100
AcDbLine
 10
1347.7314083835
 20
395.3668819402
 30
0.0
 11
1347.7314083835
 21
396.0991149872
 31
0.0
  0
LINE
  5
13D
330
1F
100
AcDbEntity
  8
0
  6
Continuous
 62
     7
100
AcDbLine
 10
1347.7314083835
 20
394.892008206
 30
0.0
 11
1347.7314083835
 21
395.3668819402
 31
0.0
  0
LINE
  5
13E
330
1F
100
AcDbEntity
  8
0
  6
Continuous
 62
     7
100
AcDbLine
 10
738.2314083835
 20
394.892008206
 30
0.0
 11
738.2314083835
 21
394.5991149872
 31
0.0
  0
LINE
  5
13F
330
1F
100
AcDbEntity
  8
0
  6
Continuous
 62
     7
100
AcDbLine
 10
1347.7314083835
 20
394.892008206
 30
0.0
 11
1347.7314083835
 21
394.5991149872
 31
0.0
  0
LINE
  5
140
330
1F
100
AcDbEntity
  8
0
  6
Continuous
 62
     7
100
AcDbLine
 10
721.4814083835
 20
396.0991149872
 30
0.0
 11
721.4814083835
 21
394.5991149872
 31
0.0
  0
LINE
  5
141
330
1F
100
AcDbEntity
  8
0
  6
Continuous
 62
     7
100
AcDbLine
 10
738.2314083835
 20
394.5991149872
 30
0.0
 11
721.4814083835
 21
394.5991149872
 31
0.0
  0
LINE
  5
142
330
1F
100
AcDbEntity
  8
0
  6
Continuous
 62
     7
100
AcDbLine
 10
738.2314083835
 20
396.0991149872
 30
0.0
 11
721.4814083835
 21
396.0991149872
 31
0.0
  0
LINE
  5
143
330
1F
100
AcDbEntity
  8
0
  6
Continuous
 62
     7
100
AcDbLine
 10
703.4814083835
 20
396.0991149872
 30
0.0
 11
703.4814083835
 21
394.5991149872
 31
0.0
  0
LINE
  5
144
330
1F
100
AcDbEntity
  8
0
  6
Continuous
 62
     7
100
AcDbLine
 10
721.4814083835
 20
394.5991149872
 30
0.0
 11
703.4814083835
 21
394.5991149872
 31
0.0
  0
LINE
  5
145
330
1F
100
AcDbEntity
  8
0
  6
Continuous
 62
     7
100
AcDbLine
 10
721.4814083835
 20
396.0991149872
 30
0.0
 11
703.4814083835
 21
396.0991149872
 31
0.0
  0
LINE
  5
146
330
1F
100
AcDbEntity
  8
0
  6
Continuous
 62
     7
100
AcDbLine
 10
1364.4814083835
 20
396.0991149872
 30
0.0
 11
1364.4814083835
 21
394.5991149872
 31
0.0
  0
LINE
  5
147
330
1F
100
AcDbEntity
  8
0
  6
Continuous
 62
     7
100
AcDbLine
 10
1382.4814083835
 20
396.0991149872
 30
0.0
 11
1382.4814083835
 21
394.5991149872
 31
0.0
  0
LINE
  5
148
330
1F
100
AcDbEntity
  8
0
  6
Continuous
 62
     7
100
AcDbLine
 10
1382.4814083835
 20
394.5991149872
 30
0.0
 11
1364.4814083835
 21
394.5991149872
 31
0.0
  0
LINE
  5
149
330
1F
100
AcDbEntity
  8
0
  6
Continuous
 62
     7
100
AcDbLine
 10
1382.4814083835
 20
396.0991149872
 30
0.0
 11
1364.4814083835
 21
396.0991149872
 31
0.0
  0
LINE
  5
14A
330
1F
100
AcDbEntity
  8
0
  6
Continuous
 62
     7
100
AcDbLine
 10
1364.4814083835
 20
394.5991149872
 30
0.0
 11
1347.7314083835
 21
394.5991149872
 31
0.0
  0
LINE
  5
14B
330
1F
100
AcDbEntity
  8
0
  6
Continuous
 62
     7
100
AcDbLine
 10
1364.4814083835
 20
396.0991149872
 30
0.0
 11
1347.7314083835
 21
396.0991149872
 31
0.0
  0
LINE
  5
14C
330
1F
100
AcDbEntity
  8
0
  6
Continuous
 62
     7
100
AcDbLine
 10
940.8814083835
 20
398.9391075962
 30
0.0
 11
929.5666070287
 21
398.9391075962
 31
0.0
  0
LINE
  5
14D
330
1F
100
AcDbEntity
  8
0
  6
Continuous
 62
     7
100
AcDbLine
 10
940.0743100118
 20
400.2694787225
 30
0.0
 11
930.3073320045
 21
400.2694787225
 31
0.0
  0
LINE
  5
14E
330
1F
100
AcDbEntity
  8
0
  6
Continuous
 62
     7
100
AcDbLine
 10
938.8070958211
 20
400.9294861135
 30
0.0
 11
931.4703342276
 21
400.9294861135
 31
0.0
  0
LINE
  5
14F
330
1F
100
AcDbEntity
  8
0
  6
Continuous
 62
     7
100
AcDbLine
 10
929.5666070287
 20
398.9391075962
 30
0.0
 11
929.0814083835
 21
398.9391075962
 31
0.0
  0
LINE
  5
150
330
1F
100
AcDbEntity
  8
0
  6
Continuous
 62
     7
100
AcDbLine
 10
930.3073320045
 20
400.2694787225
 30
0.0
 11
929.8885067552
 21
400.2694787225
 31
0.0
  0
LINE
  5
151
330
1F
100
AcDbEntity
  8
0
  6
Continuous
 62
     7
100
AcDbLine
 10
931.4703342276
 20
400.9294861135
 30
0.0
 11
931.1557209459
 21
400.9294861135
 31
0.0
  0
LINE
  5
152
330
1F
100
AcDbEntity
  8
0
  6
Continuous
 62
     7
100
AcDbLine
 10
929.0814083835
 20
-157.8659068972
 30
0.0
 11
929.0814083835
 21
-160.7058995062
 31
0.0
  0
ARC
  5
153
330
1F
100
AcDbEntity
  8
0
  6
Continuous
 62
     7
100
AcDbCircle
 10
930.5814083835
 20
-160.7058995062
 30
0.0
 40
1.499999999999982
100
AcDbArc
 50
180.0
 51
242.4879973762
  0
LINE
  5
154
330
1F
100
AcDbEntity
  8
0
  6
Continuous
 62
     7
100
AcDbLine
 10
929.8885067552
 20
-162.0362706325
 30
0.0
 11
931.1557209459
 21
-162.6962780234
 31
0.0
  0
ARC
  5
155
330
1F
100
AcDbEntity
  8
0
  6
Continuous
 62
     7
100
AcDbCircle
 10
931.8486225742
 20
-161.3659068972
 30
0.0
 40
1.500000000000034
100
AcDbArc
 50
242.4879973761
 51
270.0
  0
LINE
  5
156
330
1F
100
AcDbEntity
  8
0
  6
Continuous
 62
     7
100
AcDbLine
 10
932.4814083835
 20
-148.6659068972
 30
0.0
 11
931.9814083835
 21
-149.1659068972
 31
0.0
  0
LINE
  5
157
330
1F
100
AcDbEntity
  8
0
  6
Continuous
 62
     7
100
AcDbLine
 10
931.9814083835
 20
-149.1659068972
 30
0.0
 11
931.9814083835
 21
-154.8659068972
 31
0.0
  0
LINE
  5
158
330
1F
100
AcDbEntity
  8
0
  6
Continuous
 62
     7
100
AcDbLine
 10
940.8814083835
 20
-160.7058995062
 30
0.0
 11
940.8814083835
 21
-157.8659068972
 31
0.0
  0
ARC
  5
159
330
1F
100
AcDbEntity
  8
0
  6
Continuous
 62
     7
100
AcDbCircle
 10
939.3814083835
 20
-160.7058995062
 30
0.0
 40
1.500000000000114
100
AcDbArc
 50
297.5120026239
 51
0.0
  0
LINE
  5
15A
330
1F
100
AcDbEntity
  8
0
  6
Continuous
 62
     7
100
AcDbLine
 10
938.8070958211
 20
-162.6962780234
 30
0.0
 11
940.0743100118
 21
-162.0362706325
 31
0.0
  0
ARC
  5
15B
330
1F
100
AcDbEntity
  8
0
  6
Continuous
 62
     7
100
AcDbCircle
 10
938.1141941928
 20
-161.3659068972
 30
0.0
 40
1.5
100
AcDbArc
 50
270.0
 51
297.5120026239
  0
LINE
  5
15C
330
1F
100
AcDbEntity
  8
0
  6
Continuous
 62
     7
100
AcDbLine
 10
937.9814083835
 20
-149.1659068972
 30
0.0
 11
937.4814083835
 21
-148.6659068972
 31
0.0
  0
LINE
  5
15D
330
1F
100
AcDbEntity
  8
0
  6
Continuous
 62
     7
100
AcDbLine
 10
937.9814083835
 20
-154.8659068972
 30
0.0
 11
937.9814083835
 21
-149.1659068972
 31
0.0
  0
LINE
  5
15E
330
1F
100
AcDbEntity
  8
0
  6
Continuous
 62
     7
100
AcDbLine
 10
1382.4814083835
 20
-157.8659068972
 30
0.0
 11
1382.4814083835
 21
-156.3659068972
 31
0.0
  0
LINE
  5
15F
330
1F
100
AcDbEntity
  8
0
  6
Continuous
 62
     7
100
AcDbLine
 10
1364.4814083835
 20
-157.8659068972
 30
0.0
 11
1382.4814083835
 21
-157.8659068972
 31
0.0
  0
LINE
  5
160
330
1F
100
AcDbEntity
  8
0
  6
Continuous
 62
     7
100
AcDbLine
 10
1364.4814083835
 20
-157.8659068972
 30
0.0
 11
1364.4814083835
 21
-156.3659068972
 31
0.0
  0
LINE
  5
161
330
1F
100
AcDbEntity
  8
0
  6
Continuous
 62
     7
100
AcDbLine
 10
1364.4814083835
 20
-156.3659068972
 30
0.0
 11
1382.4814083835
 21
-156.3659068972
 31
0.0
  0
LINE
  5
162
330
1F
100
AcDbEntity
  8
0
  6
Continuous
 62
     7
100
AcDbLine
 10
721.4814083835
 20
-157.8659068972
 30
0.0
 11
1364.4814083835
 21
-157.8659068972
 31
0.0
  0
LINE
  5
163
330
1F
100
AcDbEntity
  8
0
  6
Continuous
 62
     7
100
AcDbLine
 10
721.4814083835
 20
-157.8659068972
 30
0.0
 11
721.4814083835
 21
-156.3659068972
 31
0.0
  0
LINE
  5
164
330
1F
100
AcDbEntity
  8
0
  6
Continuous
 62
     7
100
AcDbLine
 10
721.4814083835
 20
-156.3659068972
 30
0.0
 11
1364.4814083835
 21
-156.3659068972
 31
0.0
  0
LINE
  5
165
330
1F
100
AcDbEntity
  8
0
  6
Continuous
 62
     7
100
AcDbLine
 10
703.4814083835
 20
-157.8659068972
 30
0.0
 11
703.4814083835
 21
-156.3659068972
 31
0.0
  0
LINE
  5
166
330
1F
100
AcDbEntity
  8
0
  6
Continuous
 62
     7
100
AcDbLine
 10
703.4814083835
 20
-157.8659068972
 30
0.0
 11
721.4814083835
 21
-157.8659068972
 31
0.0
  0
LINE
  5
167
330
1F
100
AcDbEntity
  8
0
  6
Continuous
 62
     7
100
AcDbLine
 10
703.4814083835
 20
-156.3659068972
 30
0.0
 11
721.4814083835
 21
-156.3659068972
 31
0.0
  0
LINE
  5
168
330
1F
100
AcDbEntity
  8
0
  6
Continuous
 62
     7
100
AcDbLine
 10
738.2314083835
 20
-155.5981399442
 30
0.0
 11
738.2314083835
 21
-154.8659068972
 31
0.0
  0
LINE
  5
169
330
1F
100
AcDbEntity
  8
0
  6
Continuous
 62
     7
100
AcDbLine
 10
738.2314083835
 20
-154.8659068972
 30
0.0
 11
1347.7314083835
 21
-154.8659068972
 31
0.0
  0
LINE
  5
16A
330
1F
100
AcDbEntity
  8
0
  6
Continuous
 62
     7
100
AcDbLine
 10
1347.7314083835
 20
-155.5981399442
 30
0.0
 11
1347.7314083835
 21
-154.8659068972
 31
0.0
  0
LINE
  5
16B
330
1F
100
AcDbEntity
  8
0
  6
Continuous
 62
     7
100
AcDbLine
 10
1347.7314083835
 20
-155.5981399442
 30
0.0
 11
1347.7314083835
 21
-156.0730136784
 31
0.0
  0
LINE
  5
16C
330
1F
100
AcDbEntity
  8
0
  6
Continuous
 62
     7
100
AcDbLine
 10
738.2314083835
 20
-156.0730136784
 30
0.0
 11
738.2314083835
 21
-155.5981399442
 31
0.0
  0
LINE
  5
16D
330
1F
100
AcDbEntity
  8
0
  6
Continuous
 62
     7
100
AcDbLine
 10
738.2314083835
 20
-156.0730136784
 30
0.0
 11
738.2314083835
 21
-156.3659068972
 31
0.0
  0
LINE
  5
16E
330
1F
100
AcDbEntity
  8
0
  6
Continuous
 62
     7
100
AcDbLine
 10
1347.7314083835
 20
-156.0730136784
 30
0.0
 11
1347.7314083835
 21
-156.3659068972
 31
0.0
  0
LINE
  5
16F
330
1F
100
AcDbEntity
  8
0
  6
Continuous
 62
     7
100
AcDbLine
 10
940.3962097383
 20
-160.7058995062
 30
0.0
 11
940.3962097383
 21
-157.8659068972
 31
0.0
  0
LINE
  5
170
330
1F
100
AcDbEntity
  8
0
  6
Continuous
 62
     7
100
AcDbLine
 10
1156.8814008743
 20
-160.7058995062
 30
0.0
 11
1156.8814008743
 21
-157.8659068972
 31
0.0
  0
LINE
  5
171
330
1F
100
AcDbEntity
  8
0
  6
Continuous
 62
     7
100
AcDbLine
 10
1145.0814158927
 20
-160.7058995062
 30
0.0
 11
1156.8814008743
 21
-160.7058995062
 31
0.0
  0
LINE
  5
172
330
1F
100
AcDbEntity
  8
0
  6
Continuous
 62
     7
100
AcDbLine
 10
1145.0814158927
 20
-160.7058995062
 30
0.0
 11
1145.0814158927
 21
-157.8659068972
 31
0.0
  0
ARC
  5
173
330
1F
100
AcDbEntity
  8
0
  6
Continuous
 62
     7
100
AcDbCircle
 10
1155.3814006525
 20
-160.7058999067
 30
0.0
 40
1.500000221800345
100
AcDbArc
 50
297.5120520037
 51
0.0000152962
  0
LINE
  5
174
330
1F
100
AcDbEntity
  8
0
  6
Continuous
 62
     7
100
AcDbLine
 10
1145.8885132372
 20
-162.0362706325
 30
0.0
 11
1156.0743035298
 21
-162.0362706325
 31
0.0
  0
ARC
  5
175
330
1F
100
AcDbEntity
  8
0
  6
Continuous
 62
     7
100
AcDbCircle
 10
1146.5814161145
 20
-160.7058999067
 30
0.0
 40
1.500000221800346
100
AcDbArc
 50
179.9999847038
 51
242.4879479963
  0
ARC
  5
176
330
1F
100
AcDbEntity
  8
0
  6
Continuous
 62
     7
100
AcDbCircle
 10
938.8757095829
 20
-160.7307106061
 30
0.0
 40
1.52070257221367
100
AcDbArc
 50
300.8487132719
 51
0.9348536747
  0
LINE
  5
177
330
1F
100
AcDbEntity
  8
0
  6
Continuous
 62
     7
100
AcDbLine
 10
938.4924825394
 20
-162.6962780234
 30
0.0
 11
939.6554847625
 21
-162.0362706325
 31
0.0
  0
LINE
  5
178
330
1F
100
AcDbEntity
  8
0
  6
Continuous
 62
     7
100
AcDbLine
 10
1154.807090952
 20
-162.6962780234
 30
0.0
 11
1156.0743035298
 21
-162.0362706325
 31
0.0
  0
LINE
  5
179
330
1F
100
AcDbEntity
  8
0
  6
Continuous
 62
     7
100
AcDbLine
 10
1147.155725815
 20
-162.6962780234
 30
0.0
 11
1154.807090952
 21
-162.6962780234
 31
0.0
  0
LINE
  5
17A
330
1F
100
AcDbEntity
  8
0
  6
Continuous
 62
     7
100
AcDbLine
 10
1147.155725815
 20
-162.6962780234
 30
0.0
 11
1145.8885132372
 21
-162.0362706325
 31
0.0
  0
ARC
  5
17B
330
1F
100
AcDbEntity
  8
0
  6
Continuous
 62
     7
100
AcDbCircle
 10
937.8538460273
 20
-161.5789114782
 30
0.0
 40
1.286998287101833
100
AcDbArc
 50
270.1209613726
 51
299.7503446782
  0
LINE
  5
17C
330
1F
100
AcDbEntity
  8
0
  6
Continuous
 62
     7
100
AcDbLine
 10
931.8486225742
 20
-162.8659068972
 30
0.0
 11
937.8565631029
 21
-162.8659068972
 31
0.0
  0
ARC
  5
17D
330
1F
100
AcDbEntity
  8
0
  6
Continuous
 62
     7
100
AcDbCircle
 10
1154.1141901654
 20
-161.3659103351
 30
0.0
 40
1.499996562078395
100
AcDbArc
 50
270.0000015373
 51
297.512034772
  0
LINE
  5
17E
330
1F
100
AcDbEntity
  8
0
  6
Continuous
 62
     7
100
AcDbLine
 10
1147.8486265614
 20
-162.8659068972
 30
0.0
 11
1154.1141902056
 21
-162.8659068972
 31
0.0
  0
ARC
  5
17F
330
1F
100
AcDbEntity
  8
0
  6
Continuous
 62
     7
100
AcDbCircle
 10
1147.8486266016
 20
-161.3659103351
 30
0.0
 40
1.499996562077485
100
AcDbArc
 50
242.487965228
 51
269.9999984627
  0
LINE
  5
180
330
1F
100
AcDbEntity
  8
0
  6
Continuous
 62
     7
100
AcDbLine
 10
1153.4814052016
 20
-148.6659068972
 30
0.0
 11
1153.9814045653
 21
-149.1659068972
 31
0.0
  0
LINE
  5
181
330
1F
100
AcDbEntity
  8
0
  6
Continuous
 62
     7
100
AcDbLine
 10
1147.9814122017
 20
-149.1659068972
 30
0.0
 11
1153.9814045653
 21
-149.1659068972
 31
0.0
  0
LINE
  5
182
330
1F
100
AcDbEntity
  8
0
  6
Continuous
 62
     7
100
AcDbLine
 10
1148.4814115653
 20
-148.6659068972
 30
0.0
 11
1147.9814122017
 21
-149.1659068972
 31
0.0
  0
LINE
  5
183
330
1F
100
AcDbEntity
  8
0
  6
Continuous
 62
     7
100
AcDbLine
 10
1148.4814115653
 20
-148.6659068972
 30
0.0
 11
1153.4814052016
 21
-148.6659068972
 31
0.0
  0
LINE
  5
184
330
1F
100
AcDbEntity
  8
0
  6
Continuous
 62
     7
100
AcDbLine
 10
931.9814083835
 20
-149.1659068972
 30
0.0
 11
937.734697208
 21
-149.1659068972
 31
0.0
  0
LINE
  5
185
330
1F
100
AcDbEntity
  8
0
  6
Continuous
 62
     7
100
AcDbLine
 10
932.4814083835
 20
-148.6659068972
 30
0.0
 11
937.2758157372
 21
-148.6659068972
 31
0.0
  0
LINE
  5
186
330
1F
100
AcDbEntity
  8
0
  6
Continuous
 62
     7
100
AcDbLine
 10
937.2758157372
 20
-148.6659068972
 30
0.0
 11
937.734697208
 21
-149.1659068972
 31
0.0
  0
LINE
  5
187
330
1F
100
AcDbEntity
  8
0
  6
Continuous
 62
     7
100
AcDbLine
 10
937.734697208
 20
-149.1659068972
 30
0.0
 11
937.734697208
 21
-154.8659068972
 31
0.0
  0
LINE
  5
188
330
1F
100
AcDbEntity
  8
0
  6
Continuous
 62
     7
100
AcDbLine
 10
1147.9814122017
 20
-149.1659068972
 30
0.0
 11
1147.9814122017
 21
-154.8659068972
 31
0.0
  0
LINE
  5
189
330
1F
100
AcDbEntity
  8
0
  6
Continuous
 62
     7
100
AcDbLine
 10
1153.9814045653
 20
-149.1659068972
 30
0.0
 11
1153.9814045653
 21
-154.8659068972
 31
0.0
  0
LINE
  5
18A
330
1F
100
AcDbEntity
  8
0
  6
Continuous
 62
     7
100
AcDbLine
 10
937.8565631029
 20
-162.8659068972
 30
0.0
 11
938.1141941928
 21
-162.8659068972
 31
0.0
  0
LINE
  5
18B
330
1F
100
AcDbEntity
  8
0
  6
Continuous
 62
     7
100
AcDbLine
 10
937.734697208
 20
-149.1659068972
 30
0.0
 11
937.9814083835
 21
-149.1659068972
 31
0.0
  0
LINE
  5
18C
330
1F
100
AcDbEntity
  8
0
  6
Continuous
 62
     7
100
AcDbLine
 10
937.2758157372
 20
-148.6659068972
 30
0.0
 11
937.4814083835
 21
-148.6659068972
 31
0.0
  0
LINE
  5
18D
330
1F
100
AcDbEntity
  8
0
  6
Continuous
 62
     7
100
AcDbLine
 10
1347.7314083835
 20
-149.8659068972
 30
0.0
 11
1347.7314083835
 21
-153.8659068972
 31
0.0
  0
LINE
  5
18E
330
1F
100
AcDbEntity
  8
0
  6
Continuous
 62
     7
100
AcDbLine
 10
738.2314083835
 20
-153.8659068972
 30
0.0
 11
738.2314083835
 21
-149.8659068972
 31
0.0
  0
LINE
  5
18F
330
1F
100
AcDbEntity
  8
0
  6
Continuous
 62
     7
100
AcDbLine
 10
738.2314083835
 20
-149.8659068972
 30
0.0
 11
741.2314083835
 21
-146.8659068972
 31
0.0
  0
LINE
  5
190
330
1F
100
AcDbEntity
  8
0
  6
Continuous
 62
     7
100
AcDbLine
 10
741.2314083835
 20
-146.8659068972
 30
0.0
 11
1344.7314083835
 21
-146.8659068972
 31
0.0
  0
LINE
  5
191
330
1F
100
AcDbEntity
  8
0
  6
Continuous
 62
     7
100
AcDbLine
 10
1344.7314083835
 20
-146.8659068972
 30
0.0
 11
1347.7314083835
 21
-149.8659068972
 31
0.0
  0
LINE
  5
192
330
1F
100
AcDbEntity
  8
0
  6
Continuous
 62
     7
100
AcDbLine
 10
1347.7314083835
 20
-153.8659068972
 30
0.0
 11
1347.7314083835
 21
-154.8659068972
 31
0.0
  0
LINE
  5
193
330
1F
100
AcDbEntity
  8
0
  6
Continuous
 62
     7
100
AcDbLine
 10
738.2314083835
 20
-153.8659068972
 30
0.0
 11
738.2314083835
 21
-154.8659068972
 31
0.0
  0
LINE
  5
194
330
1F
100
AcDbEntity
  8
0
  6
Continuous
 62
     7
100
AcDbLine
 10
929.0814083835
 20
-160.7058995062
 30
0.0
 11
940.3962097383
 21
-160.7058995062
 31
0.0
  0
LINE
  5
195
330
1F
100
AcDbEntity
  8
0
  6
Continuous
 62
     7
100
AcDbLine
 10
929.8885067552
 20
-162.0362706325
 30
0.0
 11
939.6554847625
 21
-162.0362706325
 31
0.0
  0
LINE
  5
196
330
1F
100
AcDbEntity
  8
0
  6
Continuous
 62
     7
100
AcDbLine
 10
931.1557209459
 20
-162.6962780234
 30
0.0
 11
938.4924825394
 21
-162.6962780234
 31
0.0
  0
LINE
  5
197
330
1F
100
AcDbEntity
  8
0
  6
Continuous
 62
     7
100
AcDbLine
 10
940.3962097383
 20
-160.7058995062
 30
0.0
 11
940.8814083835
 21
-160.7058995062
 31
0.0
  0
LINE
  5
198
330
1F
100
AcDbEntity
  8
0
  6
Continuous
 62
     7
100
AcDbLine
 10
939.6554847625
 20
-162.0362706325
 30
0.0
 11
940.0743100118
 21
-162.0362706325
 31
0.0
  0
LINE
  5
199
330
1F
100
AcDbEntity
  8
0
  6
Continuous
 62
     7
100
AcDbLine
 10
938.4924825394
 20
-162.6962780234
 30
0.0
 11
938.8070958211
 21
-162.6962780234
 31
0.0
  0
LINE
  5
19A
330
1F
100
AcDbEntity
  8
0
  6
Continuous
 62
     7
100
AcDbLine
 10
1453.6126641898
 20
-71.4794468951
 30
0.0
 11
1450.7726715808
 21
-71.4794468951
 31
0.0
  0
ARC
  5
19B
330
1F
100
AcDbEntity
  8
0
  6
Continuous
 62
     7
100
AcDbCircle
 10
1453.6126641898
 20
-72.9794468951
 30
0.0
 40
1.5
100
AcDbArc
 50
27.5120026239
 51
90.0
  0
LINE
  5
19C
330
1F
100
AcDbEntity
  8
0
  6
Continuous
 62
     7
100
AcDbLine
 10
1450.7726715808
 20
-83.2794468951
 30
0.0
 11
1453.6126641898
 21
-83.2794468951
 31
0.0
  0
ARC
  5
19D
330
1F
100
AcDbEntity
  8
0
  6
Continuous
 62
     7
100
AcDbCircle
 10
1453.6126641898
 20
-81.7794468951
 30
0.0
 40
1.500000000000014
100
AcDbArc
 50
270.0
 51
332.4879973761
  0
LINE
  5
19E
330
1F
100
AcDbEntity
  8
0
  6
Continuous
 62
     7
100
AcDbLine
 10
1455.603042707
 20
-73.5537594575
 30
0.0
 11
1454.943035316
 21
-72.2865452669
 31
0.0
  0
LINE
  5
19F
330
1F
100
AcDbEntity
  8
0
  6
Continuous
 62
     7
100
AcDbLine
 10
1454.943035316
 20
-82.4723485234
 30
0.0
 11
1455.603042707
 21
-81.2051343327
 31
0.0
  0
ARC
  5
1A0
330
1F
100
AcDbEntity
  8
0
  6
Continuous
 62
     7
100
AcDbCircle
 10
1454.2726715808
 20
-74.2466610858
 30
0.0
 40
1.5
100
AcDbArc
 50
0.0
 51
27.5120026239
  0
ARC
  5
1A1
330
1F
100
AcDbEntity
  8
0
  6
Continuous
 62
     7
100
AcDbCircle
 10
1454.2726715808
 20
-80.5122327045
 30
0.0
 40
1.5
100
AcDbArc
 50
332.4879973761
 51
0.0
  0
LINE
  5
1A2
330
1F
100
AcDbEntity
  8
0
  6
Continuous
 62
     7
100
AcDbLine
 10
1442.0726715808
 20
-74.3794468951
 30
0.0
 11
1441.5726715808
 21
-74.8794468951
 31
0.0
  0
LINE
  5
1A3
330
1F
100
AcDbEntity
  8
0
  6
Continuous
 62
     7
100
AcDbLine
 10
1447.7726715808
 20
-74.3794468951
 30
0.0
 11
1442.0726715808
 21
-74.3794468951
 31
0.0
  0
LINE
  5
1A4
330
1F
100
AcDbEntity
  8
0
  6
Continuous
 62
     7
100
AcDbLine
 10
1450.7726715808
 20
-74.3794468951
 30
0.0
 11
1449.2726715808
 21
-74.3794468951
 31
0.0
  0
LINE
  5
1A5
330
1F
100
AcDbEntity
  8
0
  6
Continuous
 62
     7
100
AcDbLine
 10
1441.5726715808
 20
-79.8794468951
 30
0.0
 11
1442.0726715808
 21
-80.3794468951
 31
0.0
  0
LINE
  5
1A6
330
1F
100
AcDbEntity
  8
0
  6
Continuous
 62
     7
100
AcDbLine
 10
1442.0726715808
 20
-80.3794468951
 30
0.0
 11
1447.7726715808
 21
-80.3794468951
 31
0.0
  0
LINE
  5
1A7
330
1F
100
AcDbEntity
  8
0
  6
Continuous
 62
     7
100
AcDbLine
 10
1449.2726715808
 20
-80.3794468951
 30
0.0
 11
1450.7726715808
 21
-80.3794468951
 31
0.0
  0
LINE
  5
1A8
330
1F
100
AcDbEntity
  8
0
  6
Continuous
 62
     7
100
AcDbLine
 10
1450.7726715808
 20
17.5347666673
 30
0.0
 11
1449.2726715808
 21
17.5347666673
 31
0.0
  0
LINE
  5
1A9
330
1F
100
AcDbEntity
  8
0
  6
Continuous
 62
     7
100
AcDbLine
 10
1450.7726715808
 20
-0.4652333327
 30
0.0
 11
1449.2726715808
 21
-0.4652333327
 31
0.0
  0
LINE
  5
1AA
330
1F
100
AcDbEntity
  8
0
  6
Continuous
 62
     7
100
AcDbLine
 10
1449.2726715808
 20
-0.4652333327
 30
0.0
 11
1449.2726715808
 21
17.5347666673
 31
0.0
  0
LINE
  5
1AB
330
1F
100
AcDbEntity
  8
0
  6
Continuous
 62
     7
100
AcDbLine
 10
1450.7726715808
 20
-0.4652333327
 30
0.0
 11
1450.7726715808
 21
17.5347666673
 31
0.0
  0
LINE
  5
1AC
330
1F
100
AcDbEntity
  8
0
  6
Continuous
 62
     7
100
AcDbLine
 10
1450.7726715808
 20
333.6205531073
 30
0.0
 11
1449.2726715808
 21
333.6205531073
 31
0.0
  0
LINE
  5
1AD
330
1F
100
AcDbEntity
  8
0
  6
Continuous
 62
     7
100
AcDbLine
 10
1450.7726715808
 20
315.6205531073
 30
0.0
 11
1449.2726715808
 21
315.6205531073
 31
0.0
  0
LINE
  5
1AE
330
1F
100
AcDbEntity
  8
0
  6
Continuous
 62
     7
100
AcDbLine
 10
1449.2726715808
 20
315.6205531073
 30
0.0
 11
1449.2726715808
 21
333.6205531073
 31
0.0
  0
LINE
  5
1AF
330
1F
100
AcDbEntity
  8
0
  6
Continuous
 62
     7
100
AcDbLine
 10
1450.7726715808
 20
315.6205531073
 30
0.0
 11
1450.7726715808
 21
333.6205531073
 31
0.0
  0
LINE
  5
1B0
330
1F
100
AcDbEntity
  8
0
  6
Continuous
 62
     7
100
AcDbLine
 10
1449.2726715808
 20
17.5347666673
 30
0.0
 11
1449.2726715808
 21
315.6205531073
 31
0.0
  0
LINE
  5
1B1
330
1F
100
AcDbEntity
  8
0
  6
Continuous
 62
     7
100
AcDbLine
 10
1450.7726715808
 20
17.5347666673
 30
0.0
 11
1450.7726715808
 21
315.6205531073
 31
0.0
  0
LINE
  5
1B2
330
1F
100
AcDbEntity
  8
0
  6
Continuous
 62
     7
100
AcDbLine
 10
1446.7726715808
 20
-88.8794468951
 30
0.0
 11
1442.7726715808
 21
-88.8794468951
 31
0.0
  0
LINE
  5
1B3
330
1F
100
AcDbEntity
  8
0
  6
Continuous
 62
     7
100
AcDbLine
 10
1442.7726715808
 20
-88.8794468951
 30
0.0
 11
1442.7726715808
 21
-87.3794468951
 31
0.0
  0
LINE
  5
1B4
330
1F
100
AcDbEntity
  8
0
  6
Continuous
 62
     7
100
AcDbLine
 10
1446.7726715808
 20
-87.3794468951
 30
0.0
 11
1442.7726715808
 21
-87.3794468951
 31
0.0
  0
LINE
  5
1B5
330
1F
100
AcDbEntity
  8
0
  6
Continuous
 62
     7
100
AcDbLine
 10
1446.7726715808
 20
-87.3794468951
 30
0.0
 11
1446.7726715808
 21
-88.8794468951
 31
0.0
  0
LINE
  5
1B6
330
1F
100
AcDbEntity
  8
0
  6
Continuous
 62
     7
100
AcDbLine
 10
1442.7726715808
 20
-88.8794468951
 30
0.0
 11
1439.7726715808
 21
-88.8794468951
 31
0.0
  0
LINE
  5
1B7
330
1F
100
AcDbEntity
  8
0
  6
Continuous
 62
     7
100
AcDbLine
 10
1439.7726715808
 20
-88.8794468951
 30
0.0
 11
1439.7726715808
 21
-87.3794468951
 31
0.0
  0
LINE
  5
1B8
330
1F
100
AcDbEntity
  8
0
  6
Continuous
 62
     7
100
AcDbLine
 10
1442.7726715808
 20
-87.3794468951
 30
0.0
 11
1439.7726715808
 21
-87.3794468951
 31
0.0
  0
LINE
  5
1B9
330
1F
100
AcDbEntity
  8
0
  6
Continuous
 62
     7
100
AcDbLine
 10
1449.2726715808
 20
-86.3794468951
 30
0.0
 11
1449.2726715808
 21
-3.414980801
 31
0.0
  0
LINE
  5
1BA
330
1F
100
AcDbEntity
  8
0
  6
Continuous
 62
     7
100
AcDbLine
 10
1447.7726715808
 20
-86.3794468951
 30
0.0
 11
1449.2726715808
 21
-86.3794468951
 31
0.0
  0
LINE
  5
1BB
330
1F
100
AcDbEntity
  8
0
  6
Continuous
 62
     7
100
AcDbLine
 10
1449.2726715808
 20
-3.414980801
 30
0.0
 11
1447.7726715808
 21
-3.414980801
 31
0.0
  0
LINE
  5
1BC
330
1F
100
AcDbEntity
  8
0
  6
Continuous
 62
     7
100
AcDbLine
 10
1447.7726715808
 20
-86.3794468951
 30
0.0
 11
1447.7726715808
 21
-3.414980801
 31
0.0
  0
LINE
  5
1BD
330
1F
100
AcDbEntity
  8
0
  6
Continuous
 62
     7
100
AcDbLine
 10
1449.5655647996
 20
-2.7078740199
 30
0.0
 11
1448.5049046278
 21
-1.6472138481
 31
0.0
  0
LINE
  5
1BE
330
1F
100
AcDbEntity
  8
0
  6
Continuous
 62
     7
100
AcDbLine
 10
1448.9797783619
 20
-1.1723401139
 30
0.0
 11
1448.5049046278
 21
-1.6472138481
 31
0.0
  0
LINE
  5
1BF
330
1F
100
AcDbEntity
  8
0
  6
Continuous
 62
     7
100
AcDbLine
 10
1448.9797783619
 20
-1.1723401139
 30
0.0
 11
1450.0404385337
 21
-2.2330002857
 31
0.0
  0
LINE
  5
1C0
330
1F
100
AcDbEntity
  8
0
  6
Continuous
 62
     7
100
AcDbLine
 10
1450.0404385337
 20
-2.2330002857
 30
0.0
 11
1449.5655647996
 21
-2.7078740199
 31
0.0
  0
LINE
  5
1C1
330
1F
100
AcDbEntity
  8
0
  6
Continuous
 62
     7
100
AcDbLine
 10
1448.5049046278
 20
-1.6472138481
 30
0.0
 11
1447.7726715808
 21
-2.3794468951
 31
0.0
  0
LINE
  5
1C2
330
1F
100
AcDbEntity
  8
0
  6
Continuous
 62
     7
100
AcDbLine
 10
1449.5655647996
 20
-2.7078740199
 30
0.0
 11
1449.2726715808
 21
-3.0007672387
 31
0.0
  0
LINE
  5
1C3
330
1F
100
AcDbEntity
  8
0
  6
Continuous
 62
     7
100
AcDbLine
 10
1449.2726715808
 20
-3.414980801
 30
0.0
 11
1449.2726715808
 21
-3.0007672387
 31
0.0
  0
LINE
  5
1C4
330
1F
100
AcDbEntity
  8
0
  6
Continuous
 62
     7
100
AcDbLine
 10
1447.7726715808
 20
-3.414980801
 30
0.0
 11
1447.7726715808
 21
-2.3794468951
 31
0.0
  0
LINE
  5
1C5
330
1F
100
AcDbEntity
  8
0
  6
Continuous
 62
     7
100
AcDbLine
 10
1448.9797783619
 20
-1.1723401139
 30
0.0
 11
1449.2726715808
 21
-0.8794468951
 31
0.0
  0
LINE
  5
1C6
330
1F
100
AcDbEntity
  8
0
  6
Continuous
 62
     7
100
AcDbLine
 10
1450.0404385337
 20
-2.2330002857
 30
0.0
 11
1450.7726715808
 21
-1.5007672387
 31
0.0
  0
LINE
  5
1C7
330
1F
100
AcDbEntity
  8
0
  6
Continuous
 62
     7
100
AcDbLine
 10
1449.2726715808
 20
-0.4652333327
 30
0.0
 11
1449.2726715808
 21
-0.8794468951
 31
0.0
  0
LINE
  5
1C8
330
1F
100
AcDbEntity
  8
0
  6
Continuous
 62
     7
100
AcDbLine
 10
1450.7726715808
 20
-0.4652333327
 30
0.0
 11
1450.7726715808
 21
-1.5007672387
 31
0.0
  0
LINE
  5
1C9
330
1F
100
AcDbEntity
  8
0
  6
Continuous
 62
     7
100
AcDbLine
 10
1449.2726715808
 20
-86.3794468951
 30
0.0
 11
1449.2726715808
 21
-88.8794468951
 31
0.0
  0
LINE
  5
1CA
330
1F
100
AcDbEntity
  8
0
  6
Continuous
 62
     7
100
AcDbLine
 10
1447.7726715808
 20
-86.3794468951
 30
0.0
 11
1447.7726715808
 21
-87.3794468951
 31
0.0
  0
LINE
  5
1CB
330
1F
100
AcDbEntity
  8
0
  6
Continuous
 62
     7
100
AcDbLine
 10
1446.7726715808
 20
-88.8794468951
 30
0.0
 11
1449.2726715808
 21
-88.8794468951
 31
0.0
  0
LINE
  5
1CC
330
1F
100
AcDbEntity
  8
0
  6
Continuous
 62
     7
100
AcDbLine
 10
1446.7726715808
 20
-87.3794468951
 30
0.0
 11
1447.7726715808
 21
-87.3794468951
 31
0.0
  0
LINE
  5
1CD
330
1F
100
AcDbEntity
  8
0
  6
Continuous
 62
     7
100
AcDbLine
 10
1453.6126641898
 20
-79.7225060682
 30
0.0
 11
1450.7726715808
 21
-79.7225060682
 31
0.0
  0
LINE
  5
1CE
330
1F
100
AcDbEntity
  8
0
  6
Continuous
 62
     7
100
AcDbLine
 10
1450.7726715808
 20
-79.7225060682
 30
0.0
 11
1450.7726715808
 21
-71.4794468951
 31
0.0
  0
ARC
  5
1CF
330
1F
100
AcDbEntity
  8
0
  6
Continuous
 62
     7
100
AcDbCircle
 10
1453.7451729413
 20
-77.351295295
 30
0.0
 40
2.374910335141645
100
AcDbArc
 50
266.8015057867
 51
300.2903465167
  0
LINE
  5
1D0
330
1F
100
AcDbEntity
  8
0
  6
Continuous
 62
     7
100
AcDbLine
 10
1450.7726715808
 20
-83.2794468951
 30
0.0
 11
1450.7726715808
 21
-79.7225060682
 31
0.0
  0
LINE
  5
1D1
330
1F
100
AcDbEntity
  8
0
  6
Continuous
 62
     7
100
AcDbLine
 10
1455.603042707
 20
-78.898737072
 30
0.0
 11
1454.943035316
 21
-79.4019841625
 31
0.0
  0
ARC
  5
1D2
330
1F
100
AcDbEntity
  8
0
  6
Continuous
 62
     7
100
AcDbCircle
 10
1455.4102660926
 20
-78.5900308729
 30
0.0
 40
0.3639537613881528
100
AcDbArc
 50
301.9833882444
 51
354.713205807
  0
LINE
  5
1D3
330
1F
100
AcDbEntity
  8
0
  6
Continuous
 62
     7
100
AcDbLine
 10
1455.7726715808
 20
-78.6235659676
 30
0.0
 11
1455.7726715808
 21
-74.2466610858
 31
0.0
  0
LINE
  5
1D4
330
1F
100
AcDbEntity
  8
0
  6
Continuous
 62
     7
100
AcDbLine
 10
1455.7726715808
 20
-80.5122327045
 30
0.0
 11
1455.7726715808
 21
-78.6235659676
 31
0.0
  0
LINE
  5
1D5
330
1F
100
AcDbEntity
  8
0
  6
Continuous
 62
     7
100
AcDbLine
 10
1442.0726715808
 20
-78.5708329153
 30
0.0
 11
1442.0726715808
 21
-74.3794468951
 31
0.0
  0
LINE
  5
1D6
330
1F
100
AcDbEntity
  8
0
  6
Continuous
 62
     7
100
AcDbLine
 10
1441.5726715808
 20
-78.3722685786
 30
0.0
 11
1442.0726715808
 21
-78.5708329153
 31
0.0
  0
LINE
  5
1D7
330
1F
100
AcDbEntity
  8
0
  6
Continuous
 62
     7
100
AcDbLine
 10
1441.5726715808
 20
-78.3722685786
 30
0.0
 11
1441.5726715808
 21
-74.8794468951
 31
0.0
  0
LINE
  5
1D8
330
1F
100
AcDbEntity
  8
0
  6
Continuous
 62
     7
100
AcDbLine
 10
1442.0726715808
 20
-78.5708329153
 30
0.0
 11
1447.7726715808
 21
-78.5708329153
 31
0.0
  0
LINE
  5
1D9
330
1F
100
AcDbEntity
  8
0
  6
Continuous
 62
     7
100
AcDbLine
 10
1449.2726715808
 20
-78.5708329153
 30
0.0
 11
1450.7726715808
 21
-78.5708329153
 31
0.0
  0
LINE
  5
1DA
330
1F
100
AcDbEntity
  8
0
  6
Continuous
 62
     7
100
AcDbLine
 10
1442.0726715808
 20
-80.3794468951
 30
0.0
 11
1442.0726715808
 21
-78.5708329153
 31
0.0
  0
LINE
  5
1DB
330
1F
100
AcDbEntity
  8
0
  6
Continuous
 62
     7
100
AcDbLine
 10
1441.5726715808
 20
-79.8794468951
 30
0.0
 11
1441.5726715808
 21
-78.3722685786
 31
0.0
  0
LINE
  5
1DC
330
1F
100
AcDbEntity
  8
0
  6
Continuous
 62
     7
100
AcDbLine
 10
1453.6126641898
 20
-79.7225060682
 30
0.0
 11
1453.6126641898
 21
-71.4794468951
 31
0.0
  0
LINE
  5
1DD
330
1F
100
AcDbEntity
  8
0
  6
Continuous
 62
     7
100
AcDbLine
 10
1454.943035316
 20
-79.4019841625
 30
0.0
 11
1454.943035316
 21
-72.2865452669
 31
0.0
  0
LINE
  5
1DE
330
1F
100
AcDbEntity
  8
0
  6
Continuous
 62
     7
100
AcDbLine
 10
1453.6126641898
 20
-83.2794468951
 30
0.0
 11
1453.6126641898
 21
-79.7225060682
 31
0.0
  0
LINE
  5
1DF
330
1F
100
AcDbEntity
  8
0
  6
Continuous
 62
     7
100
AcDbLine
 10
1454.943035316
 20
-82.4723485234
 30
0.0
 11
1454.943035316
 21
-79.4019841625
 31
0.0
  0
LINE
  5
1E0
330
1F
100
AcDbEntity
  8
0
  6
Continuous
 62
     7
100
AcDbLine
 10
1455.603042707
 20
-78.898737072
 30
0.0
 11
1455.603042707
 21
-73.5537594575
 31
0.0
  0
LINE
  5
1E1
330
1F
100
AcDbEntity
  8
0
  6
Continuous
 62
     7
100
AcDbLine
 10
1455.603042707
 20
-81.2051343327
 30
0.0
 11
1455.603042707
 21
-78.898737072
 31
0.0
  0
LINE
  5
1E2
330
1F
100
AcDbEntity
  8
0
  6
Continuous
 62
     7
100
AcDbLine
 10
1569.03604952
 20
-88.8794468951
 30
0.0
 11
1569.03604952
 21
-87.3794468951
 31
0.0
  0
LINE
  5
1E3
330
1F
100
AcDbEntity
  8
0
  6
Continuous
 62
     7
100
AcDbLine
 10
1566.03604952
 20
-88.8794468951
 30
0.0
 11
1566.03604952
 21
-87.3794468951
 31
0.0
  0
LINE
  5
1E4
330
1F
100
AcDbEntity
  8
0
  6
Continuous
 62
     7
100
AcDbLine
 10
1569.03604952
 20
-87.3794468951
 30
0.0
 11
1566.03604952
 21
-87.3794468951
 31
0.0
  0
LINE
  5
1E5
330
1F
100
AcDbEntity
  8
0
  6
Continuous
 62
     7
100
AcDbLine
 10
1569.03604952
 20
-88.8794468951
 30
0.0
 11
1566.03604952
 21
-88.8794468951
 31
0.0
  0
LINE
  5
1E6
330
1F
100
AcDbEntity
  8
0
  6
Continuous
 62
     7
100
AcDbLine
 10
2172.53604952
 20
-88.8794468951
 30
0.0
 11
2172.53604952
 21
-87.3794468951
 31
0.0
  0
LINE
  5
1E7
330
1F
100
AcDbEntity
  8
0
  6
Continuous
 62
     7
100
AcDbLine
 10
2172.53604952
 20
-87.3794468951
 30
0.0
 11
1569.03604952
 21
-87.3794468951
 31
0.0
  0
LINE
  5
1E8
330
1F
100
AcDbEntity
  8
0
  6
Continuous
 62
     7
100
AcDbLine
 10
2172.53604952
 20
-88.8794468951
 30
0.0
 11
1569.03604952
 21
-88.8794468951
 31
0.0
  0
LINE
  5
1E9
330
1F
100
AcDbEntity
  8
0
  6
Continuous
 62
     7
100
AcDbLine
 10
2175.53604952
 20
-88.8794468951
 30
0.0
 11
2175.53604952
 21
-87.3794468951
 31
0.0
  0
LINE
  5
1EA
330
1F
100
AcDbEntity
  8
0
  6
Continuous
 62
     7
100
AcDbLine
 10
2175.53604952
 20
-87.3794468951
 30
0.0
 11
2172.53604952
 21
-87.3794468951
 31
0.0
  0
LINE
  5
1EB
330
1F
100
AcDbEntity
  8
0
  6
Continuous
 62
     7
100
AcDbLine
 10
2175.53604952
 20
-88.8794468951
 30
0.0
 11
2172.53604952
 21
-88.8794468951
 31
0.0
  0
ARC
  5
1EC
330
1F
100
AcDbEntity
  8
0
  6
Continuous
 62
     7
100
AcDbCircle
 10
1762.78604952
 20
-77.3794468951
 30
0.0
 40
3.000000000000163
100
AcDbArc
 50
179.9085871072
 51
359.9085871072
  0
LINE
  5
1ED
330
1F
100
AcDbEntity
  8
0
  6
Continuous
 62
     7
100
AcDbLine
 10
1760.2860527019
 20
-77.3754582569
 30
0.0
 11
1759.7860533382
 21
-77.3746605293
 31
0.0
  0
ARC
  5
1EE
330
1F
100
AcDbEntity
  8
0
  6
Continuous
 62
     7
100
AcDbCircle
 10
1762.78604952
 20
-77.3794468951
 30
0.0
 40
2.500000000000174
100
AcDbArc
 50
179.9085871072
 51
359.9085871072
  0
LINE
  5
1EF
330
1F
100
AcDbEntity
  8
0
  6
Continuous
 62
     7
100
AcDbLine
 10
1765.2860463382
 20
-77.3834355333
 30
0.0
 11
1765.7860457018
 21
-77.384233261
 31
0.0
  0
ARC
  5
1F0
330
1F
100
AcDbEntity
  8
0
  6
Continuous
 62
     7
100
AcDbCircle
 10
1762.78604952
 20
-77.3794468951
 30
0.0
 40
2.500000000000174
100
AcDbArc
 50
359.9085871072
 51
179.9085871072
  0
ARC
  5
1F1
330
1F
100
AcDbEntity
  8
0
  6
Continuous
 62
     7
100
AcDbCircle
 10
1762.78604952
 20
-77.3794468951
 30
0.0
 40
3.000000000000163
100
AcDbArc
 50
359.9085871072
 51
179.9085871072
  0
LINE
  5
1F2
330
1F
100
AcDbEntity
  8
0
  6
Continuous
 62
     7
100
AcDbLine
 10
1981.0804568737
 20
-78.3722685786
 30
0.0
 11
1981.5393383445
 21
-78.5708329153
 31
0.0
  0
ARC
  5
1F3
330
1F
100
AcDbEntity
  8
0
  6
Continuous
 62
     7
100
AcDbCircle
 10
1978.78604952
 20
-77.3794468951
 30
0.0
 40
3.000000000000232
100
AcDbArc
 50
156.601199734
 51
336.601199734
  0
LINE
  5
1F4
330
1F
100
AcDbEntity
  8
0
  6
Continuous
 62
     7
100
AcDbLine
 10
1976.4916421663
 20
-76.3866252116
 30
0.0
 11
1976.0327606956
 21
-76.1880608749
 31
0.0
  0
ARC
  5
1F5
330
1F
100
AcDbEntity
  8
0
  6
Continuous
 62
     7
100
AcDbCircle
 10
1978.78604952
 20
-77.3794468951
 30
0.0
 40
2.49999999999997
100
AcDbArc
 50
156.601199734
 51
336.601199734
  0
ARC
  5
1F6
330
1F
100
AcDbEntity
  8
0
  6
Continuous
 62
     7
100
AcDbCircle
 10
1978.78604952
 20
-77.3794468951
 30
0.0
 40
3.000000000000232
100
AcDbArc
 50
336.601199734
 51
156.601199734
  0
ARC
  5
1F7
330
1F
100
AcDbEntity
  8
0
  6
Continuous
 62
     7
100
AcDbCircle
 10
1978.78604952
 20
-77.3794468951
 30
0.0
 40
2.49999999999997
100
AcDbArc
 50
336.601199734
 51
156.601199734
  0
LINE
  5
1F8
330
1F
100
AcDbEntity
  8
0
  6
Continuous
 62
     7
100
AcDbLine
 10
1566.03604952
 20
-3.414980801
 30
0.0
 11
1566.03604952
 21
-86.3794468951
 31
0.0
  0
LINE
  5
1F9
330
1F
100
AcDbEntity
  8
0
  6
Continuous
 62
     7
100
AcDbLine
 10
1566.03604952
 20
-3.414980801
 30
0.0
 11
1566.03604952
 21
-2.3794468951
 31
0.0
  0
LINE
  5
1FA
330
1F
100
AcDbEntity
  8
0
  6
Continuous
 62
     7
100
AcDbLine
 10
2175.53604952
 20
-2.3794468951
 30
0.0
 11
1566.03604952
 21
-2.3794468951
 31
0.0
  0
LINE
  5
1FB
330
1F
100
AcDbEntity
  8
0
  6
Continuous
 62
     7
100
AcDbLine
 10
2175.53604952
 20
-3.414980801
 30
0.0
 11
2175.53604952
 21
-2.3794468951
 31
0.0
  0
LINE
  5
1FC
330
1F
100
AcDbEntity
  8
0
  6
Continuous
 62
     7
100
AcDbLine
 10
2175.53604952
 20
-86.3794468951
 30
0.0
 11
2175.53604952
 21
-3.414980801
 31
0.0
  0
LINE
  5
1FD
330
1F
100
AcDbEntity
  8
0
  6
Continuous
 62
     7
100
AcDbLine
 10
2175.53604952
 20
-86.3794468951
 30
0.0
 11
2175.53604952
 21
-87.3794468951
 31
0.0
  0
LINE
  5
1FE
330
1F
100
AcDbEntity
  8
0
  6
Continuous
 62
     7
100
AcDbLine
 10
1566.03604952
 20
-86.3794468951
 30
0.0
 11
1566.03604952
 21
-87.3794468951
 31
0.0
  0
LINE
  5
1FF
330
1F
100
AcDbEntity
  8
0
  6
Continuous
 62
     7
100
AcDbLine
 10
2175.53604952
 20
-1.6472138481
 30
0.0
 11
2175.53604952
 21
-2.3794468951
 31
0.0
  0
LINE
  5
200
330
1F
100
AcDbEntity
  8
0
  6
Continuous
 62
     7
100
AcDbLine
 10
1566.03604952
 20
-1.6472138481
 30
0.0
 11
1566.03604952
 21
-1.1723401139
 31
0.0
  0
LINE
  5
201
330
1F
100
AcDbEntity
  8
0
  6
Continuous
 62
     7
100
AcDbLine
 10
1566.03604952
 20
-1.1723401139
 30
0.0
 11
1566.03604952
 21
-0.8794468951
 31
0.0
  0
LINE
  5
202
330
1F
100
AcDbEntity
  8
0
  6
Continuous
 62
     7
100
AcDbLine
 10
1566.03604952
 20
-0.8794468951
 30
0.0
 11
2175.53604952
 21
-0.8794468951
 31
0.0
  0
LINE
  5
203
330
1F
100
AcDbEntity
  8
0
  6
Continuous
 62
     7
100
AcDbLine
 10
2175.53604952
 20
-1.1723401139
 30
0.0
 11
2175.53604952
 21
-0.8794468951
 31
0.0
  0
LINE
  5
204
330
1F
100
AcDbEntity
  8
0
  6
Continuous
 62
     7
100
AcDbLine
 10
2175.53604952
 20
-1.1723401139
 30
0.0
 11
2175.53604952
 21
-1.6472138481
 31
0.0
  0
LINE
  5
205
330
1F
100
AcDbEntity
  8
0
  6
Continuous
 62
     7
100
AcDbLine
 10
1566.03604952
 20
-1.6472138481
 30
0.0
 11
1566.03604952
 21
-2.3794468951
 31
0.0
  0
LINE
  5
206
330
1F
100
AcDbEntity
  8
0
  6
Continuous
 62
     7
100
AcDbLine
 10
2192.28604952
 20
333.6205531073
 30
0.0
 11
1549.28604952
 21
333.6205531073
 31
0.0
  0
LINE
  5
207
330
1F
100
AcDbEntity
  8
0
  6
Continuous
 62
     7
100
AcDbLine
 10
2210.28604952
 20
315.6205531073
 30
0.0
 11
2192.28604952
 21
333.6205531073
 31
0.0
  0
LINE
  5
208
330
1F
100
AcDbEntity
  8
0
  6
Continuous
 62
     7
100
AcDbLine
 10
2210.28604952
 20
17.5347666673
 30
0.0
 11
2210.28604952
 21
315.6205531073
 31
0.0
  0
LINE
  5
209
330
1F
100
AcDbEntity
  8
0
  6
Continuous
 62
     7
100
AcDbLine
 10
2192.28604952
 20
-0.4652333327
 30
0.0
 11
2210.28604952
 21
17.5347666673
 31
0.0
  0
LINE
  5
20A
330
1F
100
AcDbEntity
  8
0
  6
Continuous
 62
     7
100
AcDbLine
 10
2175.53604952
 20
-0.4652333327
 30
0.0
 11
2192.28604952
 21
-0.4652333327
 31
0.0
  0
LINE
  5
20B
330
1F
100
AcDbEntity
  8
0
  6
Continuous
 62
     7
100
AcDbLine
 10
1549.28604952
 20
-0.4652333327
 30
0.0
 11
1566.03604952
 21
-0.4652333327
 31
0.0
  0
LINE
  5
20C
330
1F
100
AcDbEntity
  8
0
  6
Continuous
 62
     7
100
AcDbLine
 10
1531.28604952
 20
315.6205531073
 30
0.0
 11
1531.28604952
 21
17.5347666673
 31
0.0
  0
LINE
  5
20D
330
1F
100
AcDbEntity
  8
0
  6
Continuous
 62
     7
100
AcDbLine
 10
1549.28604952
 20
333.6205531073
 30
0.0
 11
1531.28604952
 21
315.6205531073
 31
0.0
  0
ARC
  5
20E
330
1F
100
AcDbEntity
  8
0
  6
Continuous
 62
     7
100
AcDbCircle
 10
2195.78604952
 20
40.6205531073
 30
0.0
 40
3.5
100
AcDbArc
 50
0.0
 51
180.0
  0
ARC
  5
20F
330
1F
100
AcDbEntity
  8
0
  6
Continuous
 62
     7
100
AcDbCircle
 10
2195.78604952
 20
40.6205531073
 30
0.0
 40
3.5
100
AcDbArc
 50
180.0
 51
0.0
  0
ARC
  5
210
330
1F
100
AcDbEntity
  8
0
  6
Continuous
 62
     7
100
AcDbCircle
 10
1545.78604952
 20
40.6205531073
 30
0.0
 40
3.5
100
AcDbArc
 50
0.0
 51
180.0
  0
ARC
  5
211
330
1F
100
AcDbEntity
  8
0
  6
Continuous
 62
     7
100
AcDbCircle
 10
1545.78604952
 20
40.6205531073
 30
0.0
 40
3.5
100
AcDbArc
 50
180.0
 51
0.0
  0
ARC
  5
212
330
1F
100
AcDbEntity
  8
0
  6
Continuous
 62
     7
100
AcDbCircle
 10
2195.78604952
 20
307.6205531073
 30
0.0
 40
3.5
100
AcDbArc
 50
180.0
 51
0.0
  0
ARC
  5
213
330
1F
100
AcDbEntity
  8
0
  6
Continuous
 62
     7
100
AcDbCircle
 10
2195.78604952
 20
307.6205531073
 30
0.0
 40
3.5
100
AcDbArc
 50
0.0
 51
180.0
  0
ARC
  5
214
330
1F
100
AcDbEntity
  8
0
  6
Continuous
 62
     7
100
AcDbCircle
 10
1978.78604952
 20
322.6205531073
 30
0.0
 40
3.500000000000227
100
AcDbArc
 50
180.0
 51
0.0
  0
ARC
  5
215
330
1F
100
AcDbEntity
  8
0
  6
Continuous
 62
     7
100
AcDbCircle
 10
1978.78604952
 20
322.6205531073
 30
0.0
 40
3.500000000000227
100
AcDbArc
 50
0.0
 51
180.0
  0
ARC
  5
216
330
1F
100
AcDbEntity
  8
0
  6
Continuous
 62
     7
100
AcDbCircle
 10
1762.78604952
 20
322.6205531073
 30
0.0
 40
3.500000000000227
100
AcDbArc
 50
180.0
 51
0.0
  0
ARC
  5
217
330
1F
100
AcDbEntity
  8
0
  6
Continuous
 62
     7
100
AcDbCircle
 10
1762.78604952
 20
322.6205531073
 30
0.0
 40
3.500000000000227
100
AcDbArc
 50
0.0
 51
180.0
  0
ARC
  5
218
330
1F
100
AcDbEntity
  8
0
  6
Continuous
 62
     7
100
AcDbCircle
 10
1545.78604952
 20
307.6205531073
 30
0.0
 40
3.5
100
AcDbArc
 50
180.0
 51
0.0
  0
ARC
  5
219
330
1F
100
AcDbEntity
  8
0
  6
Continuous
 62
     7
100
AcDbCircle
 10
1545.78604952
 20
307.6205531073
 30
0.0
 40
3.5
100
AcDbArc
 50
0.0
 51
180.0
  0
LINE
  5
21A
330
1F
100
AcDbEntity
  8
0
  6
Continuous
 62
     7
100
AcDbLine
 10
1531.28604952
 20
17.5347666673
 30
0.0
 11
1549.28604952
 21
-0.4652333327
 31
0.0
  0
LINE
  5
21B
330
1F
100
AcDbEntity
  8
0
  6
Continuous
 62
     7
100
AcDbLine
 10
2175.53604952
 20
-0.4652333327
 30
0.0
 11
2175.53604952
 21
-0.8794468951
 31
0.0
  0
LINE
  5
21C
330
1F
100
AcDbEntity
  8
0
  6
Continuous
 62
     7
100
AcDbLine
 10
1566.03604952
 20
-0.4652333327
 30
0.0
 11
1566.03604952
 21
-0.8794468951
 31
0.0
  0
ENDSEC
  0
SECTION
  2
OBJECTS
  0
DICTIONARY
  5
C
330
0
100
AcDbDictionary
281
     1
  3
ACAD_GROUP
350
D
  3
ACAD_LAYOUT
350
1A
  3
ACAD_MLINESTYLE
350
17
  3
ACAD_PLOTSETTINGS
350
19
  3
ACAD_PLOTSTYLENAME
350
E
  3
ACAD_SCALELIST
350
47
  3
DWGPROPS
350
21D
  0
DICTIONARY
  5
D
102
{ACAD_REACTORS
330
C
102
}
330
C
100
AcDbDictionary
281
     1
  0
DICTIONARY
  5
1A
102
{ACAD_REACTORS
330
C
102
}
330
C
100
AcDbDictionary
281
     1
  3
Layout1
350
1E
  3
Layout2
350
26
  3
Model
350
22
  0
DICTIONARY
  5
17
102
{ACAD_REACTORS
330
C
102
}
330
C
100
AcDbDictionary
281
     1
  3
Standard
350
18
  0
DICTIONARY
  5
19
102
{ACAD_REACTORS
330
C
102
}
330
C
100
AcDbDictionary
281
     1
  0
ACDBDICTIONARYWDFLT
  5
E
102
{ACAD_REACTORS
330
C
102
}
330
C
100
AcDbDictionary
281
     1
  3
Normal
350
F
100
AcDbDictionaryWithDefault
340
F
  0
DICTIONARY
  5
47
102
{ACAD_REACTORS
330
C
102
}
330
C
100
AcDbDictionary
281
     1
  3
A0
350
48
  3
A1
350
49
  3
A2
350
4A
  3
A3
350
4B
  3
A4
350
4C
  3
A5
350
4D
  3
A6
350
4E
  3
A7
350
4F
  3
A8
350
50
  3
A9
350
51
  3
B0
350
52
  3
B1
350
53
  3
B2
350
54
  3
B3
350
55
  3
B4
350
56
  3
B5
350
57
  3
B6
350
58
  0
XRECORD
  5
21D
102
{ACAD_REACTORS
330
C
102
}
330
C
100
AcDbXrecord
280
     1
  1
DWGPROPS COOKIE
  2

  3

  4

  6

  7

  8
moskovchenkovapa
  9

300
=
301
=
302
=
303
=
304
=
305
=
306
=
307
=
308
=
309
=
 40
0.0
 41
2460697.580003183
 42
2460697.580003553
  1

 90
        0
  0
LAYOUT
  5
1E
102
{ACAD_REACTORS
330
1A
102
}
330
1A
100
AcDbPlotSettings
  1

  2
none_device
  4

  6

 40
0.0
 41
0.0
 42
0.0
 43
0.0
 44
0.0
 45
0.0
 46
0.0
 47
0.0
 48
0.0
 49
0.0
140
0.0
141
0.0
142
1.0
143
1.0
 70
   688
 72
     1
 73
     0
 74
     5
  7

 75
    16
147
1.0
148
0.0
149
0.0
100
AcDbLayout
  1
Layout1
 70
     1
 71
     1
 10
0.0
 20
0.0
 11
420.0
 21
297.0
 12
0.0
 22
0.0
 32
0.0
 14
1.0000000000E+20
 24
1.0000000000E+20
 34
1.0000000000E+20
 15
-1.0000000000E+20
 25
-1.0000000000E+20
 35
-1.0000000000E+20
146
0.0
 13
0.0
 23
0.0
 33
0.0
 16
1.0
 26
0.0
 36
0.0
 17
0.0
 27
1.0
 37
0.0
 76
     0
330
1B
  0
LAYOUT
  5
26
102
{ACAD_REACTORS
330
1A
102
}
330
1A
100
AcDbPlotSettings
  1

  2
none_device
  4

  6

 40
0.0
 41
0.0
 42
0.0
 43
0.0
 44
0.0
 45
0.0
 46
0.0
 47
0.0
 48
0.0
 49
0.0
140
0.0
141
0.0
142
1.0
143
1.0
 70
   688
 72
     1
 73
     0
 74
     5
  7

 75
    16
147
1.0
148
0.0
149
0.0
100
AcDbLayout
  1
Layout2
 70
     1
 71
     2
 10
0.0
 20
0.0
 11
0.0
 21
0.0
 12
0.0
 22
0.0
 32
0.0
 14
0.0
 24
0.0
 34
0.0
 15
0.0
 25
0.0
 35
0.0
146
0.0
 13
0.0
 23
0.0
 33
0.0
 16
1.0
 26
0.0
 36
0.0
 17
0.0
 27
1.0
 37
0.0
 76
     0
330
23
  0
LAYOUT
  5
22
102
{ACAD_REACTORS
330
1A
102
}
330
1A
100
AcDbPlotSettings
  1

  2
none_device
  4
Letter_(8.50_x_11.00_Inches)
  6

 40
6.35
 41
6.35
 42
6.35000508
 43
6.35000508
 44
215.9
 45
279.4
 46
0.0
 47
0.0
 48
0.0
 49
0.0
140
0.0
141
0.0
142
1.0
143
1.0
 70
  1712
 72
     1
 73
     0
 74
     0
  7

 75
     0
147
1.0
148
0.0
149
0.0
100
AcDbLayout
  1
Model
 70
     1
 71
     0
 10
0.0
 20
0.0
 11
420.0
 21
297.0
 12
0.0
 22
0.0
 32
0.0
 14
0.0
 24
0.0
 34
0.0
 15
420.0
 25
297.0
 35
0.0
146
0.0
 13
0.0
 23
0.0
 33
0.0
 16
1.0
 26
0.0
 36
0.0
 17
0.0
 27
1.0
 37
0.0
 76
     0
330
1F
331
29
  0
MLINESTYLE
  5
18
102
{ACAD_REACTORS
330
17
102
}
330
17
100
AcDbMlineStyle
  2
Standard
 70
     0
  3

 62
   256
 51
90.0
 52
90.0
 71
     2
 49
0.5
 62
   256
  6
BYLAYER
 49
-0.5
 62
   256
  6
BYLAYER
  0
ACDBPLACEHOLDER
  5
F
102
{ACAD_REACTORS
330
E
102
}
330
E
  0
SCALE
  5
48
102
{ACAD_REACTORS
330
47
102
}
330
47
100
AcDbScale
 70
     0
300
1:1
140
1.0
141
1.0
290
     1
  0
SCALE
  5
49
102
{ACAD_REACTORS
330
47
102
}
330
47
100
AcDbScale
 70
     0
300
1:2
140
1.0
141
2.0
290
     0
  0
SCALE
  5
4A
102
{ACAD_REACTORS
330
47
102
}
330
47
100
AcDbScale
 70
     0
300
1:4
140
1.0
141
4.0
290
     0
  0
SCALE
  5
4B
102
{ACAD_REACTORS
330
47
102
}
330
47
100
AcDbScale
 70
     0
300
1:5
140
1.0
141
5.0
290
     0
  0
SCALE
  5
4C
102
{ACAD_REACTORS
330
47
102
}
330
47
100
AcDbScale
 70
     0
300
1:8
140
1.0
141
8.0
290
     0
  0
SCALE
  5
4D
102
{ACAD_REACTORS
330
47
102
}
330
47
100
AcDbScale
 70
     0
300
1:10
140
1.0
141
10.0
290
     0
  0
SCALE
  5
4E
102
{ACAD_REACTORS
330
47
102
}
330
47
100
AcDbScale
 70
     0
300
1:16
140
1.0
141
16.0
290
     0
  0
SCALE
  5
4F
102
{ACAD_REACTORS
330
47
102
}
330
47
100
AcDbScale
 70
     0
300
1:20
140
1.0
141
20.0
290
     0
  0
SCALE
  5
50
102
{ACAD_REACTORS
330
47
102
}
330
47
100
AcDbScale
 70
     0
300
1:30
140
1.0
141
30.0
290
     0
  0
SCALE
  5
51
102
{ACAD_REACTORS
330
47
102
}
330
47
100
AcDbScale
 70
     0
300
1:40
140
1.0
141
40.0
290
     0
  0
SCALE
  5
52
102
{ACAD_REACTORS
330
47
102
}
330
47
100
AcDbScale
 70
     0
300
1:50
140
1.0
141
50.0
290
     0
  0
SCALE
  5
53
102
{ACAD_REACTORS
330
47
102
}
330
47
100
AcDbScale
 70
     0
300
1:100
140
1.0
141
100.0
290
     0
  0
SCALE
  5
54
102
{ACAD_REACTORS
330
47
102
}
330
47
100
AcDbScale
 70
     0
300
2:1
140
2.0
141
1.0
290
     0
  0
SCALE
  5
55
102
{ACAD_REACTORS
330
47
102
}
330
47
100
AcDbScale
 70
     0
300
4:1
140
4.0
141
1.0
290
     0
  0
SCALE
  5
56
102
{ACAD_REACTORS
330
47
102
}
330
47
100
AcDbScale
 70
     0
300
8:1
140
8.0
141
1.0
290
     0
  0
SCALE
  5
57
102
{ACAD_REACTORS
330
47
102
}
330
47
100
AcDbScale
 70
     0
300
10:1
140
10.0
141
1.0
290
     0
  0
SCALE
  5
58
102
{ACAD_REACTORS
330
47
102
}
330
47
100
AcDbScale
 70
     0
300
100:1
140
100.0
141
1.0
290
     0
  0
ENDSEC
  0
EOF
