ISO-10303-21;
HEADER;
FILE_DESCRIPTION (( 'STEP AP203' ),
    '1' );
FILE_NAME ('YNK51-1-100 Çàãëóøêà äëÿ øèíû PIN 1Ð 100À øàã 27 ìì ÈÝÊ .STEP',
    '2016-09-08T07:21:13',
    ( '' ),
    ( '' ),
    'SwSTEP 2.0',
    'SolidWorks 2014',
    '' );
FILE_SCHEMA (( 'CONFIG_CONTROL_DESIGN' ));
ENDSEC;

DATA;
#1 = DIRECTION ( 'NONE',  ( 2.168404344971007600E-016, 1.000000000000000000, 0.0000000000000000000 ) ) ;
#2 =( NAMED_UNIT ( * ) SI_UNIT ( $, .STERADIAN. ) SOLID_ANGLE_UNIT ( ) );
#3 = VECTOR ( 'NONE', #149, 1000.000000000000000 ) ;
#4 = VECTOR ( 'NONE', #47, 1000.000000000000000 ) ;
#5 = LINE ( 'NONE', #219, #292 ) ;
#6 = ORIENTED_EDGE ( 'NONE', *, *, #225, .T. ) ;
#7 = DIRECTION ( 'NONE',  ( -1.000000000000000000, -0.0000000000000000000, -0.0000000000000000000 ) ) ;
#8 = VECTOR ( 'NONE', #308, 1000.000000000000000 ) ;
#9 = CARTESIAN_POINT ( 'NONE',  ( 6.000000000000008000, 0.0000000000000000000, 0.0000000000000000000 ) ) ;
#10 = PRODUCT_RELATED_PRODUCT_CATEGORY ( 'detail', '', ( #366 ) ) ;
#11 = CARTESIAN_POINT ( 'NONE',  ( 1.200000000000000000, 0.0000000000000000000, 0.0000000000000000000 ) ) ;
#12 = CARTESIAN_POINT ( 'NONE',  ( 7.200000000000004600, -6.180664145269098400E-015, -8.000000000000000000 ) ) ;
#13 = CC_DESIGN_APPROVAL ( #357, ( #339 ) ) ;
#14 = APPROVAL_DATE_TIME ( #96, #315 ) ;
#15 = FACE_OUTER_BOUND ( 'NONE', #128, .T. ) ;
#16 = FACE_OUTER_BOUND ( 'NONE', #143, .T. ) ;
#17 = DIRECTION ( 'NONE',  ( -0.0000000000000000000, -0.0000000000000000000, 1.000000000000000000 ) ) ;
#18 = CARTESIAN_POINT ( 'NONE',  ( 7.200000000000004600, -6.180664145269098400E-015, 0.0000000000000000000 ) ) ;
#19 = AXIS2_PLACEMENT_3D ( 'NONE', #254, #97, #283 ) ;
#20 = VERTEX_POINT ( 'NONE', #147 ) ;
#21 = ORIENTED_EDGE ( 'NONE', *, *, #176, .T. ) ;
#22 = ORIENTED_EDGE ( 'NONE', *, *, #25, .F. ) ;
#23 = PERSON_AND_ORGANIZATION ( #54, #113 ) ;
#24 = VERTEX_POINT ( 'NONE', #65 ) ;
#25 = EDGE_CURVE ( 'NONE', #115, #268, #269, .T. ) ;
#26 = APPROVAL_PERSON_ORGANIZATION ( #109, #315, #333 ) ;
#27 = DATE_TIME_ROLE ( 'creation_date' ) ;
#28 = FACE_OUTER_BOUND ( 'NONE', #102, .T. ) ;
#29 = DIRECTION ( 'NONE',  ( -1.000000000000000000, 0.0000000000000000000, -0.0000000000000000000 ) ) ;
#30 = SHAPE_DEFINITION_REPRESENTATION ( #133, #145 ) ;
#31 = VERTEX_POINT ( 'NONE', #253 ) ;
#32 = ORIENTED_EDGE ( 'NONE', *, *, #194, .F. ) ;
#33 = CARTESIAN_POINT ( 'NONE',  ( 7.200000000000009100, 20.00000000000000400, 0.0000000000000000000 ) ) ;
#34 = ORIENTED_EDGE ( 'NONE', *, *, #368, .F. ) ;
#35 = CALENDAR_DATE ( 2016, 8, 9 ) ;
#36 = ORIENTED_EDGE ( 'NONE', *, *, #194, .T. ) ;
#37 = CC_DESIGN_PERSON_AND_ORGANIZATION_ASSIGNMENT ( #337, #195, ( #339 ) ) ;
#38 = CARTESIAN_POINT ( 'NONE',  ( 0.0000000000000000000, 0.0000000000000000000, 0.0000000000000000000 ) ) ;
#39 = VECTOR ( 'NONE', #126, 1000.000000000000000 ) ;
#40 = AXIS2_PLACEMENT_3D ( 'NONE', #229, #70, #257 ) ;
#41 = APPLICATION_PROTOCOL_DEFINITION ( 'international standard', 'config_control_design', 1994, #69 ) ;
#42 = PLANE ( 'NONE',  #40 ) ;
#43 = VECTOR ( 'NONE', #348, 1000.000000000000000 ) ;
#44 = PLANE ( 'NONE',  #323 ) ;
#45 = VERTEX_POINT ( 'NONE', #38 ) ;
#46 = DATE_AND_TIME ( #122, #192 ) ;
#47 = DIRECTION ( 'NONE',  ( -0.0000000000000000000, -1.000000000000000000, -0.0000000000000000000 ) ) ;
#48 = DIRECTION ( 'NONE',  ( 1.000000000000000000, -8.584255757318186100E-016, 0.0000000000000000000 ) ) ;
#49 = EDGE_CURVE ( 'NONE', #92, #52, #55, .T. ) ;
#50 = CARTESIAN_POINT ( 'NONE',  ( 0.0000000000000000000, 20.00000000000000400, -8.000000000000000000 ) ) ;
#51 = PLANE ( 'NONE',  #135 ) ;
#52 = VERTEX_POINT ( 'NONE', #9 ) ;
#53 = CC_DESIGN_DATE_AND_TIME_ASSIGNMENT ( #46, #27, ( #339 ) ) ;
#54 = PERSON ( 'UNSPECIFIED', 'UNSPECIFIED', 'UNSPECIFIED', ('UNSPECIFIED'), ('UNSPECIFIED'), ('UNSPECIFIED') ) ;
#55 = LINE ( 'NONE', #73, #146 ) ;
#56 = CARTESIAN_POINT ( 'NONE',  ( 4.250000000000007100, 0.0000000000000000000, -6.999999999999999100 ) ) ;
#57 = APPROVAL_ROLE ( '' ) ;
#58 = VERTEX_POINT ( 'NONE', #153 ) ;
#59 = EDGE_LOOP ( 'NONE', ( #62, #174, #321, #22 ) ) ;
#60 = CARTESIAN_POINT ( 'NONE',  ( 0.0000000000000000000, 0.0000000000000000000, -8.000000000000000000 ) ) ;
#61 = AXIS2_PLACEMENT_3D ( 'NONE', #341, #179, #1 ) ;
#62 = ORIENTED_EDGE ( 'NONE', *, *, #290, .F. ) ;
#63 = CARTESIAN_POINT ( 'NONE',  ( 1.200000000000000000, 18.50000000000000400, 0.0000000000000000000 ) ) ;
#64 = VECTOR ( 'NONE', #343, 1000.000000000000000 ) ;
#65 = CARTESIAN_POINT ( 'NONE',  ( 6.000000000000005300, 18.50000000000000400, 0.0000000000000000000 ) ) ;
#66 = EDGE_CURVE ( 'NONE', #24, #358, #349, .T. ) ;
#67 = LINE ( 'NONE', #215, #351 ) ;
#68 = CALENDAR_DATE ( 2016, 8, 9 ) ;
#69 = APPLICATION_CONTEXT ( 'configuration controlled 3d designs of mechanical parts and assemblies' ) ;
#70 = DIRECTION ( 'NONE',  ( 0.0000000000000000000, 0.0000000000000000000, -1.000000000000000000 ) ) ;
#71 = ORIENTED_EDGE ( 'NONE', *, *, #25, .T. ) ;
#72 = DIRECTION ( 'NONE',  ( -1.406532548089302800E-016, 1.000000000000000000, 0.0000000000000000000 ) ) ;
#73 = CARTESIAN_POINT ( 'NONE',  ( 6.000000000000008000, 0.0000000000000000000, -27.11256131448635300 ) ) ;
#74 = ADVANCED_FACE ( 'NONE', ( #302 ), #44, .F. ) ;
#75 = VERTEX_POINT ( 'NONE', #367 ) ;
#76 = PRODUCT_DEFINITION_FORMATION_WITH_SPECIFIED_SOURCE ( 'ANY', '', #366, .NOT_KNOWN. ) ;
#77 = VECTOR ( 'NONE', #87, 1000.000000000000000 ) ;
#78 = PERSON_AND_ORGANIZATION ( #54, #113 ) ;
#79 = DIRECTION ( 'NONE',  ( -1.000000000000000000, 0.0000000000000000000, -0.0000000000000000000 ) ) ;
#80 = CARTESIAN_POINT ( 'NONE',  ( 7.200000000000004600, -6.180664145269098400E-015, 0.0000000000000000000 ) ) ;
#81 = ORIENTED_EDGE ( 'NONE', *, *, #258, .F. ) ;
#82 = DIRECTION ( 'NONE',  ( 1.000000000000000000, -8.584255757318186100E-016, -0.0000000000000000000 ) ) ;
#83 = ADVANCED_FACE ( 'NONE', ( #91 ), #334, .T. ) ;
#84 = VECTOR ( 'NONE', #155, 1000.000000000000000 ) ;
#85 = ORIENTED_EDGE ( 'NONE', *, *, #125, .T. ) ;
#86 = EDGE_CURVE ( 'NONE', #170, #45, #5, .T. ) ;
#87 = DIRECTION ( 'NONE',  ( 1.000000000000000000, 0.0000000000000000000, 0.0000000000000000000 ) ) ;
#88 = PERSON_AND_ORGANIZATION_ROLE ( 'design_supplier' ) ;
#89 = LINE ( 'NONE', #298, #3 ) ;
#90 = LINE ( 'NONE', #60, #160 ) ;
#91 = FACE_OUTER_BOUND ( 'NONE', #59, .T. ) ;
#92 = VERTEX_POINT ( 'NONE', #250 ) ;
#93 = LINE ( 'NONE', #279, #8 ) ;
#94 =( LENGTH_UNIT ( ) NAMED_UNIT ( * ) SI_UNIT ( .MILLI., .METRE. ) );
#95 = APPROVAL ( #216, 'UNSPECIFIED' ) ;
#96 = DATE_AND_TIME ( #164, #234 ) ;
#97 = DIRECTION ( 'NONE',  ( -1.000000000000000000, 0.0000000000000000000, 0.0000000000000000000 ) ) ;
#98 = FACE_OUTER_BOUND ( 'NONE', #205, .T. ) ;
#99 = FACE_OUTER_BOUND ( 'NONE', #232, .T. ) ;
#100 = DIRECTION ( 'NONE',  ( 1.000000000000000000, 0.0000000000000000000, 0.0000000000000000000 ) ) ;
#101 = ORIENTED_EDGE ( 'NONE', *, *, #350, .F. ) ;
#102 = EDGE_LOOP ( 'NONE', ( #36, #136, #237, #238 ) ) ;
#103 = AXIS2_PLACEMENT_3D ( 'NONE', #264, #112, #294 ) ;
#104 = ORIENTED_EDGE ( 'NONE', *, *, #125, .F. ) ;
#105 = PERSON_AND_ORGANIZATION ( #54, #113 ) ;
#106 = ORIENTED_EDGE ( 'NONE', *, *, #66, .F. ) ;
#107 = DIRECTION ( 'NONE',  ( -1.000000000000000000, 0.0000000000000000000, 0.0000000000000000000 ) ) ;
#108 = EDGE_CURVE ( 'NONE', #52, #24, #217, .T. ) ;
#109 = PERSON_AND_ORGANIZATION ( #54, #113 ) ;
#110 = FACE_OUTER_BOUND ( 'NONE', #355, .T. ) ;
#111 = ADVANCED_FACE ( 'NONE', ( #99 ), #42, .F. ) ;
#112 = DIRECTION ( 'NONE',  ( -1.000000000000000000, 0.0000000000000000000, 0.0000000000000000000 ) ) ;
#113 = ORGANIZATION ( 'UNSPECIFIED', 'UNSPECIFIED', '' ) ;
#114 = ORIENTED_EDGE ( 'NONE', *, *, #247, .T. ) ;
#115 = VERTEX_POINT ( 'NONE', #201 ) ;
#116 = LOCAL_TIME ( 10, 21, 13.00000000000000000, #184 ) ;
#117 = ORIENTED_EDGE ( 'NONE', *, *, #350, .T. ) ;
#118 = CC_DESIGN_APPROVAL ( #95, ( #76 ) ) ;
#119 = LINE ( 'NONE', #284, #39 ) ;
#120 = PERSON_AND_ORGANIZATION_ROLE ( 'classification_officer' ) ;
#121 = LINE ( 'NONE', #33, #43 ) ;
#122 = CALENDAR_DATE ( 2016, 8, 9 ) ;
#123 = CARTESIAN_POINT ( 'NONE',  ( 7.200000000000009100, 20.00000000000000400, -8.000000000000000000 ) ) ;
#124 = CARTESIAN_POINT ( 'NONE',  ( 1.200000000000000000, 18.50000000000000400, 0.0000000000000000000 ) ) ;
#125 = EDGE_CURVE ( 'NONE', #218, #170, #227, .T. ) ;
#126 = DIRECTION ( 'NONE',  ( -1.406532548089302800E-016, 1.000000000000000000, 0.0000000000000000000 ) ) ;
#127 = PERSON_AND_ORGANIZATION_ROLE ( 'design_owner' ) ;
#128 = EDGE_LOOP ( 'NONE', ( #114, #21, #293, #168 ) ) ;
#129 = ORIENTED_EDGE ( 'NONE', *, *, #49, .T. ) ;
#130 = CARTESIAN_POINT ( 'NONE',  ( 0.0000000000000000000, 20.00000000000000400, -8.000000000000000000 ) ) ;
#131 = VECTOR ( 'NONE', #107, 1000.000000000000000 ) ;
#132 = CC_DESIGN_PERSON_AND_ORGANIZATION_ASSIGNMENT ( #173, #248, ( #76 ) ) ;
#133 = PRODUCT_DEFINITION_SHAPE ( 'NONE', 'NONE',  #339 ) ;
#134 = ORIENTED_EDGE ( 'NONE', *, *, #270, .F. ) ;
#135 = AXIS2_PLACEMENT_3D ( 'NONE', #211, #235, #79 ) ;
#136 = ORIENTED_EDGE ( 'NONE', *, *, #66, .T. ) ;
#137 = EDGE_CURVE ( 'NONE', #358, #239, #301, .T. ) ;
#138 = VECTOR ( 'NONE', #199, 1000.000000000000000 ) ;
#139 = LOCAL_TIME ( 10, 21, 13.00000000000000000, #209 ) ;
#140 = APPLICATION_CONTEXT ( 'configuration controlled 3d designs of mechanical parts and assemblies' ) ;
#141 = DIRECTION ( 'NONE',  ( -0.0000000000000000000, -0.0000000000000000000, 1.000000000000000000 ) ) ;
#142 = APPROVAL_STATUS ( 'not_yet_approved' ) ;
#143 = EDGE_LOOP ( 'NONE', ( #185, #289, #329, #243 ) ) ;
#144 = DIRECTION ( 'NONE',  ( 0.0000000000000000000, 1.000000000000000000, 0.0000000000000000000 ) ) ;
#145 = ADVANCED_BREP_SHAPE_REPRESENTATION ( 'YNK51-1-100 ¦ðóûº°úð ôû  °øýv PIN 1¦ 100L °ðó 27 üü L¦¦ ', ( #267, #297 ), #222 ) ;
#146 = VECTOR ( 'NONE', #223, 1000.000000000000000 ) ;
#147 = CARTESIAN_POINT ( 'NONE',  ( 1.200000000000000000, 18.50000000000000400, -6.999999999999999100 ) ) ;
#148 = CC_DESIGN_PERSON_AND_ORGANIZATION_ASSIGNMENT ( #105, #88, ( #76 ) ) ;
#149 = DIRECTION ( 'NONE',  ( 0.0000000000000000000, 0.0000000000000000000, 1.000000000000000000 ) ) ;
#150 = CARTESIAN_POINT ( 'NONE',  ( 0.0000000000000000000, 0.0000000000000000000, -8.000000000000000000 ) ) ;
#151 = LINE ( 'NONE', #189, #310 ) ;
#152 = ORIENTED_EDGE ( 'NONE', *, *, #156, .T. ) ;
#153 = CARTESIAN_POINT ( 'NONE',  ( 7.200000000000009100, 20.00000000000000400, 0.0000000000000000000 ) ) ;
#154 = LINE ( 'NONE', #130, #84 ) ;
#155 = DIRECTION ( 'NONE',  ( -1.000000000000000000, -0.0000000000000000000, -0.0000000000000000000 ) ) ;
#156 = EDGE_CURVE ( 'NONE', #218, #197, #90, .T. ) ;
#157 = EDGE_CURVE ( 'NONE', #183, #20, #291, .T. ) ;
#158 = LINE ( 'NONE', #56, #77 ) ;
#159 = VECTOR ( 'NONE', #347, 1000.000000000000000 ) ;
#160 = VECTOR ( 'NONE', #186, 1000.000000000000000 ) ;
#161 = CARTESIAN_POINT ( 'NONE',  ( 1.200000000000000000, 18.50000000000000400, -27.11256131448635300 ) ) ;
#162 = ORIENTED_EDGE ( 'NONE', *, *, #108, .F. ) ;
#163 = SECURITY_CLASSIFICATION ( '', '', #274 ) ;
#164 = CALENDAR_DATE ( 2016, 8, 9 ) ;
#165 = APPROVAL_STATUS ( 'not_yet_approved' ) ;
#166 = LINE ( 'NONE', #80, #322 ) ;
#167 = DIRECTION ( 'NONE',  ( -0.0000000000000000000, -1.000000000000000000, -0.0000000000000000000 ) ) ;
#168 = ORIENTED_EDGE ( 'NONE', *, *, #177, .T. ) ;
#169 = CARTESIAN_POINT ( 'NONE',  ( 7.200000000000004600, -6.180664145269098400E-015, -8.000000000000000000 ) ) ;
#170 = VERTEX_POINT ( 'NONE', #255 ) ;
#171 = ORIENTED_EDGE ( 'NONE', *, *, #331, .T. ) ;
#172 = AXIS2_PLACEMENT_3D ( 'NONE', #12, #207, #48 ) ;
#173 = PERSON_AND_ORGANIZATION ( #54, #113 ) ;
#174 = ORIENTED_EDGE ( 'NONE', *, *, #156, .F. ) ;
#175 = DATE_AND_TIME ( #244, #233 ) ;
#176 = EDGE_CURVE ( 'NONE', #92, #183, #119, .T. ) ;
#177 = EDGE_CURVE ( 'NONE', #20, #75, #245, .T. ) ;
#178 = VECTOR ( 'NONE', #342, 1000.000000000000000 ) ;
#179 = DIRECTION ( 'NONE',  ( 1.000000000000000000, -2.168404344971007600E-016, 0.0000000000000000000 ) ) ;
#180 = PLANE ( 'NONE',  #19 ) ;
#181 =( NAMED_UNIT ( * ) PLANE_ANGLE_UNIT ( ) SI_UNIT ( $, .RADIAN. ) );
#182 = CARTESIAN_POINT ( 'NONE',  ( 6.000000000000005300, 18.50000000000000400, 0.0000000000000000000 ) ) ;
#183 = VERTEX_POINT ( 'NONE', #261 ) ;
#184 = COORDINATED_UNIVERSAL_TIME_OFFSET ( 3, 0, .AHEAD. ) ;
#185 = ORIENTED_EDGE ( 'NONE', *, *, #210, .T. ) ;
#186 = DIRECTION ( 'NONE',  ( -0.0000000000000000000, -1.000000000000000000, -0.0000000000000000000 ) ) ;
#187 = PLANE ( 'NONE',  #172 ) ;
#188 = CC_DESIGN_PERSON_AND_ORGANIZATION_ASSIGNMENT ( #23, #120, ( #163 ) ) ;
#189 = CARTESIAN_POINT ( 'NONE',  ( 6.000000000000005300, 18.50000000000000400, -27.11256131448635300 ) ) ;
#190 = DIRECTION ( 'NONE',  ( 0.0000000000000000000, -0.0000000000000000000, 1.000000000000000000 ) ) ;
#191 = ADVANCED_FACE ( 'NONE', ( #16 ), #180, .F. ) ;
#192 = LOCAL_TIME ( 10, 21, 13.00000000000000000, #259 ) ;
#193 = ADVANCED_FACE ( 'NONE', ( #110 ), #311, .T. ) ;
#194 = EDGE_CURVE ( 'NONE', #183, #24, #151, .T. ) ;
#195 = PERSON_AND_ORGANIZATION_ROLE ( 'creator' ) ;
#196 = DIRECTION ( 'NONE',  ( 0.0000000000000000000, 0.0000000000000000000, -1.000000000000000000 ) ) ;
#197 = VERTEX_POINT ( 'NONE', #150 ) ;
#198 = VECTOR ( 'NONE', #224, 1000.000000000000000 ) ;
#199 = DIRECTION ( 'NONE',  ( 0.0000000000000000000, 0.0000000000000000000, 1.000000000000000000 ) ) ;
#200 = CARTESIAN_POINT ( 'NONE',  ( 1.200000000000000000, 18.50000000000000400, -27.11256131448635300 ) ) ;
#201 = CARTESIAN_POINT ( 'NONE',  ( 7.200000000000004600, -6.180664145269098400E-015, -8.000000000000000000 ) ) ;
#202 = ORIENTED_EDGE ( 'NONE', *, *, #368, .T. ) ;
#203 = UNCERTAINTY_MEASURE_WITH_UNIT (LENGTH_MEASURE( 1.000000000000000100E-005 ), #94, 'distance_accuracy_value', 'NONE');
#204 = AXIS2_PLACEMENT_3D ( 'NONE', #369, #144, #335 ) ;
#205 = EDGE_LOOP ( 'NONE', ( #278, #104, #152, #303 ) ) ;
#206 = CARTESIAN_POINT ( 'NONE',  ( 1.200000000000000000, 18.50000000000000400, -6.999999999999999100 ) ) ;
#207 = DIRECTION ( 'NONE',  ( -8.584255757318186100E-016, -1.000000000000000000, 0.0000000000000000000 ) ) ;
#208 = VECTOR ( 'NONE', #273, 1000.000000000000000 ) ;
#209 = COORDINATED_UNIVERSAL_TIME_OFFSET ( 3, 0, .AHEAD. ) ;
#210 = EDGE_CURVE ( 'NONE', #20, #358, #300, .T. ) ;
#211 = CARTESIAN_POINT ( 'NONE',  ( 0.0000000000000000000, 0.0000000000000000000, -7.000000000000000000 ) ) ;
#212 = ADVANCED_FACE ( 'NONE', ( #98 ), #353, .T. ) ;
#213 = CLOSED_SHELL ( 'NONE', ( #325, #212, #328, #193, #83, #111, #214, #74, #360, #191 ) ) ;
#214 = ADVANCED_FACE ( 'NONE', ( #15 ), #51, .F. ) ;
#215 = CARTESIAN_POINT ( 'NONE',  ( 1.200000000000000000, 0.0000000000000000000, -27.11256131448635300 ) ) ;
#216 = APPROVAL_STATUS ( 'not_yet_approved' ) ;
#217 = LINE ( 'NONE', #182, #64 ) ;
#218 = VERTEX_POINT ( 'NONE', #50 ) ;
#219 = CARTESIAN_POINT ( 'NONE',  ( 0.0000000000000000000, 0.0000000000000000000, 0.0000000000000000000 ) ) ;
#220 = FACE_OUTER_BOUND ( 'NONE', #240, .T. ) ;
#221 = DIRECTION ( 'NONE',  ( 0.0000000000000000000, 0.0000000000000000000, 1.000000000000000000 ) ) ;
#222 =( GEOMETRIC_REPRESENTATION_CONTEXT ( 3 ) GLOBAL_UNCERTAINTY_ASSIGNED_CONTEXT ( ( #203 ) ) GLOBAL_UNIT_ASSIGNED_CONTEXT ( ( #94, #181, #2 ) ) REPRESENTATION_CONTEXT ( 'NONE', 'WORKASPACE' ) );
#223 = DIRECTION ( 'NONE',  ( -0.0000000000000000000, -0.0000000000000000000, 1.000000000000000000 ) ) ;
#224 = DIRECTION ( 'NONE',  ( 2.168404344971007600E-016, 1.000000000000000000, -0.0000000000000000000 ) ) ;
#225 = EDGE_CURVE ( 'NONE', #45, #239, #166, .T. ) ;
#226 = VECTOR ( 'NONE', #236, 1000.000000000000000 ) ;
#227 = LINE ( 'NONE', #286, #159 ) ;
#228 = VECTOR ( 'NONE', #7, 1000.000000000000000 ) ;
#229 = CARTESIAN_POINT ( 'NONE',  ( 0.0000000000000000000, 0.0000000000000000000, 0.0000000000000000000 ) ) ;
#230 = DIRECTION ( 'NONE',  ( 1.000000000000000000, 1.406532548089302800E-016, 0.0000000000000000000 ) ) ;
#231 = ORIENTED_EDGE ( 'NONE', *, *, #262, .T. ) ;
#232 = EDGE_LOOP ( 'NONE', ( #106, #162, #202, #117, #314, #346, #6, #363 ) ) ;
#233 = LOCAL_TIME ( 10, 21, 13.00000000000000000, #306 ) ;
#234 = LOCAL_TIME ( 10, 21, 13.00000000000000000, #309 ) ;
#235 = DIRECTION ( 'NONE',  ( 0.0000000000000000000, 0.0000000000000000000, -1.000000000000000000 ) ) ;
#236 = DIRECTION ( 'NONE',  ( -0.0000000000000000000, -0.0000000000000000000, 1.000000000000000000 ) ) ;
#237 = ORIENTED_EDGE ( 'NONE', *, *, #210, .F. ) ;
#238 = ORIENTED_EDGE ( 'NONE', *, *, #157, .F. ) ;
#239 = VERTEX_POINT ( 'NONE', #263 ) ;
#240 = EDGE_LOOP ( 'NONE', ( #81, #134, #313, #85 ) ) ;
#241 = AXIS2_PLACEMENT_3D ( 'NONE', #161, #354, #190 ) ;
#242 = APPROVAL_DATE_TIME ( #320, #95 ) ;
#243 = ORIENTED_EDGE ( 'NONE', *, *, #177, .F. ) ;
#244 = CALENDAR_DATE ( 2016, 8, 9 ) ;
#245 = LINE ( 'NONE', #312, #178 ) ;
#246 = CARTESIAN_POINT ( 'NONE',  ( 0.0000000000000000000, 20.00000000000000400, 0.0000000000000000000 ) ) ;
#247 = EDGE_CURVE ( 'NONE', #75, #92, #158, .T. ) ;
#248 = PERSON_AND_ORGANIZATION_ROLE ( 'creator' ) ;
#249 = LINE ( 'NONE', #18, #327 ) ;
#250 = CARTESIAN_POINT ( 'NONE',  ( 6.000000000000008000, 0.0000000000000000000, -6.999999999999999100 ) ) ;
#251 = ORIENTED_EDGE ( 'NONE', *, *, #49, .F. ) ;
#252 = APPROVAL_PERSON_ORGANIZATION ( #330, #95, #57 ) ;
#253 = CARTESIAN_POINT ( 'NONE',  ( 7.200000000000004600, -6.180664145269098400E-015, 0.0000000000000000000 ) ) ;
#254 = CARTESIAN_POINT ( 'NONE',  ( 1.200000000000000000, 0.0000000000000000000, -27.11256131448635300 ) ) ;
#255 = CARTESIAN_POINT ( 'NONE',  ( 0.0000000000000000000, 20.00000000000000400, 0.0000000000000000000 ) ) ;
#256 = DIRECTION ( 'NONE',  ( 0.0000000000000000000, 0.0000000000000000000, 1.000000000000000000 ) ) ;
#257 = DIRECTION ( 'NONE',  ( -1.000000000000000000, 0.0000000000000000000, -0.0000000000000000000 ) ) ;
#258 = EDGE_CURVE ( 'NONE', #58, #170, #281, .T. ) ;
#259 = COORDINATED_UNIVERSAL_TIME_OFFSET ( 3, 0, .AHEAD. ) ;
#260 = ORIENTED_EDGE ( 'NONE', *, *, #290, .T. ) ;
#261 = CARTESIAN_POINT ( 'NONE',  ( 6.000000000000005300, 18.50000000000000400, -6.999999999999999100 ) ) ;
#262 = EDGE_CURVE ( 'NONE', #75, #239, #67, .T. ) ;
#263 = CARTESIAN_POINT ( 'NONE',  ( 1.200000000000000000, 0.0000000000000000000, 0.0000000000000000000 ) ) ;
#264 = CARTESIAN_POINT ( 'NONE',  ( 0.0000000000000000000, 0.0000000000000000000, -8.000000000000000000 ) ) ;
#265 = CARTESIAN_POINT ( 'NONE',  ( 0.0000000000000000000, 0.0000000000000000000, 0.0000000000000000000 ) ) ;
#266 = EDGE_LOOP ( 'NONE', ( #276, #231, #304, #317, #260, #171, #34, #251 ) ) ;
#267 = MANIFOLD_SOLID_BREP ( 'Âûðåç-Âûòÿíóòü1', #213 ) ;
#268 = VERTEX_POINT ( 'NONE', #123 ) ;
#269 = LINE ( 'NONE', #280, #198 ) ;
#270 = EDGE_CURVE ( 'NONE', #268, #58, #89, .T. ) ;
#271 = LINE ( 'NONE', #340, #138 ) ;
#272 = APPROVAL_DATE_TIME ( #352, #357 ) ;
#273 = DIRECTION ( 'NONE',  ( -1.000000000000000000, -0.0000000000000000000, -0.0000000000000000000 ) ) ;
#274 = SECURITY_CLASSIFICATION_LEVEL ( 'unclassified' ) ;
#275 = DESIGN_CONTEXT ( 'detailed design', #140, 'design' ) ;
#276 = ORIENTED_EDGE ( 'NONE', *, *, #247, .F. ) ;
#277 = EDGE_CURVE ( 'NONE', #197, #45, #271, .T. ) ;
#278 = ORIENTED_EDGE ( 'NONE', *, *, #86, .F. ) ;
#279 = CARTESIAN_POINT ( 'NONE',  ( 7.200000000000004600, -6.180664145269098400E-015, -8.000000000000000000 ) ) ;
#280 = CARTESIAN_POINT ( 'NONE',  ( 7.200000000000009100, 20.00000000000000400, -8.000000000000000000 ) ) ;
#281 = LINE ( 'NONE', #246, #208 ) ;
#282 = APPROVAL_PERSON_ORGANIZATION ( #359, #357, #361 ) ;
#283 = DIRECTION ( 'NONE',  ( 0.0000000000000000000, 0.0000000000000000000, 1.000000000000000000 ) ) ;
#284 = CARTESIAN_POINT ( 'NONE',  ( 6.000000000000005300, 18.50000000000000400, -6.999999999999999100 ) ) ;
#285 = MECHANICAL_CONTEXT ( 'NONE', #69, 'mechanical' ) ;
#286 = CARTESIAN_POINT ( 'NONE',  ( 0.0000000000000000000, 20.00000000000000400, -8.000000000000000000 ) ) ;
#287 = EDGE_LOOP ( 'NONE', ( #129, #338, #32, #305 ) ) ;
#288 = LINE ( 'NONE', #169, #295 ) ;
#289 = ORIENTED_EDGE ( 'NONE', *, *, #137, .T. ) ;
#290 = EDGE_CURVE ( 'NONE', #197, #115, #93, .T. ) ;
#291 = LINE ( 'NONE', #206, #131 ) ;
#292 = VECTOR ( 'NONE', #167, 1000.000000000000000 ) ;
#293 = ORIENTED_EDGE ( 'NONE', *, *, #157, .T. ) ;
#294 = DIRECTION ( 'NONE',  ( 0.0000000000000000000, 0.0000000000000000000, 1.000000000000000000 ) ) ;
#295 = VECTOR ( 'NONE', #221, 1000.000000000000000 ) ;
#296 = CC_DESIGN_DATE_AND_TIME_ASSIGNMENT ( #175, #299, ( #163 ) ) ;
#297 = AXIS2_PLACEMENT_3D ( 'NONE', #265, #256, #100 ) ;
#298 = CARTESIAN_POINT ( 'NONE',  ( 7.200000000000009100, 20.00000000000000400, -8.000000000000000000 ) ) ;
#299 = DATE_TIME_ROLE ( 'classification_date' ) ;
#300 = LINE ( 'NONE', #200, #226 ) ;
#301 = LINE ( 'NONE', #11, #4 ) ;
#302 = FACE_OUTER_BOUND ( 'NONE', #287, .T. ) ;
#303 = ORIENTED_EDGE ( 'NONE', *, *, #277, .T. ) ;
#304 = ORIENTED_EDGE ( 'NONE', *, *, #225, .F. ) ;
#305 = ORIENTED_EDGE ( 'NONE', *, *, #176, .F. ) ;
#306 = COORDINATED_UNIVERSAL_TIME_OFFSET ( 3, 0, .AHEAD. ) ;
#307 = EDGE_CURVE ( 'NONE', #268, #218, #154, .T. ) ;
#308 = DIRECTION ( 'NONE',  ( 1.000000000000000000, -8.584255757318186100E-016, -0.0000000000000000000 ) ) ;
#309 = COORDINATED_UNIVERSAL_TIME_OFFSET ( 3, 0, .AHEAD. ) ;
#310 = VECTOR ( 'NONE', #17, 1000.000000000000000 ) ;
#311 = PLANE ( 'NONE',  #61 ) ;
#312 = CARTESIAN_POINT ( 'NONE',  ( 1.200000000000000000, 0.0000000000000000000, -6.999999999999999100 ) ) ;
#313 = ORIENTED_EDGE ( 'NONE', *, *, #307, .T. ) ;
#314 = ORIENTED_EDGE ( 'NONE', *, *, #258, .T. ) ;
#315 = APPROVAL ( #142, 'UNSPECIFIED' ) ;
#316 = ORIENTED_EDGE ( 'NONE', *, *, #270, .T. ) ;
#317 = ORIENTED_EDGE ( 'NONE', *, *, #277, .F. ) ;
#318 = PLANE ( 'NONE',  #204 ) ;
#319 = CC_DESIGN_PERSON_AND_ORGANIZATION_ASSIGNMENT ( #78, #127, ( #366 ) ) ;
#320 = DATE_AND_TIME ( #35, #116 ) ;
#321 = ORIENTED_EDGE ( 'NONE', *, *, #307, .F. ) ;
#322 = VECTOR ( 'NONE', #324, 1000.000000000000000 ) ;
#323 = AXIS2_PLACEMENT_3D ( 'NONE', #344, #230, #72 ) ;
#324 = DIRECTION ( 'NONE',  ( 1.000000000000000000, -8.584255757318186100E-016, -0.0000000000000000000 ) ) ;
#325 = ADVANCED_FACE ( 'NONE', ( #365 ), #187, .T. ) ;
#326 = PLANE ( 'NONE',  #241 ) ;
#327 = VECTOR ( 'NONE', #82, 1000.000000000000000 ) ;
#328 = ADVANCED_FACE ( 'NONE', ( #220 ), #318, .T. ) ;
#329 = ORIENTED_EDGE ( 'NONE', *, *, #262, .F. ) ;
#330 = PERSON_AND_ORGANIZATION ( #54, #113 ) ;
#331 = EDGE_CURVE ( 'NONE', #115, #31, #288, .T. ) ;
#332 = APPLICATION_PROTOCOL_DEFINITION ( 'international standard', 'config_control_design', 1994, #140 ) ;
#333 = APPROVAL_ROLE ( '' ) ;
#334 = PLANE ( 'NONE',  #362 ) ;
#335 = DIRECTION ( 'NONE',  ( 0.0000000000000000000, -0.0000000000000000000, 1.000000000000000000 ) ) ;
#336 = CC_DESIGN_APPROVAL ( #315, ( #163 ) ) ;
#337 = PERSON_AND_ORGANIZATION ( #54, #113 ) ;
#338 = ORIENTED_EDGE ( 'NONE', *, *, #108, .T. ) ;
#339 = PRODUCT_DEFINITION ( 'UNKNOWN', '', #76, #275 ) ;
#340 = CARTESIAN_POINT ( 'NONE',  ( 0.0000000000000000000, 0.0000000000000000000, -8.000000000000000000 ) ) ;
#341 = CARTESIAN_POINT ( 'NONE',  ( 7.200000000000009100, 20.00000000000000400, -8.000000000000000000 ) ) ;
#342 = DIRECTION ( 'NONE',  ( 0.0000000000000000000, -1.000000000000000000, 0.0000000000000000000 ) ) ;
#343 = DIRECTION ( 'NONE',  ( -1.406532548089302800E-016, 1.000000000000000000, -0.0000000000000000000 ) ) ;
#344 = CARTESIAN_POINT ( 'NONE',  ( 6.000000000000005300, 18.50000000000000400, -27.11256131448635300 ) ) ;
#345 = ORIENTED_EDGE ( 'NONE', *, *, #331, .F. ) ;
#346 = ORIENTED_EDGE ( 'NONE', *, *, #86, .T. ) ;
#347 = DIRECTION ( 'NONE',  ( 0.0000000000000000000, 0.0000000000000000000, 1.000000000000000000 ) ) ;
#348 = DIRECTION ( 'NONE',  ( 2.168404344971007600E-016, 1.000000000000000000, -0.0000000000000000000 ) ) ;
#349 = LINE ( 'NONE', #124, #228 ) ;
#350 = EDGE_CURVE ( 'NONE', #31, #58, #121, .T. ) ;
#351 = VECTOR ( 'NONE', #141, 1000.000000000000000 ) ;
#352 = DATE_AND_TIME ( #68, #139 ) ;
#353 = PLANE ( 'NONE',  #103 ) ;
#354 = DIRECTION ( 'NONE',  ( -0.0000000000000000000, 1.000000000000000000, 0.0000000000000000000 ) ) ;
#355 = EDGE_LOOP ( 'NONE', ( #101, #345, #71, #316 ) ) ;
#356 = CC_DESIGN_SECURITY_CLASSIFICATION ( #163, ( #76 ) ) ;
#357 = APPROVAL ( #165, 'UNSPECIFIED' ) ;
#358 = VERTEX_POINT ( 'NONE', #63 ) ;
#359 = PERSON_AND_ORGANIZATION ( #54, #113 ) ;
#360 = ADVANCED_FACE ( 'NONE', ( #28 ), #326, .F. ) ;
#361 = APPROVAL_ROLE ( '' ) ;
#362 = AXIS2_PLACEMENT_3D ( 'NONE', #364, #196, #29 ) ;
#363 = ORIENTED_EDGE ( 'NONE', *, *, #137, .F. ) ;
#364 = CARTESIAN_POINT ( 'NONE',  ( 0.0000000000000000000, 0.0000000000000000000, -8.000000000000000000 ) ) ;
#365 = FACE_OUTER_BOUND ( 'NONE', #266, .T. ) ;
#366 = PRODUCT ( 'YNK51-1-100 Çàãëóøêà äëÿ øèíû PIN 1Ð 100À øàã 27 ìì ÈÝÊ ', 'YNK51-1-100 Çàãëóøêà äëÿ øèíû PIN 1Ð 100À øàã 27 ìì ÈÝÊ ', '', ( #285 ) ) ;
#367 = CARTESIAN_POINT ( 'NONE',  ( 1.200000000000000000, 0.0000000000000000000, -6.999999999999999100 ) ) ;
#368 = EDGE_CURVE ( 'NONE', #52, #31, #249, .T. ) ;
#369 = CARTESIAN_POINT ( 'NONE',  ( 0.0000000000000000000, 20.00000000000000400, -8.000000000000000000 ) ) ;
ENDSEC;
END-ISO-10303-21;
