  0
SECTION
  2
HEADER
  9
$ACADVER
  1
AC1015
  9
$ACADMAINTVER
 70
     6
  9
$DWGCODEPAGE
  3
ANSI_1251
  9
$INSBASE
 10
0.0
 20
0.0
 30
0.0
  9
$EXTMIN
 10
0.0
 20
0.0
 30
0.0
  9
$EXTMAX
 10
841.0
 20
594.0
 30
0.0
  9
$LIMMIN
 10
0.0
 20
0.0
  9
$LIMMAX
 10
841.0
 20
594.0
  9
$ORTHOMODE
 70
     0
  9
$REGENMODE
 70
     1
  9
$FILLMODE
 70
     1
  9
$QTEXTMODE
 70
     0
  9
$MIRRTEXT
 70
     1
  9
$LTSCALE
 40
1.0
  9
$ATTMODE
 70
     1
  9
$TEXTSIZE
 40
3.5
  9
$TRACEWID
 40
1.0
  9
$TEXTSTYLE
  7
Standard
  9
$CLAYER
  8
0
  9
$CELTYPE
  6
ByLayer
  9
$CECOLOR
 62
   256
  9
$CELTSCALE
 40
1.0
  9
$DISPSILH
 70
     0
  9
$DIMSCALE
 40
1.0
  9
$DIMASZ
 40
3.5
  9
$DIMEXO
 40
0.01
  9
$DIMDLI
 40
3.75
  9
$DIMRND
 40
0.0
  9
$DIMDLE
 40
0.0
  9
$DIMEXE
 40
1.0
  9
$DIMTP
 40
0.0
  9
$DIMTM
 40
0.0
  9
$DIMTXT
 40
3.5
  9
$DIMCEN
 40
2.5
  9
$DIMTSZ
 40
0.0
  9
$DIMTOL
 70
     0
  9
$DIMLIM
 70
     0
  9
$DIMTIH
 70
     1
  9
$DIMTOH
 70
     1
  9
$DIMSE1
 70
     0
  9
$DIMSE2
 70
     0
  9
$DIMTAD
 70
     1
  9
$DIMZIN
 70
     0
  9
$DIMBLK
  1

  9
$DIMASO
 70
     1
  9
$DIMSHO
 70
     1
  9
$DIMPOST
  1

  9
$DIMAPOST
  1

  9
$DIMALT
 70
     0
  9
$DIMALTD
 70
     3
  9
$DIMALTF
 40
0.0393700787
  9
$DIMLFAC
 40
1.0
  9
$DIMTOFL
 70
     1
  9
$DIMTVP
 40
0.0
  9
$DIMTIX
 70
     0
  9
$DIMSOXD
 70
     0
  9
$DIMSAH
 70
     0
  9
$DIMBLK1
  1

  9
$DIMBLK2
  1

  9
$DIMSTYLE
  2
ISO-25
  9
$DIMCLRD
 70
     0
  9
$DIMCLRE
 70
     0
  9
$DIMCLRT
 70
     0
  9
$DIMTFAC
 40
1.0
  9
$DIMGAP
 40
3.0
  9
$DIMJUST
 70
     0
  9
$DIMSD1
 70
     0
  9
$DIMSD2
 70
     0
  9
$DIMTOLJ
 70
     0
  9
$DIMTZIN
 70
     0
  9
$DIMALTZ
 70
     0
  9
$DIMALTTZ
 70
     0
  9
$DIMUPT
 70
     0
  9
$DIMDEC
 70
     2
  9
$DIMTDEC
 70
     3
  9
$DIMALTU
 70
     2
  9
$DIMALTTD
 70
     3
  9
$DIMTXSTY
  7
Standard
  9
$DIMAUNIT
 70
     0
  9
$DIMADEC
 70
     2
  9
$DIMALTRND
 40
0.0
  9
$DIMAZIN
 70
     0
  9
$DIMDSEP
 70
    44
  9
$DIMATFIT
 70
     3
  9
$DIMFRAC
 70
     0
  9
$DIMLDRBLK
  1

  9
$DIMLUNIT
 70
     2
  9
$DIMLWD
 70
    -2
  9
$DIMLWE
 70
    -2
  9
$DIMTMOVE
 70
     0
  9
$LUNITS
 70
     2
  9
$LUPREC
 70
     2
  9
$SKETCHINC
 40
1.0
  9
$FILLETRAD
 40
10.0
  9
$AUNITS
 70
     0
  9
$AUPREC
 70
     2
  9
$MENU
  1
.
  9
$ELEVATION
 40
0.0
  9
$PELEVATION
 40
0.0
  9
$THICKNESS
 40
0.0
  9
$LIMCHECK
 70
     0
  9
$CHAMFERA
 40
0.0
  9
$CHAMFERB
 40
0.0
  9
$CHAMFERC
 40
0.0
  9
$CHAMFERD
 40
0.0
  9
$SKPOLY
 70
     0
  9
$TDCREATE
 40
2459732.499847118
  9
$TDUCREATE
 40
2459732.374847118
  9
$TDUPDATE
 40
2459732.499848183
  9
$TDUUPDATE
 40
2459732.374848183
  9
$TDINDWG
 40
0.0000000116
  9
$TDUSRTIMER
 40
0.0000000116
  9
$USRTIMER
 70
     1
  9
$ANGBASE
 50
0.0
  9
$ANGDIR
 70
     0
  9
$PDMODE
 70
     0
  9
$PDSIZE
 40
-1.0
  9
$PLINEWID
 40
0.0
  9
$SPLFRAME
 70
     0
  9
$SPLINETYPE
 70
     6
  9
$SPLINESEGS
 70
     8
  9
$HANDSEED
  5
467
  9
$SURFTAB1
 70
     6
  9
$SURFTAB2
 70
     6
  9
$SURFTYPE
 70
     6
  9
$SURFU
 70
     6
  9
$SURFV
 70
     6
  9
$UCSBASE
  2

  9
$UCSNAME
  2

  9
$UCSORG
 10
0.0
 20
0.0
 30
0.0
  9
$UCSXDIR
 10
1.0
 20
0.0
 30
0.0
  9
$UCSYDIR
 10
0.0
 20
1.0
 30
0.0
  9
$UCSORTHOREF
  2

  9
$UCSORTHOVIEW
 70
     0
  9
$UCSORGTOP
 10
0.0
 20
0.0
 30
0.0
  9
$UCSORGBOTTOM
 10
0.0
 20
0.0
 30
0.0
  9
$UCSORGLEFT
 10
0.0
 20
0.0
 30
0.0
  9
$UCSORGRIGHT
 10
0.0
 20
0.0
 30
0.0
  9
$UCSORGFRONT
 10
0.0
 20
0.0
 30
0.0
  9
$UCSORGBACK
 10
0.0
 20
0.0
 30
0.0
  9
$PUCSBASE
  2

  9
$PUCSNAME
  2

  9
$PUCSORG
 10
0.0
 20
0.0
 30
0.0
  9
$PUCSXDIR
 10
1.0
 20
0.0
 30
0.0
  9
$PUCSYDIR
 10
0.0
 20
1.0
 30
0.0
  9
$PUCSORTHOREF
  2

  9
$PUCSORTHOVIEW
 70
     0
  9
$PUCSORGTOP
 10
0.0
 20
0.0
 30
0.0
  9
$PUCSORGBOTTOM
 10
0.0
 20
0.0
 30
0.0
  9
$PUCSORGLEFT
 10
0.0
 20
0.0
 30
0.0
  9
$PUCSORGRIGHT
 10
0.0
 20
0.0
 30
0.0
  9
$PUCSORGFRONT
 10
0.0
 20
0.0
 30
0.0
  9
$PUCSORGBACK
 10
0.0
 20
0.0
 30
0.0
  9
$USERI1
 70
     0
  9
$USERI2
 70
     0
  9
$USERI3
 70
     0
  9
$USERI4
 70
     0
  9
$USERI5
 70
     0
  9
$USERR1
 40
0.0
  9
$USERR2
 40
0.0
  9
$USERR3
 40
0.0
  9
$USERR4
 40
0.0
  9
$USERR5
 40
0.0
  9
$WORLDVIEW
 70
     1
  9
$SHADEDGE
 70
     3
  9
$SHADEDIF
 70
    70
  9
$TILEMODE
 70
     1
  9
$MAXACTVP
 70
    64
  9
$PINSBASE
 10
0.0
 20
0.0
 30
0.0
  9
$PLIMCHECK
 70
     0
  9
$PEXTMIN
 10
1.0000000000E+20
 20
1.0000000000E+20
 30
1.0000000000E+20
  9
$PEXTMAX
 10
-1.0000000000E+20
 20
-1.0000000000E+20
 30
-1.0000000000E+20
  9
$PLIMMIN
 10
0.0
 20
0.0
  9
$PLIMMAX
 10
420.0
 20
297.0
  9
$UNITMODE
 70
     0
  9
$VISRETAIN
 70
     1
  9
$PLINEGEN
 70
     0
  9
$PSLTSCALE
 70
     1
  9
$TREEDEPTH
 70
  3020
  9
$CMLSTYLE
  2
Standard
  9
$CMLJUST
 70
     0
  9
$CMLSCALE
 40
20.0
  9
$PROXYGRAPHICS
 70
     1
  9
$MEASUREMENT
 70
     1
  9
$CELWEIGHT
370
    -1
  9
$ENDCAPS
280
     0
  9
$JOINSTYLE
280
     0
  9
$LWDISPLAY
290
     1
  9
$INSUNITS
 70
     4
  9
$HYPERLINKBASE
  1

  9
$STYLESHEET
  1

  9
$XEDIT
290
     1
  9
$CEPSNTYPE
380
     0
  9
$PSTYLEMODE
290
     1
  9
$FINGERPRINTGUID
  2
{7E6B3EBB-8EB9-4330-8BA5-2B377E25221A}
  9
$VERSIONGUID
  2
{FAEB1C32-E019-11D5-929B-00C0DF256EC4}
  9
$EXTNAMES
290
     1
  9
$PSVPSCALE
 40
0.0
  9
$OLESTARTUP
290
     0
  0
ENDSEC
  0
SECTION
  2
CLASSES
  0
CLASS
  1
ACDBDICTIONARYWDFLT
  2
AcDbDictionaryWithDefault
  3
ObjectDBX Classes
 90
        0
280
     0
281
     0
  0
CLASS
  1
VISUALSTYLE
  2
AcDbVisualStyle
  3
ObjectDBX Classes
 90
     4095
280
     0
281
     0
  0
CLASS
  1
MATERIAL
  2
AcDbMaterial
  3
ObjectDBX Classes
 90
     1153
280
     0
281
     0
  0
CLASS
  1
SCALE
  2
AcDbScale
  3
ObjectDBX Classes
 90
     1153
280
     0
281
     0
  0
CLASS
  1
TABLESTYLE
  2
AcDbTableStyle
  3
ObjectDBX Classes
 90
     4095
280
     0
281
     0
  0
CLASS
  1
MLEADERSTYLE
  2
AcDbMLeaderStyle
  3
ACDB_MLEADERSTYLE_CLASS
 90
     4095
280
     0
281
     0
  0
CLASS
  1
SUN
  2
AcDbSun
  3
SCENEOE
 90
     1153
280
     0
281
     0
  0
CLASS
  1
ACDBPLACEHOLDER
  2
AcDbPlaceHolder
  3
ObjectDBX Classes
 90
        0
280
     0
281
     0
  0
CLASS
  1
LAYOUT
  2
AcDbLayout
  3
ObjectDBX Classes
 90
        0
280
     0
281
     0
  0
ENDSEC
  0
SECTION
  2
TABLES
  0
TABLE
  2
VPORT
  5
8
330
0
100
AcDbSymbolTable
 70
     1
  0
VPORT
  5
29
330
8
100
AcDbSymbolTableRecord
100
AcDbViewportTableRecord
  2
*Active
 70
     0
 10
0.0
 20
0.0
 11
1.0
 21
1.0
 12
420.5
 22
297.0
 13
0.0
 23
0.0
 14
10.0
 24
10.0
 15
10.0
 25
10.0
 16
0.0
 26
0.0
 36
1.0
 17
0.0
 27
0.0
 37
0.0
 40
594.0
 41
1.4158249158
 42
50.0
 43
0.0
 44
0.0
 50
0.0
 51
0.0
 71
     0
 72
  2000
 73
     1
 74
     3
 75
     0
 76
     0
 77
     0
 78
     0
281
     0
 65
     1
110
0.0
120
0.0
130
0.0
111
1.0
121
0.0
131
0.0
112
0.0
122
1.0
132
0.0
 79
     0
146
0.0
  0
ENDTAB
  0
TABLE
  2
LTYPE
  5
5
330
0
100
AcDbSymbolTable
 70
     6
  0
LTYPE
  5
14
330
5
100
AcDbSymbolTableRecord
100
AcDbLinetypeTableRecord
  2
ByBlock
 70
     0
  3

 72
    65
 73
     0
 40
0.0
  0
LTYPE
  5
15
330
5
100
AcDbSymbolTableRecord
100
AcDbLinetypeTableRecord
  2
ByLayer
 70
     0
  3

 72
    65
 73
     0
 40
0.0
  0
LTYPE
  5
16
330
5
100
AcDbSymbolTableRecord
100
AcDbLinetypeTableRecord
  2
Continuous
 70
     0
  3
Solid line
 72
    65
 73
     0
 40
0.0
  0
LTYPE
  5
6E
330
5
100
AcDbSymbolTableRecord
100
AcDbLinetypeTableRecord
  2
HIDDEN
 70
     0
  3
Hidden __ __ __ __ __ __ __ __ __ __ __ __ __ __
 72
    65
 73
     2
 40
1.905
 49
1.27
 74
     0
 49
-0.635
 74
     0
  0
LTYPE
  5
6F
330
5
100
AcDbSymbolTableRecord
100
AcDbLinetypeTableRecord
  2
PHANTOM
 70
     0
  3
Phantom ______  __  __  ______  __  __  ______
 72
    65
 73
     6
 40
12.7
 49
6.35
 74
     0
 49
-1.27
 74
     0
 49
1.27
 74
     0
 49
-1.27
 74
     0
 49
1.27
 74
     0
 49
-1.27
 74
     0
  0
LTYPE
  5
70
330
5
100
AcDbSymbolTableRecord
100
AcDbLinetypeTableRecord
  2
CENTER
 70
     0
  3
Center ____ _ ____ _ ____ _ ____ _ ____ _ ____
 72
    65
 73
     4
 40
10.16
 49
6.35
 74
     0
 49
-1.27
 74
     0
 49
1.27
 74
     0
 49
-1.27
 74
     0
  0
LTYPE
  5
71
330
5
100
AcDbSymbolTableRecord
100
AcDbLinetypeTableRecord
  2
CENTERX2
 70
     0
  3
Center (2x) ________  __  ________  __  _____
 72
    65
 73
     4
 40
20.32
 49
12.7
 74
     0
 49
-2.54
 74
     0
 49
2.54
 74
     0
 49
-2.54
 74
     0
  0
LTYPE
  5
72
330
5
100
AcDbSymbolTableRecord
100
AcDbLinetypeTableRecord
  2
DOT2
 70
     0
  3
Dot (.5x) ........................................
 72
    65
 73
     2
 40
0.635
 49
0.0
 74
     0
 49
-0.635
 74
     0
  0
ENDTAB
  0
TABLE
  2
LAYER
  5
2
330
0
100
AcDbSymbolTable
 70
     1
  0
LAYER
  5
10
330
2
100
AcDbSymbolTableRecord
100
AcDbLayerTableRecord
  2
0
 70
     0
 62
     7
  6
Continuous
370
    -3
390
F
  0
ENDTAB
  0
TABLE
  2
STYLE
  5
3
330
0
100
AcDbSymbolTable
 70
     1
  0
STYLE
  5
11
330
3
100
AcDbSymbolTableRecord
100
AcDbTextStyleTableRecord
  2
Standard
 70
     0
 40
0.0
 41
1.0
 50
0.0
 71
     0
 42
3.5
  3
txt
  4

  0
ENDTAB
  0
TABLE
  2
VIEW
  5
6
330
0
100
AcDbSymbolTable
 70
     0
  0
ENDTAB
  0
TABLE
  2
UCS
  5
7
330
0
100
AcDbSymbolTable
 70
     0
  0
ENDTAB
  0
TABLE
  2
APPID
  5
9
330
0
100
AcDbSymbolTable
 70
     1
  0
APPID
  5
12
330
9
100
AcDbSymbolTableRecord
100
AcDbRegAppTableRecord
  2
ACAD
 70
     0
  0
ENDTAB
  0
TABLE
  2
DIMSTYLE
  5
A
330
0
100
AcDbSymbolTable
 70
     1
100
AcDbDimStyleTable
  0
DIMSTYLE
105
27
330
A
100
AcDbSymbolTableRecord
100
AcDbDimStyleTableRecord
  2
ISO-25
 70
     0
 41
2.5
 42
0.625
 43
3.75
 44
1.25
 73
     0
 74
     0
 77
     1
 78
     8
140
2.5
141
2.5
143
0.0393700787
147
0.625
171
     3
172
     1
178
     0
271
     2
272
     2
274
     3
278
    44
283
     0
284
     8
340
11
  0
ENDTAB
  0
TABLE
  2
BLOCK_RECORD
  5
1
330
0
100
AcDbSymbolTable
 70
     1
  0
BLOCK_RECORD
  5
1F
330
1
100
AcDbSymbolTableRecord
100
AcDbBlockTableRecord
  2
*Model_Space
340
22
  0
BLOCK_RECORD
  5
1B
330
1
100
AcDbSymbolTableRecord
100
AcDbBlockTableRecord
  2
*Paper_Space
340
1E
  0
BLOCK_RECORD
  5
23
330
1
100
AcDbSymbolTableRecord
100
AcDbBlockTableRecord
  2
*Paper_Space0
340
26
  0
ENDTAB
  0
ENDSEC
  0
SECTION
  2
BLOCKS
  0
BLOCK
  5
20
330
1F
100
AcDbEntity
  8
0
100
AcDbBlockBegin
  2
*Model_Space
 70
     0
 10
0.0
 20
0.0
 30
0.0
  3
*Model_Space
  1

  0
ENDBLK
  5
21
330
1F
100
AcDbEntity
  8
0
100
AcDbBlockEnd
  0
BLOCK
  5
1C
330
1B
100
AcDbEntity
 67
     1
  8
0
100
AcDbBlockBegin
  2
*Paper_Space
 70
     0
 10
0.0
 20
0.0
 30
0.0
  3
*Paper_Space
  1

  0
ENDBLK
  5
1D
330
1B
100
AcDbEntity
 67
     1
  8
0
100
AcDbBlockEnd
  0
BLOCK
  5
24
330
23
100
AcDbEntity
  8
0
100
AcDbBlockBegin
  2
*Paper_Space0
 70
     0
 10
0.0
 20
0.0
 30
0.0
  3
*Paper_Space0
  1

  0
ENDBLK
  5
25
330
23
100
AcDbEntity
  8
0
100
AcDbBlockEnd
  0
ENDSEC
  0
SECTION
  2
ENTITIES
  0
ARC
  5
73
330
1F
100
AcDbEntity
  8
0
  6
Continuous
 62
     7
370
    25
100
AcDbCircle
 10
667.4593535338
 20
274.5748509703
 30
0.0
 40
0.5
100
AcDbArc
 50
180.0
 51
0.0
  0
ARC
  5
74
330
1F
100
AcDbEntity
  8
0
  6
Continuous
 62
     7
370
    25
100
AcDbCircle
 10
667.4593535338
 20
286.1748509704
 30
0.0
 40
0.5000000000001137
100
AcDbArc
 50
360.0
 51
180.0
  0
LINE
  5
75
330
1F
100
AcDbEntity
  8
0
  6
Continuous
 62
     7
370
    25
100
AcDbLine
 10
662.9593535338
 20
275.3748509703
 30
0.0
 11
663.1699325888
 21
275.0101173481
 31
0.0
  0
LINE
  5
76
330
1F
100
AcDbEntity
  8
0
  6
Continuous
 62
     7
370
    25
100
AcDbLine
 10
677.4181035338
 20
283.3748509703
 30
0.0
 11
668.7593535338
 21
283.3748509703
 31
0.0
  0
LINE
  5
77
330
1F
100
AcDbEntity
  8
0
  6
Continuous
 62
     7
370
    25
100
AcDbLine
 10
668.7593535338
 20
277.3748509703
 30
0.0
 11
677.4181035338
 21
277.3748509703
 31
0.0
  0
LINE
  5
78
330
1F
100
AcDbEntity
  8
0
  6
Continuous
 62
     7
370
    25
100
AcDbLine
 10
677.4181035338
 20
277.3748509703
 30
0.0
 11
677.9593535338
 21
277.9161009703
 31
0.0
  0
LINE
  5
79
330
1F
100
AcDbEntity
  8
0
  6
Continuous
 62
     7
370
    25
100
AcDbLine
 10
677.9593535338
 20
282.8336009704
 30
0.0
 11
677.4181035338
 21
283.3748509704
 31
0.0
  0
LINE
  5
7A
330
1F
100
AcDbEntity
  8
0
  6
Continuous
 62
     7
370
    25
100
AcDbLine
 10
663.1699325888
 20
285.7395845926
 30
0.0
 11
662.9593535338
 21
285.3748509703
 31
0.0
  0
ARC
  5
7B
330
1F
100
AcDbEntity
  8
0
  6
Continuous
 62
     7
370
    25
100
AcDbCircle
 10
667.4593535338
 20
261.1748509704
 30
0.0
 40
0.5
100
AcDbArc
 50
0.0
 51
113.5781784782
  0
LINE
  5
7C
330
1F
100
AcDbEntity
  8
0
  6
Continuous
 62
     7
370
    25
100
AcDbLine
 10
677.4181035338
 20
258.3748509703
 30
0.0
 11
668.7593535338
 21
258.3748509703
 31
0.0
  0
LINE
  5
7D
330
1F
100
AcDbEntity
  8
0
  6
Continuous
 62
     7
370
    25
100
AcDbLine
 10
677.4181035338
 20
252.3748509703
 30
0.0
 11
677.9593535338
 21
252.9161009703
 31
0.0
  0
LINE
  5
7E
330
1F
100
AcDbEntity
  8
0
  6
Continuous
 62
     7
370
    25
100
AcDbLine
 10
677.9593535338
 20
257.8336009704
 30
0.0
 11
677.4181035338
 21
258.3748509704
 31
0.0
  0
ARC
  5
7F
330
1F
100
AcDbEntity
  8
0
  6
Continuous
 62
     7
370
    25
100
AcDbCircle
 10
164.0593535338
 20
261.1748509704
 30
0.0
 40
0.5000000000000301
100
AcDbArc
 50
66.4218215218
 51
180.0
  0
LINE
  5
80
330
1F
100
AcDbEntity
  8
0
  6
Continuous
 62
     7
370
    25
100
AcDbLine
 10
162.7593535338
 20
258.3748509703
 30
0.0
 11
154.1006035338
 21
258.3748509703
 31
0.0
  0
LINE
  5
81
330
1F
100
AcDbEntity
  8
0
  6
Continuous
 62
     7
370
    25
100
AcDbLine
 10
154.1006035338
 20
258.3748509704
 30
0.0
 11
153.5593535338
 21
257.8336009704
 31
0.0
  0
LINE
  5
82
330
1F
100
AcDbEntity
  8
0
  6
Continuous
 62
     7
370
    25
100
AcDbLine
 10
153.5593535338
 20
252.9161009703
 30
0.0
 11
154.1006035338
 21
252.3748509703
 31
0.0
  0
ARC
  5
83
330
1F
100
AcDbEntity
  8
0
  6
Continuous
 62
     7
370
    25
100
AcDbCircle
 10
164.0593535338
 20
286.1748509704
 30
0.0
 40
0.5
100
AcDbArc
 50
0.0
 51
180.0
  0
ARC
  5
84
330
1F
100
AcDbEntity
  8
0
  6
Continuous
 62
     7
370
    25
100
AcDbCircle
 10
164.0593535338
 20
274.5748509703
 30
0.0
 40
0.5
100
AcDbArc
 50
180.0
 51
0.0
  0
LINE
  5
85
330
1F
100
AcDbEntity
  8
0
  6
Continuous
 62
     7
370
    25
100
AcDbLine
 10
154.1006035338
 20
283.3748509704
 30
0.0
 11
153.5593535338
 21
282.8336009704
 31
0.0
  0
LINE
  5
86
330
1F
100
AcDbEntity
  8
0
  6
Continuous
 62
     7
370
    25
100
AcDbLine
 10
153.5593535338
 20
277.9161009703
 30
0.0
 11
154.1006035338
 21
277.3748509703
 31
0.0
  0
LINE
  5
87
330
1F
100
AcDbEntity
  8
0
  6
Continuous
 62
     7
370
    25
100
AcDbLine
 10
154.1006035338
 20
277.3748509703
 30
0.0
 11
162.7593535338
 21
277.3748509703
 31
0.0
  0
LINE
  5
88
330
1F
100
AcDbEntity
  8
0
  6
Continuous
 62
     7
370
    25
100
AcDbLine
 10
162.7593535338
 20
283.3748509703
 30
0.0
 11
154.1006035338
 21
283.3748509703
 31
0.0
  0
SPLINE
  5
89
330
1F
100
AcDbEntity
  8
0
  6
Continuous
 62
     7
370
    25
100
AcDbSpline
210
0.0
220
0.0
230
1.0
 70
    24
 71
     3
 72
    16
 73
    12
 74
     0
 42
0.000000001
 43
0.00000001
 40
0.0
 40
0.0
 40
0.0
 40
0.0
 40
0.1658292928977498
 40
0.2550981074401222
 40
0.3462613343064165
 40
0.4374245611727108
 40
0.5266933757150832
 40
0.6925226686128332
 40
0.8583519615105837
 40
0.9476207760529561
 40
1.0
 40
1.0
 40
1.0
 40
1.0
 10
666.9593535337913
 20
284.100540594978
 30
0.0
 10
666.9593535337913
 20
283.4916327973029
 30
0.0
 10
666.9593535337913
 20
282.5549392609674
 30
0.0
 10
666.9593535337912
 20
281.0551405697314
 30
0.0
 10
666.9593535337913
 20
279.8631834899164
 30
0.0
 10
666.9593535337912
 20
278.68875521571
 30
0.0
 10
666.9593535337912
 20
277.2851419224227
 30
0.0
 10
666.9593535337914
 20
275.8177988416406
 30
0.0
 10
666.9593535337912
 20
274.9186114908198
 30
0.0
 10
666.9593535337912
 20
274.5907801637055
 30
0.0
 10
666.9593535337912
 20
274.6011705791459
 30
0.0
 10
666.9593535337912
 20
274.60501279188
 30
0.0
  0
LINE
  5
8A
330
1F
100
AcDbEntity
  8
0
  6
Continuous
 62
     7
370
    25
100
AcDbLine
 10
662.9593535338
 20
281.240345541
 30
0.0
 11
662.9593535338
 21
276.542836907
 31
0.0
  0
SPLINE
  5
8B
330
1F
100
AcDbEntity
  8
0
  6
Continuous
 62
     7
370
    25
100
AcDbSpline
210
0.0
220
0.0
230
1.0
 70
     8
 71
     3
 72
     8
 73
     4
 74
     0
 42
0.000000001
 43
0.00000001
 40
0.0
 40
0.0
 40
0.0
 40
0.0
 40
1.0
 40
1.0
 40
1.0
 40
1.0
 10
662.9593535337984
 20
281.2403455409614
 30
0.0
 10
662.9593535337984
 20
280.2699396050711
 30
0.0
 10
663.1336688341778
 20
279.32609326314
 30
0.0
 10
663.4059355211898
 20
278.3971713085134
 30
0.0
  0
SPLINE
  5
8C
330
1F
100
AcDbEntity
  8
0
  6
Continuous
 62
     7
370
    25
100
AcDbSpline
210
0.0
220
0.0
230
1.0
 70
     8
 71
     3
 72
     8
 73
     4
 74
     0
 42
0.000000001
 43
0.00000001
 40
0.0
 40
0.0
 40
0.0
 40
0.0
 40
1.0
 40
1.0
 40
1.0
 40
1.0
 10
663.4059355211898
 20
278.397171308507
 30
0.0
 10
663.1336688341784
 20
277.7913231275759
 30
0.0
 10
662.9593535337984
 20
277.175741176377
 30
0.0
 10
662.9593535337984
 20
276.5428369069756
 30
0.0
  0
SPLINE
  5
8D
330
1F
100
AcDbEntity
  8
0
  6
Continuous
 62
     7
370
    25
100
AcDbSpline
210
0.0
220
0.0
230
1.0
 70
     8
 71
     3
 72
     8
 73
     4
 74
     0
 42
0.000000001
 43
0.00000001
 40
0.0
 40
0.0
 40
0.0
 40
0.0
 40
1.0
 40
1.0
 40
1.0
 40
1.0
 10
663.4059355211897
 20
284.0835197734093
 30
0.0
 10
663.1336688341783
 20
283.1545978187844
 30
0.0
 10
662.9593535337984
 20
282.2107514768497
 30
0.0
 10
662.9593535337984
 20
281.2403455409614
 30
0.0
  0
LINE
  5
8E
330
1F
100
AcDbEntity
  8
0
  6
Continuous
 62
     7
370
    25
100
AcDbLine
 10
666.9593535338
 20
284.0835197734
 30
0.0
 11
663.4059355212
 21
284.0835197734
 31
0.0
  0
LINE
  5
8F
330
1F
100
AcDbEntity
  8
0
  6
Continuous
 62
     7
370
    25
100
AcDbLine
 10
666.9593535338
 20
278.3971713085
 30
0.0
 11
663.4059355212
 21
278.3971713085
 31
0.0
  0
SPLINE
  5
90
330
1F
100
AcDbEntity
  8
0
  6
Continuous
 62
     7
370
    25
100
AcDbSpline
210
0.0
220
0.0
230
1.0
 70
     8
 71
     3
 72
     8
 73
     4
 74
     0
 42
0.000000001
 43
0.00000001
 40
0.0
 40
0.0
 40
0.0
 40
0.0
 40
1.0
 40
1.0
 40
1.0
 40
1.0
 10
662.9593535337984
 20
276.5428369069756
 30
0.0
 10
662.9593535337984
 20
275.9099326375731
 30
0.0
 10
663.1336688341778
 20
275.2943506863764
 30
0.0
 10
663.4059355211898
 20
274.6885025054443
 30
0.0
  0
LINE
  5
91
330
1F
100
AcDbEntity
  8
0
  6
Continuous
 62
     7
370
    25
100
AcDbLine
 10
666.9593535338
 20
274.6885025054
 30
0.0
 11
663.4059355212
 21
274.6885025054
 31
0.0
  0
LINE
  5
92
330
1F
100
AcDbEntity
  8
0
  6
Continuous
 62
     7
370
    25
100
AcDbLine
 10
662.9593535338
 20
285.0723596043
 30
0.0
 11
662.9593535338
 21
281.240345541
 31
0.0
  0
SPLINE
  5
93
330
1F
100
AcDbEntity
  8
0
  6
Continuous
 62
     7
370
    25
100
AcDbSpline
210
0.0
220
0.0
230
1.0
 70
     8
 71
     3
 72
     8
 73
     4
 74
     0
 42
0.000000001
 43
0.00000001
 40
0.0
 40
0.0
 40
0.0
 40
0.0
 40
1.0
 40
1.0
 40
1.0
 40
1.0
 10
662.9593535337983
 20
285.0723596043308
 30
0.0
 10
662.9593535337983
 20
284.7348579378431
 30
0.0
 10
663.1336688341777
 20
284.4065935471087
 30
0.0
 10
663.4059355211897
 20
284.0835197734144
 30
0.0
  0
SPLINE
  5
94
330
1F
100
AcDbEntity
  8
0
  6
Continuous
 62
     7
370
    25
100
AcDbSpline
210
0.0
220
0.0
230
1.0
 70
     8
 71
     3
 72
     8
 73
     4
 74
     0
 42
0.000000001
 43
0.00000001
 40
0.0
 40
0.0
 40
0.0
 40
0.0
 40
1.0
 40
1.0
 40
1.0
 40
1.0
 10
663.4059355211897
 20
286.0611994352472
 30
0.0
 10
663.1336688341781
 20
285.7381256615535
 30
0.0
 10
662.9593535337983
 20
285.4098612708178
 30
0.0
 10
662.9593535337983
 20
285.0723596043308
 30
0.0
  0
LINE
  5
95
330
1F
100
AcDbEntity
  8
0
  6
Continuous
 62
     7
370
    25
100
AcDbLine
 10
666.9593535338
 20
286.0611994352
 30
0.0
 11
663.4059355212
 21
286.0611994352
 31
0.0
  0
LINE
  5
96
330
1F
100
AcDbEntity
  8
0
  6
Continuous
 62
     7
370
    25
100
AcDbLine
 10
663.4059355212
 20
274.6885025054
 30
0.0
 11
663.241917486
 21
275.0516778479
 31
0.0
  0
LINE
  5
97
330
1F
100
AcDbEntity
  8
0
  6
Continuous
 62
     7
370
    25
100
AcDbLine
 10
662.9593535338
 20
276.542836907
 30
0.0
 11
662.9593535338
 21
275.3748509703
 31
0.0
  0
LINE
  5
98
330
1F
100
AcDbEntity
  8
0
  6
Continuous
 62
     7
370
    25
100
AcDbLine
 10
677.4181035338
 20
277.3748509703
 30
0.0
 11
677.4181035338
 21
283.3748509703
 31
0.0
  0
LINE
  5
99
330
1F
100
AcDbEntity
  8
0
  6
Continuous
 62
     7
370
    25
100
AcDbLine
 10
677.9593535338
 20
278.4904580547
 30
0.0
 11
677.9593535338
 21
282.8336009704
 31
0.0
  0
LINE
  5
9A
330
1F
100
AcDbEntity
  8
0
  6
Continuous
 62
     7
370
    25
100
AcDbLine
 10
677.9593535338
 20
277.9161009703
 30
0.0
 11
677.9593535338
 21
278.4904580547
 31
0.0
  0
LINE
  5
9B
330
1F
100
AcDbEntity
  8
0
  6
Continuous
 62
     7
370
    25
100
AcDbLine
 10
662.9593535338
 20
285.3748509703
 30
0.0
 11
662.9593535338
 21
285.0723596043
 31
0.0
  0
CIRCLE
  5
9C
330
1F
100
AcDbEntity
  8
0
  6
Continuous
 62
     7
370
    25
100
AcDbCircle
 10
218.2593535338
 20
227.3748509703
 30
0.0
 40
0.5000000000000284
  0
SPLINE
  5
9D
330
1F
100
AcDbEntity
  8
0
  6
Continuous
 62
     7
370
    25
100
AcDbSpline
210
0.0
220
0.0
230
1.0
 70
     8
 71
     3
 72
    20
 73
    16
 74
     0
 42
0.000000001
 43
0.00000001
 40
0.0
 40
0.0
 40
0.0
 40
0.0
 40
0.125
 40
0.125
 40
0.25
 40
0.25
 40
0.375
 40
0.375
 40
0.5
 40
0.5
 40
0.75
 40
0.75
 40
0.875
 40
0.875
 40
1.0
 40
1.0
 40
1.0
 40
1.0
 10
118.2593535337914
 20
250.9041402922231
 30
0.0
 10
118.2593535337914
 20
250.8650995613685
 30
0.0
 10
118.2748900942661
 20
250.8265808571688
 30
0.0
 10
118.3362084462268
 20
250.7491741058608
 30
0.0
 10
118.3826321918134
 20
250.7100296878741
 30
0.0
 10
118.5025830619676
 20
250.632878933959
 30
0.0
 10
118.5761877062511
 20
250.5945513522179
 30
0.0
 10
118.7509180723467
 20
250.5170050317413
 30
0.0
 10
118.8517687012483
 20
250.4780288240727
 30
0.0
 10
119.1830539812322
 20
250.3625339676277
 30
0.0
 10
119.4507341426162
 20
250.2846215239576
 30
0.0
 10
119.8834081686715
 20
250.1691415985567
 30
0.0
 10
120.0349262555226
 20
250.1302758026916
 30
0.0
 10
120.3443520129088
 20
250.0525014690231
 30
0.0
 10
120.5009743426026
 20
250.0138917020684
 30
0.0
 10
120.6593535337914
 20
249.9748509703417
 30
0.0
  0
LINE
  5
9E
330
1F
100
AcDbEntity
  8
0
  6
Continuous
 62
     7
370
    25
100
AcDbLine
 10
118.2593535338
 20
250.9041402922
 30
0.0
 11
119.6593535338
 21
250.9041402922
 31
0.0
  0
SPLINE
  5
9F
330
1F
100
AcDbEntity
  8
0
  6
Continuous
 62
     7
370
    25
100
AcDbSpline
210
0.0
220
0.0
230
1.0
 70
     8
 71
     3
 72
    14
 73
    10
 74
     0
 42
0.000000001
 43
0.00000001
 40
0.0
 40
0.0
 40
0.0
 40
0.0
 40
0.2500000000000003
 40
0.2500000000000003
 40
0.5000000000000002
 40
0.5000000000000002
 40
0.7500000000000001
 40
0.7500000000000001
 40
1.0
 40
1.0
 40
1.0
 40
1.0
 10
119.6593535337914
 20
250.9041402922231
 30
0.0
 10
119.6593535337914
 20
250.8259388772015
 30
0.0
 10
119.6849121984716
 20
250.7502289299045
 30
0.0
 10
119.7850402270683
 20
250.5949485182575
 30
0.0
 10
119.8586044063726
 20
250.5179386686746
 30
0.0
 10
120.0441420420645
 20
250.362515182647
 30
0.0
 10
120.1543069630242
 20
250.2855654657287
 30
0.0
 10
120.3969187197135
 20
250.1301354864794
 30
0.0
 10
120.5271681305365
 20
250.0530523779068
 30
0.0
 10
120.6593535337914
 20
249.9748509703417
 30
0.0
  0
SPLINE
  5
A0
330
1F
100
AcDbEntity
  8
0
  6
Continuous
 62
     7
370
    25
100
AcDbSpline
210
0.0
220
0.0
230
1.0
 70
     8
 71
     3
 72
    20
 73
    16
 74
     0
 42
0.000000001
 43
0.00000001
 40
0.0
 40
0.0
 40
0.0
 40
0.0
 40
0.1249999999999906
 40
0.1249999999999906
 40
0.2499999999999811
 40
0.2499999999999811
 40
0.3749999999999717
 40
0.3749999999999717
 40
0.4999999999999623
 40
0.4999999999999623
 40
0.7499999999999731
 40
0.7499999999999731
 40
0.8749999999999866
 40
0.8749999999999866
 40
1.0
 40
1.0
 40
1.0
 40
1.0
 10
120.6593535337914
 20
208.7748509703417
 30
0.0
 10
120.5009743461406
 20
208.7358102394871
 30
0.0
 10
120.3447286214489
 20
208.6972915352873
 30
0.0
 10
120.0367367720324
 20
208.6198847839794
 30
0.0
 10
119.8840926645613
 20
208.5807403659927
 30
0.0
 10
119.5950083753742
 20
208.5035896120776
 30
0.0
 10
119.4572038371901
 20
208.4652620303365
 30
0.0
 10
119.1955851615512
 20
208.38771570986
 30
0.0
 10
119.0728388548685
 20
208.3487395021913
 30
0.0
 10
118.7415144779209
 20
208.2332446457463
 30
0.0
 10
118.5625033538926
 20
208.1553322020762
 30
0.0
 10
118.3828882545117
 20
208.0398522766753
 30
0.0
 10
118.3366439056441
 20
208.0009864808102
 30
0.0
 10
118.2748905996328
 20
207.9232121471418
 30
0.0
 10
118.2593535337914
 20
207.884602380187
 30
0.0
 10
118.2593535337914
 20
207.8455616484603
 30
0.0
  0
LINE
  5
A1
330
1F
100
AcDbEntity
  8
0
  6
Continuous
 62
     7
370
    25
100
AcDbLine
 10
118.2593535338
 20
250.9041402922
 30
0.0
 11
118.2593535338
 21
207.8455616485
 31
0.0
  0
SPLINE
  5
A2
330
1F
100
AcDbEntity
  8
0
  6
Continuous
 62
     7
370
    25
100
AcDbSpline
210
0.0
220
0.0
230
1.0
 70
     8
 71
     3
 72
    20
 73
    16
 74
     0
 42
0.000000001
 43
0.00000001
 40
0.0
 40
0.0
 40
0.0
 40
0.0
 40
0.1249999999999986
 40
0.1249999999999986
 40
0.2499999999999971
 40
0.2499999999999971
 40
0.3749999999999957
 40
0.3749999999999957
 40
0.4999999999999942
 40
0.4999999999999942
 40
0.7500000000000018
 40
0.7500000000000018
 40
0.8750000000000009
 40
0.8750000000000009
 40
1.0
 40
1.0
 40
1.0
 40
1.0
 10
120.6593535337913
 20
249.9748509703417
 30
0.0
 10
120.6203128029366
 20
250.1332301579924
 30
0.0
 10
120.581794098737
 20
250.2894758826841
 30
0.0
 10
120.5043873474291
 20
250.5974677321007
 30
0.0
 10
120.4652429294423
 20
250.7501118395718
 30
0.0
 10
120.3880921755271
 20
251.0391961287589
 30
0.0
 10
120.3497645937863
 20
251.1770006669429
 30
0.0
 10
120.2722182733095
 20
251.4386193425818
 30
0.0
 10
120.2332420656408
 20
251.5613656492646
 30
0.0
 10
120.1177472091958
 20
251.8926900262122
 30
0.0
 10
120.0398347655259
 20
252.0717011502405
 30
0.0
 10
119.924354840125
 20
252.2513162496213
 30
0.0
 10
119.8854890442599
 20
252.2975605984891
 30
0.0
 10
119.8077147105914
 20
252.3593139045003
 30
0.0
 10
119.7691049436367
 20
252.3748509703417
 30
0.0
 10
119.73006421191
 20
252.3748509703417
 30
0.0
  0
LINE
  5
A3
330
1F
100
AcDbEntity
  8
0
  6
Continuous
 62
     7
370
    25
100
AcDbLine
 10
711.7886428557
 20
252.3748509703
 30
0.0
 11
119.7300642119
 21
252.3748509703
 31
0.0
  0
SPLINE
  5
A4
330
1F
100
AcDbEntity
  8
0
  6
Continuous
 62
     7
370
    25
100
AcDbSpline
210
0.0
220
0.0
230
1.0
 70
     8
 71
     3
 72
    20
 73
    16
 74
     0
 42
0.000000001
 43
0.00000001
 40
0.0
 40
0.0
 40
0.0
 40
0.0
 40
0.1249999999999999
 40
0.1249999999999999
 40
0.2499999999999999
 40
0.2499999999999999
 40
0.3749999999999999
 40
0.3749999999999999
 40
0.4999999999999999
 40
0.4999999999999999
 40
0.7499999999999999
 40
0.7499999999999999
 40
0.8749999999999999
 40
0.8749999999999999
 40
1.0
 40
1.0
 40
1.0
 40
1.0
 10
711.7886428556727
 20
252.3748509703417
 30
0.0
 10
711.7496021248181
 20
252.3748509703417
 30
0.0
 10
711.7110834206184
 20
252.3593144098669
 30
0.0
 10
711.6336766693105
 20
252.2979960579063
 30
0.0
 10
711.5945322513237
 20
252.2515723123195
 30
0.0
 10
711.5173814974085
 20
252.1316214421653
 30
0.0
 10
711.4790539156677
 20
252.0580167978819
 30
0.0
 10
711.401507595191
 20
251.8832864317863
 30
0.0
 10
711.3625313875224
 20
251.7824358028848
 30
0.0
 10
711.2470365310772
 20
251.4511505229008
 30
0.0
 10
711.1691240874072
 20
251.183470361517
 30
0.0
 10
711.0536441620061
 20
250.7507963354616
 30
0.0
 10
711.0147783661413
 20
250.5992782486105
 30
0.0
 10
710.9370040324727
 20
250.2898524912243
 30
0.0
 10
710.8983942655179
 20
250.1332301615305
 30
0.0
 10
710.8593535337912
 20
249.9748509703418
 30
0.0
  0
SPLINE
  5
A5
330
1F
100
AcDbEntity
  8
0
  6
Continuous
 62
     7
370
    25
100
AcDbSpline
210
0.0
220
0.0
230
1.0
 70
     8
 71
     3
 72
    20
 73
    16
 74
     0
 42
0.000000001
 43
0.00000001
 40
0.0
 40
0.0
 40
0.0
 40
0.0
 40
0.1249999999999997
 40
0.1249999999999997
 40
0.2499999999999993
 40
0.2499999999999993
 40
0.374999999999999
 40
0.374999999999999
 40
0.4999999999999987
 40
0.4999999999999987
 40
0.7499999999999998
 40
0.7499999999999998
 40
0.8749999999999999
 40
0.8749999999999999
 40
1.0
 40
1.0
 40
1.0
 40
1.0
 10
710.8593535337914
 20
208.774850970342
 30
0.0
 10
710.8983942646458
 20
208.6164717826913
 30
0.0
 10
710.9369129688456
 20
208.4602260579995
 30
0.0
 10
711.0143197201536
 20
208.1522342085829
 30
0.0
 10
711.0534641381403
 20
207.9995901011117
 30
0.0
 10
711.1306148920555
 20
207.7105058119247
 30
0.0
 10
711.1689424737966
 20
207.5727012737406
 30
0.0
 10
711.2464887942731
 20
207.3110825981017
 30
0.0
 10
711.2854650019418
 20
207.1883362914191
 30
0.0
 10
711.4009598583871
 20
206.8570119144714
 30
0.0
 10
711.4788723020569
 20
206.6780007904431
 30
0.0
 10
711.5943522274576
 20
206.4983856910622
 30
0.0
 10
711.6332180233227
 20
206.4521413421945
 30
0.0
 10
711.7109923569911
 20
206.3903880361833
 30
0.0
 10
711.749602123946
 20
206.3748509703419
 30
0.0
 10
711.7886428556727
 20
206.3748509703419
 30
0.0
  0
LINE
  5
A6
330
1F
100
AcDbEntity
  8
0
  6
Continuous
 62
     7
370
    25
100
AcDbLine
 10
119.7300642119
 20
206.3748509703
 30
0.0
 11
711.7886428557
 21
206.3748509703
 31
0.0
  0
SPLINE
  5
A7
330
1F
100
AcDbEntity
  8
0
  6
Continuous
 62
     7
370
    25
100
AcDbSpline
210
0.0
220
0.0
230
1.0
 70
     8
 71
     3
 72
    20
 73
    16
 74
     0
 42
0.000000001
 43
0.00000001
 40
0.0
 40
0.0
 40
0.0
 40
0.0
 40
0.125
 40
0.125
 40
0.2499999999999999
 40
0.2499999999999999
 40
0.3749999999999999
 40
0.3749999999999999
 40
0.5
 40
0.5
 40
0.75
 40
0.75
 40
0.875
 40
0.875
 40
1.0
 40
1.0
 40
1.0
 40
1.0
 10
119.73006421191
 20
206.3748509703419
 30
0.0
 10
119.7691049427644
 20
206.3748509703419
 30
0.0
 10
119.8076236469643
 20
206.3903875308167
 30
0.0
 10
119.8850303982723
 20
206.4517058827773
 30
0.0
 10
119.9241748162589
 20
206.4981296283641
 30
0.0
 10
120.001325570174
 20
206.6180804985182
 30
0.0
 10
120.0396531519152
 20
206.6916851428016
 30
0.0
 10
120.1171994723917
 20
206.8664155088972
 30
0.0
 10
120.1561756800603
 20
206.9672661377988
 30
0.0
 10
120.2716705365054
 20
207.2985514177827
 30
0.0
 10
120.3495829801756
 20
207.5662315791665
 30
0.0
 10
120.4650629055763
 20
207.9989056052219
 30
0.0
 10
120.5039287014415
 20
208.150423692073
 30
0.0
 10
120.58170303511
 20
208.4598494494591
 30
0.0
 10
120.6203128020648
 20
208.6164717791528
 30
0.0
 10
120.6593535337914
 20
208.7748509703415
 30
0.0
  0
SPLINE
  5
A8
330
1F
100
AcDbEntity
  8
0
  6
Continuous
 62
     7
370
    25
100
AcDbSpline
210
0.0
220
0.0
230
1.0
 70
     8
 71
     3
 72
    20
 73
    16
 74
     0
 42
0.000000001
 43
0.00000001
 40
0.0
 40
0.0
 40
0.0
 40
0.0
 40
0.1249999999999948
 40
0.1249999999999948
 40
0.2499999999999896
 40
0.2499999999999896
 40
0.3749999999999845
 40
0.3749999999999845
 40
0.4999999999999792
 40
0.4999999999999792
 40
0.7499999999999977
 40
0.7499999999999977
 40
0.874999999999999
 40
0.874999999999999
 40
1.0
 40
1.0
 40
1.0
 40
1.0
 10
710.8593535337912
 20
249.9748509703418
 30
0.0
 10
711.017732721442
 20
250.0138917011963
 30
0.0
 10
711.1739784461337
 20
250.0524104053962
 30
0.0
 10
711.4819702955502
 20
250.129817156704
 30
0.0
 10
711.6346144030214
 20
250.1689615746908
 30
0.0
 10
711.9236986922084
 20
250.2461123286059
 30
0.0
 10
712.0615032303925
 20
250.2844399103469
 30
0.0
 10
712.3231219060315
 20
250.3619862308235
 30
0.0
 10
712.4458682127141
 20
250.4009624384921
 30
0.0
 10
712.7771925896618
 20
250.5164572949372
 30
0.0
 10
712.9562037136902
 20
250.5943697386073
 30
0.0
 10
713.135818813071
 20
250.7098496640082
 30
0.0
 10
713.1820631619387
 20
250.7487154598732
 30
0.0
 10
713.24381646795
 20
250.8264897935417
 30
0.0
 10
713.2593535337913
 20
250.8650995604965
 30
0.0
 10
713.2593535337913
 20
250.9041402922231
 30
0.0
  0
SPLINE
  5
A9
330
1F
100
AcDbEntity
  8
0
  6
Continuous
 62
     7
370
    25
100
AcDbSpline
210
0.0
220
0.0
230
1.0
 70
     8
 71
     3
 72
    14
 73
    10
 74
     0
 42
0.000000001
 43
0.00000001
 40
0.0
 40
0.0
 40
0.0
 40
0.0
 40
0.2500000000000001
 40
0.2500000000000001
 40
0.5000000000000001
 40
0.5000000000000001
 40
0.7500000000000002
 40
0.7500000000000002
 40
1.0
 40
1.0
 40
1.0
 40
1.0
 10
710.8593535337912
 20
249.9748509703418
 30
0.0
 10
710.9915389496504
 20
250.0530523853634
 30
0.0
 10
711.1195209681838
 20
250.1287623326604
 30
0.0
 10
711.3621449931311
 20
250.2840427443074
 30
0.0
 10
711.472587257541
 20
250.3610525938903
 30
0.0
 10
711.6585841547344
 20
250.5164760799179
 30
0.0
 10
711.7323851335728
 20
250.5934257968362
 30
0.0
 10
711.833203717968
 20
250.7488557760854
 30
0.0
 10
711.8593535337914
 20
250.8259388846581
 30
0.0
 10
711.8593535337914
 20
250.9041402922231
 30
0.0
  0
LINE
  5
AA
330
1F
100
AcDbEntity
  8
0
  6
Continuous
 62
     7
370
    25
100
AcDbLine
 10
713.2593535338
 20
250.9041402922
 30
0.0
 11
711.8593535338
 21
250.9041402922
 31
0.0
  0
SPLINE
  5
AB
330
1F
100
AcDbEntity
  8
0
  6
Continuous
 62
     7
370
    25
100
AcDbSpline
210
0.0
220
0.0
230
1.0
 70
     8
 71
     3
 72
    20
 73
    16
 74
     0
 42
0.000000001
 43
0.00000001
 40
0.0
 40
0.0
 40
0.0
 40
0.0
 40
0.1249999999999998
 40
0.1249999999999998
 40
0.2499999999999997
 40
0.2499999999999997
 40
0.3749999999999995
 40
0.3749999999999995
 40
0.4999999999999993
 40
0.4999999999999993
 40
0.7499999999999997
 40
0.7499999999999997
 40
0.8749999999999998
 40
0.8749999999999998
 40
1.0
 40
1.0
 40
1.0
 40
1.0
 10
713.2593535337913
 20
207.8455616484605
 30
0.0
 10
713.2593535337915
 20
207.884602379315
 30
0.0
 10
713.2438169733164
 20
207.9231210835148
 30
0.0
 10
713.182498621356
 20
208.0005278348227
 30
0.0
 10
713.1360748757692
 20
208.0396722528095
 30
0.0
 10
713.0161240056149
 20
208.1168230067246
 30
0.0
 10
712.9425193613315
 20
208.1551505884657
 30
0.0
 10
712.767788995236
 20
208.2326969089422
 30
0.0
 10
712.6669383663344
 20
208.2716731166109
 30
0.0
 10
712.3356530863505
 20
208.3871679730559
 30
0.0
 10
712.0679729249665
 20
208.465080416726
 30
0.0
 10
711.6352988989111
 20
208.5805603421269
 30
0.0
 10
711.48378081206
 20
208.6194261379919
 30
0.0
 10
711.1743550546738
 20
208.6972004716604
 30
0.0
 10
711.0177327249802
 20
208.7358102386152
 30
0.0
 10
710.8593535337912
 20
208.7748509703418
 30
0.0
  0
LINE
  5
AC
330
1F
100
AcDbEntity
  8
0
  6
Continuous
 62
     7
370
    25
100
AcDbLine
 10
713.2593535338
 20
207.8455616485
 30
0.0
 11
711.8593535338
 21
207.8455616485
 31
0.0
  0
SPLINE
  5
AD
330
1F
100
AcDbEntity
  8
0
  6
Continuous
 62
     7
370
    25
100
AcDbSpline
210
0.0
220
0.0
230
1.0
 70
     8
 71
     3
 72
    14
 73
    10
 74
     0
 42
0.000000001
 43
0.00000001
 40
0.0
 40
0.0
 40
0.0
 40
0.0
 40
0.25
 40
0.25
 40
0.5
 40
0.5
 40
0.75
 40
0.75
 40
1.0
 40
1.0
 40
1.0
 40
1.0
 10
711.8593535337914
 20
207.8455616484605
 30
0.0
 10
711.8593535337911
 20
207.9237630634821
 30
0.0
 10
711.8337948691109
 20
207.9994730107791
 30
0.0
 10
711.7336668405142
 20
208.154753422426
 30
0.0
 10
711.6601026612101
 20
208.2317632720091
 30
0.0
 10
711.4745650255182
 20
208.3871867580365
 30
0.0
 10
711.3644001045587
 20
208.4641364749549
 30
0.0
 10
711.1217883478694
 20
208.6195664542041
 30
0.0
 10
710.9915389370462
 20
208.6966495627768
 30
0.0
 10
710.8593535337912
 20
208.7748509703418
 30
0.0
  0
SPLINE
  5
AE
330
1F
100
AcDbEntity
  8
0
  6
Continuous
 62
     7
370
    25
100
AcDbSpline
210
0.0
220
0.0
230
1.0
 70
     8
 71
     3
 72
    14
 73
    10
 74
     0
 42
0.000000001
 43
0.00000001
 40
0.0
 40
0.0
 40
0.0
 40
0.0
 40
0.25
 40
0.25
 40
0.5
 40
0.5
 40
0.75
 40
0.75
 40
1.0
 40
1.0
 40
1.0
 40
1.0
 10
120.6593535337913
 20
249.9748509703417
 30
0.0
 10
120.5811521187697
 20
250.1070363862007
 30
0.0
 10
120.5054421714727
 20
250.2350184047342
 30
0.0
 10
120.3501617598259
 20
250.4776424296816
 30
0.0
 10
120.2731519102428
 20
250.5880846940915
 30
0.0
 10
120.1177284242154
 20
250.7740815912848
 30
0.0
 10
120.0407787072969
 20
250.8478825701232
 30
0.0
 10
119.8853487280476
 20
250.9487011545183
 30
0.0
 10
119.8082656194751
 20
250.9748509703417
 30
0.0
 10
119.73006421191
 20
250.9748509703417
 30
0.0
  0
LINE
  5
AF
330
1F
100
AcDbEntity
  8
0
  6
Continuous
 62
     7
370
    25
100
AcDbLine
 10
119.7300642119
 20
252.3748509703
 30
0.0
 11
119.7300642119
 21
250.9748509703
 31
0.0
  0
LINE
  5
B0
330
1F
100
AcDbEntity
  8
0
  6
Continuous
 62
     7
370
    25
100
AcDbLine
 10
713.2593535338
 20
207.8455616485
 30
0.0
 11
713.2593535338
 21
250.9041402922
 31
0.0
  0
SPLINE
  5
B1
330
1F
100
AcDbEntity
  8
0
  6
Continuous
 62
     7
370
    25
100
AcDbSpline
210
0.0
220
0.0
230
1.0
 70
     8
 71
     3
 72
    14
 73
    10
 74
     0
 42
0.000000001
 43
0.00000001
 40
0.0
 40
0.0
 40
0.0
 40
0.0
 40
0.2500000000000001
 40
0.2500000000000001
 40
0.5000000000000001
 40
0.5000000000000001
 40
0.7500000000000002
 40
0.7500000000000002
 40
1.0
 40
1.0
 40
1.0
 40
1.0
 10
710.8593535337914
 20
208.7748509703418
 30
0.0
 10
710.937554948813
 20
208.6426655544829
 30
0.0
 10
711.01326489611
 20
208.5146835359493
 30
0.0
 10
711.168545307757
 20
208.272059511002
 30
0.0
 10
711.24555515734
 20
208.161617246592
 30
0.0
 10
711.4009786433674
 20
207.9756203493987
 30
0.0
 10
711.4779283602859
 20
207.9018193705604
 30
0.0
 10
711.6333583395351
 20
207.8010007861653
 30
0.0
 10
711.7104414481076
 20
207.7748509703418
 30
0.0
 10
711.7886428556727
 20
207.7748509703418
 30
0.0
  0
LINE
  5
B2
330
1F
100
AcDbEntity
  8
0
  6
Continuous
 62
     7
370
    25
100
AcDbLine
 10
711.7886428557
 20
206.3748509703
 30
0.0
 11
711.7886428557
 21
207.7748509703
 31
0.0
  0
SPLINE
  5
B3
330
1F
100
AcDbEntity
  8
0
  6
Continuous
 62
     7
370
    25
100
AcDbSpline
210
0.0
220
0.0
230
1.0
 70
     8
 71
     3
 72
    14
 73
    10
 74
     0
 42
0.000000001
 43
0.00000001
 40
0.0
 40
0.0
 40
0.0
 40
0.0
 40
0.25
 40
0.25
 40
0.5
 40
0.5
 40
0.75
 40
0.75
 40
1.0
 40
1.0
 40
1.0
 40
1.0
 10
120.6593535337914
 20
208.7748509703417
 30
0.0
 10
120.5271681179324
 20
208.69664955532
 30
0.0
 10
120.3991860993989
 20
208.6209396080231
 30
0.0
 10
120.1565620744516
 20
208.4656591963761
 30
0.0
 10
120.0461198100415
 20
208.3886493467931
 30
0.0
 10
119.8601229128481
 20
208.2332258607657
 30
0.0
 10
119.7863219340098
 20
208.1562761438472
 30
0.0
 10
119.6855033496147
 20
208.0008461645981
 30
0.0
 10
119.6593535337913
 20
207.9237630560254
 30
0.0
 10
119.6593535337914
 20
207.8455616484603
 30
0.0
  0
LINE
  5
B4
330
1F
100
AcDbEntity
  8
0
  6
Continuous
 62
     7
370
    25
100
AcDbLine
 10
118.2593535338
 20
207.8455616485
 30
0.0
 11
119.6593535338
 21
207.8455616485
 31
0.0
  0
LINE
  5
B5
330
1F
100
AcDbEntity
  8
0
  6
Continuous
 62
     7
370
    25
100
AcDbLine
 10
711.7886428557
 20
252.3748509703
 30
0.0
 11
711.7886428557
 21
250.9748509703
 31
0.0
  0
SPLINE
  5
B6
330
1F
100
AcDbEntity
  8
0
  6
Continuous
 62
     7
370
    25
100
AcDbSpline
210
0.0
220
0.0
230
1.0
 70
     8
 71
     3
 72
    14
 73
    10
 74
     0
 42
0.000000001
 43
0.00000001
 40
0.0
 40
0.0
 40
0.0
 40
0.0
 40
0.25
 40
0.25
 40
0.5
 40
0.5
 40
0.75
 40
0.75
 40
1.0
 40
1.0
 40
1.0
 40
1.0
 10
711.7886428556727
 20
250.9748509703417
 30
0.0
 10
711.710441440651
 20
250.9748509703417
 30
0.0
 10
711.6347314933541
 20
250.9492923056615
 30
0.0
 10
711.4794510817071
 20
250.8491642770648
 30
0.0
 10
711.4024412321241
 20
250.7756000977604
 30
0.0
 10
711.2470177460966
 20
250.5900624620686
 30
0.0
 10
711.1700680291783
 20
250.4798975411091
 30
0.0
 10
711.0146380499292
 20
250.2372857844197
 30
0.0
 10
710.9375549413563
 20
250.1070363735967
 30
0.0
 10
710.8593535337912
 20
249.9748509703418
 30
0.0
  0
LINE
  5
B7
330
1F
100
AcDbEntity
  8
0
  6
Continuous
 62
     7
370
    25
100
AcDbLine
 10
119.7300642119
 20
206.3748509703
 30
0.0
 11
119.7300642119
 21
207.7748509703
 31
0.0
  0
SPLINE
  5
B8
330
1F
100
AcDbEntity
  8
0
  6
Continuous
 62
     7
370
    25
100
AcDbSpline
210
0.0
220
0.0
230
1.0
 70
     8
 71
     3
 72
    14
 73
    10
 74
     0
 42
0.000000001
 43
0.00000001
 40
0.0
 40
0.0
 40
0.0
 40
0.0
 40
0.2499999999999998
 40
0.2499999999999998
 40
0.4999999999999999
 40
0.4999999999999999
 40
0.7499999999999999
 40
0.7499999999999999
 40
1.0
 40
1.0
 40
1.0
 40
1.0
 10
119.73006421191
 20
207.7748509703418
 30
0.0
 10
119.8082656269316
 20
207.7748509703418
 30
0.0
 10
119.8839755742286
 20
207.8004096350221
 30
0.0
 10
120.0392559858757
 20
207.9005376636188
 30
0.0
 10
120.1162658354587
 20
207.9741018429231
 30
0.0
 10
120.271689321486
 20
208.1596394786149
 30
0.0
 10
120.3486390384044
 20
208.2698043995744
 30
0.0
 10
120.5040690176536
 20
208.5124161562638
 30
0.0
 10
120.5811521262263
 20
208.6426655670868
 30
0.0
 10
120.6593535337914
 20
208.7748509703417
 30
0.0
  0
CIRCLE
  5
B9
330
1F
100
AcDbEntity
  8
0
  6
Continuous
 62
     7
370
    25
100
AcDbCircle
 10
174.2593535338
 20
229.3748509703
 30
0.0
 40
5.500000000000119
  0
ARC
  5
BA
330
1F
100
AcDbEntity
  8
0
  6
Continuous
 62
     7
370
    25
100
AcDbCircle
 10
176.4393634354
 20
230.4317870852
 30
0.0
 40
0.505099462733478
100
AcDbArc
 50
298.8005827702
 51
112.9304972368
  0
ARC
  5
BB
330
1F
100
AcDbEntity
  8
0
  6
Continuous
 62
     7
370
    25
100
AcDbCircle
 10
174.2593535338
 20
229.3748509703
 30
0.0
 40
2.499999999999967
100
AcDbArc
 50
37.506301084
 51
74.2247789229
  0
ARC
  5
BC
330
1F
100
AcDbEntity
  8
0
  6
Continuous
 62
     7
370
    25
100
AcDbCircle
 10
174.434024959
 20
231.791262983
 30
0.0
 40
0.5050994627349352
100
AcDbArc
 50
358.800582771
 51
172.930497236
  0
ARC
  5
BD
330
1F
100
AcDbEntity
  8
0
  6
Continuous
 62
     7
370
    25
100
AcDbCircle
 10
174.2593535338
 20
229.3748509703
 30
0.0
 40
2.499999999999943
100
AcDbArc
 50
97.5063010841
 51
134.2247789229
  0
ARC
  5
BE
330
1F
100
AcDbEntity
  8
0
  6
Continuous
 62
     7
370
    25
100
AcDbCircle
 10
172.2540150574
 20
230.7343268682
 30
0.0
 40
0.5050994627351659
100
AcDbArc
 50
58.8005827697
 51
232.9304972372
  0
ARC
  5
BF
330
1F
100
AcDbEntity
  8
0
  6
Continuous
 62
     7
370
    25
100
AcDbCircle
 10
174.2593535338
 20
229.3748509703
 30
0.0
 40
2.499999999999932
100
AcDbArc
 50
157.5063010841
 51
194.2247789229
  0
ARC
  5
C0
330
1F
100
AcDbEntity
  8
0
  6
Continuous
 62
     7
370
    25
100
AcDbCircle
 10
172.0793436322
 20
228.3179148555
 30
0.0
 40
0.5050994627332623
100
AcDbArc
 50
118.8005827707
 51
292.9304972361
  0
ARC
  5
C1
330
1F
100
AcDbEntity
  8
0
  6
Continuous
 62
     7
370
    25
100
AcDbCircle
 10
174.2593535338
 20
229.3748509703
 30
0.0
 40
2.499999999999954
100
AcDbArc
 50
217.506301084
 51
254.2247789229
  0
ARC
  5
C2
330
1F
100
AcDbEntity
  8
0
  6
Continuous
 62
     7
370
    25
100
AcDbCircle
 10
174.0846821086
 20
226.9584389577
 30
0.0
 40
0.5050994627366071
100
AcDbArc
 50
178.8005827716
 51
352.9304972354
  0
ARC
  5
C3
330
1F
100
AcDbEntity
  8
0
  6
Continuous
 62
     7
370
    25
100
AcDbCircle
 10
174.2593535338
 20
229.3748509703
 30
0.0
 40
2.49999999999994
100
AcDbArc
 50
277.5063010841
 51
314.2247789229
  0
ARC
  5
C4
330
1F
100
AcDbEntity
  8
0
  6
Continuous
 62
     7
370
    25
100
AcDbCircle
 10
176.2646920102
 20
228.0153750725
 30
0.0
 40
0.5050994627355113
100
AcDbArc
 50
238.8005827701
 51
52.9304972368
  0
ARC
  5
C5
330
1F
100
AcDbEntity
  8
0
  6
Continuous
 62
     7
370
    25
100
AcDbCircle
 10
174.2593535338
 20
229.3748509703
 30
0.0
 40
2.499999999999946
100
AcDbArc
 50
337.5063010841
 51
14.2247789229
  0
CIRCLE
  5
C6
330
1F
100
AcDbEntity
  8
0
  6
Continuous
 62
     7
370
    25
100
AcDbCircle
 10
657.2593535338
 20
229.3748509703
 30
0.0
 40
5.500000000000139
  0
ARC
  5
C7
330
1F
100
AcDbEntity
  8
0
  6
Continuous
 62
     7
370
    25
100
AcDbCircle
 10
657.2920203913
 20
231.797347616
 30
0.0
 40
0.5050994627334843
100
AcDbArc
 50
2.1624680629
 51
176.2923825295
  0
ARC
  5
C8
330
1F
100
AcDbEntity
  8
0
  6
Continuous
 62
     7
370
    25
100
AcDbCircle
 10
657.2593535338
 20
229.3748509703
 30
0.0
 40
2.50000000000002
100
AcDbArc
 50
100.8681863767
 51
137.5866642156
  0
ARC
  5
C9
330
1F
100
AcDbEntity
  8
0
  6
Continuous
 62
     7
370
    25
100
AcDbCircle
 10
655.1450764693
 20
228.191892976
 30
0.0
 40
0.5050994627351629
100
AcDbArc
 50
122.1624680624
 51
296.2923825299
  0
ARC
  5
CA
330
1F
100
AcDbEntity
  8
0
  6
Continuous
 62
     7
370
    25
100
AcDbCircle
 10
657.2593535338
 20
229.3748509703
 30
0.0
 40
2.500000000000035
100
AcDbArc
 50
220.8681863768
 51
257.5866642156
  0
ARC
  5
CB
330
1F
100
AcDbEntity
  8
0
  6
Continuous
 62
     7
370
    25
100
AcDbCircle
 10
657.2266866763
 20
226.9523543247
 30
0.0
 40
0.5050994627332654
100
AcDbArc
 50
182.1624680634
 51
356.2923825288
  0
ARC
  5
CC
330
1F
100
AcDbEntity
  8
0
  6
Continuous
 62
     7
370
    25
100
AcDbCircle
 10
657.2593535338
 20
229.3748509703
 30
0.0
 40
2.499999999999967
100
AcDbArc
 50
280.8681863767
 51
317.5866642156
  0
ARC
  5
CD
330
1F
100
AcDbEntity
  8
0
  6
Continuous
 62
     7
370
    25
100
AcDbCircle
 10
659.3409637408
 20
228.1353123191
 30
0.0
 40
0.5050994627365859
100
AcDbArc
 50
242.1624680643
 51
56.2923825281
  0
ARC
  5
CE
330
1F
100
AcDbEntity
  8
0
  6
Continuous
 62
     7
370
    25
100
AcDbCircle
 10
657.2593535338
 20
229.3748509703
 30
0.0
 40
2.499999999999881
100
AcDbArc
 50
340.8681863768
 51
17.5866642156
  0
ARC
  5
CF
330
1F
100
AcDbEntity
  8
0
  6
Continuous
 62
     7
370
    25
100
AcDbCircle
 10
659.3736305983
 20
230.5578089647
 30
0.0
 40
0.5050994627355271
100
AcDbArc
 50
302.1624680628
 51
116.2923825295
  0
ARC
  5
D0
330
1F
100
AcDbEntity
  8
0
  6
Continuous
 62
     7
370
    25
100
AcDbCircle
 10
657.2593535338
 20
229.3748509703
 30
0.0
 40
2.499999999999933
100
AcDbArc
 50
40.8681863768
 51
77.5866642156
  0
ARC
  5
D1
330
1F
100
AcDbEntity
  8
0
  6
Continuous
 62
     7
370
    25
100
AcDbCircle
 10
655.1777433268
 20
230.6143896216
 30
0.0
 40
0.505099462734931
100
AcDbArc
 50
62.1624680637
 51
236.2923825287
  0
ARC
  5
D2
330
1F
100
AcDbEntity
  8
0
  6
Continuous
 62
     7
370
    25
100
AcDbCircle
 10
657.2593535338
 20
229.3748509703
 30
0.0
 40
2.499999999999921
100
AcDbArc
 50
160.8681863768
 51
197.5866642156
  0
LINE
  5
D3
330
1F
100
AcDbEntity
  8
0
  6
Continuous
 62
     7
370
    25
100
AcDbLine
 10
162.7593535338
 20
286.8748509703
 30
0.0
 11
163.5593535338
 21
286.8748509703
 31
0.0
  0
LINE
  5
D4
330
1F
100
AcDbEntity
  8
0
  6
Continuous
 62
     7
370
    25
100
AcDbLine
 10
163.5593535338
 20
286.8748509703
 30
0.0
 11
163.5593535338
 21
283.8748509703
 31
0.0
  0
LINE
  5
D5
330
1F
100
AcDbEntity
  8
0
  6
Continuous
 62
     7
370
    25
100
AcDbLine
 10
162.7593535338
 20
283.8748509703
 30
0.0
 11
162.7593535338
 21
286.8748509703
 31
0.0
  0
LINE
  5
D6
330
1F
100
AcDbEntity
  8
0
  6
Continuous
 62
     7
370
    25
100
AcDbLine
 10
162.7593535338
 20
266.8748509703
 30
0.0
 11
163.5593535338
 21
266.8748509703
 31
0.0
  0
LINE
  5
D7
330
1F
100
AcDbEntity
  8
0
  6
Continuous
 62
     7
370
    25
100
AcDbLine
 10
162.7593535338
 20
266.8748509703
 30
0.0
 11
162.7593535338
 21
283.8748509703
 31
0.0
  0
LINE
  5
D8
330
1F
100
AcDbEntity
  8
0
  6
Continuous
 62
     7
370
    25
100
AcDbLine
 10
163.5593535338
 20
266.8748509703
 30
0.0
 11
163.5593535338
 21
283.8748509703
 31
0.0
  0
LINE
  5
D9
330
1F
100
AcDbEntity
  8
0
  6
Continuous
 62
     7
370
    25
100
AcDbLine
 10
667.9593535338
 20
283.8748509703
 30
0.0
 11
667.9593535338
 21
286.8748509703
 31
0.0
  0
LINE
  5
DA
330
1F
100
AcDbEntity
  8
0
  6
Continuous
 62
     7
370
    25
100
AcDbLine
 10
667.9593535338
 20
286.8748509703
 30
0.0
 11
668.7593535338
 21
286.8748509703
 31
0.0
  0
LINE
  5
DB
330
1F
100
AcDbEntity
  8
0
  6
Continuous
 62
     7
370
    25
100
AcDbLine
 10
668.7593535338
 20
286.8748509703
 30
0.0
 11
668.7593535338
 21
283.8748509703
 31
0.0
  0
LINE
  5
DC
330
1F
100
AcDbEntity
  8
0
  6
Continuous
 62
     7
370
    25
100
AcDbLine
 10
667.9593535338
 20
283.8748509703
 30
0.0
 11
667.9593535338
 21
266.8748509703
 31
0.0
  0
LINE
  5
DD
330
1F
100
AcDbEntity
  8
0
  6
Continuous
 62
     7
370
    25
100
AcDbLine
 10
668.7593535338
 20
283.8748509703
 30
0.0
 11
668.7593535338
 21
266.8748509703
 31
0.0
  0
LINE
  5
DE
330
1F
100
AcDbEntity
  8
0
  6
Continuous
 62
     7
370
    25
100
AcDbLine
 10
668.7593535338
 20
266.8748509703
 30
0.0
 11
667.9593535338
 21
266.8748509703
 31
0.0
  0
LINE
  5
DF
330
1F
100
AcDbEntity
  8
0
  6
Continuous
 62
     7
370
    25
100
AcDbLine
 10
163.5593535338
 20
252.3748509703
 30
0.0
 11
163.5593535338
 21
263.6748509703
 31
0.0
  0
LINE
  5
E0
330
1F
100
AcDbEntity
  8
0
  6
Continuous
 62
     7
370
    25
100
AcDbLine
 10
163.5593535338
 20
265.3748509703
 30
0.0
 11
163.5593535338
 21
266.8748509703
 31
0.0
  0
LINE
  5
E1
330
1F
100
AcDbEntity
  8
0
  6
Continuous
 62
     7
370
    25
100
AcDbLine
 10
162.7593535338
 20
252.3748509703
 30
0.0
 11
162.7593535338
 21
266.8748509703
 31
0.0
  0
LINE
  5
E2
330
1F
100
AcDbEntity
  8
0
  6
Continuous
 62
     7
370
    25
100
AcDbLine
 10
668.7593535338
 20
266.8748509703
 30
0.0
 11
668.7593535338
 21
252.3748509703
 31
0.0
  0
LINE
  5
E3
330
1F
100
AcDbEntity
  8
0
  6
Continuous
 62
     7
370
    25
100
AcDbLine
 10
667.9593535338
 20
266.8748509703
 30
0.0
 11
667.9593535338
 21
265.3748509703
 31
0.0
  0
LINE
  5
E4
330
1F
100
AcDbEntity
  8
0
  6
Continuous
 62
     7
370
    25
100
AcDbLine
 10
667.9593535338
 20
263.6748509703
 30
0.0
 11
667.9593535338
 21
252.3748509703
 31
0.0
  0
LINE
  5
E5
330
1F
100
AcDbEntity
  8
0
  6
Continuous
 62
     7
370
    25
100
AcDbLine
 10
677.4181035338
 20
252.3748509703
 30
0.0
 11
677.4181035338
 21
258.3748509703
 31
0.0
  0
LINE
  5
E6
330
1F
100
AcDbEntity
  8
0
  6
Continuous
 62
     7
370
    25
100
AcDbLine
 10
677.9593535338
 20
253.4904580547
 30
0.0
 11
677.9593535338
 21
257.8336009704
 31
0.0
  0
LINE
  5
E7
330
1F
100
AcDbEntity
  8
0
  6
Continuous
 62
     7
370
    25
100
AcDbLine
 10
677.9593535338
 20
252.9161009703
 30
0.0
 11
677.9593535338
 21
253.4904580547
 31
0.0
  0
LINE
  5
E8
330
1F
100
AcDbEntity
  8
0
  6
Continuous
 62
     7
370
    25
100
AcDbLine
 10
163.3384233012
 20
265.3748509703
 30
0.0
 11
668.1802837663
 21
265.3748509703
 31
0.0
  0
LINE
  5
E9
330
1F
100
AcDbEntity
  8
0
  6
Continuous
 62
     7
370
    25
100
AcDbLine
 10
163.3384233012
 20
263.6748509703
 30
0.0
 11
668.1802837663
 21
263.6748509703
 31
0.0
  0
ELLIPSE
  5
EA
330
1F
100
AcDbEntity
  8
0
  6
Continuous
 62
     7
370
    25
100
AcDbEllipse
 10
163.3384233012
 20
264.5248509703
 30
0.0
 11
0.0
 21
0.8499999999999658
 31
0.0
210
0.0
220
0.0
230
1.0
 40
0.0930232558
 41
0.0
 42
3.141592653589076
  0
ELLIPSE
  5
EB
330
1F
100
AcDbEntity
  8
0
  6
Continuous
 62
     7
370
    25
100
AcDbEllipse
 10
668.1802837663
 20
264.5248509703
 30
0.0
 11
0.0
 21
0.8499999999999658
 31
0.0
210
0.0
220
0.0
230
1.0
 40
0.0930232558
 41
3.141592653589792
 42
6.283185307179586
  0
LINE
  5
EC
330
1F
100
AcDbEntity
  8
0
  6
Continuous
 62
     7
370
    25
100
AcDbLine
 10
164.2593535338
 20
263.6748509703
 30
0.0
 11
164.2593535338
 21
263.5748509703
 31
0.0
  0
LINE
  5
ED
330
1F
100
AcDbEntity
  8
0
  6
Continuous
 62
     7
370
    25
100
AcDbLine
 10
667.2593535338
 20
263.5748509703
 30
0.0
 11
667.2593535338
 21
263.6748509703
 31
0.0
  0
LINE
  5
EE
330
1F
100
AcDbEntity
  8
0
  6
Continuous
 62
     7
370
    25
100
AcDbLine
 10
164.2593535338
 20
263.5748509703
 30
0.0
 11
164.2593535338
 21
252.3748509703
 31
0.0
  0
LINE
  5
EF
330
1F
100
AcDbEntity
  8
0
  6
Continuous
 62
     7
370
    25
100
AcDbLine
 10
667.2593535338
 20
252.3748509703
 30
0.0
 11
667.2593535338
 21
263.5748509703
 31
0.0
  0
LINE
  5
F0
330
1F
100
AcDbEntity
  8
0
  6
Continuous
 62
     7
370
    25
100
AcDbLine
 10
154.1006035338
 20
256.6712168166
 30
0.0
 11
154.1006035338
 21
252.3748509703
 31
0.0
  0
LINE
  5
F1
330
1F
100
AcDbEntity
  8
0
  6
Continuous
 62
     7
370
    25
100
AcDbLine
 10
154.1006035338
 20
258.3748509703
 30
0.0
 11
154.1006035338
 21
256.6712168166
 31
0.0
  0
LINE
  5
F2
330
1F
100
AcDbEntity
  8
0
  6
Continuous
 62
     7
370
    25
100
AcDbLine
 10
153.5593535338
 20
257.8336009704
 30
0.0
 11
153.5593535338
 21
252.9161009703
 31
0.0
  0
ARC
  5
F3
330
1F
100
AcDbEntity
  8
0
  6
Continuous
 62
     7
370
    25
100
AcDbCircle
 10
657.0848198488
 20
256.951064981
 30
0.0
 40
12.03669752931456
100
AcDbArc
 50
186.2565722693
 51
191.9710500657
  0
LINE
  5
F4
330
1F
100
AcDbEntity
  8
0
  6
Continuous
 62
     7
370
    25
100
AcDbLine
 10
646.7619657888
 20
254.6873879305
 30
0.0
 11
646.994909654
 21
253.2353122065
 31
0.0
  0
ARC
  5
F5
330
1F
100
AcDbEntity
  8
0
  6
Continuous
 62
     7
370
    25
100
AcDbCircle
 10
645.6831395232
 20
265.2003172854
 30
0.0
 40
12.03669752934454
100
AcDbArc
 50
276.2565722693
 51
281.9710500657
  0
LINE
  5
F6
330
1F
100
AcDbEntity
  8
0
  6
Continuous
 62
     7
370
    25
100
AcDbLine
 10
647.9468165737
 20
254.8774632254
 30
0.0
 11
648.1797604388
 21
253.4253875015
 31
0.0
  0
ARC
  5
F7
330
1F
100
AcDbEntity
  8
0
  6
Continuous
 62
     7
370
    25
100
AcDbCircle
 10
637.4338872187
 20
253.7986369597
 30
0.0
 40
12.03669752942298
100
AcDbArc
 50
6.2565722694
 51
11.9710500657
  0
ARC
  5
F8
330
1F
100
AcDbEntity
  8
0
  6
Continuous
 62
     7
370
    25
100
AcDbCircle
 10
648.8355675444
 20
245.5493846553
 30
0.0
 40
12.0366975293558
100
AcDbArc
 50
96.2565722694
 51
101.9710500657
  0
ARC
  5
F9
330
1F
100
AcDbEntity
  8
0
  6
Continuous
 62
     7
370
    25
100
AcDbCircle
 10
647.2593535338
 20
255.3748509703
 30
0.0
 40
3.999999999999974
100
AcDbArc
 50
311.4096221093
 51
99.1138111675
  0
ARC
  5
FA
330
1F
100
AcDbEntity
  8
0
  6
Continuous
 62
     7
370
    25
100
AcDbCircle
 10
647.2593535338
 20
255.3748509703
 30
0.0
 40
3.999999999999974
100
AcDbArc
 50
99.1138111675
 51
228.5903778907
  0
LINE
  5
FB
330
1F
100
AcDbEntity
  8
0
  6
Continuous
 62
     7
370
    25
100
AcDbLine
 10
647.9468165737
 20
254.8774632254
 30
0.0
 11
649.3988922976
 21
255.1104070906
 31
0.0
  0
LINE
  5
FC
330
1F
100
AcDbEntity
  8
0
  6
Continuous
 62
     7
370
    25
100
AcDbLine
 10
645.11981477
 20
255.6392948501
 30
0.0
 11
646.5718904939
 21
255.8722387153
 31
0.0
  0
LINE
  5
FD
330
1F
100
AcDbEntity
  8
0
  6
Continuous
 62
     7
370
    25
100
AcDbLine
 10
645.3098900649
 20
254.4544440653
 30
0.0
 11
646.7619657888
 21
254.6873879305
 31
0.0
  0
LINE
  5
FE
330
1F
100
AcDbEntity
  8
0
  6
Continuous
 62
     7
370
    25
100
AcDbLine
 10
647.7567412787
 20
256.0623140102
 30
0.0
 11
649.2088170027
 21
256.2952578754
 31
0.0
  0
LINE
  5
FF
330
1F
100
AcDbEntity
  8
0
  6
Continuous
 62
     7
370
    25
100
AcDbLine
 10
646.3389466288
 20
257.3243144392
 30
0.0
 11
646.5718904939
 21
255.8722387153
 31
0.0
  0
LINE
  5
100
330
1F
100
AcDbEntity
  8
0
  6
Continuous
 62
     7
370
    25
100
AcDbLine
 10
647.5237974136
 20
257.5143897341
 30
0.0
 11
647.7567412787
 21
256.0623140102
 31
0.0
  0
LINE
  5
101
330
1F
100
AcDbEntity
  8
0
  6
Continuous
 62
     7
370
    25
100
AcDbLine
 10
647.9048476268
 20
256.0860734221
 30
0.0
 11
648.0949229218
 21
254.9012226373
 31
0.0
  0
LINE
  5
102
330
1F
100
AcDbEntity
  8
0
  6
Continuous
 62
     7
370
    25
100
AcDbLine
 10
647.7329818669
 20
256.2104203583
 30
0.0
 11
646.5481310821
 21
256.0203450634
 31
0.0
  0
LINE
  5
103
330
1F
100
AcDbEntity
  8
0
  6
Continuous
 62
     7
370
    25
100
AcDbLine
 10
647.9705759855
 20
254.7293568773
 30
0.0
 11
646.7857252007
 21
254.5392815824
 31
0.0
  0
LINE
  5
104
330
1F
100
AcDbEntity
  8
0
  6
Continuous
 62
     7
370
    25
100
AcDbLine
 10
646.4237841458
 20
255.8484793034
 30
0.0
 11
646.6138594407
 21
254.6636285186
 31
0.0
  0
ARC
  5
105
330
1F
100
AcDbEntity
  8
0
  6
Continuous
 62
     7
370
    25
100
AcDbCircle
 10
344.0848198488
 20
256.951064981
 30
0.0
 40
12.03669752933404
100
AcDbArc
 50
186.2565722693
 51
191.9710500657
  0
ARC
  5
106
330
1F
100
AcDbEntity
  8
0
  6
Continuous
 62
     7
370
    25
100
AcDbCircle
 10
332.6831395232
 20
265.2003172854
 30
0.0
 40
12.03669752933
100
AcDbArc
 50
276.2565722693
 51
281.9710500657
  0
ARC
  5
107
330
1F
100
AcDbEntity
  8
0
  6
Continuous
 62
     7
370
    25
100
AcDbCircle
 10
324.4338872187
 20
253.7986369597
 30
0.0
 40
12.0366975293436
100
AcDbArc
 50
6.2565722694
 51
11.9710500657
  0
ARC
  5
108
330
1F
100
AcDbEntity
  8
0
  6
Continuous
 62
     7
370
    25
100
AcDbCircle
 10
335.8355675444
 20
245.5493846553
 30
0.0
 40
12.03669752935075
100
AcDbArc
 50
96.2565722694
 51
101.9710500657
  0
ARC
  5
109
330
1F
100
AcDbEntity
  8
0
  6
Continuous
 62
     7
370
    25
100
AcDbCircle
 10
334.2593535338
 20
255.3748509703
 30
0.0
 40
4.000000000000012
100
AcDbArc
 50
311.4096221093
 51
99.1138111675
  0
ARC
  5
10A
330
1F
100
AcDbEntity
  8
0
  6
Continuous
 62
     7
370
    25
100
AcDbCircle
 10
334.2593535338
 20
255.3748509703
 30
0.0
 40
4.000000000000012
100
AcDbArc
 50
99.1138111675
 51
228.5903778907
  0
LINE
  5
10B
330
1F
100
AcDbEntity
  8
0
  6
Continuous
 62
     7
370
    25
100
AcDbLine
 10
333.3389466288
 20
257.3243144392
 30
0.0
 11
333.5718904939
 21
255.8722387153
 31
0.0
  0
LINE
  5
10C
330
1F
100
AcDbEntity
  8
0
  6
Continuous
 62
     7
370
    25
100
AcDbLine
 10
332.11981477
 20
255.6392948501
 30
0.0
 11
333.5718904939
 21
255.8722387153
 31
0.0
  0
LINE
  5
10D
330
1F
100
AcDbEntity
  8
0
  6
Continuous
 62
     7
370
    25
100
AcDbLine
 10
334.9468165737
 20
254.8774632254
 30
0.0
 11
335.1797604388
 21
253.4253875015
 31
0.0
  0
LINE
  5
10E
330
1F
100
AcDbEntity
  8
0
  6
Continuous
 62
     7
370
    25
100
AcDbLine
 10
334.7567412787
 20
256.0623140102
 30
0.0
 11
336.2088170027
 21
256.2952578754
 31
0.0
  0
LINE
  5
10F
330
1F
100
AcDbEntity
  8
0
  6
Continuous
 62
     7
370
    25
100
AcDbLine
 10
332.3098900649
 20
254.4544440653
 30
0.0
 11
333.7619657888
 21
254.6873879305
 31
0.0
  0
LINE
  5
110
330
1F
100
AcDbEntity
  8
0
  6
Continuous
 62
     7
370
    25
100
AcDbLine
 10
334.9468165737
 20
254.8774632254
 30
0.0
 11
336.3988922976
 21
255.1104070906
 31
0.0
  0
LINE
  5
111
330
1F
100
AcDbEntity
  8
0
  6
Continuous
 62
     7
370
    25
100
AcDbLine
 10
334.5237974136
 20
257.5143897341
 30
0.0
 11
334.7567412787
 21
256.0623140102
 31
0.0
  0
LINE
  5
112
330
1F
100
AcDbEntity
  8
0
  6
Continuous
 62
     7
370
    25
100
AcDbLine
 10
333.7619657888
 20
254.6873879305
 30
0.0
 11
333.994909654
 21
253.2353122065
 31
0.0
  0
LINE
  5
113
330
1F
100
AcDbEntity
  8
0
  6
Continuous
 62
     7
370
    25
100
AcDbLine
 10
334.9048476268
 20
256.0860734221
 30
0.0
 11
335.0949229218
 21
254.9012226373
 31
0.0
  0
LINE
  5
114
330
1F
100
AcDbEntity
  8
0
  6
Continuous
 62
     7
370
    25
100
AcDbLine
 10
334.9705759855
 20
254.7293568773
 30
0.0
 11
333.7857252007
 21
254.5392815824
 31
0.0
  0
LINE
  5
115
330
1F
100
AcDbEntity
  8
0
  6
Continuous
 62
     7
370
    25
100
AcDbLine
 10
334.7329818669
 20
256.2104203583
 30
0.0
 11
333.5481310821
 21
256.0203450634
 31
0.0
  0
LINE
  5
116
330
1F
100
AcDbEntity
  8
0
  6
Continuous
 62
     7
370
    25
100
AcDbLine
 10
333.4237841458
 20
255.8484793034
 30
0.0
 11
333.6138594407
 21
254.6636285186
 31
0.0
  0
ARC
  5
117
330
1F
100
AcDbEntity
  8
0
  6
Continuous
 62
     7
370
    25
100
AcDbCircle
 10
507.0848198488
 20
256.951064981
 30
0.0
 40
12.036697529295
100
AcDbArc
 50
186.2565722693
 51
191.9710500657
  0
LINE
  5
118
330
1F
100
AcDbEntity
  8
0
  6
Continuous
 62
     7
370
    25
100
AcDbLine
 10
495.3098900649
 20
254.4544440653
 30
0.0
 11
496.7619657888
 21
254.6873879305
 31
0.0
  0
LINE
  5
119
330
1F
100
AcDbEntity
  8
0
  6
Continuous
 62
     7
370
    25
100
AcDbLine
 10
496.7619657888
 20
254.6873879305
 30
0.0
 11
496.994909654
 21
253.2353122065
 31
0.0
  0
ARC
  5
11A
330
1F
100
AcDbEntity
  8
0
  6
Continuous
 62
     7
370
    25
100
AcDbCircle
 10
495.6831395232
 20
265.2003172854
 30
0.0
 40
12.03669752935108
100
AcDbArc
 50
276.2565722694
 51
281.9710500657
  0
LINE
  5
11B
330
1F
100
AcDbEntity
  8
0
  6
Continuous
 62
     7
370
    25
100
AcDbLine
 10
497.9468165737
 20
254.8774632254
 30
0.0
 11
498.1797604388
 21
253.4253875015
 31
0.0
  0
LINE
  5
11C
330
1F
100
AcDbEntity
  8
0
  6
Continuous
 62
     7
370
    25
100
AcDbLine
 10
497.9468165737
 20
254.8774632254
 30
0.0
 11
499.3988922976
 21
255.1104070906
 31
0.0
  0
ARC
  5
11D
330
1F
100
AcDbEntity
  8
0
  6
Continuous
 62
     7
370
    25
100
AcDbCircle
 10
487.4338872188
 20
253.7986369597
 30
0.0
 40
12.03669752934196
100
AcDbArc
 50
6.2565722693
 51
11.9710500657
  0
LINE
  5
11E
330
1F
100
AcDbEntity
  8
0
  6
Continuous
 62
     7
370
    25
100
AcDbLine
 10
497.7567412787
 20
256.0623140102
 30
0.0
 11
499.2088170027
 21
256.2952578754
 31
0.0
  0
ARC
  5
11F
330
1F
100
AcDbEntity
  8
0
  6
Continuous
 62
     7
370
    25
100
AcDbCircle
 10
498.8355675444
 20
245.5493846553
 30
0.0
 40
12.03669752934112
100
AcDbArc
 50
96.2565722693
 51
101.9710500657
  0
ARC
  5
120
330
1F
100
AcDbEntity
  8
0
  6
Continuous
 62
     7
370
    25
100
AcDbCircle
 10
497.2593535338
 20
255.3748509703
 30
0.0
 40
4.000000000000054
100
AcDbArc
 50
311.4096221093
 51
99.1138111675
  0
ARC
  5
121
330
1F
100
AcDbEntity
  8
0
  6
Continuous
 62
     7
370
    25
100
AcDbCircle
 10
497.2593535338
 20
255.3748509703
 30
0.0
 40
4.000000000000017
100
AcDbArc
 50
99.1138111675
 51
228.5903778907
  0
LINE
  5
122
330
1F
100
AcDbEntity
  8
0
  6
Continuous
 62
     7
370
    25
100
AcDbLine
 10
495.11981477
 20
255.6392948501
 30
0.0
 11
496.5718904939
 21
255.8722387153
 31
0.0
  0
LINE
  5
123
330
1F
100
AcDbEntity
  8
0
  6
Continuous
 62
     7
370
    25
100
AcDbLine
 10
497.5237974136
 20
257.5143897341
 30
0.0
 11
497.7567412787
 21
256.0623140102
 31
0.0
  0
LINE
  5
124
330
1F
100
AcDbEntity
  8
0
  6
Continuous
 62
     7
370
    25
100
AcDbLine
 10
496.3389466288
 20
257.3243144392
 30
0.0
 11
496.5718904939
 21
255.8722387153
 31
0.0
  0
LINE
  5
125
330
1F
100
AcDbEntity
  8
0
  6
Continuous
 62
     7
370
    25
100
AcDbLine
 10
497.9048476268
 20
256.0860734221
 30
0.0
 11
498.0949229218
 21
254.9012226373
 31
0.0
  0
LINE
  5
126
330
1F
100
AcDbEntity
  8
0
  6
Continuous
 62
     7
370
    25
100
AcDbLine
 10
497.7329818669
 20
256.2104203583
 30
0.0
 11
496.5481310821
 21
256.0203450634
 31
0.0
  0
LINE
  5
127
330
1F
100
AcDbEntity
  8
0
  6
Continuous
 62
     7
370
    25
100
AcDbLine
 10
497.9705759855
 20
254.7293568773
 30
0.0
 11
496.7857252007
 21
254.5392815824
 31
0.0
  0
LINE
  5
128
330
1F
100
AcDbEntity
  8
0
  6
Continuous
 62
     7
370
    25
100
AcDbLine
 10
496.4237841458
 20
255.8484793034
 30
0.0
 11
496.6138594407
 21
254.6636285186
 31
0.0
  0
LINE
  5
129
330
1F
100
AcDbEntity
  8
0
  6
Continuous
 62
     7
370
    25
100
AcDbLine
 10
183.3389466288
 20
257.3243144392
 30
0.0
 11
183.5718904939
 21
255.8722387153
 31
0.0
  0
LINE
  5
12A
330
1F
100
AcDbEntity
  8
0
  6
Continuous
 62
     7
370
    25
100
AcDbLine
 10
182.11981477
 20
255.6392948501
 30
0.0
 11
183.5718904939
 21
255.8722387153
 31
0.0
  0
ARC
  5
12B
330
1F
100
AcDbEntity
  8
0
  6
Continuous
 62
     7
370
    25
100
AcDbCircle
 10
194.0848198488
 20
256.951064981
 30
0.0
 40
12.03669752935031
100
AcDbArc
 50
186.2565722694
 51
191.9710500657
  0
LINE
  5
12C
330
1F
100
AcDbEntity
  8
0
  6
Continuous
 62
     7
370
    25
100
AcDbLine
 10
182.3098900649
 20
254.4544440653
 30
0.0
 11
183.7619657888
 21
254.6873879305
 31
0.0
  0
LINE
  5
12D
330
1F
100
AcDbEntity
  8
0
  6
Continuous
 62
     7
370
    25
100
AcDbLine
 10
183.7619657888
 20
254.6873879305
 30
0.0
 11
183.994909654
 21
253.2353122065
 31
0.0
  0
ARC
  5
12E
330
1F
100
AcDbEntity
  8
0
  6
Continuous
 62
     7
370
    25
100
AcDbCircle
 10
182.6831395231
 20
265.2003172854
 30
0.0
 40
12.03669752935513
100
AcDbArc
 50
276.2565722694
 51
281.9710500657
  0
LINE
  5
12F
330
1F
100
AcDbEntity
  8
0
  6
Continuous
 62
     7
370
    25
100
AcDbLine
 10
184.9468165737
 20
254.8774632254
 30
0.0
 11
185.1797604388
 21
253.4253875015
 31
0.0
  0
LINE
  5
130
330
1F
100
AcDbEntity
  8
0
  6
Continuous
 62
     7
370
    25
100
AcDbLine
 10
184.9468165737
 20
254.8774632254
 30
0.0
 11
186.3988922976
 21
255.1104070906
 31
0.0
  0
ARC
  5
131
330
1F
100
AcDbEntity
  8
0
  6
Continuous
 62
     7
370
    25
100
AcDbCircle
 10
174.4338872187
 20
253.7986369597
 30
0.0
 40
12.03669752934341
100
AcDbArc
 50
6.2565722694
 51
11.9710500657
  0
LINE
  5
132
330
1F
100
AcDbEntity
  8
0
  6
Continuous
 62
     7
370
    25
100
AcDbLine
 10
184.7567412787
 20
256.0623140102
 30
0.0
 11
186.2088170027
 21
256.2952578754
 31
0.0
  0
LINE
  5
133
330
1F
100
AcDbEntity
  8
0
  6
Continuous
 62
     7
370
    25
100
AcDbLine
 10
184.5237974136
 20
257.5143897341
 30
0.0
 11
184.7567412787
 21
256.0623140102
 31
0.0
  0
ARC
  5
134
330
1F
100
AcDbEntity
  8
0
  6
Continuous
 62
     7
370
    25
100
AcDbCircle
 10
185.8355675444
 20
245.5493846553
 30
0.0
 40
12.03669752934775
100
AcDbArc
 50
96.2565722693
 51
101.9710500657
  0
ARC
  5
135
330
1F
100
AcDbEntity
  8
0
  6
Continuous
 62
     7
370
    25
100
AcDbCircle
 10
184.2593535338
 20
255.3748509703
 30
0.0
 40
4.000000000000012
100
AcDbArc
 50
311.4096221093
 51
99.1138111675
  0
ARC
  5
136
330
1F
100
AcDbEntity
  8
0
  6
Continuous
 62
     7
370
    25
100
AcDbCircle
 10
184.2593535338
 20
255.3748509703
 30
0.0
 40
3.999999999999993
100
AcDbArc
 50
99.1138111675
 51
228.5903778907
  0
LINE
  5
137
330
1F
100
AcDbEntity
  8
0
  6
Continuous
 62
     7
370
    25
100
AcDbLine
 10
184.9048476268
 20
256.0860734221
 30
0.0
 11
185.0949229218
 21
254.9012226373
 31
0.0
  0
LINE
  5
138
330
1F
100
AcDbEntity
  8
0
  6
Continuous
 62
     7
370
    25
100
AcDbLine
 10
184.9705759855
 20
254.7293568773
 30
0.0
 11
183.7857252007
 21
254.5392815824
 31
0.0
  0
LINE
  5
139
330
1F
100
AcDbEntity
  8
0
  6
Continuous
 62
     7
370
    25
100
AcDbLine
 10
184.7329818669
 20
256.2104203583
 30
0.0
 11
183.5481310821
 21
256.0203450634
 31
0.0
  0
LINE
  5
13A
330
1F
100
AcDbEntity
  8
0
  6
Continuous
 62
     7
370
    25
100
AcDbLine
 10
183.4237841458
 20
255.8484793034
 30
0.0
 11
183.6138594407
 21
254.6636285186
 31
0.0
  0
SPLINE
  5
13B
330
1F
100
AcDbEntity
  8
0
  6
Continuous
 62
     7
370
    25
100
AcDbSpline
210
0.0
220
0.0
230
1.0
 70
    24
 71
     3
 72
    18
 73
    14
 74
     0
 42
0.000000001
 43
0.00000001
 40
0.0
 40
0.0
 40
0.0
 40
0.0
 40
0.1395442450004754
 40
0.2146633576115609
 40
0.2913766055701592
 40
0.3680898535287566
 40
0.4432089661398425
 40
0.582753211140318
 40
0.7222974561407931
 40
0.7974165687518789
 40
0.874129816710477
 40
0.9508430646690749
 40
1.0
 40
1.0
 40
1.0
 40
1.0
 10
164.5593535337912
 20
275.1443229135751
 30
0.0
 10
164.5593535337912
 20
275.5294538055008
 30
0.0
 10
164.5593535337912
 20
276.1219074060088
 30
0.0
 10
164.5593535337913
 20
277.3578215873937
 30
0.0
 10
164.5593535337912
 20
278.4338511997487
 30
0.0
 10
164.5593535337912
 20
279.5973793202975
 30
0.0
 10
164.5593535337912
 20
281.1178265113157
 30
0.0
 10
164.5593535337914
 20
282.9420165093224
 30
0.0
 10
164.5593535337912
 20
284.4572514639149
 30
0.0
 10
164.5593535337914
 20
285.3749987623447
 30
0.0
 10
164.5593535337912
 20
285.8786155806984
 30
0.0
 10
164.5593535337912
 20
286.1507527054383
 30
0.0
 10
164.5593535337912
 20
286.1488448625524
 30
0.0
 10
164.5593535337912
 20
286.1480997797464
 30
0.0
  0
SPLINE
  5
13C
330
1F
100
AcDbEntity
  8
0
  6
Continuous
 62
     7
370
    25
100
AcDbSpline
210
0.0
220
0.0
230
1.0
 70
     8
 71
     3
 72
     8
 73
     4
 74
     0
 42
0.000000001
 43
0.00000001
 40
0.0
 40
0.0
 40
0.0
 40
0.0
 40
1.0
 40
1.0
 40
1.0
 40
1.0
 10
168.5593535337841
 20
277.5501815592092
 30
0.0
 10
168.5593535337841
 20
278.3631711309143
 30
0.0
 10
168.3850382334049
 20
279.1539095269821
 30
0.0
 10
168.1127715463928
 20
279.932144525459
 30
0.0
  0
SPLINE
  5
13D
330
1F
100
AcDbEntity
  8
0
  6
Continuous
 62
     7
370
    25
100
AcDbSpline
210
0.0
220
0.0
230
1.0
 70
     8
 71
     3
 72
     8
 73
     4
 74
     0
 42
0.000000001
 43
0.00000001
 40
0.0
 40
0.0
 40
0.0
 40
0.0
 40
1.0
 40
1.0
 40
1.0
 40
1.0
 10
168.1127715463928
 20
275.1682185929595
 30
0.0
 10
168.3850382334042
 20
275.9464535914343
 30
0.0
 10
168.5593535337841
 20
276.7371919875062
 30
0.0
 10
168.5593535337841
 20
277.5501815592092
 30
0.0
  0
LINE
  5
13E
330
1F
100
AcDbEntity
  8
0
  6
Continuous
 62
     7
370
    25
100
AcDbLine
 10
164.5593535338
 20
275.168218593
 30
0.0
 11
168.1127715464
 21
275.168218593
 31
0.0
  0
LINE
  5
13F
330
1F
100
AcDbEntity
  8
0
  6
Continuous
 62
     7
370
    25
100
AcDbLine
 10
168.1127715464
 20
279.9321445255
 30
0.0
 11
164.5593535338
 21
279.9321445255
 31
0.0
  0
SPLINE
  5
140
330
1F
100
AcDbEntity
  8
0
  6
Continuous
 62
     7
370
    25
100
AcDbSpline
210
0.0
220
0.0
230
1.0
 70
     8
 71
     3
 72
     8
 73
     4
 74
     0
 42
0.000000001
 43
0.00000001
 40
0.0
 40
0.0
 40
0.0
 40
0.0
 40
1.0
 40
1.0
 40
1.0
 40
1.0
 10
168.5593535337841
 20
282.5354607141558
 30
0.0
 10
168.5593535337841
 20
283.4240005207116
 30
0.0
 10
168.3850382334047
 20
284.2882213741306
 30
0.0
 10
168.1127715463928
 20
285.1387769028457
 30
0.0
  0
SPLINE
  5
141
330
1F
100
AcDbEntity
  8
0
  6
Continuous
 62
     7
370
    25
100
AcDbSpline
210
0.0
220
0.0
230
1.0
 70
     8
 71
     3
 72
     8
 73
     4
 74
     0
 42
0.000000001
 43
0.00000001
 40
0.0
 40
0.0
 40
0.0
 40
0.0
 40
1.0
 40
1.0
 40
1.0
 40
1.0
 10
168.1127715463928
 20
279.9321445254657
 30
0.0
 10
168.3850382334043
 20
280.7827000541795
 30
0.0
 10
168.5593535337841
 20
281.6469209076012
 30
0.0
 10
168.5593535337841
 20
282.5354607141558
 30
0.0
  0
LINE
  5
142
330
1F
100
AcDbEntity
  8
0
  6
Continuous
 62
     7
370
    25
100
AcDbLine
 10
164.5593535338
 20
285.1387769028
 30
0.0
 11
168.1127715464
 21
285.1387769028
 31
0.0
  0
LINE
  5
143
330
1F
100
AcDbEntity
  8
0
  6
Continuous
 62
     7
370
    25
100
AcDbLine
 10
168.5593535338
 20
277.5501815592
 30
0.0
 11
168.5593535338
 21
282.5354607142
 31
0.0
  0
SPLINE
  5
144
330
1F
100
AcDbEntity
  8
0
  6
Continuous
 62
     7
370
    25
100
AcDbSpline
210
0.0
220
0.0
230
1.0
 70
     8
 71
     3
 72
     8
 73
     4
 74
     0
 42
0.000000001
 43
0.00000001
 40
0.0
 40
0.0
 40
0.0
 40
0.0
 40
1.0
 40
1.0
 40
1.0
 40
1.0
 10
168.1127715463929
 20
285.1387769028494
 30
0.0
 10
168.3850382334043
 20
285.2110974330881
 30
0.0
 10
168.5593535337842
 20
285.2845798904386
 30
0.0
 10
168.5593535337842
 20
285.3601301252898
 30
0.0
  0
LINE
  5
145
330
1F
100
AcDbEntity
  8
0
  6
Continuous
 62
     7
370
    25
100
AcDbLine
 10
168.5593535338
 20
282.5354607142
 30
0.0
 11
168.5593535338
 21
285.3601301253
 31
0.0
  0
SPLINE
  5
146
330
1F
100
AcDbEntity
  8
0
  6
Continuous
 62
     7
370
    25
100
AcDbSpline
210
0.0
220
0.0
230
1.0
 70
     8
 71
     3
 72
     8
 73
     4
 74
     0
 42
0.000000001
 43
0.00000001
 40
0.0
 40
0.0
 40
0.0
 40
0.0
 40
1.0
 40
1.0
 40
1.0
 40
1.0
 10
168.5593535337842
 20
275.3895718153971
 30
0.0
 10
168.5593535337842
 20
275.3140215805458
 30
0.0
 10
168.3850382334048
 20
275.2405391231956
 30
0.0
 10
168.1127715463929
 20
275.1682185929567
 30
0.0
  0
LINE
  5
147
330
1F
100
AcDbEntity
  8
0
  6
Continuous
 62
     7
370
    25
100
AcDbLine
 10
168.5593535338
 20
277.5501815592
 30
0.0
 11
168.5593535338
 21
275.3821784766
 31
0.0
  0
SPLINE
  5
148
330
1F
100
AcDbEntity
  8
0
  6
Continuous
 62
     7
370
    25
100
AcDbSpline
210
0.0
220
0.0
230
1.0
 70
     8
 71
     3
 72
     8
 73
     4
 74
     0
 42
0.000000001
 43
0.00000001
 40
0.0
 40
0.0
 40
0.0
 40
0.0
 40
1.0
 40
1.0
 40
1.0
 40
1.0
 10
168.5593535337842
 20
285.3601301252898
 30
0.0
 10
168.5593535337842
 20
285.4356803601412
 30
0.0
 10
168.3850382334048
 20
285.5091628174914
 30
0.0
 10
168.1127715463928
 20
285.5814833477303
 30
0.0
  0
LINE
  5
149
330
1F
100
AcDbEntity
  8
0
  6
Continuous
 62
     7
370
    25
100
AcDbLine
 10
164.5593535338
 20
285.5814833477
 30
0.0
 11
168.1127715464
 21
285.5814833477
 31
0.0
  0
LINE
  5
14A
330
1F
100
AcDbEntity
  8
0
  6
Continuous
 62
     7
370
    25
100
AcDbLine
 10
153.5593535338
 20
282.8336009704
 30
0.0
 11
153.5593535338
 21
277.9161009703
 31
0.0
  0
LINE
  5
14B
330
1F
100
AcDbEntity
  8
0
  6
Continuous
 62
     7
370
    25
100
AcDbLine
 10
154.1006035338
 20
281.6712168166
 30
0.0
 11
154.1006035338
 21
277.3748509703
 31
0.0
  0
LINE
  5
14C
330
1F
100
AcDbEntity
  8
0
  6
Continuous
 62
     7
370
    25
100
AcDbLine
 10
154.1006035338
 20
283.3748509704
 30
0.0
 11
154.1006035338
 21
281.6712168166
 31
0.0
  0
LINE
  5
14D
330
1F
100
AcDbEntity
  8
0
  6
Continuous
 62
     7
370
    25
100
AcDbLine
 10
788.3318491196
 20
251.5962242982
 30
0.0
 11
788.6947868979
 21
252.2248509703
 31
0.0
  0
LINE
  5
14E
330
1F
100
AcDbEntity
  8
0
  6
Continuous
 62
     7
370
    25
100
AcDbLine
 10
788.6947868979
 20
258.5248509703
 30
0.0
 11
788.3318491196
 21
259.1534776424
 31
0.0
  0
ARC
  5
14F
330
1F
100
AcDbEntity
  8
0
  6
Continuous
 62
     7
370
    25
100
AcDbCircle
 10
785.4665836677
 20
255.3748509703
 30
0.0
 40
8.00000000000006
100
AcDbArc
 50
330.0
 51
344.7252520003
  0
ARC
  5
150
330
1F
100
AcDbEntity
  8
0
  6
Continuous
 62
     7
370
    25
100
AcDbCircle
 10
785.4665836677
 20
255.3748509703
 30
0.0
 40
8.000000000000053
100
AcDbArc
 50
15.2747479997
 51
30.0
  0
LINE
  5
151
330
1F
100
AcDbEntity
  8
0
  6
Continuous
 62
     7
370
    25
100
AcDbLine
 10
790.3947868979
 20
251.3748509703
 30
0.0
 11
792.3947868979
 21
251.3748509703
 31
0.0
  0
LINE
  5
152
330
1F
100
AcDbEntity
  8
0
  6
Continuous
 62
     7
370
    25
100
AcDbLine
 10
792.3947868979
 20
259.3748509703
 30
0.0
 11
790.3947868979
 21
259.3748509703
 31
0.0
  0
LINE
  5
153
330
1F
100
AcDbEntity
  8
0
  6
Continuous
 62
     7
370
    25
100
AcDbLine
 10
788.6947868979
 20
253.3748509703
 30
0.0
 11
788.7947868979
 21
253.3748509703
 31
0.0
  0
LINE
  5
154
330
1F
100
AcDbEntity
  8
0
  6
Continuous
 62
     7
370
    25
100
AcDbLine
 10
788.7947868979
 20
257.3748509703
 30
0.0
 11
788.6947868979
 21
257.3748509703
 31
0.0
  0
LINE
  5
155
330
1F
100
AcDbEntity
  8
0
  6
Continuous
 62
     7
370
    25
100
AcDbLine
 10
795.6947868979
 20
250.9041402922
 30
0.0
 11
795.6947868979
 21
207.8455616485
 31
0.0
  0
LINE
  5
156
330
1F
100
AcDbEntity
  8
0
  6
Continuous
 62
     7
370
    25
100
AcDbLine
 10
805.2947868979
 20
207.8455616485
 30
0.0
 11
795.6947868979
 21
207.8455616485
 31
0.0
  0
LINE
  5
157
330
1F
100
AcDbEntity
  8
0
  6
Continuous
 62
     7
370
    25
100
AcDbLine
 10
805.2947868979
 20
250.9041402922
 30
0.0
 11
795.6947868979
 21
250.9041402922
 31
0.0
  0
SPLINE
  5
158
330
1F
100
AcDbEntity
  8
0
  6
Continuous
 62
     7
370
    25
100
AcDbSpline
210
0.0
220
0.0
230
1.0
 70
     8
 71
     3
 72
    20
 73
    16
 74
     0
 42
0.000000001
 43
0.00000001
 40
0.0
 40
0.0
 40
0.0
 40
0.0
 40
0.125
 40
0.125
 40
0.25
 40
0.25
 40
0.375
 40
0.375
 40
0.5
 40
0.5
 40
0.75
 40
0.75
 40
0.875
 40
0.875
 40
1.0
 40
1.0
 40
1.0
 40
1.0
 10
805.2947868979279
 20
250.9041402922231
 30
0.0
 10
805.4531660855786
 20
250.8650995613685
 30
0.0
 10
805.6094118102702
 20
250.8265808571688
 30
0.0
 10
805.9174036596869
 20
250.7491741058608
 30
0.0
 10
806.070047767158
 20
250.7100296878741
 30
0.0
 10
806.3591320563452
 20
250.632878933959
 30
0.0
 10
806.4969365945292
 20
250.5945513522179
 30
0.0
 10
806.758555270168
 20
250.5170050317413
 30
0.0
 10
806.8813015768507
 20
250.4780288240727
 30
0.0
 10
807.2126259537984
 20
250.3625339676277
 30
0.0
 10
807.3916370778265
 20
250.2846215239576
 30
0.0
 10
807.5712521772075
 20
250.1691415985567
 30
0.0
 10
807.6174965260752
 20
250.1302758026916
 30
0.0
 10
807.6792498320864
 20
250.0525014690231
 30
0.0
 10
807.6947868979279
 20
250.0138917020684
 30
0.0
 10
807.6947868979279
 20
249.9748509703417
 30
0.0
  0
LINE
  5
159
330
1F
100
AcDbEntity
  8
0
  6
Continuous
 62
     7
370
    25
100
AcDbLine
 10
807.6947868979
 20
249.9748509703
 30
0.0
 11
807.6947868979
 21
208.7748509703
 31
0.0
  0
SPLINE
  5
15A
330
1F
100
AcDbEntity
  8
0
  6
Continuous
 62
     7
370
    25
100
AcDbSpline
210
0.0
220
0.0
230
1.0
 70
     8
 71
     3
 72
    20
 73
    16
 74
     0
 42
0.000000001
 43
0.00000001
 40
0.0
 40
0.0
 40
0.0
 40
0.0
 40
0.1249999999999906
 40
0.1249999999999906
 40
0.2499999999999811
 40
0.2499999999999811
 40
0.3749999999999717
 40
0.3749999999999717
 40
0.4999999999999623
 40
0.4999999999999623
 40
0.7499999999999731
 40
0.7499999999999731
 40
0.8749999999999866
 40
0.8749999999999866
 40
1.0
 40
1.0
 40
1.0
 40
1.0
 10
807.6947868979279
 20
208.7748509703417
 30
0.0
 10
807.6947868979279
 20
208.7358102394871
 30
0.0
 10
807.679250337453
 20
208.6972915352873
 30
0.0
 10
807.6179319854924
 20
208.6198847839794
 30
0.0
 10
807.5715082399055
 20
208.5807403659927
 30
0.0
 10
807.4515573697515
 20
208.5035896120776
 30
0.0
 10
807.377952725468
 20
208.4652620303365
 30
0.0
 10
807.2032223593724
 20
208.38771570986
 30
0.0
 10
807.1023717304708
 20
208.3487395021913
 30
0.0
 10
806.7710864504869
 20
208.2332446457463
 30
0.0
 10
806.5034062891029
 20
208.1553322020762
 30
0.0
 10
806.0707322630476
 20
208.0398522766753
 30
0.0
 10
805.9192141761965
 20
208.0009864808102
 30
0.0
 10
805.6097884188104
 20
207.9232121471418
 30
0.0
 10
805.4531660891166
 20
207.884602380187
 30
0.0
 10
805.2947868979279
 20
207.8455616484603
 30
0.0
  0
LINE
  5
15B
330
1F
100
AcDbEntity
  8
0
  6
Continuous
 62
     7
370
    25
100
AcDbLine
 10
805.2947868979
 20
206.3748509703
 30
0.0
 11
805.2947868979
 21
207.7748509703
 31
0.0
  0
SPLINE
  5
15C
330
1F
100
AcDbEntity
  8
0
  6
Continuous
 62
     7
370
    25
100
AcDbSpline
210
0.0
220
0.0
230
1.0
 70
     8
 71
     3
 72
     9
 73
     5
 74
     0
 42
0.000000001
 43
0.00000001
 40
0.0
 40
0.0
 40
0.0
 40
0.0
 40
0.7329379507273373
 40
0.9999999999999999
 40
0.9999999999999999
 40
0.9999999999999999
 40
0.9999999999999999
 10
805.2947868979279
 20
207.7748509703418
 30
0.0
 10
805.4461755395838
 20
207.7866056198596
 30
0.0
 10
805.652725959719
 20
207.8026433342473
 30
0.0
 10
805.8080863018375
 20
207.9309806407411
 30
0.0
 10
805.8495771531794
 20
207.9652546648115
 30
0.0
  0
SPLINE
  5
15D
330
1F
100
AcDbEntity
  8
0
  6
Continuous
 62
     7
370
    25
100
AcDbSpline
210
0.0
220
0.0
230
1.0
 70
     8
 71
     3
 72
    20
 73
    16
 74
     0
 42
0.000000001
 43
0.00000001
 40
0.0
 40
0.0
 40
0.0
 40
0.0
 40
0.125
 40
0.125
 40
0.2499999999999999
 40
0.2499999999999999
 40
0.3749999999999999
 40
0.3749999999999999
 40
0.5
 40
0.5
 40
0.75
 40
0.75
 40
0.875
 40
0.875
 40
1.0
 40
1.0
 40
1.0
 40
1.0
 10
805.2947868979279
 20
206.3748509703419
 30
0.0
 10
805.4531660855786
 20
206.3748509703419
 30
0.0
 10
805.6094118102702
 20
206.3903875308167
 30
0.0
 10
805.9174036596868
 20
206.4517058827773
 30
0.0
 10
806.0700477671579
 20
206.4981296283641
 30
0.0
 10
806.3591320563451
 20
206.6180804985182
 30
0.0
 10
806.4969365945291
 20
206.6916851428016
 30
0.0
 10
806.7585552701679
 20
206.8664155088972
 30
0.0
 10
806.8813015768505
 20
206.9672661377988
 30
0.0
 10
807.2126259537982
 20
207.2985514177827
 30
0.0
 10
807.3916370778264
 20
207.5662315791665
 30
0.0
 10
807.5712521772074
 20
207.9989056052219
 30
0.0
 10
807.6174965260751
 20
208.150423692073
 30
0.0
 10
807.6792498320864
 20
208.4598494494591
 30
0.0
 10
807.6947868979279
 20
208.6164717791528
 30
0.0
 10
807.6947868979279
 20
208.7748509703415
 30
0.0
  0
SPLINE
  5
15E
330
1F
100
AcDbEntity
  8
0
  6
Continuous
 62
     7
370
    25
100
AcDbSpline
210
0.0
220
0.0
230
1.0
 70
     8
 71
     3
 72
    20
 73
    16
 74
     0
 42
0.000000001
 43
0.00000001
 40
0.0
 40
0.0
 40
0.0
 40
0.0
 40
0.1249999999999986
 40
0.1249999999999986
 40
0.2499999999999971
 40
0.2499999999999971
 40
0.3749999999999957
 40
0.3749999999999957
 40
0.4999999999999942
 40
0.4999999999999942
 40
0.7500000000000018
 40
0.7500000000000018
 40
0.8750000000000009
 40
0.8750000000000009
 40
1.0
 40
1.0
 40
1.0
 40
1.0
 10
807.6947868979279
 20
249.9748509703417
 30
0.0
 10
807.6947868979279
 20
250.1332301579924
 30
0.0
 10
807.679250337453
 20
250.2894758826841
 30
0.0
 10
807.6179319854924
 20
250.5974677321007
 30
0.0
 10
807.5715082399056
 20
250.7501118395718
 30
0.0
 10
807.4515573697515
 20
251.0391961287589
 30
0.0
 10
807.377952725468
 20
251.1770006669429
 30
0.0
 10
807.2032223593725
 20
251.4386193425818
 30
0.0
 10
807.1023717304708
 20
251.5613656492646
 30
0.0
 10
806.771086450487
 20
251.8926900262122
 30
0.0
 10
806.503406289103
 20
252.0717011502405
 30
0.0
 10
806.0707322630477
 20
252.2513162496213
 30
0.0
 10
805.9192141761965
 20
252.2975605984891
 30
0.0
 10
805.6097884188104
 20
252.3593139045003
 30
0.0
 10
805.4531660891166
 20
252.3748509703417
 30
0.0
 10
805.2947868979279
 20
252.3748509703417
 30
0.0
  0
SPLINE
  5
15F
330
1F
100
AcDbEntity
  8
0
  6
Continuous
 62
     7
370
    25
100
AcDbSpline
210
0.0
220
0.0
230
1.0
 70
     8
 71
     3
 72
     9
 73
     5
 74
     0
 42
0.000000001
 43
0.00000001
 40
0.0
 40
0.0
 40
0.0
 40
0.0
 40
0.4825784287292678
 40
1.0
 40
1.0
 40
1.0
 40
1.0
 10
805.9073266371059
 20
250.7510212022881
 30
0.0
 10
805.8191922957895
 20
250.8148293953495
 30
0.0
 10
805.6365601347366
 20
250.9470528625887
 30
0.0
 10
805.4113272506921
 20
250.9653721670452
 30
0.0
 10
805.2947868979279
 20
250.9748509703417
 30
0.0
  0
LINE
  5
160
330
1F
100
AcDbEntity
  8
0
  6
Continuous
 62
     7
370
    25
100
AcDbLine
 10
805.2947868979
 20
252.3748509703
 30
0.0
 11
805.2947868979
 21
250.9748509703
 31
0.0
  0
LINE
  5
161
330
1F
100
AcDbEntity
  8
0
  6
Continuous
 62
     7
370
    25
100
AcDbLine
 10
795.6947868979
 20
252.3748509703
 30
0.0
 11
795.6947868979
 21
250.9748509703
 31
0.0
  0
LINE
  5
162
330
1F
100
AcDbEntity
  8
0
  6
Continuous
 62
     7
370
    25
100
AcDbLine
 10
805.2947868979
 20
252.3748509703
 30
0.0
 11
795.6947868979
 21
252.3748509703
 31
0.0
  0
LINE
  5
163
330
1F
100
AcDbEntity
  8
0
  6
Continuous
 62
     7
370
    25
100
AcDbLine
 10
805.2947868979
 20
250.9748509703
 30
0.0
 11
795.6947868979
 21
250.9748509703
 31
0.0
  0
LINE
  5
164
330
1F
100
AcDbEntity
  8
0
  6
Continuous
 62
     7
370
    25
100
AcDbLine
 10
805.2947868979
 20
206.3748509703
 30
0.0
 11
795.6947868979
 21
206.3748509703
 31
0.0
  0
LINE
  5
165
330
1F
100
AcDbEntity
  8
0
  6
Continuous
 62
     7
370
    25
100
AcDbLine
 10
795.6947868979
 20
206.3748509703
 30
0.0
 11
795.6947868979
 21
207.7748509703
 31
0.0
  0
LINE
  5
166
330
1F
100
AcDbEntity
  8
0
  6
Continuous
 62
     7
370
    25
100
AcDbLine
 10
805.2947868979
 20
207.7748509703
 30
0.0
 11
795.6947868979
 21
207.7748509703
 31
0.0
  0
LINE
  5
167
330
1F
100
AcDbEntity
  8
0
  6
Continuous
 62
     7
370
    25
100
AcDbLine
 10
787.5947868979
 20
266.8748509703
 30
0.0
 11
791.5947868979
 21
266.8748509703
 31
0.0
  0
LINE
  5
168
330
1F
100
AcDbEntity
  8
0
  6
Continuous
 62
     7
370
    25
100
AcDbLine
 10
787.5947868979
 20
249.6748509703
 30
0.0
 11
787.5947868979
 21
266.8748509703
 31
0.0
  0
LINE
  5
169
330
1F
100
AcDbEntity
  8
0
  6
Continuous
 62
     7
370
    25
100
AcDbLine
 10
768.5947868979
 20
283.8748509703
 30
0.0
 11
768.5947868979
 21
249.6748509703
 31
0.0
  0
ARC
  5
16A
330
1F
100
AcDbEntity
  8
0
  6
Continuous
 62
     7
370
    25
100
AcDbCircle
 10
771.5947868979
 20
283.8748509703
 30
0.0
 40
3.0
100
AcDbArc
 50
90.0
 51
180.0
  0
LINE
  5
16B
330
1F
100
AcDbEntity
  8
0
  6
Continuous
 62
     7
370
    25
100
AcDbLine
 10
788.5947868979
 20
286.8748509703
 30
0.0
 11
771.5947868979
 21
286.8748509703
 31
0.0
  0
ARC
  5
16C
330
1F
100
AcDbEntity
  8
0
  6
Continuous
 62
     7
370
    25
100
AcDbCircle
 10
788.5947868979
 20
283.8748509703
 30
0.0
 40
3.0
100
AcDbArc
 50
0.0
 51
90.0
  0
LINE
  5
16D
330
1F
100
AcDbEntity
  8
0
  6
Continuous
 62
     7
370
    25
100
AcDbLine
 10
791.5947868979
 20
266.8748509703
 30
0.0
 11
791.5947868979
 21
283.8748509703
 31
0.0
  0
CIRCLE
  5
16E
330
1F
100
AcDbEntity
  8
0
  6
Continuous
 62
     7
370
    25
100
AcDbCircle
 10
777.0947868979
 20
280.3748509703
 30
0.0
 40
3.25
  0
CIRCLE
  5
16F
330
1F
100
AcDbEntity
  8
0
  6
Continuous
 62
     7
370
    25
100
AcDbCircle
 10
777.0947868979
 20
255.3748509703
 30
0.0
 40
3.250000000000028
  0
LINE
  5
170
330
1F
100
AcDbEntity
  8
0
  6
Continuous
 62
     7
370
    25
100
AcDbLine
 10
768.5947868979
 20
247.8748509703
 30
0.0
 11
768.5947868979
 21
249.6748509703
 31
0.0
  0
LINE
  5
171
330
1F
100
AcDbEntity
  8
0
  6
Continuous
 62
     7
370
    25
100
AcDbLine
 10
787.5947868979
 20
249.6748509703
 30
0.0
 11
787.5947868979
 21
247.8748509703
 31
0.0
  0
LINE
  5
172
330
1F
100
AcDbEntity
  8
0
  6
Continuous
 62
     7
370
    25
100
AcDbLine
 10
787.5947868979
 20
247.8748509703
 30
0.0
 11
768.5947868979
 21
247.8748509703
 31
0.0
  0
LINE
  5
173
330
1F
100
AcDbEntity
  8
0
  6
Continuous
 62
     7
370
    25
100
AcDbLine
 10
787.5947868979
 20
248.6748509703
 30
0.0
 11
787.7947868979
 21
248.6748509703
 31
0.0
  0
LINE
  5
174
330
1F
100
AcDbEntity
  8
0
  6
Continuous
 62
     7
370
    25
100
AcDbLine
 10
787.5947868979
 20
247.8748509703
 30
0.0
 11
787.7947868979
 21
247.8748509703
 31
0.0
  0
ARC
  5
175
330
1F
100
AcDbEntity
  8
0
  6
Continuous
 62
     7
370
    25
100
AcDbCircle
 10
787.7947868979
 20
249.6748509703
 30
0.0
 40
1.799999999999983
100
AcDbArc
 50
270.0
 51
0.0
  0
ARC
  5
176
330
1F
100
AcDbEntity
  8
0
  6
Continuous
 62
     7
370
    25
100
AcDbCircle
 10
787.7947868979
 20
249.6748509703
 30
0.0
 40
1.0
100
AcDbArc
 50
270.0
 51
0.0
  0
LINE
  5
177
330
1F
100
AcDbEntity
  8
0
  6
Continuous
 62
     7
370
    25
100
AcDbLine
 10
788.7947868979
 20
259.8748509703
 30
0.0
 11
788.7947868979
 21
249.6748509703
 31
0.0
  0
LINE
  5
178
330
1F
100
AcDbEntity
  8
0
  6
Continuous
 62
     7
370
    25
100
AcDbLine
 10
789.5947868979
 20
259.8748509703
 30
0.0
 11
788.7947868979
 21
259.8748509703
 31
0.0
  0
LINE
  5
179
330
1F
100
AcDbEntity
  8
0
  6
Continuous
 62
     7
370
    25
100
AcDbLine
 10
744.5947868979
 20
247.8748509703
 30
0.0
 11
744.5947868979
 21
248.6748509703
 31
0.0
  0
LINE
  5
17A
330
1F
100
AcDbEntity
  8
0
  6
Continuous
 62
     7
370
    25
100
AcDbLine
 10
744.5947868979
 20
248.6748509703
 30
0.0
 11
747.5947868979
 21
248.6748509703
 31
0.0
  0
LINE
  5
17B
330
1F
100
AcDbEntity
  8
0
  6
Continuous
 62
     7
370
    25
100
AcDbLine
 10
747.5947868979
 20
247.8748509703
 30
0.0
 11
744.5947868979
 21
247.8748509703
 31
0.0
  0
LINE
  5
17C
330
1F
100
AcDbEntity
  8
0
  6
Continuous
 62
     7
370
    25
100
AcDbLine
 10
747.5947868979
 20
248.6748509703
 30
0.0
 11
768.5947868979
 21
248.6748509703
 31
0.0
  0
LINE
  5
17D
330
1F
100
AcDbEntity
  8
0
  6
Continuous
 62
     7
370
    25
100
AcDbLine
 10
747.5947868979
 20
247.8748509703
 30
0.0
 11
768.5947868979
 21
247.8748509703
 31
0.0
  0
LINE
  5
17E
330
1F
100
AcDbEntity
  8
0
  6
Continuous
 62
     7
370
    25
100
AcDbLine
 10
748.6901735061
 20
252.0748509703
 30
0.0
 11
745.6901735061
 21
252.0748509703
 31
0.0
  0
LINE
  5
17F
330
1F
100
AcDbEntity
  8
0
  6
Continuous
 62
     7
370
    25
100
AcDbLine
 10
745.6901735061
 20
252.0748509703
 30
0.0
 11
745.6901735061
 21
252.8748509703
 31
0.0
  0
LINE
  5
180
330
1F
100
AcDbEntity
  8
0
  6
Continuous
 62
     7
370
    25
100
AcDbLine
 10
745.6901735061
 20
252.8748509703
 30
0.0
 11
748.6901735061
 21
252.8748509703
 31
0.0
  0
ARC
  5
181
330
1F
100
AcDbEntity
  8
0
  6
Continuous
 62
     7
370
    25
100
AcDbCircle
 10
755.2078649598
 20
251.0748509703
 30
0.0
 40
0.9999999999999514
100
AcDbArc
 50
60.0
 51
90.0
  0
ARC
  5
182
330
1F
100
AcDbEntity
  8
0
  6
Continuous
 62
     7
370
    25
100
AcDbCircle
 10
755.2078649598
 20
251.0748509703
 30
0.0
 40
1.799999999999969
100
AcDbArc
 50
60.0
 51
90.0
  0
LINE
  5
183
330
1F
100
AcDbEntity
  8
0
  6
Continuous
 62
     7
370
    25
100
AcDbLine
 10
762.7327360904
 20
248.8088255666
 30
0.0
 11
756.1078649598
 21
252.6336966972
 31
0.0
  0
LINE
  5
184
330
1F
100
AcDbEntity
  8
0
  6
Continuous
 62
     7
370
    25
100
AcDbLine
 10
761.3647868979
 20
248.6748509703
 30
0.0
 11
755.7078649598
 21
251.9408763741
 31
0.0
  0
LINE
  5
185
330
1F
100
AcDbEntity
  8
0
  6
Continuous
 62
     7
370
    25
100
AcDbLine
 10
748.6901735061
 20
252.8748509703
 30
0.0
 11
755.2078649598
 21
252.8748509703
 31
0.0
  0
LINE
  5
186
330
1F
100
AcDbEntity
  8
0
  6
Continuous
 62
     7
370
    25
100
AcDbLine
 10
748.6901735061
 20
252.0748509703
 30
0.0
 11
755.2078649598
 21
252.0748509703
 31
0.0
  0
ARC
  5
187
330
1F
100
AcDbEntity
  8
0
  6
Continuous
 62
     7
370
    25
100
AcDbCircle
 10
763.2327360904
 20
249.6748509703
 30
0.0
 40
1.000000000000016
100
AcDbArc
 50
240.0
 51
270.0
  0
SPLINE
  5
188
330
1F
100
AcDbEntity
  8
0
  6
Continuous
 62
     7
370
    25
100
AcDbSpline
210
0.0
220
0.0
230
1.0
 70
     8
 71
     3
 72
    12
 73
     8
 74
     0
 42
0.000000001
 43
0.00000001
 40
0.0
 40
0.0
 40
0.0
 40
0.0
 40
0.5000000000000099
 40
0.5000000000000099
 40
0.7500000000000049
 40
0.7500000000000049
 40
1.0
 40
1.0
 40
1.0
 40
1.0
 10
788.1801069125428
 20
251.3844197729149
 30
0.0
 10
788.3706012019663
 20
251.619679565358
 30
0.0
 10
788.4922756150287
 20
251.8584642582085
 30
0.0
 10
788.4929318055599
 20
252.2259557907655
 30
0.0
 10
788.4630978037655
 20
252.3483279854148
 30
0.0
 10
788.354167933658
 20
252.5887116705743
 30
0.0
 10
788.275472746595
 20
252.7074726176359
 30
0.0
 10
788.1801069125423
 20
252.8252490947854
 30
0.0
  0
SPLINE
  5
189
330
1F
100
AcDbEntity
  8
0
  6
Continuous
 62
     7
370
    25
100
AcDbSpline
210
0.0
220
0.0
230
1.0
 70
     8
 71
     3
 72
    14
 73
    10
 74
     0
 42
0.000000001
 43
0.00000001
 40
0.0
 40
0.0
 40
0.0
 40
0.0
 40
0.25
 40
0.25
 40
0.5
 40
0.5
 40
0.75
 40
0.75
 40
1.0
 40
1.0
 40
1.0
 40
1.0
 10
788.1801069125418
 20
256.8156802922123
 30
0.0
 10
788.2749815218525
 20
256.4911740629237
 30
0.0
 10
788.3545864467281
 20
256.1587148405293
 30
0.0
 10
788.4634230616224
 20
255.4921449256211
 30
0.0
 10
788.492746667313
 20
255.1570686683458
 30
0.0
 10
788.4926818855673
 20
254.4827251981181
 30
0.0
 10
788.462525692241
 20
254.1409457774392
 30
0.0
 10
788.3529404908752
 20
253.4745318578345
 30
0.0
 10
788.2743975170731
 20
253.1477578118817
 30
0.0
 10
788.1801069125418
 20
252.8252490947854
 30
0.0
  0
SPLINE
  5
18A
330
1F
100
AcDbEntity
  8
0
  6
Continuous
 62
     7
370
    25
100
AcDbSpline
210
0.0
220
0.0
230
1.0
 70
     8
 71
     3
 72
    12
 73
     8
 74
     0
 42
0.000000001
 43
0.00000001
 40
0.0
 40
0.0
 40
0.0
 40
0.0
 40
0.4999999999999929
 40
0.4999999999999929
 40
0.7499999999999964
 40
0.7499999999999964
 40
1.0
 40
1.0
 40
1.0
 40
1.0
 10
788.1801069125428
 20
256.8156802922122
 30
0.0
 10
788.3706012019663
 20
257.2319813758667
 30
0.0
 10
788.4922756150287
 20
257.6545199038551
 30
0.0
 10
788.4929318055599
 20
258.304810043316
 30
0.0
 10
788.4630978037655
 20
258.5213522612304
 30
0.0
 10
788.354167933658
 20
258.9467202664707
 30
0.0
 10
788.2754727465951
 20
259.1568722454559
 30
0.0
 10
788.1801069125423
 20
259.3652821677687
 30
0.0
  0
LINE
  5
18B
330
1F
100
AcDbEntity
  8
0
  6
Continuous
 62
     7
370
    25
100
AcDbLine
 10
788.1801069125
 20
259.3652821678
 30
0.0
 11
788.2779819498
 21
259.1223774175
 31
0.0
  0
LINE
  5
18C
330
1F
100
AcDbEntity
  8
0
  6
Continuous
 62
     7
370
    25
100
AcDbLine
 10
788.6947868979
 20
254.8759033212
 30
0.0
 11
788.6947868979
 21
252.2248509703
 31
0.0
  0
LINE
  5
18D
330
1F
100
AcDbEntity
  8
0
  6
Continuous
 62
     7
370
    25
100
AcDbLine
 10
788.6947868979
 20
258.5248509703
 30
0.0
 11
788.6947868979
 21
254.8759033212
 31
0.0
  0
LINE
  5
18E
330
1F
100
AcDbEntity
  8
0
  6
Continuous
 62
     7
370
    25
100
AcDbLine
 10
787.5947868979
 20
256.8156802922
 30
0.0
 11
788.1801069125
 21
256.8156802922
 31
0.0
  0
LINE
  5
18F
330
1F
100
AcDbEntity
  8
0
  6
Continuous
 62
     7
370
    25
100
AcDbLine
 10
787.5947868979
 20
252.8252490948
 30
0.0
 11
788.1801069125
 21
252.8252490948
 31
0.0
  0
LINE
  5
190
330
1F
100
AcDbEntity
  8
0
  6
Continuous
 62
     7
370
    25
100
AcDbLine
 10
787.5947868979
 20
259.3652821678
 30
0.0
 11
788.1801069125
 21
259.3652821678
 31
0.0
  0
LINE
  5
191
330
1F
100
AcDbEntity
  8
0
  6
Continuous
 62
     7
370
    25
100
AcDbLine
 10
787.5947868979
 20
251.3844197729
 30
0.0
 11
788.1801069125
 21
251.3844197729
 31
0.0
  0
LINE
  5
192
330
1F
100
AcDbEntity
  8
0
  6
Continuous
 62
     7
370
    25
100
AcDbLine
 10
791.3947868979
 20
245.3748509703
 30
0.0
 11
791.3947868979
 21
246.1748509703
 31
0.0
  0
LINE
  5
193
330
1F
100
AcDbEntity
  8
0
  6
Continuous
 62
     7
370
    25
100
AcDbLine
 10
795.6947868979
 20
246.1748509703
 30
0.0
 11
791.3947868979
 21
246.1748509703
 31
0.0
  0
LINE
  5
194
330
1F
100
AcDbEntity
  8
0
  6
Continuous
 62
     7
370
    25
100
AcDbLine
 10
795.6947868979
 20
245.3748509703
 30
0.0
 11
791.3947868979
 21
245.3748509703
 31
0.0
  0
LINE
  5
195
330
1F
100
AcDbEntity
  8
0
  6
Continuous
 62
     7
370
    25
100
AcDbLine
 10
796.1447868979
 20
263.6748509703
 30
0.0
 11
801.2947868979
 21
263.6748509703
 31
0.0
  0
LINE
  5
196
330
1F
100
AcDbEntity
  8
0
  6
Continuous
 62
     7
370
    25
100
AcDbLine
 10
796.1447868979
 20
264.4748509703
 30
0.0
 11
796.1447868979
 21
263.6748509703
 31
0.0
  0
LINE
  5
197
330
1F
100
AcDbEntity
  8
0
  6
Continuous
 62
     7
370
    25
100
AcDbLine
 10
796.1447868979
 20
264.4748509703
 30
0.0
 11
801.2947868979
 21
264.4748509703
 31
0.0
  0
LINE
  5
198
330
1F
100
AcDbEntity
  8
0
  6
Continuous
 62
     7
370
    25
100
AcDbLine
 10
801.2947868979
 20
264.4748509703
 30
0.0
 11
801.2947868979
 21
264.5748509703
 31
0.0
  0
LINE
  5
199
330
1F
100
AcDbEntity
  8
0
  6
Continuous
 62
     7
370
    25
100
AcDbLine
 10
791.3947868979
 20
264.5748509703
 30
0.0
 11
801.2947868979
 21
264.5748509703
 31
0.0
  0
LINE
  5
19A
330
1F
100
AcDbEntity
  8
0
  6
Continuous
 62
     7
370
    25
100
AcDbLine
 10
791.3947868979
 20
264.5748509703
 30
0.0
 11
791.3947868979
 21
265.3748509703
 31
0.0
  0
LINE
  5
19B
330
1F
100
AcDbEntity
  8
0
  6
Continuous
 62
     7
370
    25
100
AcDbLine
 10
801.2947868979
 20
265.3748509703
 30
0.0
 11
791.3947868979
 21
265.3748509703
 31
0.0
  0
ARC
  5
19C
330
1F
100
AcDbEntity
  8
0
  6
Continuous
 62
     7
370
    25
100
AcDbCircle
 10
801.2947868979
 20
264.5248509703
 30
0.0
 40
0.8500000000000227
100
AcDbArc
 50
270.0
 51
90.0
  0
ARC
  5
19D
330
1F
100
AcDbEntity
  8
0
  6
Continuous
 62
     7
370
    25
100
AcDbCircle
 10
791.3947868979
 20
263.5748509703
 30
0.0
 40
1.000000000000114
100
AcDbArc
 50
90.0
 51
180.0
  0
LINE
  5
19E
330
1F
100
AcDbEntity
  8
0
  6
Continuous
 62
     7
370
    25
100
AcDbLine
 10
789.5947868979
 20
247.1748509703
 30
0.0
 11
789.5947868979
 21
263.5748509703
 31
0.0
  0
ARC
  5
19F
330
1F
100
AcDbEntity
  8
0
  6
Continuous
 62
     7
370
    25
100
AcDbCircle
 10
791.3947868979
 20
263.5748509703
 30
0.0
 40
1.799999999999955
100
AcDbArc
 50
90.0
 51
180.0
  0
ARC
  5
1A0
330
1F
100
AcDbEntity
  8
0
  6
Continuous
 62
     7
370
    25
100
AcDbCircle
 10
791.3947868979
 20
247.1748509703
 30
0.0
 40
1.000000000000057
100
AcDbArc
 50
180.0
 51
270.0
  0
ARC
  5
1A1
330
1F
100
AcDbEntity
  8
0
  6
Continuous
 62
     7
370
    25
100
AcDbCircle
 10
791.3947868979
 20
247.1748509703
 30
0.0
 40
1.800000000000182
100
AcDbArc
 50
180.0
 51
270.0
  0
LINE
  5
1A2
330
1F
100
AcDbEntity
  8
0
  6
Continuous
 62
     7
370
    25
100
AcDbLine
 10
790.3947868979
 20
263.5748509703
 30
0.0
 11
790.3947868979
 21
247.1748509703
 31
0.0
  0
CIRCLE
  5
1A3
330
1F
100
AcDbEntity
  8
0
  6
Continuous
 62
     7
370
    25
100
AcDbCircle
 10
777.0947868979
 20
255.3748509703
 30
0.0
 40
2.458750000016678
  0
CIRCLE
  5
1A4
330
1F
100
AcDbEntity
  8
0
  6
Continuous
 62
     7
370
    25
100
AcDbCircle
 10
777.0947868979
 20
255.3748509703
 30
0.0
 40
3.000000000000039
  0
ARC
  5
1A5
330
1F
100
AcDbEntity
  8
0
  6
Continuous
 62
     7
370
    25
100
AcDbCircle
 10
785.6578070002
 20
255.2789129505
 30
0.0
 40
7.78628841509699
100
AcDbArc
 50
4.3702527064
 51
15.2299003794
  0
ARC
  5
1A6
330
1F
100
AcDbEntity
  8
0
  6
Continuous
 62
     7
370
    25
100
AcDbCircle
 10
792.8970634638
 20
256.1853665528
 30
0.0
 40
0.6107675350089786
100
AcDbArc
 50
296.6101963367
 51
329.1575418586
  0
ARC
  5
1A7
330
1F
100
AcDbEntity
  8
0
  6
Continuous
 62
     7
370
    25
100
AcDbCircle
 10
784.0910013223
 20
255.0468694577
 30
0.0
 40
9.09894271018199
100
AcDbArc
 50
356.2668736477
 51
3.7331263523
  0
ARC
  5
1A8
330
1F
100
AcDbEntity
  8
0
  6
Continuous
 62
     7
370
    25
100
AcDbCircle
 10
792.8970634638
 20
255.000515768
 30
0.0
 40
0.610767535008165
100
AcDbArc
 50
296.6101963366
 51
329.1575418587
  0
ARC
  5
1A9
330
1F
100
AcDbEntity
  8
0
  6
Continuous
 62
     7
370
    25
100
AcDbCircle
 10
785.6578070002
 20
255.2807136953
 30
0.0
 40
7.786288415096535
100
AcDbArc
 50
344.7700996206
 51
355.6297472936
  0
ARC
  5
1AA
330
1F
100
AcDbEntity
  8
0
  6
Continuous
 62
     7
370
    25
100
AcDbCircle
 10
793.0375531193
 20
253.3092485935
 30
0.0
 40
0.1522432420590829
100
AcDbArc
 50
330.9451665852
 51
359.1449116562
  0
LWPOLYLINE
  5
1AB
330
1F
100
AcDbEntity
  8
0
  6
Continuous
 62
     7
370
    25
100
AcDbPolyline
 90
        3
 70
   128
 43
0.0
 10
793.4214563882
 20
254.8774632254
 10
793.4052315395
 20
254.6937648966
 10
793.4045893965
 20
254.6873879305
  0
ARC
  5
1AC
330
1F
100
AcDbEntity
  8
0
  6
Continuous
 62
     7
370
    25
100
AcDbCircle
 10
792.8970634638
 20
254.5643353879
 30
0.0
 40
0.61076753500856
100
AcDbArc
 50
30.8424581413
 51
63.3898036633
  0
ARC
  5
1AD
330
1F
100
AcDbEntity
  8
0
  6
Continuous
 62
     7
370
    25
100
AcDbCircle
 10
784.0141295419
 20
255.7058483392
 30
0.0
 40
9.175815044047305
100
AcDbArc
 50
357.9327321271
 51
359.6562101043
  0
ARC
  5
1AE
330
1F
100
AcDbEntity
  8
0
  6
Continuous
 62
     7
370
    25
100
AcDbCircle
 10
785.6578070002
 20
255.4689882454
 30
0.0
 40
7.786288415093677
100
AcDbArc
 50
4.3702527064
 51
15.2299003794
  0
ARC
  5
1AF
330
1F
100
AcDbEntity
  8
0
  6
Continuous
 62
     7
370
    25
100
AcDbCircle
 10
792.9495153329
 20
257.4193520867
 30
0.0
 40
0.2406805056705077
100
AcDbArc
 50
336.7420981703
 51
23.2579018297
  0
LINE
  5
1B0
330
1F
100
AcDbEntity
  8
0
  6
Continuous
 62
     7
370
    25
100
AcDbLine
 10
792.3947868979
 20
259.3243535864
 30
0.0
 11
792.3947868979
 21
259.3748509703
 31
0.0
  0
LINE
  5
1B1
330
1F
100
AcDbEntity
  8
0
  6
Continuous
 62
     7
370
    25
100
AcDbLine
 10
792.3947868979
 20
251.3748509703
 30
0.0
 11
792.3947868979
 21
259.3243535864
 31
0.0
  0
LINE
  5
1B2
330
1F
100
AcDbEntity
  8
0
  6
Continuous
 62
     7
370
    25
100
AcDbLine
 10
793.4214563882
 20
254.6873879305
 30
0.0
 11
793.1829007303
 21
254.6873879305
 31
0.0
  0
LINE
  5
1B3
330
1F
100
AcDbEntity
  8
0
  6
Continuous
 62
     7
370
    25
100
AcDbLine
 10
793.4214563882
 20
256.0623140102
 30
0.0
 11
793.4045893965
 21
256.0623140102
 31
0.0
  0
LINE
  5
1B4
330
1F
100
AcDbEntity
  8
0
  6
Continuous
 62
     7
370
    25
100
AcDbLine
 10
793.4214563882
 20
254.8774632254
 30
0.0
 11
793.1884060718
 21
254.8774632254
 31
0.0
  0
ARC
  5
1B5
330
1F
100
AcDbEntity
  8
0
  6
Continuous
 62
     7
370
    25
100
AcDbCircle
 10
771.1362980087
 20
216.6303241467
 30
0.0
 40
1.942508566655476
100
AcDbArc
 50
181.8362067977
 51
271.7254354149
  0
LINE
  5
1B6
330
1F
100
AcDbEntity
  8
0
  6
Continuous
 62
     7
370
    25
100
AcDbLine
 10
769.1947868979
 20
216.5680815709
 30
0.0
 11
769.1947868979
 21
221.7091578077
 31
0.0
  0
LINE
  5
1B7
330
1F
100
AcDbEntity
  8
0
  6
Continuous
 62
     7
370
    25
100
AcDbLine
 10
785.1947868979
 20
221.7091578077
 30
0.0
 11
785.1947868979
 21
216.5680815709
 31
0.0
  0
ARC
  5
1B8
330
1F
100
AcDbEntity
  8
0
  6
Continuous
 62
     7
370
    25
100
AcDbCircle
 10
783.2532757871
 20
216.6303241467
 30
0.0
 40
1.942508566655241
100
AcDbArc
 50
268.2745645851
 51
358.1637932023
  0
LINE
  5
1B9
330
1F
100
AcDbEntity
  8
0
  6
Continuous
 62
     7
370
    25
100
AcDbLine
 10
783.1947868979
 20
214.6886963293
 30
0.0
 11
771.1947868979
 21
214.6886963293
 31
0.0
  0
LINE
  5
1BA
330
1F
100
AcDbEntity
  8
0
  6
Continuous
 62
     7
370
    25
100
AcDbLine
 10
783.1947868979
 20
214.0046560426
 30
0.0
 11
771.1947868979
 21
214.0046560426
 31
0.0
  0
LINE
  5
1BB
330
1F
100
AcDbEntity
  8
0
  6
Continuous
 62
     7
370
    25
100
AcDbLine
 10
769.1947868979
 20
215.8840412842
 30
0.0
 11
769.1947868979
 21
216.5680815709
 31
0.0
  0
ARC
  5
1BC
330
1F
100
AcDbEntity
  8
0
  6
Continuous
 62
     7
370
    25
100
AcDbCircle
 10
771.1362980087
 20
215.9462838601
 30
0.0
 40
1.942508566655438
100
AcDbArc
 50
181.8362067977
 51
271.7254354149
  0
LINE
  5
1BD
330
1F
100
AcDbEntity
  8
0
  6
Continuous
 62
     7
370
    25
100
AcDbLine
 10
785.1947868979
 20
216.5680815709
 30
0.0
 11
785.1947868979
 21
215.8840412842
 31
0.0
  0
ARC
  5
1BE
330
1F
100
AcDbEntity
  8
0
  6
Continuous
 62
     7
370
    25
100
AcDbCircle
 10
783.2532757871
 20
215.9462838601
 30
0.0
 40
1.942508566655242
100
AcDbArc
 50
268.2745645851
 51
358.1637932023
  0
LINE
  5
1BF
330
1F
100
AcDbEntity
  8
0
  6
Continuous
 62
     7
370
    25
100
AcDbLine
 10
785.1947868979
 20
221.7091578077
 30
0.0
 11
785.1947868979
 21
222.0511779511
 31
0.0
  0
LINE
  5
1C0
330
1F
100
AcDbEntity
  8
0
  6
Continuous
 62
     7
370
    25
100
AcDbLine
 10
769.1947868979
 20
222.0511779511
 30
0.0
 11
769.1947868979
 21
221.7091578077
 31
0.0
  0
LINE
  5
1C1
330
1F
100
AcDbEntity
  8
0
  6
Continuous
 62
     7
370
    25
100
AcDbLine
 10
785.1947868979
 20
221.8748509703
 30
0.0
 11
795.6947868979
 21
221.8748509703
 31
0.0
  0
LINE
  5
1C2
330
1F
100
AcDbEntity
  8
0
  6
Continuous
 62
     7
370
    25
100
AcDbLine
 10
769.1947868979
 20
234.8748509703
 30
0.0
 11
769.1947868979
 21
222.0511779511
 31
0.0
  0
ARC
  5
1C3
330
1F
100
AcDbEntity
  8
0
  6
Continuous
 62
     7
370
    25
100
AcDbCircle
 10
771.1947868979
 20
234.8748509703
 30
0.0
 40
2.0
100
AcDbArc
 50
90.0
 51
180.0
  0
LINE
  5
1C4
330
1F
100
AcDbEntity
  8
0
  6
Continuous
 62
     7
370
    25
100
AcDbLine
 10
795.6947868979
 20
236.8748509703
 30
0.0
 11
771.1947868979
 21
236.8748509703
 31
0.0
  0
CIRCLE
  5
1C5
330
1F
100
AcDbEntity
  8
0
  6
Continuous
 62
     7
370
    25
100
AcDbCircle
 10
777.0947868979
 20
229.3748509703
 30
0.0
 40
3.499999999999886
  0
CIRCLE
  5
1C6
330
1F
100
AcDbEntity
  8
0
  6
Continuous
 62
     7
370
    25
100
AcDbCircle
 10
777.0947868979
 20
280.3748509703
 30
0.0
 40
2.458750000016702
  0
CIRCLE
  5
1C7
330
1F
100
AcDbEntity
  8
0
  6
Continuous
 62
     7
370
    25
100
AcDbCircle
 10
777.0947868979
 20
280.3748509703
 30
0.0
 40
3.000000000000015
  0
CIRCLE
  5
1C8
330
1F
100
AcDbEntity
  8
0
  6
Continuous
 62
     7
370
    25
100
AcDbCircle
 10
777.0947868979
 20
229.3748509703
 30
0.0
 40
2.458750000016599
  0
CIRCLE
  5
1C9
330
1F
100
AcDbEntity
  8
0
  6
Continuous
 62
     7
370
    25
100
AcDbCircle
 10
777.0947868979
 20
229.3748509703
 30
0.0
 40
3.000000000000002
  0
LINE
  5
1CA
330
1F
100
AcDbEntity
  8
0
  6
Continuous
 62
     7
370
    25
100
AcDbLine
 10
176.5972384796
 20
398.3200529832
 30
0.0
 11
177.0972384796
 21
398.8200529832
 31
0.0
  0
LINE
  5
1CB
330
1F
100
AcDbEntity
  8
0
  6
Continuous
 62
     7
370
    25
100
AcDbLine
 10
177.0972384796
 20
398.8200529832
 30
0.0
 11
177.0972384796
 21
402.8200529832
 31
0.0
  0
LINE
  5
1CC
330
1F
100
AcDbEntity
  8
0
  6
Continuous
 62
     7
370
    25
100
AcDbLine
 10
171.3676937953
 20
398.8200529832
 30
0.0
 11
171.8676937953
 21
398.3200529832
 31
0.0
  0
LINE
  5
1CD
330
1F
100
AcDbEntity
  8
0
  6
Continuous
 62
     7
370
    25
100
AcDbLine
 10
171.3676937953
 20
402.8200529832
 30
0.0
 11
171.3676937953
 21
398.8200529832
 31
0.0
  0
LINE
  5
1CE
330
1F
100
AcDbEntity
  8
0
  6
Continuous
 62
     7
370
    25
100
AcDbLine
 10
654.3909008194
 20
398.8200529832
 30
0.0
 11
654.8909008194
 21
398.3200529832
 31
0.0
  0
LINE
  5
1CF
330
1F
100
AcDbEntity
  8
0
  6
Continuous
 62
     7
370
    25
100
AcDbLine
 10
654.3909008194
 20
402.8200529832
 30
0.0
 11
654.3909008194
 21
398.8200529832
 31
0.0
  0
LINE
  5
1D0
330
1F
100
AcDbEntity
  8
0
  6
Continuous
 62
     7
370
    25
100
AcDbLine
 10
659.6229310435
 20
398.3200529832
 30
0.0
 11
660.1229310435
 21
398.8200529832
 31
0.0
  0
LINE
  5
1D1
330
1F
100
AcDbEntity
  8
0
  6
Continuous
 62
     7
370
    25
100
AcDbLine
 10
660.1229310435
 20
398.8200529832
 30
0.0
 11
660.1229310435
 21
402.8200529832
 31
0.0
  0
LINE
  5
1D2
330
1F
100
AcDbEntity
  8
0
  6
Continuous
 62
     7
370
    25
100
AcDbLine
 10
677.4181035338
 20
387.7200529832
 30
0.0
 11
677.2181035338
 21
387.7200529832
 31
0.0
  0
LINE
  5
1D3
330
1F
100
AcDbEntity
  8
0
  6
Continuous
 62
     7
370
    25
100
AcDbLine
 10
677.2181035338
 20
381.7200529832
 30
0.0
 11
677.4181035338
 21
381.7200529832
 31
0.0
  0
LINE
  5
1D4
330
1F
100
AcDbEntity
  8
0
  6
Continuous
 62
     7
370
    25
100
AcDbLine
 10
677.4181035338
 20
381.7200529832
 30
0.0
 11
677.9593535338
 21
382.2613029832
 31
0.0
  0
LINE
  5
1D5
330
1F
100
AcDbEntity
  8
0
  6
Continuous
 62
     7
370
    25
100
AcDbLine
 10
677.9593535338
 20
387.1788029833
 30
0.0
 11
677.4181035338
 21
387.7200529832
 31
0.0
  0
LINE
  5
1D6
330
1F
100
AcDbEntity
  8
0
  6
Continuous
 62
     7
370
    25
100
AcDbLine
 10
154.1006035338
 20
387.7200529832
 30
0.0
 11
153.5593535338
 21
387.1788029833
 31
0.0
  0
LINE
  5
1D7
330
1F
100
AcDbEntity
  8
0
  6
Continuous
 62
     7
370
    25
100
AcDbLine
 10
153.5593535338
 20
382.2613029832
 30
0.0
 11
154.1006035338
 21
381.7200529832
 31
0.0
  0
LINE
  5
1D8
330
1F
100
AcDbEntity
  8
0
  6
Continuous
 62
     7
370
    25
100
AcDbLine
 10
154.1006035338
 20
381.7200529832
 30
0.0
 11
154.3006035338
 21
381.7200529832
 31
0.0
  0
LINE
  5
1D9
330
1F
100
AcDbEntity
  8
0
  6
Continuous
 62
     7
370
    25
100
AcDbLine
 10
154.3006035338
 20
387.7200529832
 30
0.0
 11
154.1006035338
 21
387.7200529832
 31
0.0
  0
ARC
  5
1DA
330
1F
100
AcDbEntity
  8
0
  6
Continuous
 62
     7
370
    25
100
AcDbCircle
 10
667.2593535338
 20
378.9200529831
 30
0.0
 40
0.5000000000001137
100
AcDbArc
 50
180.0
 51
0.0
  0
ARC
  5
1DB
330
1F
100
AcDbEntity
  8
0
  6
Continuous
 62
     7
370
    25
100
AcDbCircle
 10
667.2593535338
 20
390.5200529833
 30
0.0
 40
0.5000000000001137
100
AcDbArc
 50
0.0
 51
180.0
  0
LINE
  5
1DC
330
1F
100
AcDbEntity
  8
0
  6
Continuous
 62
     7
370
    25
100
AcDbLine
 10
662.986934971
 20
390.1142355953
 30
0.0
 11
662.7593535338
 21
389.7200529832
 31
0.0
  0
LINE
  5
1DD
330
1F
100
AcDbEntity
  8
0
  6
Continuous
 62
     7
370
    25
100
AcDbLine
 10
677.2181035338
 20
381.7200529832
 30
0.0
 11
677.7593535338
 21
382.2613029832
 31
0.0
  0
LINE
  5
1DE
330
1F
100
AcDbEntity
  8
0
  6
Continuous
 62
     7
370
    25
100
AcDbLine
 10
677.7593535338
 20
387.1788029833
 30
0.0
 11
677.2181035338
 21
387.7200529832
 31
0.0
  0
LINE
  5
1DF
330
1F
100
AcDbEntity
  8
0
  6
Continuous
 62
     7
370
    25
100
AcDbLine
 10
677.2181035338
 20
387.7200529832
 30
0.0
 11
672.374899922
 21
387.7200529832
 31
0.0
  0
LINE
  5
1E0
330
1F
100
AcDbEntity
  8
0
  6
Continuous
 62
     7
370
    25
100
AcDbLine
 10
672.374899922
 20
381.7200529832
 30
0.0
 11
677.2181035338
 21
381.7200529832
 31
0.0
  0
LINE
  5
1E1
330
1F
100
AcDbEntity
  8
0
  6
Continuous
 62
     7
370
    25
100
AcDbLine
 10
662.7593535338
 20
379.7200529832
 30
0.0
 11
662.986934971
 21
379.3258703712
 31
0.0
  0
LINE
  5
1E2
330
1F
100
AcDbEntity
  8
0
  6
Continuous
 62
     7
370
    25
100
AcDbLine
 10
161.2593535338
 20
407.9200529832
 30
0.0
 11
164.1987412251
 21
407.9200529832
 31
0.0
  0
LINE
  5
1E3
330
1F
100
AcDbEntity
  8
0
  6
Continuous
 62
     7
370
    25
100
AcDbLine
 10
667.3199658425
 20
407.9200529832
 30
0.0
 11
670.2593535338
 21
407.9200529832
 31
0.0
  0
LINE
  5
1E4
330
1F
100
AcDbEntity
  8
0
  6
Continuous
 62
     7
370
    25
100
AcDbLine
 10
155.2593535338
 20
407.9200529832
 30
0.0
 11
161.2593535338
 21
407.9200529832
 31
0.0
  0
LINE
  5
1E5
330
1F
100
AcDbEntity
  8
0
  6
Continuous
 62
     7
370
    25
100
AcDbLine
 10
670.2593535338
 20
407.9200529832
 30
0.0
 11
676.2593535338
 21
407.9200529832
 31
0.0
  0
ARC
  5
1E6
330
1F
100
AcDbEntity
  8
0
  6
Continuous
 62
     7
370
    25
100
AcDbCircle
 10
164.2593535338
 20
390.5200529833
 30
0.0
 40
0.5
100
AcDbArc
 50
0.0
 51
180.0
  0
ARC
  5
1E7
330
1F
100
AcDbEntity
  8
0
  6
Continuous
 62
     7
370
    25
100
AcDbCircle
 10
164.2593535338
 20
378.9200529831
 30
0.0
 40
0.5
100
AcDbArc
 50
180.0
 51
0.0
  0
LINE
  5
1E8
330
1F
100
AcDbEntity
  8
0
  6
Continuous
 62
     7
370
    25
100
AcDbLine
 10
154.3006035338
 20
381.7200529832
 30
0.0
 11
159.1438071456
 21
381.7200529832
 31
0.0
  0
LINE
  5
1E9
330
1F
100
AcDbEntity
  8
0
  6
Continuous
 62
     7
370
    25
100
AcDbLine
 10
159.1438071456
 20
387.7200529832
 30
0.0
 11
154.3006035338
 21
387.7200529832
 31
0.0
  0
LINE
  5
1EA
330
1F
100
AcDbEntity
  8
0
  6
Continuous
 62
     7
370
    25
100
AcDbLine
 10
154.3006035338
 20
387.7200529832
 30
0.0
 11
153.7593535338
 21
387.1788029833
 31
0.0
  0
LINE
  5
1EB
330
1F
100
AcDbEntity
  8
0
  6
Continuous
 62
     7
370
    25
100
AcDbLine
 10
153.7593535338
 20
382.2613029832
 30
0.0
 11
154.3006035338
 21
381.7200529832
 31
0.0
  0
LINE
  5
1EC
330
1F
100
AcDbEntity
  8
0
  6
Continuous
 62
     7
370
    25
100
AcDbLine
 10
168.7593535338
 20
389.7200529832
 30
0.0
 11
168.429870438
 21
390.2907344453
 31
0.0
  0
LINE
  5
1ED
330
1F
100
AcDbEntity
  8
0
  6
Continuous
 62
     7
370
    25
100
AcDbLine
 10
168.429870438
 20
379.1493715212
 30
0.0
 11
168.7593535338
 21
379.7200529832
 31
0.0
  0
ARC
  5
1EE
330
1F
100
AcDbEntity
  8
0
  6
Continuous
 62
     7
370
    25
100
AcDbCircle
 10
161.2593535338
 20
407.3200529832
 30
0.0
 40
3.0
100
AcDbArc
 50
0.0
 51
90.0
  0
LINE
  5
1EF
330
1F
100
AcDbEntity
  8
0
  6
Continuous
 62
     7
370
    25
100
AcDbLine
 10
149.2593535338
 20
410.3200529832
 30
0.0
 11
161.2593535338
 21
410.3200529832
 31
0.0
  0
ARC
  5
1F0
330
1F
100
AcDbEntity
  8
0
  6
Continuous
 62
     7
370
    25
100
AcDbCircle
 10
149.2593535338
 20
407.3200529832
 30
0.0
 40
3.0
100
AcDbArc
 50
90.0
 51
180.0
  0
LINE
  5
1F1
330
1F
100
AcDbEntity
  8
0
  6
Continuous
 62
     7
370
    25
100
AcDbLine
 10
146.2593535338
 20
406.3200529832
 30
0.0
 11
146.2593535338
 21
407.3200529832
 31
0.0
  0
ARC
  5
1F2
330
1F
100
AcDbEntity
  8
0
  6
Continuous
 62
     7
370
    25
100
AcDbCircle
 10
143.2593535338
 20
406.3200529832
 30
0.0
 40
3.0
100
AcDbArc
 50
270.0
 51
0.0
  0
LINE
  5
1F3
330
1F
100
AcDbEntity
  8
0
  6
Continuous
 62
     7
370
    25
100
AcDbLine
 10
119.7300642119
 20
403.3200529832
 30
0.0
 11
143.2593535338
 21
403.3200529832
 31
0.0
  0
LINE
  5
1F4
330
1F
100
AcDbEntity
  8
0
  6
Continuous
 62
     7
370
    25
100
AcDbLine
 10
119.7300642119
 20
412.9200529832
 30
0.0
 11
119.7300642119
 21
403.3200529832
 31
0.0
  0
LINE
  5
1F5
330
1F
100
AcDbEntity
  8
0
  6
Continuous
 62
     7
370
    25
100
AcDbLine
 10
711.7886428557
 20
412.9200529832
 30
0.0
 11
711.7886428557
 21
403.3200529832
 31
0.0
  0
LINE
  5
1F6
330
1F
100
AcDbEntity
  8
0
  6
Continuous
 62
     7
370
    25
100
AcDbLine
 10
688.2593535338
 20
403.3200529832
 30
0.0
 11
711.7886428557
 21
403.3200529832
 31
0.0
  0
ARC
  5
1F7
330
1F
100
AcDbEntity
  8
0
  6
Continuous
 62
     7
370
    25
100
AcDbCircle
 10
688.2593535338
 20
406.3200529832
 30
0.0
 40
3.0
100
AcDbArc
 50
180.0
 51
270.0
  0
LINE
  5
1F8
330
1F
100
AcDbEntity
  8
0
  6
Continuous
 62
     7
370
    25
100
AcDbLine
 10
685.2593535338
 20
406.3200529832
 30
0.0
 11
685.2593535338
 21
407.3200529832
 31
0.0
  0
ARC
  5
1F9
330
1F
100
AcDbEntity
  8
0
  6
Continuous
 62
     7
370
    25
100
AcDbCircle
 10
682.2593535338
 20
407.3200529832
 30
0.0
 40
3.0
100
AcDbArc
 50
0.0
 51
90.0
  0
LINE
  5
1FA
330
1F
100
AcDbEntity
  8
0
  6
Continuous
 62
     7
370
    25
100
AcDbLine
 10
682.2593535338
 20
410.3200529832
 30
0.0
 11
670.2593535338
 21
410.3200529832
 31
0.0
  0
ARC
  5
1FB
330
1F
100
AcDbEntity
  8
0
  6
Continuous
 62
     7
370
    25
100
AcDbCircle
 10
670.2593535338
 20
407.3200529832
 30
0.0
 40
3.0
100
AcDbArc
 50
90.0
 51
180.0
  0
LINE
  5
1FC
330
1F
100
AcDbEntity
  8
0
  6
Continuous
 62
     7
370
    25
100
AcDbLine
 10
667.2593535338
 20
406.3200529832
 30
0.0
 11
667.2593535338
 21
407.3200529832
 31
0.0
  0
ARC
  5
1FD
330
1F
100
AcDbEntity
  8
0
  6
Continuous
 62
     7
370
    25
100
AcDbCircle
 10
664.2593535338
 20
406.3200529832
 30
0.0
 40
3.0
100
AcDbArc
 50
270.0
 51
0.0
  0
LINE
  5
1FE
330
1F
100
AcDbEntity
  8
0
  6
Continuous
 62
     7
370
    25
100
AcDbLine
 10
167.2593535338
 20
403.3200529832
 30
0.0
 11
664.2593535338
 21
403.3200529832
 31
0.0
  0
ARC
  5
1FF
330
1F
100
AcDbEntity
  8
0
  6
Continuous
 62
     7
370
    25
100
AcDbCircle
 10
167.2593535338
 20
406.3200529832
 30
0.0
 40
3.0
100
AcDbArc
 50
180.0
 51
270.0
  0
LINE
  5
200
330
1F
100
AcDbEntity
  8
0
  6
Continuous
 62
     7
370
    25
100
AcDbLine
 10
164.2593535338
 20
406.3200529832
 30
0.0
 11
164.2593535338
 21
407.3200529832
 31
0.0
  0
SPLINE
  5
201
330
1F
100
AcDbEntity
  8
0
  6
Continuous
 62
     7
370
    25
100
AcDbSpline
210
0.0
220
0.0
230
1.0
 70
     8
 71
     3
 72
    20
 73
    16
 74
     0
 42
0.000000001
 43
0.00000001
 40
0.0
 40
0.0
 40
0.0
 40
0.0
 40
0.1249999999999997
 40
0.1249999999999997
 40
0.2499999999999993
 40
0.2499999999999993
 40
0.374999999999999
 40
0.374999999999999
 40
0.4999999999999987
 40
0.4999999999999987
 40
0.7499999999999998
 40
0.7499999999999998
 40
0.8749999999999999
 40
0.8749999999999999
 40
1.0
 40
1.0
 40
1.0
 40
1.0
 10
710.8593535337914
 20
415.3200529832407
 30
0.0
 10
710.8983942646458
 20
415.3200529832408
 30
0.0
 10
710.9369129688456
 20
415.3045164227659
 30
0.0
 10
711.0143197201536
 20
415.2431980708054
 30
0.0
 10
711.0534641381403
 20
415.1967743252185
 30
0.0
 10
711.1306148920555
 20
415.0768234550644
 30
0.0
 10
711.1689424737966
 20
415.003218810781
 30
0.0
 10
711.2464887942731
 20
414.8284884446853
 30
0.0
 10
711.2854650019418
 20
414.7276378157838
 30
0.0
 10
711.4009598583871
 20
414.3963525357998
 30
0.0
 10
711.4788723020569
 20
414.1286723744161
 30
0.0
 10
711.5943522274576
 20
413.6959983483605
 30
0.0
 10
711.6332180233227
 20
413.5444802615095
 30
0.0
 10
711.7109923569911
 20
413.2350545041234
 30
0.0
 10
711.749602123946
 20
413.0784321744296
 30
0.0
 10
711.7886428556727
 20
412.9200529832408
 30
0.0
  0
SPLINE
  5
202
330
1F
100
AcDbEntity
  8
0
  6
Continuous
 62
     7
370
    25
100
AcDbSpline
210
0.0
220
0.0
230
1.0
 70
     8
 71
     3
 72
    20
 73
    16
 74
     0
 42
0.000000001
 43
0.00000001
 40
0.0
 40
0.0
 40
0.0
 40
0.0
 40
0.125
 40
0.125
 40
0.2499999999999999
 40
0.2499999999999999
 40
0.3749999999999999
 40
0.3749999999999999
 40
0.5
 40
0.5
 40
0.75
 40
0.75
 40
0.875
 40
0.875
 40
1.0
 40
1.0
 40
1.0
 40
1.0
 10
119.73006421191
 20
412.9200529832408
 30
0.0
 10
119.7691049427644
 20
413.0784321708915
 30
0.0
 10
119.8076236469643
 20
413.2346778955832
 30
0.0
 10
119.8850303982723
 20
413.5426697449998
 30
0.0
 10
119.9241748162589
 20
413.6953138524709
 30
0.0
 10
120.001325570174
 20
413.9843981416579
 30
0.0
 10
120.0396531519152
 20
414.122202679842
 30
0.0
 10
120.1171994723917
 20
414.3838213554809
 30
0.0
 10
120.1561756800603
 20
414.5065676621635
 30
0.0
 10
120.2716705365054
 20
414.8378920391112
 30
0.0
 10
120.3495829801756
 20
415.0169031631394
 30
0.0
 10
120.4650629055763
 20
415.1965182625203
 30
0.0
 10
120.5039287014415
 20
415.2427626113881
 30
0.0
 10
120.58170303511
 20
415.3045159173993
 30
0.0
 10
120.6203128020648
 20
415.3200529832407
 30
0.0
 10
120.6593535337914
 20
415.3200529832407
 30
0.0
  0
LINE
  5
203
330
1F
100
AcDbEntity
  8
0
  6
Continuous
 62
     7
370
    25
100
AcDbLine
 10
120.6593535338
 20
415.3200529832
 30
0.0
 11
710.8593535338
 21
415.3200529832
 31
0.0
  0
SPLINE
  5
204
330
1F
100
AcDbEntity
  8
0
  6
Continuous
 62
     7
370
    25
100
AcDbSpline
210
0.0
220
0.0
230
1.0
 70
     8
 71
     3
 72
     9
 73
     5
 74
     0
 42
0.000000001
 43
0.00000001
 40
0.0
 40
0.0
 40
0.0
 40
0.0
 40
0.4825784287293271
 40
0.9999999999999999
 40
0.9999999999999999
 40
0.9999999999999999
 40
0.9999999999999999
 10
119.8831833018451
 20
413.5325927224189
 30
0.0
 10
119.8193751087837
 20
413.4444583811025
 30
0.0
 10
119.6871516415444
 20
413.2618262200495
 30
0.0
 10
119.6688323370879
 20
413.036593336005
 30
0.0
 10
119.6593535337914
 20
412.9200529832408
 30
0.0
  0
LINE
  5
205
330
1F
100
AcDbEntity
  8
0
  6
Continuous
 62
     7
370
    25
100
AcDbLine
 10
118.2593535338
 20
412.9200529832
 30
0.0
 11
119.6593535338
 21
412.9200529832
 31
0.0
  0
SPLINE
  5
206
330
1F
100
AcDbEntity
  8
0
  6
Continuous
 62
     7
370
    25
100
AcDbSpline
210
0.0
220
0.0
230
1.0
 70
     8
 71
     3
 72
    20
 73
    16
 74
     0
 42
0.000000001
 43
0.00000001
 40
0.0
 40
0.0
 40
0.0
 40
0.0
 40
0.1249999999999906
 40
0.1249999999999906
 40
0.2499999999999811
 40
0.2499999999999811
 40
0.3749999999999717
 40
0.3749999999999717
 40
0.4999999999999623
 40
0.4999999999999623
 40
0.7499999999999731
 40
0.7499999999999731
 40
0.8749999999999866
 40
0.8749999999999866
 40
1.0
 40
1.0
 40
1.0
 40
1.0
 10
120.6593535337914
 20
415.3200529832408
 30
0.0
 10
120.5009743461406
 20
415.3200529832408
 30
0.0
 10
120.3447286214489
 20
415.304516422766
 30
0.0
 10
120.0367367720324
 20
415.2431980708054
 30
0.0
 10
119.8840926645613
 20
415.1967743252185
 30
0.0
 10
119.5950083753742
 20
415.0768234550644
 30
0.0
 10
119.4572038371901
 20
415.0032188107809
 30
0.0
 10
119.1955851615512
 20
414.8284884446853
 30
0.0
 10
119.0728388548685
 20
414.7276378157838
 30
0.0
 10
118.7415144779209
 20
414.3963525357998
 30
0.0
 10
118.5625033538926
 20
414.128672374416
 30
0.0
 10
118.3828882545117
 20
413.6959983483605
 30
0.0
 10
118.3366439056441
 20
413.5444802615094
 30
0.0
 10
118.2748905996328
 20
413.2350545041234
 30
0.0
 10
118.2593535337914
 20
413.0784321744295
 30
0.0
 10
118.2593535337914
 20
412.9200529832408
 30
0.0
  0
LINE
  5
207
330
1F
100
AcDbEntity
  8
0
  6
Continuous
 62
     7
370
    25
100
AcDbLine
 10
713.2593535338
 20
412.9200529832
 30
0.0
 11
711.8593535338
 21
412.9200529832
 31
0.0
  0
SPLINE
  5
208
330
1F
100
AcDbEntity
  8
0
  6
Continuous
 62
     7
370
    25
100
AcDbSpline
210
0.0
220
0.0
230
1.0
 70
     8
 71
     3
 72
     9
 73
     5
 74
     0
 42
0.000000001
 43
0.00000001
 40
0.0
 40
0.0
 40
0.0
 40
0.0
 40
0.6784508005728768
 40
1.0
 40
1.0
 40
1.0
 40
1.0
 10
711.8593535337914
 20
412.9200529832408
 30
0.0
 10
711.8461039633269
 20
413.0707601876941
 30
0.0
 10
711.8265748088868
 20
413.2928945035885
 30
0.0
 10
711.6857271552477
 20
413.4597276084777
 30
0.0
 10
711.6404377049789
 20
413.5133726597928
 30
0.0
  0
SPLINE
  5
209
330
1F
100
AcDbEntity
  8
0
  6
Continuous
 62
     7
370
    25
100
AcDbSpline
210
0.0
220
0.0
230
1.0
 70
     8
 71
     3
 72
    20
 73
    16
 74
     0
 42
0.000000001
 43
0.00000001
 40
0.0
 40
0.0
 40
0.0
 40
0.0
 40
0.1249999999999998
 40
0.1249999999999998
 40
0.2499999999999997
 40
0.2499999999999997
 40
0.3749999999999995
 40
0.3749999999999995
 40
0.4999999999999993
 40
0.4999999999999993
 40
0.7499999999999997
 40
0.7499999999999997
 40
0.8749999999999998
 40
0.8749999999999998
 40
1.0
 40
1.0
 40
1.0
 40
1.0
 10
713.2593535337913
 20
412.9200529832408
 30
0.0
 10
713.2593535337915
 20
413.0784321708915
 30
0.0
 10
713.2438169733164
 20
413.2346778955832
 30
0.0
 10
713.182498621356
 20
413.5426697449998
 30
0.0
 10
713.1360748757692
 20
413.6953138524709
 30
0.0
 10
713.0161240056149
 20
413.984398141658
 30
0.0
 10
712.9425193613315
 20
414.1222026798421
 30
0.0
 10
712.767788995236
 20
414.383821355481
 30
0.0
 10
712.6669383663344
 20
414.5065676621636
 30
0.0
 10
712.3356530863505
 20
414.8378920391113
 30
0.0
 10
712.0679729249665
 20
415.0169031631395
 30
0.0
 10
711.6352988989111
 20
415.1965182625204
 30
0.0
 10
711.48378081206
 20
415.2427626113882
 30
0.0
 10
711.1743550546738
 20
415.3045159173994
 30
0.0
 10
711.0177327249802
 20
415.3200529832408
 30
0.0
 10
710.8593535337912
 20
415.3200529832408
 30
0.0
  0
LINE
  5
20A
330
1F
100
AcDbEntity
  8
0
  6
Continuous
 62
     7
370
    25
100
AcDbLine
 10
118.2593535338
 20
403.3200529832
 30
0.0
 11
119.6593535338
 21
403.3200529832
 31
0.0
  0
LINE
  5
20B
330
1F
100
AcDbEntity
  8
0
  6
Continuous
 62
     7
370
    25
100
AcDbLine
 10
118.2593535338
 20
412.9200529832
 30
0.0
 11
118.2593535338
 21
403.3200529832
 31
0.0
  0
LINE
  5
20C
330
1F
100
AcDbEntity
  8
0
  6
Continuous
 62
     7
370
    25
100
AcDbLine
 10
119.6593535338
 20
412.9200529832
 30
0.0
 11
119.6593535338
 21
403.3200529832
 31
0.0
  0
LINE
  5
20D
330
1F
100
AcDbEntity
  8
0
  6
Continuous
 62
     7
370
    25
100
AcDbLine
 10
713.2593535338
 20
412.9200529832
 30
0.0
 11
713.2593535338
 21
403.3200529832
 31
0.0
  0
LINE
  5
20E
330
1F
100
AcDbEntity
  8
0
  6
Continuous
 62
     7
370
    25
100
AcDbLine
 10
713.2593535338
 20
403.3200529832
 30
0.0
 11
711.8593535338
 21
403.3200529832
 31
0.0
  0
LINE
  5
20F
330
1F
100
AcDbEntity
  8
0
  6
Continuous
 62
     7
370
    25
100
AcDbLine
 10
711.8593535338
 20
412.9200529832
 30
0.0
 11
711.8593535338
 21
403.3200529832
 31
0.0
  0
LINE
  5
210
330
1F
100
AcDbEntity
  8
0
  6
Continuous
 62
     7
370
    25
100
AcDbLine
 10
176.5972384796
 20
398.3200529832
 30
0.0
 11
175.0165762907
 21
398.3200529832
 31
0.0
  0
LINE
  5
211
330
1F
100
AcDbEntity
  8
0
  6
Continuous
 62
     7
370
    25
100
AcDbLine
 10
174.9896888944
 20
398.8200529832
 30
0.0
 11
177.0972384796
 21
398.8200529832
 31
0.0
  0
LINE
  5
212
330
1F
100
AcDbEntity
  8
0
  6
Continuous
 62
     7
370
    25
100
AcDbLine
 10
175.0165762907
 20
398.3200529832
 30
0.0
 11
173.2870316064
 21
398.3200529832
 31
0.0
  0
LINE
  5
213
330
1F
100
AcDbEntity
  8
0
  6
Continuous
 62
     7
370
    25
100
AcDbLine
 10
173.2601442101
 20
398.8200529832
 30
0.0
 11
174.9896888944
 21
398.8200529832
 31
0.0
  0
LINE
  5
214
330
1F
100
AcDbEntity
  8
0
  6
Continuous
 62
     7
370
    25
100
AcDbLine
 10
173.2870316064
 20
398.3200529832
 30
0.0
 11
171.8676937953
 21
398.3200529832
 31
0.0
  0
LINE
  5
215
330
1F
100
AcDbEntity
  8
0
  6
Continuous
 62
     7
370
    25
100
AcDbLine
 10
171.3676937953
 20
398.8200529832
 30
0.0
 11
173.2601442101
 21
398.8200529832
 31
0.0
  0
LINE
  5
216
330
1F
100
AcDbEntity
  8
0
  6
Continuous
 62
     7
370
    25
100
AcDbLine
 10
658.5669078101
 20
398.3200529832
 30
0.0
 11
655.968862474
 21
398.3200529832
 31
0.0
  0
LINE
  5
217
330
1F
100
AcDbEntity
  8
0
  6
Continuous
 62
     7
370
    25
100
AcDbLine
 10
655.5370737191
 20
398.8200529832
 30
0.0
 11
659.0011341673
 21
398.8200529832
 31
0.0
  0
LINE
  5
218
330
1F
100
AcDbEntity
  8
0
  6
Continuous
 62
     7
370
    25
100
AcDbLine
 10
654.6637458
 20
398.8200529832
 30
0.0
 11
655.5370737191
 21
398.8200529832
 31
0.0
  0
LINE
  5
219
330
1F
100
AcDbEntity
  8
0
  6
Continuous
 62
     7
370
    25
100
AcDbLine
 10
655.968862474
 20
398.3200529832
 30
0.0
 11
655.0955345549
 21
398.3200529832
 31
0.0
  0
LINE
  5
21A
330
1F
100
AcDbEntity
  8
0
  6
Continuous
 62
     7
370
    25
100
AcDbLine
 10
659.0011341673
 20
398.8200529832
 30
0.0
 11
659.8598364723
 21
398.8200529832
 31
0.0
  0
LINE
  5
21B
330
1F
100
AcDbEntity
  8
0
  6
Continuous
 62
     7
370
    25
100
AcDbLine
 10
659.4256101151
 20
398.3200529832
 30
0.0
 11
658.5669078101
 21
398.3200529832
 31
0.0
  0
LINE
  5
21C
330
1F
100
AcDbEntity
  8
0
  6
Continuous
 62
     7
370
    25
100
AcDbLine
 10
654.3909008194
 20
398.8200529832
 30
0.0
 11
654.6637458
 21
398.8200529832
 31
0.0
  0
LINE
  5
21D
330
1F
100
AcDbEntity
  8
0
  6
Continuous
 62
     7
370
    25
100
AcDbLine
 10
655.0955345549
 20
398.3200529832
 30
0.0
 11
654.8909008194
 21
398.3200529832
 31
0.0
  0
LINE
  5
21E
330
1F
100
AcDbEntity
  8
0
  6
Continuous
 62
     7
370
    25
100
AcDbLine
 10
659.8598364723
 20
398.8200529832
 30
0.0
 11
660.1229310435
 21
398.8200529832
 31
0.0
  0
LINE
  5
21F
330
1F
100
AcDbEntity
  8
0
  6
Continuous
 62
     7
370
    25
100
AcDbLine
 10
659.6229310435
 20
398.3200529832
 30
0.0
 11
659.4256101151
 21
398.3200529832
 31
0.0
  0
LINE
  5
220
330
1F
100
AcDbEntity
  8
0
  6
Continuous
 62
     7
370
    25
100
AcDbLine
 10
665.7593535338
 20
395.2200529832
 30
0.0
 11
666.9593535338
 21
395.2200529832
 31
0.0
  0
LINE
  5
221
330
1F
100
AcDbEntity
  8
0
  6
Continuous
 62
     7
370
    25
100
AcDbLine
 10
666.9593535338
 20
376.2200529832
 30
0.0
 11
663.7593535338
 21
376.2200529832
 31
0.0
  0
LINE
  5
222
330
1F
100
AcDbEntity
  8
0
  6
Continuous
 62
     7
370
    25
100
AcDbLine
 10
663.7593535338
 20
376.2200529832
 30
0.0
 11
663.7593535338
 21
355.2200529832
 31
0.0
  0
ARC
  5
223
330
1F
100
AcDbEntity
  8
0
  6
Continuous
 62
     7
370
    25
100
AcDbCircle
 10
660.7593535338
 20
355.2200529832
 30
0.0
 40
3.0
100
AcDbArc
 50
270.0
 51
0.0
  0
LINE
  5
224
330
1F
100
AcDbEntity
  8
0
  6
Continuous
 62
     7
370
    25
100
AcDbLine
 10
660.7593535338
 20
352.2200529832
 30
0.0
 11
616.7593535338
 21
352.2200529832
 31
0.0
  0
ARC
  5
225
330
1F
100
AcDbEntity
  8
0
  6
Continuous
 62
     7
370
    25
100
AcDbCircle
 10
616.7593535338
 20
355.2200529832
 30
0.0
 40
3.0
100
AcDbArc
 50
180.0
 51
270.0
  0
LINE
  5
226
330
1F
100
AcDbEntity
  8
0
  6
Continuous
 62
     7
370
    25
100
AcDbLine
 10
613.7593535338
 20
355.2200529832
 30
0.0
 11
613.7593535338
 21
371.3500529832
 31
0.0
  0
LINE
  5
227
330
1F
100
AcDbEntity
  8
0
  6
Continuous
 62
     7
370
    25
100
AcDbLine
 10
613.7593535338
 20
371.3500529832
 30
0.0
 11
611.2593535338
 21
371.3500529832
 31
0.0
  0
LINE
  5
228
330
1F
100
AcDbEntity
  8
0
  6
Continuous
 62
     7
370
    25
100
AcDbLine
 10
611.2593535338
 20
370.8580021757
 30
0.0
 11
611.2593535338
 21
371.3500529832
 31
0.0
  0
LINE
  5
229
330
1F
100
AcDbEntity
  8
0
  6
Continuous
 62
     7
370
    25
100
AcDbLine
 10
461.2593535338
 20
370.8580021757
 30
0.0
 11
461.2593535338
 21
371.3500529832
 31
0.0
  0
LINE
  5
22A
330
1F
100
AcDbEntity
  8
0
  6
Continuous
 62
     7
370
    25
100
AcDbLine
 10
461.2593535338
 20
371.3500529832
 30
0.0
 11
458.7593535338
 21
371.3500529832
 31
0.0
  0
LINE
  5
22B
330
1F
100
AcDbEntity
  8
0
  6
Continuous
 62
     7
370
    25
100
AcDbLine
 10
458.7593535338
 20
371.3500529832
 30
0.0
 11
458.7593535338
 21
355.2200529832
 31
0.0
  0
ARC
  5
22C
330
1F
100
AcDbEntity
  8
0
  6
Continuous
 62
     7
370
    25
100
AcDbCircle
 10
455.7593535338
 20
355.2200529832
 30
0.0
 40
3.0
100
AcDbArc
 50
270.0
 51
0.0
  0
LINE
  5
22D
330
1F
100
AcDbEntity
  8
0
  6
Continuous
 62
     7
370
    25
100
AcDbLine
 10
455.7593535338
 20
352.2200529832
 30
0.0
 11
375.7593535338
 21
352.2200529832
 31
0.0
  0
ARC
  5
22E
330
1F
100
AcDbEntity
  8
0
  6
Continuous
 62
     7
370
    25
100
AcDbCircle
 10
375.7593535338
 20
355.2200529832
 30
0.0
 40
3.0
100
AcDbArc
 50
180.0
 51
270.0
  0
LINE
  5
22F
330
1F
100
AcDbEntity
  8
0
  6
Continuous
 62
     7
370
    25
100
AcDbLine
 10
372.7593535338
 20
355.2200529832
 30
0.0
 11
372.7593535338
 21
371.3500529832
 31
0.0
  0
LINE
  5
230
330
1F
100
AcDbEntity
  8
0
  6
Continuous
 62
     7
370
    25
100
AcDbLine
 10
372.7593535338
 20
371.3500529832
 30
0.0
 11
370.2593535338
 21
371.3500529832
 31
0.0
  0
LINE
  5
231
330
1F
100
AcDbEntity
  8
0
  6
Continuous
 62
     7
370
    25
100
AcDbLine
 10
370.2593535338
 20
370.8580021757
 30
0.0
 11
370.2593535338
 21
371.3500529832
 31
0.0
  0
LINE
  5
232
330
1F
100
AcDbEntity
  8
0
  6
Continuous
 62
     7
370
    25
100
AcDbLine
 10
220.2593535338
 20
370.8580021757
 30
0.0
 11
220.2593535338
 21
371.3500529832
 31
0.0
  0
LINE
  5
233
330
1F
100
AcDbEntity
  8
0
  6
Continuous
 62
     7
370
    25
100
AcDbLine
 10
220.2593535338
 20
371.3500529832
 30
0.0
 11
217.7593535338
 21
371.3500529832
 31
0.0
  0
LINE
  5
234
330
1F
100
AcDbEntity
  8
0
  6
Continuous
 62
     7
370
    25
100
AcDbLine
 10
217.7593535338
 20
371.3500529832
 30
0.0
 11
217.7593535338
 21
355.2200529832
 31
0.0
  0
ARC
  5
235
330
1F
100
AcDbEntity
  8
0
  6
Continuous
 62
     7
370
    25
100
AcDbCircle
 10
214.7593535338
 20
355.2200529832
 30
0.0
 40
3.0
100
AcDbArc
 50
270.0
 51
0.0
  0
LINE
  5
236
330
1F
100
AcDbEntity
  8
0
  6
Continuous
 62
     7
370
    25
100
AcDbLine
 10
214.7593535338
 20
352.2200529832
 30
0.0
 11
170.7593535338
 21
352.2200529832
 31
0.0
  0
ARC
  5
237
330
1F
100
AcDbEntity
  8
0
  6
Continuous
 62
     7
370
    25
100
AcDbCircle
 10
170.7593535338
 20
355.2200529832
 30
0.0
 40
3.0
100
AcDbArc
 50
180.0
 51
270.0
  0
LINE
  5
238
330
1F
100
AcDbEntity
  8
0
  6
Continuous
 62
     7
370
    25
100
AcDbLine
 10
167.7593535338
 20
355.2200529832
 30
0.0
 11
167.7593535338
 21
376.2200529832
 31
0.0
  0
LINE
  5
239
330
1F
100
AcDbEntity
  8
0
  6
Continuous
 62
     7
370
    25
100
AcDbLine
 10
167.7593535338
 20
376.2200529832
 30
0.0
 11
164.5593535338
 21
376.2200529832
 31
0.0
  0
LINE
  5
23A
330
1F
100
AcDbEntity
  8
0
  6
Continuous
 62
     7
370
    25
100
AcDbLine
 10
164.5593535338
 20
395.2200529832
 30
0.0
 11
165.7593535338
 21
395.2200529832
 31
0.0
  0
LINE
  5
23B
330
1F
100
AcDbEntity
  8
0
  6
Continuous
 62
     7
370
    25
100
AcDbLine
 10
165.7593535338
 20
395.2200529832
 30
0.0
 11
165.7593535338
 21
395.4200529832
 31
0.0
  0
LINE
  5
23C
330
1F
100
AcDbEntity
  8
0
  6
Continuous
 62
     7
370
    25
100
AcDbLine
 10
665.7593535338
 20
395.4200529832
 30
0.0
 11
665.7593535338
 21
395.2200529832
 31
0.0
  0
LINE
  5
23D
330
1F
100
AcDbEntity
  8
0
  6
Continuous
 62
     7
370
    25
100
AcDbLine
 10
611.2593535338
 20
370.8580021757
 30
0.0
 11
611.2593535338
 21
369.9580021757
 31
0.0
  0
LINE
  5
23E
330
1F
100
AcDbEntity
  8
0
  6
Continuous
 62
     7
370
    25
100
AcDbLine
 10
461.2593535338
 20
369.9580021757
 30
0.0
 11
461.2593535338
 21
370.8580021757
 31
0.0
  0
LINE
  5
23F
330
1F
100
AcDbEntity
  8
0
  6
Continuous
 62
     7
370
    25
100
AcDbLine
 10
220.2593535338
 20
369.9580021757
 30
0.0
 11
220.2593535338
 21
370.8580021757
 31
0.0
  0
LINE
  5
240
330
1F
100
AcDbEntity
  8
0
  6
Continuous
 62
     7
370
    25
100
AcDbLine
 10
370.2593535338
 20
370.8580021757
 30
0.0
 11
370.2593535338
 21
369.9580021757
 31
0.0
  0
LINE
  5
241
330
1F
100
AcDbEntity
  8
0
  6
Continuous
 62
     7
370
    25
100
AcDbLine
 10
666.9593535338
 20
395.2200529832
 30
0.0
 11
667.7593535338
 21
395.2200529832
 31
0.0
  0
LINE
  5
242
330
1F
100
AcDbEntity
  8
0
  6
Continuous
 62
     7
370
    25
100
AcDbLine
 10
668.7593535338
 20
376.2200529832
 30
0.0
 11
668.7593535338
 21
376.8200529832
 31
0.0
  0
LINE
  5
243
330
1F
100
AcDbEntity
  8
0
  6
Continuous
 62
     7
370
    25
100
AcDbLine
 10
668.7593535338
 20
376.2200529832
 30
0.0
 11
666.9593535338
 21
376.2200529832
 31
0.0
  0
LINE
  5
244
330
1F
100
AcDbEntity
  8
0
  6
Continuous
 62
     7
370
    25
100
AcDbLine
 10
164.5593535338
 20
376.2200529832
 30
0.0
 11
162.7593535338
 21
376.2200529832
 31
0.0
  0
LINE
  5
245
330
1F
100
AcDbEntity
  8
0
  6
Continuous
 62
     7
370
    25
100
AcDbLine
 10
162.7593535338
 20
376.2200529832
 30
0.0
 11
162.7593535338
 21
376.8200529832
 31
0.0
  0
LINE
  5
246
330
1F
100
AcDbEntity
  8
0
  6
Continuous
 62
     7
370
    25
100
AcDbLine
 10
163.7593535338
 20
395.2200529832
 30
0.0
 11
164.5593535338
 21
395.2200529832
 31
0.0
  0
LINE
  5
247
330
1F
100
AcDbEntity
  8
0
  6
Continuous
 62
     7
370
    25
100
AcDbLine
 10
165.7593535338
 20
395.4200529832
 30
0.0
 11
165.7593535338
 21
397.2200529832
 31
0.0
  0
LINE
  5
248
330
1F
100
AcDbEntity
  8
0
  6
Continuous
 62
     7
370
    25
100
AcDbLine
 10
665.7593535338
 20
397.2200529832
 30
0.0
 11
665.7593535338
 21
395.4200529832
 31
0.0
  0
LINE
  5
249
330
1F
100
AcDbEntity
  8
0
  6
Continuous
 62
     7
370
    25
100
AcDbLine
 10
461.2593535338
 20
369.9580021757
 30
0.0
 11
461.2593535338
 21
363.3331310451
 31
0.0
  0
LINE
  5
24A
330
1F
100
AcDbEntity
  8
0
  6
Continuous
 62
     7
370
    25
100
AcDbLine
 10
611.2593535338
 20
363.3331310451
 30
0.0
 11
611.2593535338
 21
369.9580021757
 31
0.0
  0
LINE
  5
24B
330
1F
100
AcDbEntity
  8
0
  6
Continuous
 62
     7
370
    25
100
AcDbLine
 10
220.2593535338
 20
369.9580021757
 30
0.0
 11
220.2593535338
 21
363.3331310451
 31
0.0
  0
LINE
  5
24C
330
1F
100
AcDbEntity
  8
0
  6
Continuous
 62
     7
370
    25
100
AcDbLine
 10
370.2593535338
 20
363.3331310451
 30
0.0
 11
370.2593535338
 21
369.9580021757
 31
0.0
  0
LINE
  5
24D
330
1F
100
AcDbEntity
  8
0
  6
Continuous
 62
     7
370
    25
100
AcDbLine
 10
611.2593535338
 20
362.8331310451
 30
0.0
 11
611.2593535338
 21
363.3331310451
 31
0.0
  0
LINE
  5
24E
330
1F
100
AcDbEntity
  8
0
  6
Continuous
 62
     7
370
    25
100
AcDbLine
 10
461.2593535338
 20
363.3331310451
 30
0.0
 11
461.2593535338
 21
362.8331310451
 31
0.0
  0
LINE
  5
24F
330
1F
100
AcDbEntity
  8
0
  6
Continuous
 62
     7
370
    25
100
AcDbLine
 10
370.2593535338
 20
362.8331310451
 30
0.0
 11
370.2593535338
 21
363.3331310451
 31
0.0
  0
LINE
  5
250
330
1F
100
AcDbEntity
  8
0
  6
Continuous
 62
     7
370
    25
100
AcDbLine
 10
220.2593535338
 20
363.3331310451
 30
0.0
 11
220.2593535338
 21
362.8331310451
 31
0.0
  0
ARC
  5
251
330
1F
100
AcDbEntity
  8
0
  6
Continuous
 62
     7
370
    25
100
AcDbCircle
 10
464.2593535338
 20
356.3154395915
 30
0.0
 40
3.0
100
AcDbArc
 50
180.0
 51
270.0
  0
LINE
  5
252
330
1F
100
AcDbEntity
  8
0
  6
Continuous
 62
     7
370
    25
100
AcDbLine
 10
461.2593535338
 20
356.3154395915
 30
0.0
 11
461.2593535338
 21
362.8331310451
 31
0.0
  0
LINE
  5
253
330
1F
100
AcDbEntity
  8
0
  6
Continuous
 62
     7
370
    25
100
AcDbLine
 10
611.2593535338
 20
362.8331310451
 30
0.0
 11
611.2593535338
 21
356.3154395915
 31
0.0
  0
ARC
  5
254
330
1F
100
AcDbEntity
  8
0
  6
Continuous
 62
     7
370
    25
100
AcDbCircle
 10
608.2593535338
 20
356.3154395915
 30
0.0
 40
3.0
100
AcDbArc
 50
270.0
 51
0.0
  0
LINE
  5
255
330
1F
100
AcDbEntity
  8
0
  6
Continuous
 62
     7
370
    25
100
AcDbLine
 10
608.2593535338
 20
353.3154395915
 30
0.0
 11
464.2593535338
 21
353.3154395915
 31
0.0
  0
ARC
  5
256
330
1F
100
AcDbEntity
  8
0
  6
Continuous
 62
     7
370
    25
100
AcDbCircle
 10
223.2593535338
 20
356.3154395915
 30
0.0
 40
3.0
100
AcDbArc
 50
180.0
 51
270.0
  0
LINE
  5
257
330
1F
100
AcDbEntity
  8
0
  6
Continuous
 62
     7
370
    25
100
AcDbLine
 10
220.2593535338
 20
356.3154395915
 30
0.0
 11
220.2593535338
 21
362.8331310451
 31
0.0
  0
LINE
  5
258
330
1F
100
AcDbEntity
  8
0
  6
Continuous
 62
     7
370
    25
100
AcDbLine
 10
370.2593535338
 20
362.8331310451
 30
0.0
 11
370.2593535338
 21
356.3154395915
 31
0.0
  0
ARC
  5
259
330
1F
100
AcDbEntity
  8
0
  6
Continuous
 62
     7
370
    25
100
AcDbCircle
 10
367.2593535338
 20
356.3154395915
 30
0.0
 40
3.000000000000057
100
AcDbArc
 50
270.0
 51
0.0
  0
LINE
  5
25A
330
1F
100
AcDbEntity
  8
0
  6
Continuous
 62
     7
370
    25
100
AcDbLine
 10
367.2593535338
 20
353.3154395915
 30
0.0
 11
223.2593535338
 21
353.3154395915
 31
0.0
  0
LINE
  5
25B
330
1F
100
AcDbEntity
  8
0
  6
Continuous
 62
     7
370
    25
100
AcDbLine
 10
652.5093535338
 20
402.8200529832
 30
0.0
 11
652.5093535338
 21
403.3200529832
 31
0.0
  0
LINE
  5
25C
330
1F
100
AcDbEntity
  8
0
  6
Continuous
 62
     7
370
    25
100
AcDbLine
 10
662.0093535338
 20
402.8200529832
 30
0.0
 11
652.5093535338
 21
402.8200529832
 31
0.0
  0
LINE
  5
25D
330
1F
100
AcDbEntity
  8
0
  6
Continuous
 62
     7
370
    25
100
AcDbLine
 10
662.0093535338
 20
403.3200529832
 30
0.0
 11
662.0093535338
 21
402.8200529832
 31
0.0
  0
ARC
  5
25E
330
1F
100
AcDbEntity
  8
0
  6
Continuous
 62
     7
370
    25
100
AcDbCircle
 10
662.7727535338
 20
404.0566529832
 30
0.0
 40
1.236600000000067
100
AcDbArc
 50
270.0
 51
323.4399088994
  0
LINE
  5
25F
330
1F
100
AcDbEntity
  8
0
  6
Continuous
 62
     7
370
    25
100
AcDbLine
 10
662.7727535338
 20
402.8200529832
 30
0.0
 11
662.0093535338
 21
402.8200529832
 31
0.0
  0
ARC
  5
260
330
1F
100
AcDbEntity
  8
0
  6
Continuous
 62
     7
370
    25
100
AcDbCircle
 10
651.7459535338
 20
404.0566529832
 30
0.0
 40
1.236600000000127
100
AcDbArc
 50
216.5600911006
 51
270.0
  0
LINE
  5
261
330
1F
100
AcDbEntity
  8
0
  6
Continuous
 62
     7
370
    25
100
AcDbLine
 10
652.5093535338
 20
402.8200529832
 30
0.0
 11
651.7459535338
 21
402.8200529832
 31
0.0
  0
LINE
  5
262
330
1F
100
AcDbEntity
  8
0
  6
Continuous
 62
     7
370
    25
100
AcDbLine
 10
169.5093535338
 20
402.8200529832
 30
0.0
 11
169.5093535338
 21
403.3200529832
 31
0.0
  0
LINE
  5
263
330
1F
100
AcDbEntity
  8
0
  6
Continuous
 62
     7
370
    25
100
AcDbLine
 10
179.0093535338
 20
403.3200529832
 30
0.0
 11
179.0093535338
 21
402.8200529832
 31
0.0
  0
LINE
  5
264
330
1F
100
AcDbEntity
  8
0
  6
Continuous
 62
     7
370
    25
100
AcDbLine
 10
179.0093535338
 20
402.8200529832
 30
0.0
 11
169.5093535338
 21
402.8200529832
 31
0.0
  0
ARC
  5
265
330
1F
100
AcDbEntity
  8
0
  6
Continuous
 62
     7
370
    25
100
AcDbCircle
 10
179.7727535338
 20
404.0566529832
 30
0.0
 40
1.236600000000067
100
AcDbArc
 50
270.0
 51
323.4399088994
  0
LINE
  5
266
330
1F
100
AcDbEntity
  8
0
  6
Continuous
 62
     7
370
    25
100
AcDbLine
 10
179.7727535338
 20
402.8200529832
 30
0.0
 11
179.0093535338
 21
402.8200529832
 31
0.0
  0
ARC
  5
267
330
1F
100
AcDbEntity
  8
0
  6
Continuous
 62
     7
370
    25
100
AcDbCircle
 10
168.7459535338
 20
404.0566529832
 30
0.0
 40
1.236600000000067
100
AcDbArc
 50
216.5600911006
 51
270.0
  0
LINE
  5
268
330
1F
100
AcDbEntity
  8
0
  6
Continuous
 62
     7
370
    25
100
AcDbLine
 10
169.5093535338
 20
402.8200529832
 30
0.0
 11
168.7459535338
 21
402.8200529832
 31
0.0
  0
LINE
  5
269
330
1F
100
AcDbEntity
  8
0
  6
Continuous
 62
     7
370
    25
100
AcDbLine
 10
677.4181035338
 20
381.7200529832
 30
0.0
 11
677.4181035338
 21
381.9200529832
 31
0.0
  0
LINE
  5
26A
330
1F
100
AcDbEntity
  8
0
  6
Continuous
 62
     7
370
    25
100
AcDbLine
 10
677.4181035338
 20
387.5200529832
 30
0.0
 11
677.4181035338
 21
387.7200529832
 31
0.0
  0
LINE
  5
26B
330
1F
100
AcDbEntity
  8
0
  6
Continuous
 62
     7
370
    25
100
AcDbLine
 10
677.9593535338
 20
386.2994563206
 30
0.0
 11
677.9593535338
 21
387.1788029833
 31
0.0
  0
LINE
  5
26C
330
1F
100
AcDbEntity
  8
0
  6
Continuous
 62
     7
370
    25
100
AcDbLine
 10
677.9593535338
 20
382.2613029832
 30
0.0
 11
677.9593535338
 21
386.2994563206
 31
0.0
  0
LINE
  5
26D
330
1F
100
AcDbEntity
  8
0
  6
Continuous
 62
     7
370
    25
100
AcDbLine
 10
667.2593535338
 20
399.0200529832
 30
0.0
 11
667.2593535338
 21
397.2200529832
 31
0.0
  0
LINE
  5
26E
330
1F
100
AcDbEntity
  8
0
  6
Continuous
 62
     7
370
    25
100
AcDbLine
 10
667.2593535338
 20
397.2200529832
 30
0.0
 11
164.2593535338
 21
397.2200529832
 31
0.0
  0
LINE
  5
26F
330
1F
100
AcDbEntity
  8
0
  6
Continuous
 62
     7
370
    25
100
AcDbLine
 10
164.2593535338
 20
397.2200529832
 30
0.0
 11
164.2593535338
 21
399.0200529832
 31
0.0
  0
LINE
  5
270
330
1F
100
AcDbEntity
  8
0
  6
Continuous
 62
     7
370
    25
100
AcDbLine
 10
667.2593535338
 20
399.0200529832
 30
0.0
 11
667.7593535338
 21
404.3950529832
 31
0.0
  0
LINE
  5
271
330
1F
100
AcDbEntity
  8
0
  6
Continuous
 62
     7
370
    25
100
AcDbLine
 10
163.7593535338
 20
404.3950529832
 30
0.0
 11
164.2593535338
 21
399.0200529832
 31
0.0
  0
LINE
  5
272
330
1F
100
AcDbEntity
  8
0
  6
Continuous
 62
     7
370
    25
100
AcDbLine
 10
153.5593535338
 20
382.502714906
 30
0.0
 11
153.5593535338
 21
382.2613029832
 31
0.0
  0
LINE
  5
273
330
1F
100
AcDbEntity
  8
0
  6
Continuous
 62
     7
370
    25
100
AcDbLine
 10
153.5593535338
 20
387.1788029833
 30
0.0
 11
153.5593535338
 21
382.502714906
 31
0.0
  0
LINE
  5
274
330
1F
100
AcDbEntity
  8
0
  6
Continuous
 62
     7
370
    25
100
AcDbLine
 10
154.1006035338
 20
387.7200529832
 30
0.0
 11
154.1006035338
 21
387.5200529832
 31
0.0
  0
LINE
  5
275
330
1F
100
AcDbEntity
  8
0
  6
Continuous
 62
     7
370
    25
100
AcDbLine
 10
154.1006035338
 20
381.9200529832
 30
0.0
 11
154.1006035338
 21
381.7200529832
 31
0.0
  0
LWPOLYLINE
  5
276
330
1F
100
AcDbEntity
  8
0
  6
Continuous
 62
     7
370
    25
100
AcDbPolyline
 90
        9
 70
   128
 43
0.0
 10
669.8114743937
 20
376.8200529832
 10
669.9449240335
 20
376.8584824224
 10
670.0732452785
 20
376.9722939182
 10
670.1915068152
 20
377.1571137586
 10
670.295163919
 20
377.4058394209
 10
670.3802331057
 20
377.7089125172
 10
670.443445214
 20
378.0546861185
 10
670.4823710381
 20
378.4298723392
 10
670.4955146804
 20
378.8200529832
  0
LINE
  5
277
330
1F
100
AcDbEntity
  8
0
  6
Continuous
 62
     7
370
    25
100
AcDbLine
 10
667.9402756714
 20
376.8200529832
 30
0.0
 11
669.8114743937
 21
376.8200529832
 31
0.0
  0
LINE
  5
278
330
1F
100
AcDbEntity
  8
0
  6
Continuous
 62
     7
370
    25
100
AcDbLine
 10
669.8114743937
 20
392.8200529832
 30
0.0
 11
667.9402756714
 21
392.8200529832
 31
0.0
  0
LWPOLYLINE
  5
279
330
1F
100
AcDbEntity
  8
0
  6
Continuous
 62
     7
370
    25
100
AcDbPolyline
 90
        9
 70
   128
 43
0.0
 10
670.4955146804
 20
390.8200529832
 10
670.4823710381
 20
391.2102336273
 10
670.443445214
 20
391.585419848
 10
670.3802331057
 20
391.9311934493
 10
670.295163919
 20
392.2342665456
 10
670.1915068152
 20
392.4829922078
 10
670.0732452785
 20
392.6678120483
 10
669.9449240335
 20
392.781623544
 10
669.8114743937
 20
392.8200529832
  0
LINE
  5
27A
330
1F
100
AcDbEntity
  8
0
  6
Continuous
 62
     7
370
    25
100
AcDbLine
 10
670.4955146804
 20
378.8200529832
 30
0.0
 11
670.4955146804
 21
390.8200529832
 31
0.0
  0
LWPOLYLINE
  5
27B
330
1F
100
AcDbEntity
  8
0
  6
Continuous
 62
     7
370
    25
100
AcDbPolyline
 90
        9
 70
   128
 43
0.0
 10
672.374899922
 20
378.8200529832
 10
672.3617562797
 20
378.4298723392
 10
672.3228304556
 20
378.0546861185
 10
672.2596183473
 20
377.7089125172
 10
672.1745491606
 20
377.4058394209
 10
672.0708920568
 20
377.1571137586
 10
671.9526305201
 20
376.9722939182
 10
671.8243092751
 20
376.8584824224
 10
671.6908596353
 20
376.8200529832
  0
LINE
  5
27C
330
1F
100
AcDbEntity
  8
0
  6
Continuous
 62
     7
370
    25
100
AcDbLine
 10
671.6908596353
 20
376.8200529832
 30
0.0
 11
669.8114743937
 21
376.8200529832
 31
0.0
  0
LINE
  5
27D
330
1F
100
AcDbEntity
  8
0
  6
Continuous
 62
     7
370
    25
100
AcDbLine
 10
672.374899922
 20
378.8200529832
 30
0.0
 11
672.374899922
 21
390.8200529832
 31
0.0
  0
LINE
  5
27E
330
1F
100
AcDbEntity
  8
0
  6
Continuous
 62
     7
370
    25
100
AcDbLine
 10
669.8114743937
 20
392.8200529832
 30
0.0
 11
671.6908596353
 21
392.8200529832
 31
0.0
  0
LWPOLYLINE
  5
27F
330
1F
100
AcDbEntity
  8
0
  6
Continuous
 62
     7
370
    25
100
AcDbPolyline
 90
        9
 70
   128
 43
0.0
 10
671.6908596353
 20
392.8200529832
 10
671.8243092751
 20
392.781623544
 10
671.9526305201
 20
392.6678120483
 10
672.0708920568
 20
392.4829922078
 10
672.1745491606
 20
392.2342665456
 10
672.2596183473
 20
391.9311934493
 10
672.3228304556
 20
391.585419848
 10
672.3617562797
 20
391.2102336273
 10
672.374899922
 20
390.8200529832
  0
LINE
  5
280
330
1F
100
AcDbEntity
  8
0
  6
Continuous
 62
     7
370
    25
100
AcDbLine
 10
667.7645398842
 20
392.8200529832
 30
0.0
 11
667.9402756714
 21
392.8200529832
 31
0.0
  0
LINE
  5
281
330
1F
100
AcDbEntity
  8
0
  6
Continuous
 62
     7
370
    25
100
AcDbLine
 10
667.7593535338
 20
376.8200529832
 30
0.0
 11
667.7593535338
 21
392.8200529832
 31
0.0
  0
LINE
  5
282
330
1F
100
AcDbEntity
  8
0
  6
Continuous
 62
     7
370
    25
100
AcDbLine
 10
667.9402756714
 20
376.8200529832
 30
0.0
 11
667.7593535338
 21
376.8200529832
 31
0.0
  0
LINE
  5
283
330
1F
100
AcDbEntity
  8
0
  6
Continuous
 62
     7
370
    25
100
AcDbLine
 10
667.7645398842
 20
392.8200529832
 30
0.0
 11
667.7593535338
 21
392.8200529832
 31
0.0
  0
LINE
  5
284
330
1F
100
AcDbEntity
  8
0
  6
Continuous
 62
     7
370
    25
100
AcDbLine
 10
667.7593535338
 20
407.8200529832
 30
0.0
 11
667.7593535338
 21
392.8200529832
 31
0.0
  0
LINE
  5
285
330
1F
100
AcDbEntity
  8
0
  6
Continuous
 62
     7
370
    25
100
AcDbLine
 10
669.7593535338
 20
407.8200529832
 30
0.0
 11
669.7593535338
 21
392.8200529832
 31
0.0
  0
LINE
  5
286
330
1F
100
AcDbEntity
  8
0
  6
Continuous
 62
     7
370
    25
100
AcDbLine
 10
669.7593535338
 20
407.8200529832
 30
0.0
 11
669.7576864039
 21
407.9200529832
 31
0.0
  0
LINE
  5
287
330
1F
100
AcDbEntity
  8
0
  6
Continuous
 62
     7
370
    25
100
AcDbLine
 10
667.7593535338
 20
407.8200529832
 30
0.0
 11
667.7543409709
 21
407.9200529832
 31
0.0
  0
LINE
  5
288
330
1F
100
AcDbEntity
  8
0
  6
Continuous
 62
     7
370
    25
100
AcDbLine
 10
161.7072326738
 20
376.8200529832
 30
0.0
 11
159.8278474323
 21
376.8200529832
 31
0.0
  0
LWPOLYLINE
  5
289
330
1F
100
AcDbEntity
  8
0
  6
Continuous
 62
     7
370
    25
100
AcDbPolyline
 90
        9
 70
   128
 43
0.0
 10
159.8278474323
 20
376.8200529832
 10
159.6943977925
 20
376.8584824224
 10
159.5660765475
 20
376.9722939182
 10
159.4478150108
 20
377.1571137586
 10
159.344157907
 20
377.4058394209
 10
159.2590887203
 20
377.7089125172
 10
159.195876612
 20
378.0546861185
 10
159.1569507879
 20
378.4298723392
 10
159.1438071456
 20
378.8200529832
  0
LWPOLYLINE
  5
28A
330
1F
100
AcDbEntity
  8
0
  6
Continuous
 62
     7
370
    25
100
AcDbPolyline
 90
        9
 70
   128
 43
0.0
 10
161.0231923872
 20
378.8200529832
 10
161.0363360295
 20
378.4298723392
 10
161.0752618536
 20
378.0546861185
 10
161.1384739619
 20
377.7089125172
 10
161.2235431485
 20
377.4058394209
 10
161.3272002524
 20
377.1571137586
 10
161.4454617891
 20
376.9722939182
 10
161.573783034
 20
376.8584824224
 10
161.7072326738
 20
376.8200529832
  0
LINE
  5
28B
330
1F
100
AcDbEntity
  8
0
  6
Continuous
 62
     7
370
    25
100
AcDbLine
 10
161.7072326738
 20
376.8200529832
 30
0.0
 11
163.5784313961
 21
376.8200529832
 31
0.0
  0
LINE
  5
28C
330
1F
100
AcDbEntity
  8
0
  6
Continuous
 62
     7
370
    25
100
AcDbLine
 10
161.0231923872
 20
390.8200529832
 30
0.0
 11
161.0231923872
 21
378.8200529832
 31
0.0
  0
LWPOLYLINE
  5
28D
330
1F
100
AcDbEntity
  8
0
  6
Continuous
 62
     7
370
    25
100
AcDbPolyline
 90
        9
 70
   128
 43
0.0
 10
161.7072326738
 20
392.8200529832
 10
161.573783034
 20
392.781623544
 10
161.4454617891
 20
392.6678120483
 10
161.3272002524
 20
392.4829922078
 10
161.2235431485
 20
392.2342665456
 10
161.1384739619
 20
391.9311934493
 10
161.0752618536
 20
391.585419848
 10
161.0363360295
 20
391.2102336273
 10
161.0231923872
 20
390.8200529832
  0
LINE
  5
28E
330
1F
100
AcDbEntity
  8
0
  6
Continuous
 62
     7
370
    25
100
AcDbLine
 10
163.5784313961
 20
392.8200529832
 30
0.0
 11
161.7072326738
 21
392.8200529832
 31
0.0
  0
LINE
  5
28F
330
1F
100
AcDbEntity
  8
0
  6
Continuous
 62
     7
370
    25
100
AcDbLine
 10
159.1438071456
 20
390.8200529832
 30
0.0
 11
159.1438071456
 21
378.8200529832
 31
0.0
  0
LWPOLYLINE
  5
290
330
1F
100
AcDbEntity
  8
0
  6
Continuous
 62
     7
370
    25
100
AcDbPolyline
 90
        9
 70
   128
 43
0.0
 10
159.1438071456
 20
390.8200529832
 10
159.1569507879
 20
391.2102336273
 10
159.195876612
 20
391.585419848
 10
159.2590887203
 20
391.9311934493
 10
159.344157907
 20
392.2342665456
 10
159.4478150108
 20
392.4829922078
 10
159.5660765475
 20
392.6678120483
 10
159.6943977925
 20
392.781623544
 10
159.8278474323
 20
392.8200529832
  0
LINE
  5
291
330
1F
100
AcDbEntity
  8
0
  6
Continuous
 62
     7
370
    25
100
AcDbLine
 10
159.8278474323
 20
392.8200529832
 30
0.0
 11
161.7072326738
 21
392.8200529832
 31
0.0
  0
LINE
  5
292
330
1F
100
AcDbEntity
  8
0
  6
Continuous
 62
     7
370
    25
100
AcDbLine
 10
163.5784313961
 20
392.8200529832
 30
0.0
 11
163.7541671834
 21
392.8200529832
 31
0.0
  0
LINE
  5
293
330
1F
100
AcDbEntity
  8
0
  6
Continuous
 62
     7
370
    25
100
AcDbLine
 10
163.7593535338
 20
392.8200529832
 30
0.0
 11
163.7593535338
 21
376.8200529832
 31
0.0
  0
LINE
  5
294
330
1F
100
AcDbEntity
  8
0
  6
Continuous
 62
     7
370
    25
100
AcDbLine
 10
163.7593535338
 20
376.8200529832
 30
0.0
 11
163.5784313961
 21
376.8200529832
 31
0.0
  0
LINE
  5
295
330
1F
100
AcDbEntity
  8
0
  6
Continuous
 62
     7
370
    25
100
AcDbLine
 10
163.7541671834
 20
392.8200529832
 30
0.0
 11
163.7593535338
 21
392.8200529832
 31
0.0
  0
LINE
  5
296
330
1F
100
AcDbEntity
  8
0
  6
Continuous
 62
     7
370
    25
100
AcDbLine
 10
163.7593535338
 20
392.8200529832
 30
0.0
 11
163.7593535338
 21
407.8200529832
 31
0.0
  0
LINE
  5
297
330
1F
100
AcDbEntity
  8
0
  6
Continuous
 62
     7
370
    25
100
AcDbLine
 10
161.7593535338
 20
392.8200529832
 30
0.0
 11
161.7593535338
 21
407.8200529832
 31
0.0
  0
LINE
  5
298
330
1F
100
AcDbEntity
  8
0
  6
Continuous
 62
     7
370
    25
100
AcDbLine
 10
161.7610206637
 20
407.9200529832
 30
0.0
 11
161.7593535338
 21
407.8200529832
 31
0.0
  0
LINE
  5
299
330
1F
100
AcDbEntity
  8
0
  6
Continuous
 62
     7
370
    25
100
AcDbLine
 10
163.7643660967
 20
407.9200529832
 30
0.0
 11
163.7593535338
 21
407.8200529832
 31
0.0
  0
SPLINE
  5
29A
330
1F
100
AcDbEntity
  8
0
  6
Continuous
 62
     7
370
    25
100
AcDbSpline
210
0.0
220
0.0
230
1.0
 70
    24
 71
     3
 72
    19
 73
    15
 74
     0
 42
0.000000001
 43
0.00000001
 40
0.0
 40
0.0
 40
0.0
 40
0.0
 40
0.1260638187928847
 40
0.1939261817305607
 40
0.2632286813759843
 40
0.3325311810214079
 40
0.4003935439590838
 40
0.5264573627519682
 40
0.6525211815448532
 40
0.7203835444825295
 40
0.7896860441279526
 40
0.858988543773376
 40
0.9268509067110522
 40
1.0
 40
1.0
 40
1.0
 40
1.0
 10
666.7593535337919
 20
390.4474413386193
 30
0.0
 10
666.7593535337919
 20
390.2558534276831
 30
0.0
 10
666.7593535337919
 20
389.9611303866918
 30
0.0
 10
666.7593535337919
 20
389.0338758638512
 30
0.0
 10
666.7593535337919
 20
388.1483198233187
 30
0.0
 10
666.7593535337921
 20
387.1119186137834
 30
0.0
 10
666.7593535337918
 20
385.6679652411341
 30
0.0
 10
666.7593535337921
 20
383.7831376584254
 30
0.0
 10
666.7593535337918
 20
382.0101274565989
 30
0.0
 10
666.7593535337921
 20
380.7878238348587
 30
0.0
 10
666.7593535337919
 20
379.9871371196405
 30
0.0
 10
666.7593535337919
 20
379.4016465368674
 30
0.0
 10
666.7593535337919
 20
378.9737603983145
 30
0.0
 10
666.7593535337919
 20
379.0042726502172
 30
0.0
 10
666.7593535337919
 20
379.0201007511432
 30
0.0
  0
SPLINE
  5
29B
330
1F
100
AcDbEntity
  8
0
  6
Continuous
 62
     7
370
    25
100
AcDbSpline
210
0.0
220
0.0
230
1.0
 70
     8
 71
     3
 72
     8
 73
     4
 74
     0
 42
0.000000001
 43
0.00000001
 40
0.0
 40
0.0
 40
0.0
 40
0.0
 40
1.0
 40
1.0
 40
1.0
 40
1.0
 10
662.7593535337991
 20
383.9313551911834
 30
0.0
 10
662.7593535337991
 20
382.9584108754037
 30
0.0
 10
662.9336688341784
 20
382.0120956279512
 30
0.0
 10
663.2059355211903
 20
381.0807438068931
 30
0.0
  0
SPLINE
  5
29C
330
1F
100
AcDbEntity
  8
0
  6
Continuous
 62
     7
370
    25
100
AcDbSpline
210
0.0
220
0.0
230
1.0
 70
     8
 71
     3
 72
     8
 73
     4
 74
     0
 42
0.000000001
 43
0.00000001
 40
0.0
 40
0.0
 40
0.0
 40
0.0
 40
1.0
 40
1.0
 40
1.0
 40
1.0
 10
663.2059355211904
 20
386.7819665754737
 30
0.0
 10
662.933668834179
 20
385.8506147544173
 30
0.0
 10
662.7593535337991
 20
384.9042995069613
 30
0.0
 10
662.7593535337991
 20
383.9313551911834
 30
0.0
  0
LINE
  5
29D
330
1F
100
AcDbEntity
  8
0
  6
Continuous
 62
     7
370
    25
100
AcDbLine
 10
666.7593535338
 20
386.7819665755
 30
0.0
 11
663.2059355212
 21
386.7819665755
 31
0.0
  0
LINE
  5
29E
330
1F
100
AcDbEntity
  8
0
  6
Continuous
 62
     7
370
    25
100
AcDbLine
 10
666.7593535338
 20
381.0807438069
 30
0.0
 11
663.2059355212
 21
381.0807438069
 31
0.0
  0
LINE
  5
29F
330
1F
100
AcDbEntity
  8
0
  6
Continuous
 62
     7
370
    25
100
AcDbLine
 10
662.7593535338
 20
388.6016211637
 30
0.0
 11
662.7593535338
 21
383.9313551912
 31
0.0
  0
SPLINE
  5
2A0
330
1F
100
AcDbEntity
  8
0
  6
Continuous
 62
     7
370
    25
100
AcDbSpline
210
0.0
220
0.0
230
1.0
 70
     8
 71
     3
 72
     8
 73
     4
 74
     0
 42
0.000000001
 43
0.00000001
 40
0.0
 40
0.0
 40
0.0
 40
0.0
 40
1.0
 40
1.0
 40
1.0
 40
1.0
 10
662.7593535337991
 20
388.601621163653
 30
0.0
 10
662.7593535337991
 20
387.9805534874338
 30
0.0
 10
662.9336688341784
 20
387.3764841669453
 30
0.0
 10
663.2059355211904
 20
386.78196657548
 30
0.0
  0
SPLINE
  5
2A1
330
1F
100
AcDbEntity
  8
0
  6
Continuous
 62
     7
370
    25
100
AcDbSpline
210
0.0
220
0.0
230
1.0
 70
     8
 71
     3
 72
     8
 73
     4
 74
     0
 42
0.000000001
 43
0.00000001
 40
0.0
 40
0.0
 40
0.0
 40
0.0
 40
1.0
 40
1.0
 40
1.0
 40
1.0
 10
663.2059355211903
 20
390.4212757518261
 30
0.0
 10
662.9336688341789
 20
389.8267581603619
 30
0.0
 10
662.7593535337991
 20
389.2226888398712
 30
0.0
 10
662.7593535337991
 20
388.601621163653
 30
0.0
  0
LINE
  5
2A2
330
1F
100
AcDbEntity
  8
0
  6
Continuous
 62
     7
370
    25
100
AcDbLine
 10
666.7593535338
 20
390.4212757518
 30
0.0
 11
663.2059355212
 21
390.4212757518
 31
0.0
  0
LINE
  5
2A3
330
1F
100
AcDbEntity
  8
0
  6
Continuous
 62
     7
370
    25
100
AcDbLine
 10
662.7593535338
 20
383.9313551912
 30
0.0
 11
662.7593535338
 21
380.0497870108
 31
0.0
  0
SPLINE
  5
2A4
330
1F
100
AcDbEntity
  8
0
  6
Continuous
 62
     7
370
    25
100
AcDbSpline
210
0.0
220
0.0
230
1.0
 70
     8
 71
     3
 72
     8
 73
     4
 74
     0
 42
0.000000001
 43
0.00000001
 40
0.0
 40
0.0
 40
0.0
 40
0.0
 40
1.0
 40
1.0
 40
1.0
 40
1.0
 10
663.2059355211903
 20
381.080743806888
 30
0.0
 10
662.9336688341789
 20
380.7439095772957
 30
0.0
 10
662.759353533799
 20
380.4016636503304
 30
0.0
 10
662.759353533799
 20
380.0497870107705
 30
0.0
  0
SPLINE
  5
2A5
330
1F
100
AcDbEntity
  8
0
  6
Continuous
 62
     7
370
    25
100
AcDbSpline
210
0.0
220
0.0
230
1.0
 70
     8
 71
     3
 72
     8
 73
     4
 74
     0
 42
0.000000001
 43
0.00000001
 40
0.0
 40
0.0
 40
0.0
 40
0.0
 40
1.0
 40
1.0
 40
1.0
 40
1.0
 10
662.759353533799
 20
380.0497870107705
 30
0.0
 10
662.759353533799
 20
379.69791037121
 30
0.0
 10
662.9336688341783
 20
379.355664444246
 30
0.0
 10
663.2059355211903
 20
379.018830214653
 30
0.0
  0
LINE
  5
2A6
330
1F
100
AcDbEntity
  8
0
  6
Continuous
 62
     7
370
    25
100
AcDbLine
 10
666.7593535338
 20
379.0188302147
 30
0.0
 11
663.2059355212
 21
379.0188302147
 31
0.0
  0
LINE
  5
2A7
330
1F
100
AcDbEntity
  8
0
  6
Continuous
 62
     7
370
    25
100
AcDbLine
 10
663.055729291
 20
390.0745171761
 30
0.0
 11
663.2059355212
 21
390.4212757518
 31
0.0
  0
LINE
  5
2A8
330
1F
100
AcDbEntity
  8
0
  6
Continuous
 62
     7
370
    25
100
AcDbLine
 10
662.7593535338
 20
389.7200529832
 30
0.0
 11
662.7593535338
 21
388.6016211637
 31
0.0
  0
LINE
  5
2A9
330
1F
100
AcDbEntity
  8
0
  6
Continuous
 62
     7
370
    25
100
AcDbLine
 10
677.7593535338
 20
384.332210844
 30
0.0
 11
677.7593535338
 21
387.1788029833
 31
0.0
  0
LINE
  5
2AA
330
1F
100
AcDbEntity
  8
0
  6
Continuous
 62
     7
370
    25
100
AcDbLine
 10
677.7593535338
 20
382.2613029832
 30
0.0
 11
677.7593535338
 21
384.332210844
 31
0.0
  0
LINE
  5
2AB
330
1F
100
AcDbEntity
  8
0
  6
Continuous
 62
     7
370
    25
100
AcDbLine
 10
677.2181035338
 20
381.7200529832
 30
0.0
 11
677.2181035338
 21
387.7200529832
 31
0.0
  0
LINE
  5
2AC
330
1F
100
AcDbEntity
  8
0
  6
Continuous
 62
     7
370
    25
100
AcDbLine
 10
662.7593535338
 20
380.0497870108
 30
0.0
 11
662.7593535338
 21
379.7200529832
 31
0.0
  0
ARC
  5
2AD
330
1F
100
AcDbEntity
  8
0
  6
Continuous
 62
     7
370
    25
100
AcDbCircle
 10
155.2593535338
 20
413.9200529832
 30
0.0
 40
6.0
100
AcDbArc
 50
216.8698976458
 51
270.0
  0
ARC
  5
2AE
330
1F
100
AcDbEntity
  8
0
  6
Continuous
 62
     7
370
    25
100
AcDbCircle
 10
676.2593535338
 20
413.9200529832
 30
0.0
 40
6.0
100
AcDbArc
 50
270.0
 51
323.1301023542
  0
SPLINE
  5
2AF
330
1F
100
AcDbEntity
  8
0
  6
Continuous
 62
     7
370
    25
100
AcDbSpline
210
0.0
220
0.0
230
1.0
 70
    24
 71
     3
 72
    15
 73
    11
 74
     0
 42
0.000000001
 43
0.00000001
 40
0.0
 40
0.0
 40
0.0
 40
0.0
 40
0.0346967497918683
 40
0.2211884951269672
 40
0.4076802404620664
 40
0.5080720152630805
 40
0.6105942475634838
 40
0.7131164798638873
 40
0.8135082546649011
 40
1.0
 40
1.0
 40
1.0
 40
1.0
 10
164.7593535337919
 20
378.946804173837
 30
0.0
 10
164.7593535337919
 20
378.9400830702056
 30
0.0
 10
164.7593535337919
 20
378.8972366708527
 30
0.0
 10
164.7593535337919
 20
379.3852776336112
 30
0.0
 10
164.759353533792
 20
380.4811886910798
 30
0.0
 10
164.7593535337919
 20
381.7000858235273
 30
0.0
 10
164.7593535337919
 20
382.7802610513843
 30
0.0
 10
164.759353533792
 20
383.94073795385
 30
0.0
 10
164.7593535337918
 20
385.4713128489651
 30
0.0
 10
164.7593535337919
 20
386.5349387376151
 30
0.0
 10
164.7593535337919
 20
387.2263602882983
 30
0.0
  0
SPLINE
  5
2B0
330
1F
100
AcDbEntity
  8
0
  6
Continuous
 62
     7
370
    25
100
AcDbSpline
210
0.0
220
0.0
230
1.0
 70
    24
 71
     3
 72
    12
 73
     8
 74
     0
 42
0.000000001
 43
0.00000001
 40
0.0
 40
0.0
 40
0.0
 40
0.0
 40
0.3344405486782637
 40
0.5144757571369877
 40
0.6983315710265378
 40
0.8821873849160877
 40
1.0
 40
1.0
 40
1.0
 40
1.0
 10
164.7593535337919
 20
387.2263602882983
 30
0.0
 10
164.7593535337919
 20
387.8505058238002
 30
0.0
 10
164.7593535337919
 20
388.8106398392777
 30
0.0
 10
164.7593535337919
 20
389.718550745573
 30
0.0
 10
164.7593535337919
 20
390.2242680834892
 30
0.0
 10
164.759353533792
 20
390.4958878176274
 30
0.0
 10
164.7593535337919
 20
390.4940280861676
 30
0.0
 10
164.7593535337919
 20
390.4933017926427
 30
0.0
  0
SPLINE
  5
2B1
330
1F
100
AcDbEntity
  8
0
  6
Continuous
 62
     7
370
    25
100
AcDbSpline
210
0.0
220
0.0
230
1.0
 70
     8
 71
     3
 72
     8
 73
     4
 74
     0
 42
0.000000001
 43
0.00000001
 40
0.0
 40
0.0
 40
0.0
 40
0.0
 40
1.0
 40
1.0
 40
1.0
 40
1.0
 10
168.7593535337849
 20
384.3366579555533
 30
0.0
 10
168.7593535337849
 20
385.3190364001261
 30
0.0
 10
168.5850382334054
 20
386.2745275683159
 30
0.0
 10
168.3127715463935
 20
387.2149102176434
 30
0.0
  0
SPLINE
  5
2B2
330
1F
100
AcDbEntity
  8
0
  6
Continuous
 62
     7
370
    25
100
AcDbSpline
210
0.0
220
0.0
230
1.0
 70
     8
 71
     3
 72
     8
 73
     4
 74
     0
 42
0.000000001
 43
0.00000001
 40
0.0
 40
0.0
 40
0.0
 40
0.0
 40
1.0
 40
1.0
 40
1.0
 40
1.0
 10
168.3127715463935
 20
381.4584056934634
 30
0.0
 10
168.585038233405
 20
382.3987883427892
 30
0.0
 10
168.7593535337849
 20
383.3542795109825
 30
0.0
 10
168.7593535337849
 20
384.3366579555533
 30
0.0
  0
LINE
  5
2B3
330
1F
100
AcDbEntity
  8
0
  6
Continuous
 62
     7
370
    25
100
AcDbLine
 10
164.7593535338
 20
381.4584056935
 30
0.0
 11
168.3127715464
 21
381.4584056935
 31
0.0
  0
LINE
  5
2B4
330
1F
100
AcDbEntity
  8
0
  6
Continuous
 62
     7
370
    25
100
AcDbLine
 10
164.7593535338
 20
387.2149102176
 30
0.0
 11
168.3127715464
 21
387.2149102176
 31
0.0
  0
LINE
  5
2B5
330
1F
100
AcDbEntity
  8
0
  6
Continuous
 62
     7
370
    25
100
AcDbLine
 10
168.7593535338
 20
384.3366579556
 30
0.0
 11
168.7593535338
 21
388.8457338625
 31
0.0
  0
SPLINE
  5
2B6
330
1F
100
AcDbEntity
  8
0
  6
Continuous
 62
     7
370
    25
100
AcDbSpline
210
0.0
220
0.0
230
1.0
 70
     8
 71
     3
 72
     8
 73
     4
 74
     0
 42
0.000000001
 43
0.00000001
 40
0.0
 40
0.0
 40
0.0
 40
0.0
 40
1.0
 40
1.0
 40
1.0
 40
1.0
 10
168.3127715463934
 20
387.2149102176496
 30
0.0
 10
168.5850382334048
 20
387.7477329587144
 30
0.0
 10
168.7593535337848
 20
388.289116217609
 30
0.0
 10
168.7593535337848
 20
388.8457338625374
 30
0.0
  0
LINE
  5
2B7
330
1F
100
AcDbEntity
  8
0
  6
Continuous
 62
     7
370
    25
100
AcDbLine
 10
168.7593535338
 20
380.2109770763
 30
0.0
 11
168.7593535338
 21
384.3366579556
 31
0.0
  0
SPLINE
  5
2B8
330
1F
100
AcDbEntity
  8
0
  6
Continuous
 62
     7
370
    25
100
AcDbSpline
210
0.0
220
0.0
230
1.0
 70
     8
 71
     3
 72
     8
 73
     4
 74
     0
 42
0.000000001
 43
0.00000001
 40
0.0
 40
0.0
 40
0.0
 40
0.0
 40
1.0
 40
1.0
 40
1.0
 40
1.0
 10
168.7593535337847
 20
380.2109770762559
 30
0.0
 10
168.7593535337847
 20
380.636737875899
 30
0.0
 10
168.5850382334054
 20
381.0508457851961
 30
0.0
 10
168.3127715463935
 20
381.4584056934578
 30
0.0
  0
SPLINE
  5
2B9
330
1F
100
AcDbEntity
  8
0
  6
Continuous
 62
     7
370
    25
100
AcDbSpline
210
0.0
220
0.0
230
1.0
 70
     8
 71
     3
 72
     8
 73
     4
 74
     0
 42
0.000000001
 43
0.00000001
 40
0.0
 40
0.0
 40
0.0
 40
0.0
 40
1.0
 40
1.0
 40
1.0
 40
1.0
 10
168.7593535337848
 20
388.8457338625374
 30
0.0
 10
168.7593535337848
 20
389.4023515074672
 30
0.0
 10
168.5850382334056
 20
389.9437347663591
 30
0.0
 10
168.3127715463935
 20
390.4765575074253
 30
0.0
  0
LINE
  5
2BA
330
1F
100
AcDbEntity
  8
0
  6
Continuous
 62
     7
370
    25
100
AcDbLine
 10
168.3127715464
 20
390.4765575074
 30
0.0
 11
164.7593535338
 21
390.4765575074
 31
0.0
  0
SPLINE
  5
2BB
330
1F
100
AcDbEntity
  8
0
  6
Continuous
 62
     7
370
    25
100
AcDbSpline
210
0.0
220
0.0
230
1.0
 70
     8
 71
     3
 72
     8
 73
     4
 74
     0
 42
0.000000001
 43
0.00000001
 40
0.0
 40
0.0
 40
0.0
 40
0.0
 40
1.0
 40
1.0
 40
1.0
 40
1.0
 10
168.3127715463934
 20
378.9635484590538
 30
0.0
 10
168.5850382334048
 20
379.3711083673147
 30
0.0
 10
168.7593535337847
 20
379.7852162766134
 30
0.0
 10
168.7593535337847
 20
380.2109770762559
 30
0.0
  0
LINE
  5
2BC
330
1F
100
AcDbEntity
  8
0
  6
Continuous
 62
     7
370
    25
100
AcDbLine
 10
164.7593535338
 20
378.9635484591
 30
0.0
 11
168.3127715464
 21
378.9635484591
 31
0.0
  0
LINE
  5
2BD
330
1F
100
AcDbEntity
  8
0
  6
Continuous
 62
     7
370
    25
100
AcDbLine
 10
154.3006035338
 20
387.7200529832
 30
0.0
 11
154.3006035338
 21
381.7200529832
 31
0.0
  0
LINE
  5
2BE
330
1F
100
AcDbEntity
  8
0
  6
Continuous
 62
     7
370
    25
100
AcDbLine
 10
153.7593535338
 20
382.502714906
 30
0.0
 11
153.7593535338
 21
382.2613029832
 31
0.0
  0
LINE
  5
2BF
330
1F
100
AcDbEntity
  8
0
  6
Continuous
 62
     7
370
    25
100
AcDbLine
 10
153.7593535338
 20
387.1788029833
 30
0.0
 11
153.7593535338
 21
382.502714906
 31
0.0
  0
LINE
  5
2C0
330
1F
100
AcDbEntity
  8
0
  6
Continuous
 62
     7
370
    25
100
AcDbLine
 10
168.3127715464
 20
390.4765575074
 30
0.0
 11
168.3879593019
 21
390.2665370396
 31
0.0
  0
LINE
  5
2C1
330
1F
100
AcDbEntity
  8
0
  6
Continuous
 62
     7
370
    25
100
AcDbLine
 10
168.7593535338
 20
388.8457338625
 30
0.0
 11
168.7593535338
 21
389.7200529832
 31
0.0
  0
LINE
  5
2C2
330
1F
100
AcDbEntity
  8
0
  6
Continuous
 62
     7
370
    25
100
AcDbLine
 10
168.7593535338
 20
379.7200529832
 30
0.0
 11
168.7593535338
 21
380.2109770763
 31
0.0
  0
ARC
  5
2C3
330
1F
100
AcDbEntity
  8
0
  6
Continuous
 62
     7
370
    25
100
AcDbCircle
 10
667.4593535338
 20
107.2463019205
 30
0.0
 40
0.5000000000001137
100
AcDbArc
 50
180.0
 51
0.0
  0
ARC
  5
2C4
330
1F
100
AcDbEntity
  8
0
  6
Continuous
 62
     7
370
    25
100
AcDbCircle
 10
667.4593535338
 20
118.8463019207
 30
0.0
 40
0.5000000000001137
100
AcDbArc
 50
0.0
 51
180.0
  0
LINE
  5
2C5
330
1F
100
AcDbEntity
  8
0
  6
Continuous
 62
     7
370
    25
100
AcDbLine
 10
677.4181035338
 20
110.0463019206
 30
0.0
 11
677.9593535338
 21
110.5875519206
 31
0.0
  0
LINE
  5
2C6
330
1F
100
AcDbEntity
  8
0
  6
Continuous
 62
     7
370
    25
100
AcDbLine
 10
677.9593535338
 20
115.5050519206
 30
0.0
 11
677.4181035338
 21
116.0463019206
 31
0.0
  0
LINE
  5
2C7
330
1F
100
AcDbEntity
  8
0
  6
Continuous
 62
     7
370
    25
100
AcDbLine
 10
677.4181035338
 20
116.0463019206
 30
0.0
 11
668.7593535338
 21
116.0463019206
 31
0.0
  0
LINE
  5
2C8
330
1F
100
AcDbEntity
  8
0
  6
Continuous
 62
     7
370
    25
100
AcDbLine
 10
668.7593535338
 20
110.0463019206
 30
0.0
 11
677.4181035338
 21
110.0463019206
 31
0.0
  0
LINE
  5
2C9
330
1F
100
AcDbEntity
  8
0
  6
Continuous
 62
     7
370
    25
100
AcDbLine
 10
650.8045681194
 20
104.4181246732
 30
0.0
 11
650.4093535338
 21
104.6463019206
 31
0.0
  0
LINE
  5
2CA
330
1F
100
AcDbEntity
  8
0
  6
Continuous
 62
     7
370
    25
100
AcDbLine
 10
644.1093535338
 20
104.6463019206
 30
0.0
 11
643.6788152389
 21
104.3977305201
 31
0.0
  0
LINE
  5
2CB
330
1F
100
AcDbEntity
  8
0
  6
Continuous
 62
     7
370
    25
100
AcDbLine
 10
643.6788152389
 20
101.6948733211
 30
0.0
 11
644.1093535338
 21
101.4463019206
 31
0.0
  0
LINE
  5
2CC
330
1F
100
AcDbEntity
  8
0
  6
Continuous
 62
     7
370
    25
100
AcDbLine
 10
650.4093535338
 20
101.4463019206
 30
0.0
 11
650.8045681194
 21
101.674479168
 31
0.0
  0
LINE
  5
2CD
330
1F
100
AcDbEntity
  8
0
  6
Continuous
 62
     7
370
    25
100
AcDbLine
 10
337.8045681194
 20
104.4181246732
 30
0.0
 11
337.4093535338
 21
104.6463019206
 31
0.0
  0
LINE
  5
2CE
330
1F
100
AcDbEntity
  8
0
  6
Continuous
 62
     7
370
    25
100
AcDbLine
 10
331.1093535338
 20
104.6463019206
 30
0.0
 11
330.6788152389
 21
104.3977305201
 31
0.0
  0
LINE
  5
2CF
330
1F
100
AcDbEntity
  8
0
  6
Continuous
 62
     7
370
    25
100
AcDbLine
 10
330.6788152389
 20
101.6948733211
 30
0.0
 11
331.1093535338
 21
101.4463019206
 31
0.0
  0
LINE
  5
2D0
330
1F
100
AcDbEntity
  8
0
  6
Continuous
 62
     7
370
    25
100
AcDbLine
 10
337.4093535338
 20
101.4463019206
 30
0.0
 11
337.8045681194
 21
101.674479168
 31
0.0
  0
LINE
  5
2D1
330
1F
100
AcDbEntity
  8
0
  6
Continuous
 62
     7
370
    25
100
AcDbLine
 10
500.8045681194
 20
104.4181246732
 30
0.0
 11
500.4093535338
 21
104.6463019206
 31
0.0
  0
LINE
  5
2D2
330
1F
100
AcDbEntity
  8
0
  6
Continuous
 62
     7
370
    25
100
AcDbLine
 10
494.1093535338
 20
104.6463019206
 30
0.0
 11
493.6788152389
 21
104.3977305201
 31
0.0
  0
LINE
  5
2D3
330
1F
100
AcDbEntity
  8
0
  6
Continuous
 62
     7
370
    25
100
AcDbLine
 10
493.6788152389
 20
101.6948733211
 30
0.0
 11
494.1093535338
 21
101.4463019206
 31
0.0
  0
LINE
  5
2D4
330
1F
100
AcDbEntity
  8
0
  6
Continuous
 62
     7
370
    25
100
AcDbLine
 10
500.4093535338
 20
101.4463019206
 30
0.0
 11
500.8045681194
 21
101.674479168
 31
0.0
  0
LINE
  5
2D5
330
1F
100
AcDbEntity
  8
0
  6
Continuous
 62
     7
370
    25
100
AcDbLine
 10
187.8045681194
 20
104.4181246732
 30
0.0
 11
187.4093535338
 21
104.6463019206
 31
0.0
  0
LINE
  5
2D6
330
1F
100
AcDbEntity
  8
0
  6
Continuous
 62
     7
370
    25
100
AcDbLine
 10
181.1093535338
 20
104.6463019206
 30
0.0
 11
180.6788152389
 21
104.3977305201
 31
0.0
  0
LINE
  5
2D7
330
1F
100
AcDbEntity
  8
0
  6
Continuous
 62
     7
370
    25
100
AcDbLine
 10
180.6788152389
 20
101.6948733211
 30
0.0
 11
181.1093535338
 21
101.4463019206
 31
0.0
  0
LINE
  5
2D8
330
1F
100
AcDbEntity
  8
0
  6
Continuous
 62
     7
370
    25
100
AcDbLine
 10
187.4093535338
 20
101.4463019206
 30
0.0
 11
187.8045681194
 21
101.674479168
 31
0.0
  0
LINE
  5
2D9
330
1F
100
AcDbEntity
  8
0
  6
Continuous
 62
     7
370
    25
100
AcDbLine
 10
163.2593535338
 20
87.9963019206
 30
0.0
 11
668.2593535338
 21
87.9963019206
 31
0.0
  0
LINE
  5
2DA
330
1F
100
AcDbEntity
  8
0
  6
Continuous
 62
     7
370
    25
100
AcDbLine
 10
645.2593535338
 20
109.7463019206
 30
0.0
 11
645.2593535338
 21
104.6463019206
 31
0.0
  0
LINE
  5
2DB
330
1F
100
AcDbEntity
  8
0
  6
Continuous
 62
     7
370
    25
100
AcDbLine
 10
645.2593535338
 20
101.4463019206
 30
0.0
 11
645.2593535338
 21
101.3463019206
 31
0.0
  0
LINE
  5
2DC
330
1F
100
AcDbEntity
  8
0
  6
Continuous
 62
     7
370
    25
100
AcDbLine
 10
649.2593535338
 20
101.3463019206
 30
0.0
 11
649.2593535338
 21
101.4463019206
 31
0.0
  0
LINE
  5
2DD
330
1F
100
AcDbEntity
  8
0
  6
Continuous
 62
     7
370
    25
100
AcDbLine
 10
649.2593535338
 20
104.6463019206
 30
0.0
 11
649.2593535338
 21
109.7463019206
 31
0.0
  0
LINE
  5
2DE
330
1F
100
AcDbEntity
  8
0
  6
Continuous
 62
     7
370
    25
100
AcDbLine
 10
332.2593535338
 20
109.7463019206
 30
0.0
 11
332.2593535338
 21
104.6463019206
 31
0.0
  0
LINE
  5
2DF
330
1F
100
AcDbEntity
  8
0
  6
Continuous
 62
     7
370
    25
100
AcDbLine
 10
332.2593535338
 20
101.4463019206
 30
0.0
 11
332.2593535338
 21
101.3463019206
 31
0.0
  0
LINE
  5
2E0
330
1F
100
AcDbEntity
  8
0
  6
Continuous
 62
     7
370
    25
100
AcDbLine
 10
336.2593535338
 20
101.3463019206
 30
0.0
 11
336.2593535338
 21
101.4463019206
 31
0.0
  0
LINE
  5
2E1
330
1F
100
AcDbEntity
  8
0
  6
Continuous
 62
     7
370
    25
100
AcDbLine
 10
336.2593535338
 20
104.6463019206
 30
0.0
 11
336.2593535338
 21
109.7463019206
 31
0.0
  0
LINE
  5
2E2
330
1F
100
AcDbEntity
  8
0
  6
Continuous
 62
     7
370
    25
100
AcDbLine
 10
495.2593535338
 20
109.7463019206
 30
0.0
 11
495.2593535338
 21
104.6463019206
 31
0.0
  0
LINE
  5
2E3
330
1F
100
AcDbEntity
  8
0
  6
Continuous
 62
     7
370
    25
100
AcDbLine
 10
495.2593535338
 20
101.4463019206
 30
0.0
 11
495.2593535338
 21
101.3463019206
 31
0.0
  0
LINE
  5
2E4
330
1F
100
AcDbEntity
  8
0
  6
Continuous
 62
     7
370
    25
100
AcDbLine
 10
499.2593535338
 20
101.3463019206
 30
0.0
 11
499.2593535338
 21
101.4463019206
 31
0.0
  0
LINE
  5
2E5
330
1F
100
AcDbEntity
  8
0
  6
Continuous
 62
     7
370
    25
100
AcDbLine
 10
499.2593535338
 20
104.6463019206
 30
0.0
 11
499.2593535338
 21
109.7463019206
 31
0.0
  0
LINE
  5
2E6
330
1F
100
AcDbEntity
  8
0
  6
Continuous
 62
     7
370
    25
100
AcDbLine
 10
182.2593535338
 20
109.7463019206
 30
0.0
 11
182.2593535338
 21
104.6463019206
 31
0.0
  0
LINE
  5
2E7
330
1F
100
AcDbEntity
  8
0
  6
Continuous
 62
     7
370
    25
100
AcDbLine
 10
182.2593535338
 20
101.4463019206
 30
0.0
 11
182.2593535338
 21
101.3463019206
 31
0.0
  0
LINE
  5
2E8
330
1F
100
AcDbEntity
  8
0
  6
Continuous
 62
     7
370
    25
100
AcDbLine
 10
186.2593535338
 20
101.3463019206
 30
0.0
 11
186.2593535338
 21
101.4463019206
 31
0.0
  0
LINE
  5
2E9
330
1F
100
AcDbEntity
  8
0
  6
Continuous
 62
     7
370
    25
100
AcDbLine
 10
186.2593535338
 20
104.6463019206
 30
0.0
 11
186.2593535338
 21
109.7463019206
 31
0.0
  0
ARC
  5
2EA
330
1F
100
AcDbEntity
  8
0
  6
Continuous
 62
     7
370
    25
100
AcDbCircle
 10
164.0593535338
 20
118.8463019207
 30
0.0
 40
0.5
100
AcDbArc
 50
0.0
 51
180.0
  0
ARC
  5
2EB
330
1F
100
AcDbEntity
  8
0
  6
Continuous
 62
     7
370
    25
100
AcDbCircle
 10
164.0593535338
 20
107.2463019205
 30
0.0
 40
0.5
100
AcDbArc
 50
180.0
 51
360.0
  0
LINE
  5
2EC
330
1F
100
AcDbEntity
  8
0
  6
Continuous
 62
     7
370
    25
100
AcDbLine
 10
154.1006035338
 20
110.0463019206
 30
0.0
 11
162.7593535338
 21
110.0463019206
 31
0.0
  0
LINE
  5
2ED
330
1F
100
AcDbEntity
  8
0
  6
Continuous
 62
     7
370
    25
100
AcDbLine
 10
162.7593535338
 20
116.0463019206
 30
0.0
 11
154.1006035338
 21
116.0463019206
 31
0.0
  0
LINE
  5
2EE
330
1F
100
AcDbEntity
  8
0
  6
Continuous
 62
     7
370
    25
100
AcDbLine
 10
154.1006035338
 20
116.0463019206
 30
0.0
 11
153.5593535338
 21
115.5050519206
 31
0.0
  0
LINE
  5
2EF
330
1F
100
AcDbEntity
  8
0
  6
Continuous
 62
     7
370
    25
100
AcDbLine
 10
153.5593535338
 20
110.5875519206
 30
0.0
 11
154.1006035338
 21
110.0463019206
 31
0.0
  0
LINE
  5
2F0
330
1F
100
AcDbEntity
  8
0
  6
Continuous
 62
     7
370
    25
100
AcDbLine
 10
168.5593535338
 20
118.0463019206
 30
0.0
 11
168.229870438
 21
118.6169833827
 31
0.0
  0
LINE
  5
2F1
330
1F
100
AcDbEntity
  8
0
  6
Continuous
 62
     7
370
    25
100
AcDbLine
 10
168.229870438
 20
107.4756204585
 30
0.0
 11
168.5593535338
 21
108.0463019206
 31
0.0
  0
LINE
  5
2F2
330
1F
100
AcDbEntity
  8
0
  6
Continuous
 62
     7
370
    25
100
AcDbLine
 10
161.2593535338
 20
89.8463019206
 30
0.0
 11
155.2593535338
 21
89.8463019206
 31
0.0
  0
LINE
  5
2F3
330
1F
100
AcDbEntity
  8
0
  6
Continuous
 62
     7
370
    25
100
AcDbLine
 10
670.2593535338
 20
89.8463019206
 30
0.0
 11
668.0872605105
 21
89.8463019206
 31
0.0
  0
LINE
  5
2F4
330
1F
100
AcDbEntity
  8
0
  6
Continuous
 62
     7
370
    25
100
AcDbLine
 10
163.431446557
 20
89.8463019206
 30
0.0
 11
161.2593535338
 21
89.8463019206
 31
0.0
  0
LINE
  5
2F5
330
1F
100
AcDbEntity
  8
0
  6
Continuous
 62
     7
370
    25
100
AcDbLine
 10
676.2593535338
 20
89.8463019206
 30
0.0
 11
670.2593535338
 21
89.8463019206
 31
0.0
  0
SPLINE
  5
2F6
330
1F
100
AcDbEntity
  8
0
  6
Continuous
 62
     7
370
    25
100
AcDbSpline
210
0.0
220
0.0
230
1.0
 70
    24
 71
     3
 72
     9
 73
     5
 74
     0
 42
0.000000001
 43
0.00000001
 40
0.0
 40
0.0
 40
0.0
 40
0.0
 40
0.5153941859644994
 40
1.0
 40
1.0
 40
1.0
 40
1.0
 10
667.9593535337913
 20
118.7213119206162
 30
0.0
 10
667.9593535337912
 20
118.765053768672
 30
0.0
 10
667.9593535337912
 20
118.8499244351387
 30
0.0
 10
667.9593535337913
 20
118.8271679998953
 30
0.0
 10
667.9593535337913
 20
118.8161400990696
 30
0.0
  0
SPLINE
  5
2F7
330
1F
100
AcDbEntity
  8
0
  6
Continuous
 62
     7
370
    25
100
AcDbSpline
210
0.0
220
0.0
230
1.0
 70
    24
 71
     3
 72
    17
 73
    13
 74
     0
 42
0.000000001
 43
0.00000001
 40
0.0
 40
0.0
 40
0.0
 40
0.0
 40
0.0359921626376351
 40
0.1205930661280429
 40
0.2034359252874594
 40
0.3573281084250897
 40
0.5112202915627202
 40
0.5940631507221373
 40
0.678664054212545
 40
0.7632649577029526
 40
0.8461078168623696
 40
0.9999999999999999
 40
0.9999999999999999
 40
0.9999999999999999
 40
0.9999999999999999
 10
666.9593535337912
 20
118.8161400990806
 30
0.0
 10
666.9593535337912
 20
118.8232914861218
 30
0.0
 10
666.9593535337913
 20
118.8472524717136
 30
0.0
 10
666.9593535337912
 20
118.6292475454779
 30
0.0
 10
666.9593535337913
 20
118.0574604483908
 30
0.0
 10
666.9593535337912
 20
116.8604438723005
 30
0.0
 10
666.9593535337914
 20
115.2143871124234
 30
0.0
 10
666.9593535337912
 20
113.7291967602096
 30
0.0
 10
666.9593535337913
 20
112.5331686358354
 30
0.0
 10
666.9593535337912
 20
111.363403223046
 30
0.0
 10
666.9593535337912
 20
109.9414560424622
 30
0.0
 10
666.9593535337912
 20
109.129188762602
 30
0.0
 10
666.9593535337912
 20
108.6011656031405
 30
0.0
  0
SPLINE
  5
2F8
330
1F
100
AcDbEntity
  8
0
  6
Continuous
 62
     7
370
    25
100
AcDbSpline
210
0.0
220
0.0
230
1.0
 70
     8
 71
     3
 72
     8
 73
     4
 74
     0
 42
0.000000001
 43
0.00000001
 40
0.0
 40
0.0
 40
0.0
 40
0.0
 40
1.0
 40
1.0
 40
1.0
 40
1.0
 10
662.9593535337984
 20
116.2581033182951
 30
0.0
 10
662.9593535337984
 20
115.5029825119872
 30
0.0
 10
663.1336688341778
 20
114.7685290380437
 30
0.0
 10
663.4059355211897
 20
114.0456889672734
 30
0.0
  0
SPLINE
  5
2F9
330
1F
100
AcDbEntity
  8
0
  6
Continuous
 62
     7
370
    25
100
AcDbSpline
210
0.0
220
0.0
230
1.0
 70
     8
 71
     3
 72
     8
 73
     4
 74
     0
 42
0.000000001
 43
0.00000001
 40
0.0
 40
0.0
 40
0.0
 40
0.0
 40
1.0
 40
1.0
 40
1.0
 40
1.0
 10
663.4059355211897
 20
118.4705176693169
 30
0.0
 10
663.1336688341783
 20
117.7476775985476
 30
0.0
 10
662.9593535337984
 20
117.0132241246019
 30
0.0
 10
662.9593535337984
 20
116.2581033182951
 30
0.0
  0
LINE
  5
2FA
330
1F
100
AcDbEntity
  8
0
  6
Continuous
 62
     7
370
    25
100
AcDbLine
 10
663.4059355212
 20
118.4705176693
 30
0.0
 11
666.9593535338
 21
118.4705176693
 31
0.0
  0
LINE
  5
2FB
330
1F
100
AcDbEntity
  8
0
  6
Continuous
 62
     7
370
    25
100
AcDbLine
 10
666.9593535338
 20
114.0456889673
 30
0.0
 11
663.4059355212
 21
114.0456889673
 31
0.0
  0
SPLINE
  5
2FC
330
1F
100
AcDbEntity
  8
0
  6
Continuous
 62
     7
370
    25
100
AcDbSpline
210
0.0
220
0.0
230
1.0
 70
     8
 71
     3
 72
     8
 73
     4
 74
     0
 42
0.000000001
 43
0.00000001
 40
0.0
 40
0.0
 40
0.0
 40
0.0
 40
1.0
 40
1.0
 40
1.0
 40
1.0
 10
662.9593535337983
 20
111.3335810929181
 30
0.0
 10
662.9593535337983
 20
110.4079095142978
 30
0.0
 10
663.1336688341777
 20
109.5075731694785
 30
0.0
 10
663.4059355211897
 20
108.6214732185693
 30
0.0
  0
SPLINE
  5
2FD
330
1F
100
AcDbEntity
  8
0
  6
Continuous
 62
     7
370
    25
100
AcDbSpline
210
0.0
220
0.0
230
1.0
 70
     8
 71
     3
 72
     8
 73
     4
 74
     0
 42
0.000000001
 43
0.00000001
 40
0.0
 40
0.0
 40
0.0
 40
0.0
 40
1.0
 40
1.0
 40
1.0
 40
1.0
 10
663.4059355211897
 20
114.0456889672668
 30
0.0
 10
663.1336688341781
 20
113.1595890163593
 30
0.0
 10
662.9593535337983
 20
112.2592526715366
 30
0.0
 10
662.9593535337983
 20
111.3335810929181
 30
0.0
  0
LINE
  5
2FE
330
1F
100
AcDbEntity
  8
0
  6
Continuous
 62
     7
370
    25
100
AcDbLine
 10
666.9593535338
 20
108.6214732186
 30
0.0
 11
663.4059355212
 21
108.6214732186
 31
0.0
  0
LINE
  5
2FF
330
1F
100
AcDbEntity
  8
0
  6
Continuous
 62
     7
370
    25
100
AcDbLine
 10
662.9593535338
 20
116.2581033183
 30
0.0
 11
662.9593535338
 21
111.3335810929
 31
0.0
  0
SPLINE
  5
300
330
1F
100
AcDbEntity
  8
0
  6
Continuous
 62
     7
370
    25
100
AcDbSpline
210
0.0
220
0.0
230
1.0
 70
     8
 71
     3
 72
     8
 73
     4
 74
     0
 42
0.000000001
 43
0.00000001
 40
0.0
 40
0.0
 40
0.0
 40
0.0
 40
1.0
 40
1.0
 40
1.0
 40
1.0
 10
663.4059355211897
 20
108.6214732185649
 30
0.0
 10
663.1336688341783
 20
108.4582133384265
 30
0.0
 10
662.9593535337984
 20
108.2923304675501
 30
0.0
 10
662.9593535337984
 20
108.1217796952382
 30
0.0
  0
LINE
  5
301
330
1F
100
AcDbEntity
  8
0
  6
Continuous
 62
     7
370
    25
100
AcDbLine
 10
662.9593535338
 20
111.3335810929
 30
0.0
 11
662.9593535338
 21
108.1217796952
 31
0.0
  0
SPLINE
  5
302
330
1F
100
AcDbEntity
  8
0
  6
Continuous
 62
     7
370
    25
100
AcDbSpline
210
0.0
220
0.0
230
1.0
 70
     8
 71
     3
 72
     8
 73
     4
 74
     0
 42
0.000000001
 43
0.00000001
 40
0.0
 40
0.0
 40
0.0
 40
0.0
 40
1.0
 40
1.0
 40
1.0
 40
1.0
 10
662.9593535337984
 20
117.9708241459925
 30
0.0
 10
662.9593535337984
 20
118.1413749183048
 30
0.0
 10
663.1336688341776
 20
118.3072577891804
 30
0.0
 10
663.4059355211897
 20
118.4705176693192
 30
0.0
  0
LINE
  5
303
330
1F
100
AcDbEntity
  8
0
  6
Continuous
 62
     7
370
    25
100
AcDbLine
 10
662.9593535338
 20
116.2581033183
 30
0.0
 11
662.9593535338
 21
118.0416638864
 31
0.0
  0
SPLINE
  5
304
330
1F
100
AcDbEntity
  8
0
  6
Continuous
 62
     7
370
    25
100
AcDbSpline
210
0.0
220
0.0
230
1.0
 70
     8
 71
     3
 72
     8
 73
     4
 74
     0
 42
0.000000001
 43
0.00000001
 40
0.0
 40
0.0
 40
0.0
 40
0.0
 40
1.0
 40
1.0
 40
1.0
 40
1.0
 10
662.9593535337984
 20
108.1217796952382
 30
0.0
 10
662.9593535337984
 20
107.951228922926
 30
0.0
 10
663.1336688341778
 20
107.7853460520502
 30
0.0
 10
663.4059355211898
 20
107.6220861719115
 30
0.0
  0
LINE
  5
305
330
1F
100
AcDbEntity
  8
0
  6
Continuous
 62
     7
370
    25
100
AcDbLine
 10
666.9593535338
 20
107.6220861719
 30
0.0
 11
663.4059355212
 21
107.6220861719
 31
0.0
  0
LINE
  5
306
330
1F
100
AcDbEntity
  8
0
  6
Continuous
 62
     7
370
    25
100
AcDbLine
 10
677.9593535338
 20
110.5875519206
 30
0.0
 11
677.9593535338
 21
115.5050519206
 31
0.0
  0
LINE
  5
307
330
1F
100
AcDbEntity
  8
0
  6
Continuous
 62
     7
370
    25
100
AcDbLine
 10
677.4181035338
 20
114.9733827592
 30
0.0
 11
677.4181035338
 21
116.0463019206
 31
0.0
  0
LINE
  5
308
330
1F
100
AcDbEntity
  8
0
  6
Continuous
 62
     7
370
    25
100
AcDbLine
 10
677.4181035338
 20
110.0463019206
 30
0.0
 11
677.4181035338
 21
114.9733827592
 31
0.0
  0
ARC
  5
309
330
1F
100
AcDbEntity
  8
0
  6
Continuous
 62
     7
370
    25
100
AcDbCircle
 10
670.2593535338
 20
90.4463019206
 30
0.0
 40
3.0
100
AcDbArc
 50
227.6305369016
 51
270.0
  0
LINE
  5
30A
330
1F
100
AcDbEntity
  8
0
  6
Continuous
 62
     7
370
    25
100
AcDbLine
 10
682.2593535338
 20
87.4463019206
 30
0.0
 11
670.2593535338
 21
87.4463019206
 31
0.0
  0
ARC
  5
30B
330
1F
100
AcDbEntity
  8
0
  6
Continuous
 62
     7
370
    25
100
AcDbCircle
 10
682.2593535338
 20
90.4463019206
 30
0.0
 40
3.0
100
AcDbArc
 50
270.0
 51
0.0
  0
LINE
  5
30C
330
1F
100
AcDbEntity
  8
0
  6
Continuous
 62
     7
370
    25
100
AcDbLine
 10
685.2593535338
 20
91.4463019206
 30
0.0
 11
685.2593535338
 21
90.4463019206
 31
0.0
  0
ARC
  5
30D
330
1F
100
AcDbEntity
  8
0
  6
Continuous
 62
     7
370
    25
100
AcDbCircle
 10
688.2593535338
 20
91.4463019206
 30
0.0
 40
3.0
100
AcDbArc
 50
90.0
 51
180.0
  0
LINE
  5
30E
330
1F
100
AcDbEntity
  8
0
  6
Continuous
 62
     7
370
    25
100
AcDbLine
 10
711.7886428557
 20
94.4463019206
 30
0.0
 11
688.2593535338
 21
94.4463019206
 31
0.0
  0
LINE
  5
30F
330
1F
100
AcDbEntity
  8
0
  6
Continuous
 62
     7
370
    25
100
AcDbLine
 10
711.7886428557
 20
84.8463019206
 30
0.0
 11
711.7886428557
 21
94.4463019206
 31
0.0
  0
LINE
  5
310
330
1F
100
AcDbEntity
  8
0
  6
Continuous
 62
     7
370
    25
100
AcDbLine
 10
119.7300642119
 20
84.8463019206
 30
0.0
 11
119.7300642119
 21
94.4463019206
 31
0.0
  0
LINE
  5
311
330
1F
100
AcDbEntity
  8
0
  6
Continuous
 62
     7
370
    25
100
AcDbLine
 10
143.2593535338
 20
94.4463019206
 30
0.0
 11
119.7300642119
 21
94.4463019206
 31
0.0
  0
ARC
  5
312
330
1F
100
AcDbEntity
  8
0
  6
Continuous
 62
     7
370
    25
100
AcDbCircle
 10
143.2593535338
 20
91.4463019206
 30
0.0
 40
3.0
100
AcDbArc
 50
0.0
 51
90.0
  0
LINE
  5
313
330
1F
100
AcDbEntity
  8
0
  6
Continuous
 62
     7
370
    25
100
AcDbLine
 10
146.2593535338
 20
91.4463019206
 30
0.0
 11
146.2593535338
 21
90.4463019206
 31
0.0
  0
ARC
  5
314
330
1F
100
AcDbEntity
  8
0
  6
Continuous
 62
     7
370
    25
100
AcDbCircle
 10
149.2593535338
 20
90.4463019206
 30
0.0
 40
2.999999999999986
100
AcDbArc
 50
180.0
 51
270.0
  0
LINE
  5
315
330
1F
100
AcDbEntity
  8
0
  6
Continuous
 62
     7
370
    25
100
AcDbLine
 10
149.2593535338
 20
87.4463019206
 30
0.0
 11
161.2593535338
 21
87.4463019206
 31
0.0
  0
ARC
  5
316
330
1F
100
AcDbEntity
  8
0
  6
Continuous
 62
     7
370
    25
100
AcDbCircle
 10
161.2593535338
 20
90.4463019206
 30
0.0
 40
3.0
100
AcDbArc
 50
270.0
 51
312.3694630984
  0
SPLINE
  5
317
330
1F
100
AcDbEntity
  8
0
  6
Continuous
 62
     7
370
    25
100
AcDbSpline
210
0.0
220
0.0
230
1.0
 70
     8
 71
     3
 72
    20
 73
    16
 74
     0
 42
0.000000001
 43
0.00000001
 40
0.0
 40
0.0
 40
0.0
 40
0.0
 40
0.1249999999999986
 40
0.1249999999999986
 40
0.2499999999999971
 40
0.2499999999999971
 40
0.3749999999999957
 40
0.3749999999999957
 40
0.4999999999999942
 40
0.4999999999999942
 40
0.7500000000000018
 40
0.7500000000000018
 40
0.8750000000000009
 40
0.8750000000000009
 40
1.0
 40
1.0
 40
1.0
 40
1.0
 10
120.6593535337913
 20
82.4463019206162
 30
0.0
 10
120.6203128029366
 20
82.4463019206162
 30
0.0
 10
120.581794098737
 20
82.46183848109104
 30
0.0
 10
120.5043873474291
 20
82.52315683305164
 30
0.0
 10
120.4652429294423
 20
82.56958057863844
 30
0.0
 10
120.3880921755271
 20
82.68953144879255
 30
0.0
 10
120.3497645937863
 20
82.76313609307597
 30
0.0
 10
120.2722182733095
 20
82.93786645917159
 30
0.0
 10
120.2332420656408
 20
83.03871708807318
 30
0.0
 10
120.1177472091958
 20
83.3700023680571
 30
0.0
 10
120.0398347655259
 20
83.637682529441
 30
0.0
 10
119.924354840125
 20
84.07035655549639
 30
0.0
 10
119.8854890442599
 20
84.22187464234753
 30
0.0
 10
119.8077147105914
 20
84.53130039973365
 30
0.0
 10
119.7691049436367
 20
84.68792272942741
 30
0.0
 10
119.73006421191
 20
84.84630192061616
 30
0.0
  0
SPLINE
  5
318
330
1F
100
AcDbEntity
  8
0
  6
Continuous
 62
     7
370
    25
100
AcDbSpline
210
0.0
220
0.0
230
1.0
 70
     8
 71
     3
 72
    20
 73
    16
 74
     0
 42
0.000000001
 43
0.00000001
 40
0.0
 40
0.0
 40
0.0
 40
0.0
 40
0.1249999999999999
 40
0.1249999999999999
 40
0.2499999999999999
 40
0.2499999999999999
 40
0.3749999999999999
 40
0.3749999999999999
 40
0.4999999999999999
 40
0.4999999999999999
 40
0.7499999999999999
 40
0.7499999999999999
 40
0.8749999999999999
 40
0.8749999999999999
 40
1.0
 40
1.0
 40
1.0
 40
1.0
 10
711.7886428556727
 20
84.84630192061618
 30
0.0
 10
711.7496021248181
 20
84.68792273296548
 30
0.0
 10
711.7110834206184
 20
84.53167700827383
 30
0.0
 10
711.6336766693105
 20
84.22368515885718
 30
0.0
 10
711.5945322513237
 20
84.07104105138605
 30
0.0
 10
711.5173814974085
 20
83.78195676219902
 30
0.0
 10
711.4790539156677
 20
83.64415222401495
 30
0.0
 10
711.401507595191
 20
83.38253354837605
 30
0.0
 10
711.3625313875224
 20
83.25978724169342
 30
0.0
 10
711.2470365310772
 20
82.92846286474573
 30
0.0
 10
711.1691240874072
 20
82.74945174071749
 30
0.0
 10
711.0536441620061
 20
82.5698366413366
 30
0.0
 10
711.0147783661413
 20
82.52359229246888
 30
0.0
 10
710.9370040324727
 20
82.46183898645765
 30
0.0
 10
710.8983942655179
 20
82.4463019206162
 30
0.0
 10
710.8593535337912
 20
82.4463019206162
 30
0.0
  0
LINE
  5
319
330
1F
100
AcDbEntity
  8
0
  6
Continuous
 62
     7
370
    25
100
AcDbLine
 10
710.8593535338
 20
82.4463019206
 30
0.0
 11
120.6593535338
 21
82.4463019206
 31
0.0
  0
SPLINE
  5
31A
330
1F
100
AcDbEntity
  8
0
  6
Continuous
 62
     7
370
    25
100
AcDbSpline
210
0.0
220
0.0
230
1.0
 70
     8
 71
     3
 72
     9
 73
     5
 74
     0
 42
0.000000001
 43
0.00000001
 40
0.0
 40
0.0
 40
0.0
 40
0.0
 40
0.4825784287292522
 40
1.0
 40
1.0
 40
1.0
 40
1.0
 10
711.6355237657377
 20
84.23376218143808
 30
0.0
 10
711.6993319587992
 20
84.32189652275449
 30
0.0
 10
711.8315554260382
 20
84.50452868380754
 30
0.0
 10
711.8498747304949
 20
84.72976156785202
 30
0.0
 10
711.8593535337914
 20
84.84630192061618
 30
0.0
  0
LINE
  5
31B
330
1F
100
AcDbEntity
  8
0
  6
Continuous
 62
     7
370
    25
100
AcDbLine
 10
713.2593535338
 20
84.8463019206
 30
0.0
 11
711.8593535338
 21
84.8463019206
 31
0.0
  0
SPLINE
  5
31C
330
1F
100
AcDbEntity
  8
0
  6
Continuous
 62
     7
370
    25
100
AcDbSpline
210
0.0
220
0.0
230
1.0
 70
     8
 71
     3
 72
    20
 73
    16
 74
     0
 42
0.000000001
 43
0.00000001
 40
0.0
 40
0.0
 40
0.0
 40
0.0
 40
0.1249999999999948
 40
0.1249999999999948
 40
0.2499999999999896
 40
0.2499999999999896
 40
0.3749999999999845
 40
0.3749999999999845
 40
0.4999999999999792
 40
0.4999999999999792
 40
0.7499999999999977
 40
0.7499999999999977
 40
0.874999999999999
 40
0.874999999999999
 40
1.0
 40
1.0
 40
1.0
 40
1.0
 10
710.8593535337912
 20
82.4463019206162
 30
0.0
 10
711.017732721442
 20
82.4463019206162
 30
0.0
 10
711.1739784461337
 20
82.46183848109104
 30
0.0
 10
711.4819702955502
 20
82.52315683305164
 30
0.0
 10
711.6346144030214
 20
82.56958057863848
 30
0.0
 10
711.9236986922084
 20
82.68953144879258
 30
0.0
 10
712.0615032303925
 20
82.76313609307599
 30
0.0
 10
712.3231219060315
 20
82.93786645917162
 30
0.0
 10
712.4458682127141
 20
83.0387170880732
 30
0.0
 10
712.7771925896618
 20
83.37000236805714
 30
0.0
 10
712.9562037136902
 20
83.63768252944098
 30
0.0
 10
713.135818813071
 20
84.0703565554964
 30
0.0
 10
713.1820631619387
 20
84.22187464234754
 30
0.0
 10
713.24381646795
 20
84.53130039973365
 30
0.0
 10
713.2593535337913
 20
84.68792272942743
 30
0.0
 10
713.2593535337913
 20
84.84630192061618
 30
0.0
  0
SPLINE
  5
31D
330
1F
100
AcDbEntity
  8
0
  6
Continuous
 62
     7
370
    25
100
AcDbSpline
210
0.0
220
0.0
230
1.0
 70
     8
 71
     3
 72
    20
 73
    16
 74
     0
 42
0.000000001
 43
0.00000001
 40
0.0
 40
0.0
 40
0.0
 40
0.0
 40
0.125
 40
0.125
 40
0.25
 40
0.25
 40
0.375
 40
0.375
 40
0.5
 40
0.5
 40
0.75
 40
0.75
 40
0.875
 40
0.875
 40
1.0
 40
1.0
 40
1.0
 40
1.0
 10
118.2593535337914
 20
84.84630192061618
 30
0.0
 10
118.2593535337914
 20
84.68792273296546
 30
0.0
 10
118.2748900942661
 20
84.5316770082738
 30
0.0
 10
118.3362084462268
 20
84.22368515885717
 30
0.0
 10
118.3826321918134
 20
84.07104105138603
 30
0.0
 10
118.5025830619676
 20
83.78195676219896
 30
0.0
 10
118.5761877062511
 20
83.64415222401492
 30
0.0
 10
118.7509180723467
 20
83.382533548376
 30
0.0
 10
118.8517687012483
 20
83.25978724169336
 30
0.0
 10
119.1830539812322
 20
82.92846286474567
 30
0.0
 10
119.4507341426162
 20
82.74945174071743
 30
0.0
 10
119.8834081686715
 20
82.56983664133655
 30
0.0
 10
120.0349262555226
 20
82.52359229246886
 30
0.0
 10
120.3443520129088
 20
82.46183898645764
 30
0.0
 10
120.5009743426026
 20
82.4463019206162
 30
0.0
 10
120.6593535337914
 20
82.4463019206162
 30
0.0
  0
LINE
  5
31E
330
1F
100
AcDbEntity
  8
0
  6
Continuous
 62
     7
370
    25
100
AcDbLine
 10
118.2593535338
 20
84.8463019206
 30
0.0
 11
119.6593535338
 21
84.8463019206
 31
0.0
  0
SPLINE
  5
31F
330
1F
100
AcDbEntity
  8
0
  6
Continuous
 62
     7
370
    25
100
AcDbSpline
210
0.0
220
0.0
230
1.0
 70
     8
 71
     3
 72
     9
 73
     5
 74
     0
 42
0.000000001
 43
0.00000001
 40
0.0
 40
0.0
 40
0.0
 40
0.0
 40
0.6784508005730606
 40
1.0
 40
1.0
 40
1.0
 40
1.0
 10
119.6593535337914
 20
84.84630192061618
 30
0.0
 10
119.6726031042559
 20
84.69559471616289
 30
0.0
 10
119.6921322586961
 20
84.47346040026851
 30
0.0
 10
119.8329799123349
 20
84.30662729537936
 30
0.0
 10
119.8782693626037
 20
84.25298224406434
 30
0.0
  0
LINE
  5
320
330
1F
100
AcDbEntity
  8
0
  6
Continuous
 62
     7
370
    25
100
AcDbLine
 10
711.8593535338
 20
84.8463019206
 30
0.0
 11
711.8593535338
 21
94.4463019206
 31
0.0
  0
LINE
  5
321
330
1F
100
AcDbEntity
  8
0
  6
Continuous
 62
     7
370
    25
100
AcDbLine
 10
713.2593535338
 20
94.4463019206
 30
0.0
 11
711.8593535338
 21
94.4463019206
 31
0.0
  0
LINE
  5
322
330
1F
100
AcDbEntity
  8
0
  6
Continuous
 62
     7
370
    25
100
AcDbLine
 10
713.2593535338
 20
84.8463019206
 30
0.0
 11
713.2593535338
 21
94.4463019206
 31
0.0
  0
LINE
  5
323
330
1F
100
AcDbEntity
  8
0
  6
Continuous
 62
     7
370
    25
100
AcDbLine
 10
118.2593535338
 20
84.8463019206
 30
0.0
 11
118.2593535338
 21
94.4463019206
 31
0.0
  0
LINE
  5
324
330
1F
100
AcDbEntity
  8
0
  6
Continuous
 62
     7
370
    25
100
AcDbLine
 10
118.2593535338
 20
94.4463019206
 30
0.0
 11
119.6593535338
 21
94.4463019206
 31
0.0
  0
LINE
  5
325
330
1F
100
AcDbEntity
  8
0
  6
Continuous
 62
     7
370
    25
100
AcDbLine
 10
119.6593535338
 20
84.8463019206
 30
0.0
 11
119.6593535338
 21
94.4463019206
 31
0.0
  0
LINE
  5
326
330
1F
100
AcDbEntity
  8
0
  6
Continuous
 62
     7
370
    25
100
AcDbLine
 10
667.9593535338
 20
121.5463019206
 30
0.0
 11
668.7593535338
 21
121.5463019206
 31
0.0
  0
LINE
  5
327
330
1F
100
AcDbEntity
  8
0
  6
Continuous
 62
     7
370
    25
100
AcDbLine
 10
668.7593535338
 20
121.5463019206
 30
0.0
 11
668.7593535338
 21
118.5463019206
 31
0.0
  0
LINE
  5
328
330
1F
100
AcDbEntity
  8
0
  6
Continuous
 62
     7
370
    25
100
AcDbLine
 10
667.9593535338
 20
118.5463019206
 30
0.0
 11
667.9593535338
 21
121.5463019206
 31
0.0
  0
LINE
  5
329
330
1F
100
AcDbEntity
  8
0
  6
Continuous
 62
     7
370
    25
100
AcDbLine
 10
162.7593535338
 20
121.5463019206
 30
0.0
 11
163.5593535338
 21
121.5463019206
 31
0.0
  0
LINE
  5
32A
330
1F
100
AcDbEntity
  8
0
  6
Continuous
 62
     7
370
    25
100
AcDbLine
 10
162.7593535338
 20
118.5463019206
 30
0.0
 11
162.7593535338
 21
121.5463019206
 31
0.0
  0
LINE
  5
32B
330
1F
100
AcDbEntity
  8
0
  6
Continuous
 62
     7
370
    25
100
AcDbLine
 10
163.5593535338
 20
121.5463019206
 30
0.0
 11
163.5593535338
 21
118.5463019206
 31
0.0
  0
LINE
  5
32C
330
1F
100
AcDbEntity
  8
0
  6
Continuous
 62
     7
370
    25
100
AcDbLine
 10
668.7593535338
 20
118.5463019206
 30
0.0
 11
668.7593535338
 21
101.5463019206
 31
0.0
  0
LINE
  5
32D
330
1F
100
AcDbEntity
  8
0
  6
Continuous
 62
     7
370
    25
100
AcDbLine
 10
667.9593535338
 20
118.5463019206
 30
0.0
 11
667.9593535338
 21
101.5463019206
 31
0.0
  0
LINE
  5
32E
330
1F
100
AcDbEntity
  8
0
  6
Continuous
 62
     7
370
    25
100
AcDbLine
 10
162.7593535338
 20
101.5463019206
 30
0.0
 11
162.7593535338
 21
118.5463019206
 31
0.0
  0
LINE
  5
32F
330
1F
100
AcDbEntity
  8
0
  6
Continuous
 62
     7
370
    25
100
AcDbLine
 10
163.5593535338
 20
101.5463019206
 30
0.0
 11
163.5593535338
 21
118.5463019206
 31
0.0
  0
LINE
  5
330
330
1F
100
AcDbEntity
  8
0
  6
Continuous
 62
     7
370
    25
100
AcDbLine
 10
163.5593535338
 20
98.5463019206
 30
0.0
 11
162.7593535338
 21
98.5463019206
 31
0.0
  0
LINE
  5
331
330
1F
100
AcDbEntity
  8
0
  6
Continuous
 62
     7
370
    25
100
AcDbLine
 10
162.7593535338
 20
98.5463019206
 30
0.0
 11
162.7593535338
 21
101.5463019206
 31
0.0
  0
LINE
  5
332
330
1F
100
AcDbEntity
  8
0
  6
Continuous
 62
     7
370
    25
100
AcDbLine
 10
163.5593535338
 20
101.5463019206
 30
0.0
 11
163.5593535338
 21
98.5463019206
 31
0.0
  0
LINE
  5
333
330
1F
100
AcDbEntity
  8
0
  6
Continuous
 62
     7
370
    25
100
AcDbLine
 10
668.7593535338
 20
98.5463019206
 30
0.0
 11
667.9593535338
 21
98.5463019206
 31
0.0
  0
LINE
  5
334
330
1F
100
AcDbEntity
  8
0
  6
Continuous
 62
     7
370
    25
100
AcDbLine
 10
668.7593535338
 20
101.5463019206
 30
0.0
 11
668.7593535338
 21
98.5463019206
 31
0.0
  0
LINE
  5
335
330
1F
100
AcDbEntity
  8
0
  6
Continuous
 62
     7
370
    25
100
AcDbLine
 10
667.9593535338
 20
98.5463019206
 30
0.0
 11
667.9593535338
 21
101.5463019206
 31
0.0
  0
LINE
  5
336
330
1F
100
AcDbEntity
  8
0
  6
Continuous
 62
     7
370
    25
100
AcDbLine
 10
665.7593535338
 20
100.5463019206
 30
0.0
 11
665.7593535338
 21
101.3463019206
 31
0.0
  0
LINE
  5
337
330
1F
100
AcDbEntity
  8
0
  6
Continuous
 62
     7
370
    25
100
AcDbLine
 10
165.7593535338
 20
100.5463019206
 30
0.0
 11
165.7593535338
 21
101.3463019206
 31
0.0
  0
LINE
  5
338
330
1F
100
AcDbEntity
  8
0
  6
Continuous
 62
     7
370
    25
100
AcDbLine
 10
665.7593535338
 20
101.3463019206
 30
0.0
 11
165.7593535338
 21
101.3463019206
 31
0.0
  0
LINE
  5
339
330
1F
100
AcDbEntity
  8
0
  6
Continuous
 62
     7
370
    25
100
AcDbLine
 10
220.2593535338
 20
141.4509153124
 30
0.0
 11
220.2593535338
 21
134.9332238588
 31
0.0
  0
LINE
  5
33A
330
1F
100
AcDbEntity
  8
0
  6
Continuous
 62
     7
370
    25
100
AcDbLine
 10
367.2593535338
 20
144.4509153124
 30
0.0
 11
223.2593535338
 21
144.4509153124
 31
0.0
  0
LINE
  5
33B
330
1F
100
AcDbEntity
  8
0
  6
Continuous
 62
     7
370
    25
100
AcDbLine
 10
370.2593535338
 20
134.9332238588
 30
0.0
 11
370.2593535338
 21
141.4509153124
 31
0.0
  0
ARC
  5
33C
330
1F
100
AcDbEntity
  8
0
  6
Continuous
 62
     7
370
    25
100
AcDbCircle
 10
223.2593535338
 20
141.4509153124
 30
0.0
 40
3.0
100
AcDbArc
 50
90.0
 51
180.0
  0
ARC
  5
33D
330
1F
100
AcDbEntity
  8
0
  6
Continuous
 62
     7
370
    25
100
AcDbCircle
 10
367.2593535338
 20
141.4509153124
 30
0.0
 40
3.000000000000057
100
AcDbArc
 50
0.0
 51
90.0
  0
LINE
  5
33E
330
1F
100
AcDbEntity
  8
0
  6
Continuous
 62
     7
370
    25
100
AcDbLine
 10
461.2593535338
 20
141.4509153124
 30
0.0
 11
461.2593535338
 21
134.9332238588
 31
0.0
  0
LINE
  5
33F
330
1F
100
AcDbEntity
  8
0
  6
Continuous
 62
     7
370
    25
100
AcDbLine
 10
611.2593535338
 20
134.9332238588
 30
0.0
 11
611.2593535338
 21
141.4509153124
 31
0.0
  0
ARC
  5
340
330
1F
100
AcDbEntity
  8
0
  6
Continuous
 62
     7
370
    25
100
AcDbCircle
 10
464.2593535338
 20
141.4509153124
 30
0.0
 40
3.0
100
AcDbArc
 50
90.0
 51
180.0
  0
ARC
  5
341
330
1F
100
AcDbEntity
  8
0
  6
Continuous
 62
     7
370
    25
100
AcDbCircle
 10
608.2593535338
 20
141.4509153124
 30
0.0
 40
3.0
100
AcDbArc
 50
0.0
 51
90.0
  0
LINE
  5
342
330
1F
100
AcDbEntity
  8
0
  6
Continuous
 62
     7
370
    25
100
AcDbLine
 10
608.2593535338
 20
144.4509153124
 30
0.0
 11
464.2593535338
 21
144.4509153124
 31
0.0
  0
LINE
  5
343
330
1F
100
AcDbEntity
  8
0
  6
Continuous
 62
     7
370
    25
100
AcDbLine
 10
220.2593535338
 20
134.0332238588
 30
0.0
 11
220.2593535338
 21
134.9332238588
 31
0.0
  0
LINE
  5
344
330
1F
100
AcDbEntity
  8
0
  6
Continuous
 62
     7
370
    25
100
AcDbLine
 10
370.2593535338
 20
134.9332238588
 30
0.0
 11
370.2593535338
 21
134.0332238588
 31
0.0
  0
LINE
  5
345
330
1F
100
AcDbEntity
  8
0
  6
Continuous
 62
     7
370
    25
100
AcDbLine
 10
611.2593535338
 20
134.9332238588
 30
0.0
 11
611.2593535338
 21
134.0332238588
 31
0.0
  0
LINE
  5
346
330
1F
100
AcDbEntity
  8
0
  6
Continuous
 62
     7
370
    25
100
AcDbLine
 10
461.2593535338
 20
134.0332238588
 30
0.0
 11
461.2593535338
 21
134.9332238588
 31
0.0
  0
LINE
  5
347
330
1F
100
AcDbEntity
  8
0
  6
Continuous
 62
     7
370
    25
100
AcDbLine
 10
611.2593535338
 20
134.0332238588
 30
0.0
 11
611.2593535338
 21
127.4083527282
 31
0.0
  0
LINE
  5
348
330
1F
100
AcDbEntity
  8
0
  6
Continuous
 62
     7
370
    25
100
AcDbLine
 10
461.2593535338
 20
127.4083527282
 30
0.0
 11
461.2593535338
 21
134.0332238588
 31
0.0
  0
LINE
  5
349
330
1F
100
AcDbEntity
  8
0
  6
Continuous
 62
     7
370
    25
100
AcDbLine
 10
370.2593535338
 20
134.0332238588
 30
0.0
 11
370.2593535338
 21
127.4083527282
 31
0.0
  0
LINE
  5
34A
330
1F
100
AcDbEntity
  8
0
  6
Continuous
 62
     7
370
    25
100
AcDbLine
 10
220.2593535338
 20
127.4083527282
 30
0.0
 11
220.2593535338
 21
134.0332238588
 31
0.0
  0
LINE
  5
34B
330
1F
100
AcDbEntity
  8
0
  6
Continuous
 62
     7
370
    25
100
AcDbLine
 10
667.9593535338
 20
121.5463019206
 30
0.0
 11
666.9593535338
 21
121.5463019206
 31
0.0
  0
LINE
  5
34C
330
1F
100
AcDbEntity
  8
0
  6
Continuous
 62
     7
370
    25
100
AcDbLine
 10
666.9593535338
 20
102.5463019206
 30
0.0
 11
667.9593535338
 21
102.5463019206
 31
0.0
  0
LINE
  5
34D
330
1F
100
AcDbEntity
  8
0
  6
Continuous
 62
     7
370
    25
100
AcDbLine
 10
163.5593535338
 20
102.5463019206
 30
0.0
 11
164.5593535338
 21
102.5463019206
 31
0.0
  0
LINE
  5
34E
330
1F
100
AcDbEntity
  8
0
  6
Continuous
 62
     7
370
    25
100
AcDbLine
 10
164.5593535338
 20
121.5463019206
 30
0.0
 11
163.5593535338
 21
121.5463019206
 31
0.0
  0
LINE
  5
34F
330
1F
100
AcDbEntity
  8
0
  6
Continuous
 62
     7
370
    25
100
AcDbLine
 10
165.7593535338
 20
102.3463019206
 30
0.0
 11
165.7593535338
 21
101.3463019206
 31
0.0
  0
LINE
  5
350
330
1F
100
AcDbEntity
  8
0
  6
Continuous
 62
     7
370
    25
100
AcDbLine
 10
665.7593535338
 20
101.3463019206
 30
0.0
 11
665.7593535338
 21
102.3463019206
 31
0.0
  0
LINE
  5
351
330
1F
100
AcDbEntity
  8
0
  6
Continuous
 62
     7
370
    25
100
AcDbLine
 10
370.2593535338
 20
126.9083527282
 30
0.0
 11
370.2593535338
 21
127.4083527282
 31
0.0
  0
LINE
  5
352
330
1F
100
AcDbEntity
  8
0
  6
Continuous
 62
     7
370
    25
100
AcDbLine
 10
220.2593535338
 20
127.4083527282
 30
0.0
 11
220.2593535338
 21
126.9083527282
 31
0.0
  0
LINE
  5
353
330
1F
100
AcDbEntity
  8
0
  6
Continuous
 62
     7
370
    25
100
AcDbLine
 10
611.2593535338
 20
126.9083527282
 30
0.0
 11
611.2593535338
 21
127.4083527282
 31
0.0
  0
LINE
  5
354
330
1F
100
AcDbEntity
  8
0
  6
Continuous
 62
     7
370
    25
100
AcDbLine
 10
461.2593535338
 20
127.4083527282
 30
0.0
 11
461.2593535338
 21
126.9083527282
 31
0.0
  0
LINE
  5
355
330
1F
100
AcDbEntity
  8
0
  6
Continuous
 62
     7
370
    25
100
AcDbLine
 10
165.7593535338
 20
102.5463019206
 30
0.0
 11
165.7593535338
 21
102.3463019206
 31
0.0
  0
LINE
  5
356
330
1F
100
AcDbEntity
  8
0
  6
Continuous
 62
     7
370
    25
100
AcDbLine
 10
164.5593535338
 20
102.5463019206
 30
0.0
 11
165.7593535338
 21
102.5463019206
 31
0.0
  0
LINE
  5
357
330
1F
100
AcDbEntity
  8
0
  6
Continuous
 62
     7
370
    25
100
AcDbLine
 10
167.7593535338
 20
121.5463019206
 30
0.0
 11
164.5593535338
 21
121.5463019206
 31
0.0
  0
LINE
  5
358
330
1F
100
AcDbEntity
  8
0
  6
Continuous
 62
     7
370
    25
100
AcDbLine
 10
167.7593535338
 20
142.5463019206
 30
0.0
 11
167.7593535338
 21
121.5463019206
 31
0.0
  0
ARC
  5
359
330
1F
100
AcDbEntity
  8
0
  6
Continuous
 62
     7
370
    25
100
AcDbCircle
 10
170.7593535338
 20
142.5463019206
 30
0.0
 40
3.0
100
AcDbArc
 50
90.0
 51
180.0
  0
LINE
  5
35A
330
1F
100
AcDbEntity
  8
0
  6
Continuous
 62
     7
370
    25
100
AcDbLine
 10
214.7593535338
 20
145.5463019206
 30
0.0
 11
170.7593535338
 21
145.5463019206
 31
0.0
  0
ARC
  5
35B
330
1F
100
AcDbEntity
  8
0
  6
Continuous
 62
     7
370
    25
100
AcDbCircle
 10
214.7593535338
 20
142.5463019206
 30
0.0
 40
3.0
100
AcDbArc
 50
0.0
 51
90.0
  0
LINE
  5
35C
330
1F
100
AcDbEntity
  8
0
  6
Continuous
 62
     7
370
    25
100
AcDbLine
 10
217.7593535338
 20
142.5463019206
 30
0.0
 11
217.7593535338
 21
126.4163019206
 31
0.0
  0
LINE
  5
35D
330
1F
100
AcDbEntity
  8
0
  6
Continuous
 62
     7
370
    25
100
AcDbLine
 10
217.7593535338
 20
126.4163019206
 30
0.0
 11
220.2593535338
 21
126.4163019206
 31
0.0
  0
LINE
  5
35E
330
1F
100
AcDbEntity
  8
0
  6
Continuous
 62
     7
370
    25
100
AcDbLine
 10
220.2593535338
 20
126.9083527282
 30
0.0
 11
220.2593535338
 21
126.4163019206
 31
0.0
  0
LINE
  5
35F
330
1F
100
AcDbEntity
  8
0
  6
Continuous
 62
     7
370
    25
100
AcDbLine
 10
370.2593535338
 20
126.9083527282
 30
0.0
 11
370.2593535338
 21
126.4163019206
 31
0.0
  0
LINE
  5
360
330
1F
100
AcDbEntity
  8
0
  6
Continuous
 62
     7
370
    25
100
AcDbLine
 10
370.2593535338
 20
126.4163019206
 30
0.0
 11
372.7593535338
 21
126.4163019206
 31
0.0
  0
LINE
  5
361
330
1F
100
AcDbEntity
  8
0
  6
Continuous
 62
     7
370
    25
100
AcDbLine
 10
372.7593535338
 20
126.4163019206
 30
0.0
 11
372.7593535338
 21
142.5463019206
 31
0.0
  0
ARC
  5
362
330
1F
100
AcDbEntity
  8
0
  6
Continuous
 62
     7
370
    25
100
AcDbCircle
 10
375.7593535338
 20
142.5463019206
 30
0.0
 40
3.0
100
AcDbArc
 50
90.0
 51
180.0
  0
LINE
  5
363
330
1F
100
AcDbEntity
  8
0
  6
Continuous
 62
     7
370
    25
100
AcDbLine
 10
455.7593535338
 20
145.5463019206
 30
0.0
 11
375.7593535338
 21
145.5463019206
 31
0.0
  0
ARC
  5
364
330
1F
100
AcDbEntity
  8
0
  6
Continuous
 62
     7
370
    25
100
AcDbCircle
 10
455.7593535338
 20
142.5463019206
 30
0.0
 40
3.0
100
AcDbArc
 50
0.0
 51
90.0
  0
LINE
  5
365
330
1F
100
AcDbEntity
  8
0
  6
Continuous
 62
     7
370
    25
100
AcDbLine
 10
458.7593535338
 20
142.5463019206
 30
0.0
 11
458.7593535338
 21
126.4163019206
 31
0.0
  0
LINE
  5
366
330
1F
100
AcDbEntity
  8
0
  6
Continuous
 62
     7
370
    25
100
AcDbLine
 10
458.7593535338
 20
126.4163019206
 30
0.0
 11
461.2593535338
 21
126.4163019206
 31
0.0
  0
LINE
  5
367
330
1F
100
AcDbEntity
  8
0
  6
Continuous
 62
     7
370
    25
100
AcDbLine
 10
461.2593535338
 20
126.9083527282
 30
0.0
 11
461.2593535338
 21
126.4163019206
 31
0.0
  0
LINE
  5
368
330
1F
100
AcDbEntity
  8
0
  6
Continuous
 62
     7
370
    25
100
AcDbLine
 10
611.2593535338
 20
126.9083527282
 30
0.0
 11
611.2593535338
 21
126.4163019206
 31
0.0
  0
LINE
  5
369
330
1F
100
AcDbEntity
  8
0
  6
Continuous
 62
     7
370
    25
100
AcDbLine
 10
611.2593535338
 20
126.4163019206
 30
0.0
 11
613.7593535338
 21
126.4163019206
 31
0.0
  0
LINE
  5
36A
330
1F
100
AcDbEntity
  8
0
  6
Continuous
 62
     7
370
    25
100
AcDbLine
 10
613.7593535338
 20
126.4163019206
 30
0.0
 11
613.7593535338
 21
142.5463019206
 31
0.0
  0
ARC
  5
36B
330
1F
100
AcDbEntity
  8
0
  6
Continuous
 62
     7
370
    25
100
AcDbCircle
 10
616.7593535338
 20
142.5463019206
 30
0.0
 40
3.0
100
AcDbArc
 50
90.0
 51
180.0
  0
LINE
  5
36C
330
1F
100
AcDbEntity
  8
0
  6
Continuous
 62
     7
370
    25
100
AcDbLine
 10
660.7593535338
 20
145.5463019206
 30
0.0
 11
616.7593535338
 21
145.5463019206
 31
0.0
  0
ARC
  5
36D
330
1F
100
AcDbEntity
  8
0
  6
Continuous
 62
     7
370
    25
100
AcDbCircle
 10
660.7593535338
 20
142.5463019206
 30
0.0
 40
3.0
100
AcDbArc
 50
0.0
 51
90.0
  0
LINE
  5
36E
330
1F
100
AcDbEntity
  8
0
  6
Continuous
 62
     7
370
    25
100
AcDbLine
 10
663.7593535338
 20
121.5463019206
 30
0.0
 11
663.7593535338
 21
142.5463019206
 31
0.0
  0
LINE
  5
36F
330
1F
100
AcDbEntity
  8
0
  6
Continuous
 62
     7
370
    25
100
AcDbLine
 10
666.9593535338
 20
121.5463019206
 30
0.0
 11
663.7593535338
 21
121.5463019206
 31
0.0
  0
LINE
  5
370
330
1F
100
AcDbEntity
  8
0
  6
Continuous
 62
     7
370
    25
100
AcDbLine
 10
665.7593535338
 20
102.5463019206
 30
0.0
 11
666.9593535338
 21
102.5463019206
 31
0.0
  0
LINE
  5
371
330
1F
100
AcDbEntity
  8
0
  6
Continuous
 62
     7
370
    25
100
AcDbLine
 10
665.7593535338
 20
102.3463019206
 30
0.0
 11
665.7593535338
 21
102.5463019206
 31
0.0
  0
SPLINE
  5
372
330
1F
100
AcDbEntity
  8
0
  6
Continuous
 62
     7
370
    25
100
AcDbSpline
210
0.0
220
0.0
230
1.0
 70
     8
 71
     3
 72
    12
 73
     8
 74
     0
 42
0.000000001
 43
0.00000001
 40
0.0
 40
0.0
 40
0.0
 40
0.0
 40
0.499999999999991
 40
0.499999999999991
 40
0.7499999999999954
 40
0.7499999999999954
 40
1.0
 40
1.0
 40
1.0
 40
1.0
 10
650.3950932566484
 20
104.1316219352312
 30
0.0
 10
649.7785628667281
 20
104.3221162246547
 30
0.0
 10
649.1527949942783
 20
104.443790637717
 30
0.0
 10
648.1897332848934
 20
104.4444468282483
 30
0.0
 10
647.8690402497638
 20
104.4146128264539
 30
0.0
 10
647.2390819997677
 20
104.3056829563463
 30
0.0
 10
646.9278527317368
 20
104.2269877692834
 30
0.0
 10
646.6192034014522
 20
104.1316219352307
 30
0.0
  0
LINE
  5
373
330
1F
100
AcDbEntity
  8
0
  6
Continuous
 62
     7
370
    25
100
AcDbLine
 10
650.3950932566
 20
104.1316219352
 30
0.0
 11
650.3950932566
 21
101.960981906
 31
0.0
  0
SPLINE
  5
374
330
1F
100
AcDbEntity
  8
0
  6
Continuous
 62
     7
370
    25
100
AcDbSpline
210
0.0
220
0.0
230
1.0
 70
     8
 71
     3
 72
    12
 73
     8
 74
     0
 42
0.000000001
 43
0.00000001
 40
0.0
 40
0.0
 40
0.0
 40
0.0
 40
0.5000000000000099
 40
0.5000000000000099
 40
0.7500000000000049
 40
0.7500000000000049
 40
1.0
 40
1.0
 40
1.0
 40
1.0
 10
646.6192034014522
 20
101.9609819060012
 30
0.0
 10
647.2357337913724
 20
101.7704876165777
 30
0.0
 10
647.8615016638223
 20
101.6488132035153
 30
0.0
 10
648.8245633732072
 20
101.6481570129841
 30
0.0
 10
649.1452564083368
 20
101.6779910147785
 30
0.0
 10
649.7752146583326
 20
101.7869208848861
 30
0.0
 10
650.0864439263637
 20
101.8656160719489
 30
0.0
 10
650.3950932566482
 20
101.9609819060017
 30
0.0
  0
LINE
  5
375
330
1F
100
AcDbEntity
  8
0
  6
Continuous
 62
     7
370
    25
100
AcDbLine
 10
646.6192034015
 20
104.1316219352
 30
0.0
 11
646.6192034015
 21
101.960981906
 31
0.0
  0
SPLINE
  5
376
330
1F
100
AcDbEntity
  8
0
  6
Continuous
 62
     7
370
    25
100
AcDbSpline
210
0.0
220
0.0
230
1.0
 70
     8
 71
     3
 72
    14
 73
    10
 74
     0
 42
0.000000001
 43
0.00000001
 40
0.0
 40
0.0
 40
0.0
 40
0.0
 40
0.25
 40
0.25
 40
0.5
 40
0.5
 40
0.75
 40
0.75
 40
1.0
 40
1.0
 40
1.0
 40
1.0
 10
650.3950932566482
 20
104.1316219352302
 30
0.0
 10
650.4471509655391
 20
104.2264965445408
 30
0.0
 10
650.5004845038671
 20
104.3061014694165
 30
0.0
 10
650.6074165114952
 20
104.4149380843107
 30
0.0
 10
650.6611698779427
 20
104.4442616900013
 30
0.0
 10
650.7693489293664
 20
104.4441969082556
 30
0.0
 10
650.8241776259545
 20
104.4140407149293
 30
0.0
 10
650.9310846086144
 20
104.3044555135636
 30
0.0
 10
650.9835061235867
 20
104.2259125397614
 30
0.0
 10
651.0352433889888
 20
104.1316219352302
 30
0.0
  0
SPLINE
  5
377
330
1F
100
AcDbEntity
  8
0
  6
Continuous
 62
     7
370
    25
100
AcDbSpline
210
0.0
220
0.0
230
1.0
 70
     8
 71
     3
 72
    12
 73
     8
 74
     0
 42
0.000000001
 43
0.00000001
 40
0.0
 40
0.0
 40
0.0
 40
0.0
 40
0.5000000000000087
 40
0.5000000000000087
 40
0.7500000000000043
 40
0.7500000000000043
 40
1.0
 40
1.0
 40
1.0
 40
1.0
 10
646.6192034014524
 20
104.1316219352311
 30
0.0
 10
646.1071972497474
 20
104.3221162246546
 30
0.0
 10
645.5875197034792
 20
104.443790637717
 30
0.0
 10
644.7877318459167
 20
104.4444468282483
 30
0.0
 10
644.5214078990687
 20
104.4146128264539
 30
0.0
 10
643.9982503960673
 20
104.3056829563463
 30
0.0
 10
643.739785764919
 20
104.2269877692834
 30
0.0
 10
643.4834636785969
 20
104.1316219352307
 30
0.0
  0
SPLINE
  5
378
330
1F
100
AcDbEntity
  8
0
  6
Continuous
 62
     7
370
    25
100
AcDbSpline
210
0.0
220
0.0
230
1.0
 70
     8
 71
     3
 72
     9
 73
     5
 74
     0
 42
0.000000001
 43
0.00000001
 40
0.0
 40
0.0
 40
0.0
 40
0.0
 40
0.3722348086954421
 40
1.0
 40
1.0
 40
1.0
 40
1.0
 10
643.483463678597
 20
104.1316219352302
 30
0.0
 10
643.5114299122687
 20
104.1835462440037
 30
0.0
 10
643.5865605368596
 20
104.3230396700902
 30
0.0
 10
643.6651043950162
 20
104.3310483961954
 30
0.0
 10
643.7144114951576
 20
104.3360759956709
 30
0.0
  0
LINE
  5
379
330
1F
100
AcDbEntity
  8
0
  6
Continuous
 62
     7
370
    25
100
AcDbLine
 10
650.4093535338
 20
104.6463019206
 30
0.0
 11
644.1093535338
 21
104.6463019206
 31
0.0
  0
SPLINE
  5
37A
330
1F
100
AcDbEntity
  8
0
  6
Continuous
 62
     7
370
    25
100
AcDbSpline
210
0.0
220
0.0
230
1.0
 70
     8
 71
     3
 72
     9
 73
     5
 74
     0
 42
0.000000001
 43
0.00000001
 40
0.0
 40
0.0
 40
0.0
 40
0.0
 40
0.6277651913045462
 40
1.0
 40
1.0
 40
1.0
 40
1.0
 10
643.7144114951576
 20
101.7565278455615
 30
0.0
 10
643.6651043950161
 20
101.761555445037
 30
0.0
 10
643.5865605368596
 20
101.7695641711421
 30
0.0
 10
643.5114299122686
 20
101.9090575972286
 30
0.0
 10
643.4834636785969
 20
101.9609819060022
 30
0.0
  0
SPLINE
  5
37B
330
1F
100
AcDbEntity
  8
0
  6
Continuous
 62
     7
370
    25
100
AcDbSpline
210
0.0
220
0.0
230
1.0
 70
     8
 71
     3
 72
    12
 73
     8
 74
     0
 42
0.000000001
 43
0.00000001
 40
0.0
 40
0.0
 40
0.0
 40
0.0
 40
0.4999999999999929
 40
0.4999999999999929
 40
0.7499999999999964
 40
0.7499999999999964
 40
1.0
 40
1.0
 40
1.0
 40
1.0
 10
643.4834636785969
 20
101.9609819060012
 30
0.0
 10
643.9954698303018
 20
101.7704876165777
 30
0.0
 10
644.51514737657
 20
101.6488132035153
 30
0.0
 10
645.3149352341326
 20
101.648157012984
 30
0.0
 10
645.5812591809806
 20
101.6779910147785
 30
0.0
 10
646.104416683982
 20
101.786920884886
 30
0.0
 10
646.3628813151302
 20
101.8656160719489
 30
0.0
 10
646.6192034014523
 20
101.9609819060017
 30
0.0
  0
SPLINE
  5
37C
330
1F
100
AcDbEntity
  8
0
  6
Continuous
 62
     7
370
    25
100
AcDbSpline
210
0.0
220
0.0
230
1.0
 70
     8
 71
     3
 72
    14
 73
    10
 74
     0
 42
0.000000001
 43
0.00000001
 40
0.0
 40
0.0
 40
0.0
 40
0.0
 40
0.25
 40
0.25
 40
0.5
 40
0.5
 40
0.75
 40
0.75
 40
1.0
 40
1.0
 40
1.0
 40
1.0
 10
650.3950932566482
 20
101.9609819060022
 30
0.0
 10
650.4471509655391
 20
101.8661072966916
 30
0.0
 10
650.5004845038671
 20
101.7865023718158
 30
0.0
 10
650.6074165114952
 20
101.6776657569216
 30
0.0
 10
650.6611698779427
 20
101.6483421512311
 30
0.0
 10
650.7693489293664
 20
101.6484069329767
 30
0.0
 10
650.8241776259545
 20
101.678563126303
 30
0.0
 10
650.9310846086144
 20
101.7881483276688
 30
0.0
 10
650.9835061235867
 20
101.8666913014709
 30
0.0
 10
651.0352433889888
 20
101.9609819060022
 30
0.0
  0
LINE
  5
37D
330
1F
100
AcDbEntity
  8
0
  6
Continuous
 62
     7
370
    25
100
AcDbLine
 10
650.4093535338
 20
101.4463019206
 30
0.0
 11
644.1093535338
 21
101.4463019206
 31
0.0
  0
LINE
  5
37E
330
1F
100
AcDbEntity
  8
0
  6
Continuous
 62
     7
370
    25
100
AcDbLine
 10
643.4834636786
 20
104.1316219352
 30
0.0
 11
643.4834636786
 21
101.960981906
 31
0.0
  0
LINE
  5
37F
330
1F
100
AcDbEntity
  8
0
  6
Continuous
 62
     7
370
    25
100
AcDbLine
 10
651.035243389
 20
104.1316219352
 30
0.0
 11
651.035243389
 21
101.960981906
 31
0.0
  0
SPLINE
  5
380
330
1F
100
AcDbEntity
  8
0
  6
Continuous
 62
     7
370
    25
100
AcDbSpline
210
0.0
220
0.0
230
1.0
 70
     8
 71
     3
 72
    12
 73
     8
 74
     0
 42
0.000000001
 43
0.00000001
 40
0.0
 40
0.0
 40
0.0
 40
0.0
 40
0.4999999999999958
 40
0.4999999999999958
 40
0.7499999999999979
 40
0.7499999999999979
 40
1.0
 40
1.0
 40
1.0
 40
1.0
 10
337.3950932566483
 20
104.1316219352312
 30
0.0
 10
336.778562866728
 20
104.3221162246547
 30
0.0
 10
336.1527949942782
 20
104.4437906377171
 30
0.0
 10
335.1897332848933
 20
104.4444468282483
 30
0.0
 10
334.8690402497637
 20
104.4146128264539
 30
0.0
 10
334.2390819997677
 20
104.3056829563463
 30
0.0
 10
333.9278527317368
 20
104.2269877692834
 30
0.0
 10
333.6192034014522
 20
104.1316219352307
 30
0.0
  0
LINE
  5
381
330
1F
100
AcDbEntity
  8
0
  6
Continuous
 62
     7
370
    25
100
AcDbLine
 10
337.3950932566
 20
104.1316219352
 30
0.0
 11
337.3950932566
 21
101.960981906
 31
0.0
  0
SPLINE
  5
382
330
1F
100
AcDbEntity
  8
0
  6
Continuous
 62
     7
370
    25
100
AcDbSpline
210
0.0
220
0.0
230
1.0
 70
     8
 71
     3
 72
    12
 73
     8
 74
     0
 42
0.000000001
 43
0.00000001
 40
0.0
 40
0.0
 40
0.0
 40
0.0
 40
0.5000000000000052
 40
0.5000000000000052
 40
0.7500000000000026
 40
0.7500000000000026
 40
1.0
 40
1.0
 40
1.0
 40
1.0
 10
333.6192034014521
 20
101.9609819060012
 30
0.0
 10
334.2357337913724
 20
101.7704876165777
 30
0.0
 10
334.8615016638222
 20
101.6488132035153
 30
0.0
 10
335.824563373207
 20
101.6481570129841
 30
0.0
 10
336.1452564083368
 20
101.6779910147785
 30
0.0
 10
336.7752146583327
 20
101.7869208848861
 30
0.0
 10
337.0864439263636
 20
101.8656160719489
 30
0.0
 10
337.3950932566482
 20
101.9609819060017
 30
0.0
  0
LINE
  5
383
330
1F
100
AcDbEntity
  8
0
  6
Continuous
 62
     7
370
    25
100
AcDbLine
 10
333.6192034015
 20
104.1316219352
 30
0.0
 11
333.6192034015
 21
101.960981906
 31
0.0
  0
SPLINE
  5
384
330
1F
100
AcDbEntity
  8
0
  6
Continuous
 62
     7
370
    25
100
AcDbSpline
210
0.0
220
0.0
230
1.0
 70
     8
 71
     3
 72
    14
 73
    10
 74
     0
 42
0.000000001
 43
0.00000001
 40
0.0
 40
0.0
 40
0.0
 40
0.0
 40
0.25
 40
0.25
 40
0.5
 40
0.5
 40
0.75
 40
0.75
 40
1.0
 40
1.0
 40
1.0
 40
1.0
 10
337.3950932566482
 20
104.1316219352302
 30
0.0
 10
337.447150965539
 20
104.2264965445408
 30
0.0
 10
337.500484503867
 20
104.3061014694165
 30
0.0
 10
337.6074165114952
 20
104.4149380843108
 30
0.0
 10
337.6611698779427
 20
104.4442616900013
 30
0.0
 10
337.7693489293665
 20
104.4441969082557
 30
0.0
 10
337.8241776259544
 20
104.4140407149293
 30
0.0
 10
337.9310846086142
 20
104.3044555135636
 30
0.0
 10
337.9835061235866
 20
104.2259125397614
 30
0.0
 10
338.0352433889888
 20
104.1316219352302
 30
0.0
  0
SPLINE
  5
385
330
1F
100
AcDbEntity
  8
0
  6
Continuous
 62
     7
370
    25
100
AcDbSpline
210
0.0
220
0.0
230
1.0
 70
     8
 71
     3
 72
    12
 73
     8
 74
     0
 42
0.000000001
 43
0.00000001
 40
0.0
 40
0.0
 40
0.0
 40
0.0
 40
0.5
 40
0.5
 40
0.75
 40
0.75
 40
1.0
 40
1.0
 40
1.0
 40
1.0
 10
333.6192034014524
 20
104.1316219352312
 30
0.0
 10
333.1071972497475
 20
104.3221162246547
 30
0.0
 10
332.5875197034792
 20
104.443790637717
 30
0.0
 10
331.7877318459167
 20
104.4444468282483
 30
0.0
 10
331.5214078990686
 20
104.4146128264539
 30
0.0
 10
330.9982503960672
 20
104.3056829563463
 30
0.0
 10
330.7397857649189
 20
104.2269877692834
 30
0.0
 10
330.4834636785969
 20
104.1316219352307
 30
0.0
  0
SPLINE
  5
386
330
1F
100
AcDbEntity
  8
0
  6
Continuous
 62
     7
370
    25
100
AcDbSpline
210
0.0
220
0.0
230
1.0
 70
     8
 71
     3
 72
     9
 73
     5
 74
     0
 42
0.000000001
 43
0.00000001
 40
0.0
 40
0.0
 40
0.0
 40
0.0
 40
0.3722348086954438
 40
0.9999999999999999
 40
0.9999999999999999
 40
0.9999999999999999
 40
0.9999999999999999
 10
330.4834636785969
 20
104.1316219352302
 30
0.0
 10
330.5114299122687
 20
104.1835462440038
 30
0.0
 10
330.5865605368595
 20
104.3230396700903
 30
0.0
 10
330.6651043950162
 20
104.3310483961954
 30
0.0
 10
330.7144114951577
 20
104.3360759956709
 30
0.0
  0
LINE
  5
387
330
1F
100
AcDbEntity
  8
0
  6
Continuous
 62
     7
370
    25
100
AcDbLine
 10
337.4093535338
 20
104.6463019206
 30
0.0
 11
331.1093535338
 21
104.6463019206
 31
0.0
  0
SPLINE
  5
388
330
1F
100
AcDbEntity
  8
0
  6
Continuous
 62
     7
370
    25
100
AcDbSpline
210
0.0
220
0.0
230
1.0
 70
     8
 71
     3
 72
     9
 73
     5
 74
     0
 42
0.000000001
 43
0.00000001
 40
0.0
 40
0.0
 40
0.0
 40
0.0
 40
0.6277651913045457
 40
1.0
 40
1.0
 40
1.0
 40
1.0
 10
330.7144114951577
 20
101.7565278455615
 30
0.0
 10
330.6651043950162
 20
101.761555445037
 30
0.0
 10
330.5865605368595
 20
101.7695641711421
 30
0.0
 10
330.5114299122687
 20
101.9090575972286
 30
0.0
 10
330.4834636785969
 20
101.9609819060022
 30
0.0
  0
SPLINE
  5
389
330
1F
100
AcDbEntity
  8
0
  6
Continuous
 62
     7
370
    25
100
AcDbSpline
210
0.0
220
0.0
230
1.0
 70
     8
 71
     3
 72
    12
 73
     8
 74
     0
 42
0.000000001
 43
0.00000001
 40
0.0
 40
0.0
 40
0.0
 40
0.0
 40
0.5
 40
0.5
 40
0.75
 40
0.75
 40
1.0
 40
1.0
 40
1.0
 40
1.0
 10
330.4834636785968
 20
101.9609819060012
 30
0.0
 10
330.9954698303017
 20
101.7704876165777
 30
0.0
 10
331.51514737657
 20
101.6488132035153
 30
0.0
 10
332.3149352341325
 20
101.6481570129841
 30
0.0
 10
332.5812591809805
 20
101.6779910147785
 30
0.0
 10
333.1044166839819
 20
101.7869208848861
 30
0.0
 10
333.3628813151303
 20
101.8656160719489
 30
0.0
 10
333.6192034014524
 20
101.9609819060017
 30
0.0
  0
SPLINE
  5
38A
330
1F
100
AcDbEntity
  8
0
  6
Continuous
 62
     7
370
    25
100
AcDbSpline
210
0.0
220
0.0
230
1.0
 70
     8
 71
     3
 72
    14
 73
    10
 74
     0
 42
0.000000001
 43
0.00000001
 40
0.0
 40
0.0
 40
0.0
 40
0.0
 40
0.25
 40
0.25
 40
0.5
 40
0.5
 40
0.75
 40
0.75
 40
1.0
 40
1.0
 40
1.0
 40
1.0
 10
337.3950932566482
 20
101.9609819060022
 30
0.0
 10
337.447150965539
 20
101.8661072966916
 30
0.0
 10
337.500484503867
 20
101.7865023718158
 30
0.0
 10
337.6074165114952
 20
101.6776657569216
 30
0.0
 10
337.6611698779427
 20
101.6483421512311
 30
0.0
 10
337.7693489293665
 20
101.6484069329767
 30
0.0
 10
337.8241776259544
 20
101.678563126303
 30
0.0
 10
337.9310846086142
 20
101.7881483276688
 30
0.0
 10
337.9835061235866
 20
101.8666913014709
 30
0.0
 10
338.0352433889888
 20
101.9609819060022
 30
0.0
  0
LINE
  5
38B
330
1F
100
AcDbEntity
  8
0
  6
Continuous
 62
     7
370
    25
100
AcDbLine
 10
337.4093535338
 20
101.4463019206
 30
0.0
 11
331.1093535338
 21
101.4463019206
 31
0.0
  0
LINE
  5
38C
330
1F
100
AcDbEntity
  8
0
  6
Continuous
 62
     7
370
    25
100
AcDbLine
 10
330.4834636786
 20
104.1316219352
 30
0.0
 11
330.4834636786
 21
101.960981906
 31
0.0
  0
LINE
  5
38D
330
1F
100
AcDbEntity
  8
0
  6
Continuous
 62
     7
370
    25
100
AcDbLine
 10
338.035243389
 20
104.1316219352
 30
0.0
 11
338.035243389
 21
101.960981906
 31
0.0
  0
SPLINE
  5
38E
330
1F
100
AcDbEntity
  8
0
  6
Continuous
 62
     7
370
    25
100
AcDbSpline
210
0.0
220
0.0
230
1.0
 70
     8
 71
     3
 72
    14
 73
    10
 74
     0
 42
0.000000001
 43
0.00000001
 40
0.0
 40
0.0
 40
0.0
 40
0.0
 40
0.25
 40
0.25
 40
0.5
 40
0.5
 40
0.75
 40
0.75
 40
1.0
 40
1.0
 40
1.0
 40
1.0
 10
500.3950932566482
 20
104.1316219352302
 30
0.0
 10
500.447150965539
 20
104.2264965445408
 30
0.0
 10
500.5004845038671
 20
104.3061014694165
 30
0.0
 10
500.6074165114952
 20
104.4149380843107
 30
0.0
 10
500.6611698779427
 20
104.4442616900013
 30
0.0
 10
500.7693489293664
 20
104.4441969082556
 30
0.0
 10
500.8241776259545
 20
104.4140407149293
 30
0.0
 10
500.9310846086144
 20
104.3044555135636
 30
0.0
 10
500.9835061235867
 20
104.2259125397614
 30
0.0
 10
501.0352433889888
 20
104.1316219352302
 30
0.0
  0
SPLINE
  5
38F
330
1F
100
AcDbEntity
  8
0
  6
Continuous
 62
     7
370
    25
100
AcDbSpline
210
0.0
220
0.0
230
1.0
 70
     8
 71
     3
 72
    12
 73
     8
 74
     0
 42
0.000000001
 43
0.00000001
 40
0.0
 40
0.0
 40
0.0
 40
0.0
 40
0.4999999999999958
 40
0.4999999999999958
 40
0.7499999999999979
 40
0.7499999999999979
 40
1.0
 40
1.0
 40
1.0
 40
1.0
 10
500.3950932566484
 20
104.1316219352312
 30
0.0
 10
499.7785628667281
 20
104.3221162246547
 30
0.0
 10
499.1527949942782
 20
104.443790637717
 30
0.0
 10
498.1897332848934
 20
104.4444468282483
 30
0.0
 10
497.8690402497637
 20
104.4146128264539
 30
0.0
 10
497.2390819997677
 20
104.3056829563463
 30
0.0
 10
496.9278527317368
 20
104.2269877692834
 30
0.0
 10
496.6192034014522
 20
104.1316219352307
 30
0.0
  0
SPLINE
  5
390
330
1F
100
AcDbEntity
  8
0
  6
Continuous
 62
     7
370
    25
100
AcDbSpline
210
0.0
220
0.0
230
1.0
 70
     8
 71
     3
 72
    12
 73
     8
 74
     0
 42
0.000000001
 43
0.00000001
 40
0.0
 40
0.0
 40
0.0
 40
0.0
 40
0.5
 40
0.5
 40
0.75
 40
0.75
 40
1.0
 40
1.0
 40
1.0
 40
1.0
 10
496.6192034014524
 20
104.1316219352312
 30
0.0
 10
496.1071972497475
 20
104.3221162246547
 30
0.0
 10
495.5875197034792
 20
104.443790637717
 30
0.0
 10
494.7877318459167
 20
104.4444468282483
 30
0.0
 10
494.5214078990687
 20
104.4146128264539
 30
0.0
 10
493.9982503960672
 20
104.3056829563463
 30
0.0
 10
493.739785764919
 20
104.2269877692834
 30
0.0
 10
493.4834636785969
 20
104.1316219352307
 30
0.0
  0
SPLINE
  5
391
330
1F
100
AcDbEntity
  8
0
  6
Continuous
 62
     7
370
    25
100
AcDbSpline
210
0.0
220
0.0
230
1.0
 70
     8
 71
     3
 72
     9
 73
     5
 74
     0
 42
0.000000001
 43
0.00000001
 40
0.0
 40
0.0
 40
0.0
 40
0.0
 40
0.3722348086954438
 40
0.9999999999999999
 40
0.9999999999999999
 40
0.9999999999999999
 40
0.9999999999999999
 10
493.483463678597
 20
104.1316219352302
 30
0.0
 10
493.5114299122687
 20
104.1835462440037
 30
0.0
 10
493.5865605368596
 20
104.3230396700902
 30
0.0
 10
493.6651043950162
 20
104.3310483961954
 30
0.0
 10
493.7144114951577
 20
104.3360759956709
 30
0.0
  0
LINE
  5
392
330
1F
100
AcDbEntity
  8
0
  6
Continuous
 62
     7
370
    25
100
AcDbLine
 10
500.4093535338
 20
104.6463019206
 30
0.0
 11
494.1093535338
 21
104.6463019206
 31
0.0
  0
LINE
  5
393
330
1F
100
AcDbEntity
  8
0
  6
Continuous
 62
     7
370
    25
100
AcDbLine
 10
500.3950932566
 20
104.1316219352
 30
0.0
 11
500.3950932566
 21
101.960981906
 31
0.0
  0
SPLINE
  5
394
330
1F
100
AcDbEntity
  8
0
  6
Continuous
 62
     7
370
    25
100
AcDbSpline
210
0.0
220
0.0
230
1.0
 70
     8
 71
     3
 72
    12
 73
     8
 74
     0
 42
0.000000001
 43
0.00000001
 40
0.0
 40
0.0
 40
0.0
 40
0.0
 40
0.5000000000000052
 40
0.5000000000000052
 40
0.7500000000000026
 40
0.7500000000000026
 40
1.0
 40
1.0
 40
1.0
 40
1.0
 10
496.6192034014522
 20
101.9609819060012
 30
0.0
 10
497.2357337913724
 20
101.7704876165777
 30
0.0
 10
497.8615016638222
 20
101.6488132035153
 30
0.0
 10
498.8245633732071
 20
101.6481570129841
 30
0.0
 10
499.1452564083368
 20
101.6779910147785
 30
0.0
 10
499.7752146583327
 20
101.7869208848861
 30
0.0
 10
500.0864439263637
 20
101.8656160719489
 30
0.0
 10
500.3950932566484
 20
101.9609819060017
 30
0.0
  0
LINE
  5
395
330
1F
100
AcDbEntity
  8
0
  6
Continuous
 62
     7
370
    25
100
AcDbLine
 10
496.6192034015
 20
104.1316219352
 30
0.0
 11
496.6192034015
 21
101.960981906
 31
0.0
  0
SPLINE
  5
396
330
1F
100
AcDbEntity
  8
0
  6
Continuous
 62
     7
370
    25
100
AcDbSpline
210
0.0
220
0.0
230
1.0
 70
     8
 71
     3
 72
     9
 73
     5
 74
     0
 42
0.000000001
 43
0.00000001
 40
0.0
 40
0.0
 40
0.0
 40
0.0
 40
0.6277651913045457
 40
1.0
 40
1.0
 40
1.0
 40
1.0
 10
493.7144114951577
 20
101.7565278455615
 30
0.0
 10
493.6651043950162
 20
101.761555445037
 30
0.0
 10
493.5865605368595
 20
101.7695641711421
 30
0.0
 10
493.5114299122687
 20
101.9090575972286
 30
0.0
 10
493.483463678597
 20
101.9609819060022
 30
0.0
  0
SPLINE
  5
397
330
1F
100
AcDbEntity
  8
0
  6
Continuous
 62
     7
370
    25
100
AcDbSpline
210
0.0
220
0.0
230
1.0
 70
     8
 71
     3
 72
    12
 73
     8
 74
     0
 42
0.000000001
 43
0.00000001
 40
0.0
 40
0.0
 40
0.0
 40
0.0
 40
0.5
 40
0.5
 40
0.75
 40
0.75
 40
1.0
 40
1.0
 40
1.0
 40
1.0
 10
493.4834636785969
 20
101.9609819060012
 30
0.0
 10
493.9954698303017
 20
101.7704876165777
 30
0.0
 10
494.51514737657
 20
101.6488132035153
 30
0.0
 10
495.3149352341325
 20
101.6481570129841
 30
0.0
 10
495.5812591809806
 20
101.6779910147785
 30
0.0
 10
496.104416683982
 20
101.7869208848861
 30
0.0
 10
496.3628813151303
 20
101.8656160719489
 30
0.0
 10
496.6192034014524
 20
101.9609819060017
 30
0.0
  0
SPLINE
  5
398
330
1F
100
AcDbEntity
  8
0
  6
Continuous
 62
     7
370
    25
100
AcDbSpline
210
0.0
220
0.0
230
1.0
 70
     8
 71
     3
 72
    14
 73
    10
 74
     0
 42
0.000000001
 43
0.00000001
 40
0.0
 40
0.0
 40
0.0
 40
0.0
 40
0.25
 40
0.25
 40
0.5
 40
0.5
 40
0.75
 40
0.75
 40
1.0
 40
1.0
 40
1.0
 40
1.0
 10
500.3950932566482
 20
101.9609819060022
 30
0.0
 10
500.447150965539
 20
101.8661072966916
 30
0.0
 10
500.5004845038671
 20
101.7865023718158
 30
0.0
 10
500.6074165114952
 20
101.6776657569216
 30
0.0
 10
500.6611698779427
 20
101.6483421512311
 30
0.0
 10
500.7693489293664
 20
101.6484069329767
 30
0.0
 10
500.8241776259545
 20
101.678563126303
 30
0.0
 10
500.9310846086144
 20
101.7881483276688
 30
0.0
 10
500.9835061235867
 20
101.8666913014709
 30
0.0
 10
501.0352433889888
 20
101.9609819060022
 30
0.0
  0
LINE
  5
399
330
1F
100
AcDbEntity
  8
0
  6
Continuous
 62
     7
370
    25
100
AcDbLine
 10
500.4093535338
 20
101.4463019206
 30
0.0
 11
494.1093535338
 21
101.4463019206
 31
0.0
  0
LINE
  5
39A
330
1F
100
AcDbEntity
  8
0
  6
Continuous
 62
     7
370
    25
100
AcDbLine
 10
493.4834636786
 20
104.1316219352
 30
0.0
 11
493.4834636786
 21
101.960981906
 31
0.0
  0
LINE
  5
39B
330
1F
100
AcDbEntity
  8
0
  6
Continuous
 62
     7
370
    25
100
AcDbLine
 10
501.035243389
 20
104.1316219352
 30
0.0
 11
501.035243389
 21
101.960981906
 31
0.0
  0
SPLINE
  5
39C
330
1F
100
AcDbEntity
  8
0
  6
Continuous
 62
     7
370
    25
100
AcDbSpline
210
0.0
220
0.0
230
1.0
 70
     8
 71
     3
 72
    14
 73
    10
 74
     0
 42
0.000000001
 43
0.00000001
 40
0.0
 40
0.0
 40
0.0
 40
0.0
 40
0.25
 40
0.25
 40
0.5
 40
0.5
 40
0.75
 40
0.75
 40
1.0
 40
1.0
 40
1.0
 40
1.0
 10
187.3950932566482
 20
104.1316219352302
 30
0.0
 10
187.447150965539
 20
104.2264965445408
 30
0.0
 10
187.500484503867
 20
104.3061014694166
 30
0.0
 10
187.6074165114952
 20
104.4149380843108
 30
0.0
 10
187.6611698779427
 20
104.4442616900013
 30
0.0
 10
187.7693489293664
 20
104.4441969082557
 30
0.0
 10
187.8241776259544
 20
104.4140407149293
 30
0.0
 10
187.9310846086142
 20
104.3044555135636
 30
0.0
 10
187.9835061235866
 20
104.2259125397615
 30
0.0
 10
188.0352433889888
 20
104.1316219352302
 30
0.0
  0
SPLINE
  5
39D
330
1F
100
AcDbEntity
  8
0
  6
Continuous
 62
     7
370
    25
100
AcDbSpline
210
0.0
220
0.0
230
1.0
 70
     8
 71
     3
 72
    12
 73
     8
 74
     0
 42
0.000000001
 43
0.00000001
 40
0.0
 40
0.0
 40
0.0
 40
0.0
 40
0.499999999999991
 40
0.499999999999991
 40
0.7499999999999954
 40
0.7499999999999954
 40
1.0
 40
1.0
 40
1.0
 40
1.0
 10
187.3950932566483
 20
104.1316219352312
 30
0.0
 10
186.778562866728
 20
104.3221162246547
 30
0.0
 10
186.1527949942782
 20
104.4437906377171
 30
0.0
 10
185.1897332848933
 20
104.4444468282483
 30
0.0
 10
184.8690402497636
 20
104.4146128264539
 30
0.0
 10
184.2390819997678
 20
104.3056829563463
 30
0.0
 10
183.9278527317367
 20
104.2269877692834
 30
0.0
 10
183.6192034014522
 20
104.1316219352307
 30
0.0
  0
SPLINE
  5
39E
330
1F
100
AcDbEntity
  8
0
  6
Continuous
 62
     7
370
    25
100
AcDbSpline
210
0.0
220
0.0
230
1.0
 70
     8
 71
     3
 72
    12
 73
     8
 74
     0
 42
0.000000001
 43
0.00000001
 40
0.0
 40
0.0
 40
0.0
 40
0.0
 40
0.5000000000000087
 40
0.5000000000000087
 40
0.7500000000000043
 40
0.7500000000000043
 40
1.0
 40
1.0
 40
1.0
 40
1.0
 10
183.6192034014524
 20
104.1316219352312
 30
0.0
 10
183.1071972497475
 20
104.3221162246547
 30
0.0
 10
182.5875197034792
 20
104.4437906377171
 30
0.0
 10
181.7877318459167
 20
104.4444468282483
 30
0.0
 10
181.5214078990686
 20
104.4146128264539
 30
0.0
 10
180.9982503960672
 20
104.3056829563463
 30
0.0
 10
180.7397857649189
 20
104.2269877692835
 30
0.0
 10
180.4834636785968
 20
104.1316219352307
 30
0.0
  0
SPLINE
  5
39F
330
1F
100
AcDbEntity
  8
0
  6
Continuous
 62
     7
370
    25
100
AcDbSpline
210
0.0
220
0.0
230
1.0
 70
     8
 71
     3
 72
     9
 73
     5
 74
     0
 42
0.000000001
 43
0.00000001
 40
0.0
 40
0.0
 40
0.0
 40
0.0
 40
0.372234808695443
 40
0.9999999999999999
 40
0.9999999999999999
 40
0.9999999999999999
 40
0.9999999999999999
 10
180.4834636785969
 20
104.1316219352302
 30
0.0
 10
180.5114299122687
 20
104.1835462440038
 30
0.0
 10
180.5865605368595
 20
104.3230396700903
 30
0.0
 10
180.6651043950162
 20
104.3310483961954
 30
0.0
 10
180.7144114951577
 20
104.3360759956709
 30
0.0
  0
LINE
  5
3A0
330
1F
100
AcDbEntity
  8
0
  6
Continuous
 62
     7
370
    25
100
AcDbLine
 10
187.4093535338
 20
104.6463019206
 30
0.0
 11
181.1093535338
 21
104.6463019206
 31
0.0
  0
LINE
  5
3A1
330
1F
100
AcDbEntity
  8
0
  6
Continuous
 62
     7
370
    25
100
AcDbLine
 10
187.3950932566
 20
104.1316219352
 30
0.0
 11
187.3950932566
 21
101.960981906
 31
0.0
  0
SPLINE
  5
3A2
330
1F
100
AcDbEntity
  8
0
  6
Continuous
 62
     7
370
    25
100
AcDbSpline
210
0.0
220
0.0
230
1.0
 70
     8
 71
     3
 72
    12
 73
     8
 74
     0
 42
0.000000001
 43
0.00000001
 40
0.0
 40
0.0
 40
0.0
 40
0.0
 40
0.5000000000000099
 40
0.5000000000000099
 40
0.7500000000000049
 40
0.7500000000000049
 40
1.0
 40
1.0
 40
1.0
 40
1.0
 10
183.6192034014521
 20
101.9609819060012
 30
0.0
 10
184.2357337913723
 20
101.7704876165777
 30
0.0
 10
184.8615016638222
 20
101.6488132035153
 30
0.0
 10
185.824563373207
 20
101.6481570129841
 30
0.0
 10
186.1452564083367
 20
101.6779910147785
 30
0.0
 10
186.7752146583328
 20
101.7869208848861
 30
0.0
 10
187.0864439263636
 20
101.865616071949
 30
0.0
 10
187.3950932566482
 20
101.9609819060017
 30
0.0
  0
LINE
  5
3A3
330
1F
100
AcDbEntity
  8
0
  6
Continuous
 62
     7
370
    25
100
AcDbLine
 10
183.6192034015
 20
104.1316219352
 30
0.0
 11
183.6192034015
 21
101.960981906
 31
0.0
  0
SPLINE
  5
3A4
330
1F
100
AcDbEntity
  8
0
  6
Continuous
 62
     7
370
    25
100
AcDbSpline
210
0.0
220
0.0
230
1.0
 70
     8
 71
     3
 72
     9
 73
     5
 74
     0
 42
0.000000001
 43
0.00000001
 40
0.0
 40
0.0
 40
0.0
 40
0.0
 40
0.6277651913045461
 40
1.0
 40
1.0
 40
1.0
 40
1.0
 10
180.7144114951577
 20
101.7565278455615
 30
0.0
 10
180.6651043950162
 20
101.761555445037
 30
0.0
 10
180.5865605368595
 20
101.7695641711421
 30
0.0
 10
180.5114299122687
 20
101.9090575972286
 30
0.0
 10
180.4834636785969
 20
101.9609819060022
 30
0.0
  0
SPLINE
  5
3A5
330
1F
100
AcDbEntity
  8
0
  6
Continuous
 62
     7
370
    25
100
AcDbSpline
210
0.0
220
0.0
230
1.0
 70
     8
 71
     3
 72
    12
 73
     8
 74
     0
 42
0.000000001
 43
0.00000001
 40
0.0
 40
0.0
 40
0.0
 40
0.0
 40
0.4999999999999929
 40
0.4999999999999929
 40
0.7499999999999964
 40
0.7499999999999964
 40
1.0
 40
1.0
 40
1.0
 40
1.0
 10
180.4834636785968
 20
101.9609819060012
 30
0.0
 10
180.9954698303017
 20
101.7704876165777
 30
0.0
 10
181.5151473765699
 20
101.6488132035153
 30
0.0
 10
182.3149352341326
 20
101.6481570129841
 30
0.0
 10
182.5812591809805
 20
101.6779910147785
 30
0.0
 10
183.104416683982
 20
101.7869208848861
 30
0.0
 10
183.3628813151303
 20
101.8656160719489
 30
0.0
 10
183.6192034014523
 20
101.9609819060017
 30
0.0
  0
SPLINE
  5
3A6
330
1F
100
AcDbEntity
  8
0
  6
Continuous
 62
     7
370
    25
100
AcDbSpline
210
0.0
220
0.0
230
1.0
 70
     8
 71
     3
 72
    14
 73
    10
 74
     0
 42
0.000000001
 43
0.00000001
 40
0.0
 40
0.0
 40
0.0
 40
0.0
 40
0.25
 40
0.25
 40
0.5
 40
0.5
 40
0.75
 40
0.75
 40
1.0
 40
1.0
 40
1.0
 40
1.0
 10
187.3950932566482
 20
101.9609819060022
 30
0.0
 10
187.447150965539
 20
101.8661072966916
 30
0.0
 10
187.500484503867
 20
101.7865023718158
 30
0.0
 10
187.6074165114952
 20
101.6776657569216
 30
0.0
 10
187.6611698779427
 20
101.6483421512311
 30
0.0
 10
187.7693489293664
 20
101.6484069329767
 30
0.0
 10
187.8241776259544
 20
101.6785631263031
 30
0.0
 10
187.9310846086142
 20
101.7881483276688
 30
0.0
 10
187.9835061235866
 20
101.866691301471
 30
0.0
 10
188.0352433889888
 20
101.9609819060022
 30
0.0
  0
LINE
  5
3A7
330
1F
100
AcDbEntity
  8
0
  6
Continuous
 62
     7
370
    25
100
AcDbLine
 10
187.4093535338
 20
101.4463019206
 30
0.0
 11
181.1093535338
 21
101.4463019206
 31
0.0
  0
LINE
  5
3A8
330
1F
100
AcDbEntity
  8
0
  6
Continuous
 62
     7
370
    25
100
AcDbLine
 10
180.4834636786
 20
104.1316219352
 30
0.0
 11
180.4834636786
 21
101.960981906
 31
0.0
  0
LINE
  5
3A9
330
1F
100
AcDbEntity
  8
0
  6
Continuous
 62
     7
370
    25
100
AcDbLine
 10
188.035243389
 20
104.1316219352
 30
0.0
 11
188.035243389
 21
101.960981906
 31
0.0
  0
LINE
  5
3AA
330
1F
100
AcDbEntity
  8
0
  6
Continuous
 62
     7
370
    25
100
AcDbLine
 10
667.2593535338
 20
98.7463019206
 30
0.0
 11
668.1802837663
 21
88.8463019206
 31
0.0
  0
LINE
  5
3AB
330
1F
100
AcDbEntity
  8
0
  6
Continuous
 62
     7
370
    25
100
AcDbLine
 10
163.3384233012
 20
88.8463019206
 30
0.0
 11
164.2593535338
 21
98.7463019206
 31
0.0
  0
LINE
  5
3AC
330
1F
100
AcDbEntity
  8
0
  6
Continuous
 62
     7
370
    25
100
AcDbLine
 10
163.2593535338
 20
87.9963019206
 30
0.0
 11
163.3384233012
 21
88.8463019206
 31
0.0
  0
LINE
  5
3AD
330
1F
100
AcDbEntity
  8
0
  6
Continuous
 62
     7
370
    25
100
AcDbLine
 10
668.1802837663
 20
88.8463019206
 30
0.0
 11
668.2593535338
 21
87.9963019206
 31
0.0
  0
LINE
  5
3AE
330
1F
100
AcDbEntity
  8
0
  6
Continuous
 62
     7
370
    25
100
AcDbLine
 10
164.2593535338
 20
100.5463019206
 30
0.0
 11
667.2593535338
 21
100.5463019206
 31
0.0
  0
LINE
  5
3AF
330
1F
100
AcDbEntity
  8
0
  6
Continuous
 62
     7
370
    25
100
AcDbLine
 10
667.2593535338
 20
100.5463019206
 30
0.0
 11
667.2593535338
 21
98.7463019206
 31
0.0
  0
LINE
  5
3B0
330
1F
100
AcDbEntity
  8
0
  6
Continuous
 62
     7
370
    25
100
AcDbLine
 10
164.2593535338
 20
98.7463019206
 30
0.0
 11
164.2593535338
 21
100.5463019206
 31
0.0
  0
LINE
  5
3B1
330
1F
100
AcDbEntity
  8
0
  6
Continuous
 62
     7
370
    25
100
AcDbLine
 10
646.9425613756
 20
109.7463019206
 30
0.0
 11
649.2593535338
 21
109.7463019206
 31
0.0
  0
LINE
  5
3B2
330
1F
100
AcDbEntity
  8
0
  6
Continuous
 62
     7
370
    25
100
AcDbLine
 10
645.2593535338
 20
109.7463019206
 30
0.0
 11
646.9425613756
 21
109.7463019206
 31
0.0
  0
LINE
  5
3B3
330
1F
100
AcDbEntity
  8
0
  6
Continuous
 62
     7
370
    25
100
AcDbLine
 10
333.9425613756
 20
109.7463019206
 30
0.0
 11
336.2593535338
 21
109.7463019206
 31
0.0
  0
LINE
  5
3B4
330
1F
100
AcDbEntity
  8
0
  6
Continuous
 62
     7
370
    25
100
AcDbLine
 10
332.2593535338
 20
109.7463019206
 30
0.0
 11
333.9425613756
 21
109.7463019206
 31
0.0
  0
LINE
  5
3B5
330
1F
100
AcDbEntity
  8
0
  6
Continuous
 62
     7
370
    25
100
AcDbLine
 10
496.9425613756
 20
109.7463019206
 30
0.0
 11
499.2593535338
 21
109.7463019206
 31
0.0
  0
LINE
  5
3B6
330
1F
100
AcDbEntity
  8
0
  6
Continuous
 62
     7
370
    25
100
AcDbLine
 10
495.2593535338
 20
109.7463019206
 30
0.0
 11
496.9425613756
 21
109.7463019206
 31
0.0
  0
LINE
  5
3B7
330
1F
100
AcDbEntity
  8
0
  6
Continuous
 62
     7
370
    25
100
AcDbLine
 10
183.9425613756
 20
109.7463019206
 30
0.0
 11
186.2593535338
 21
109.7463019206
 31
0.0
  0
LINE
  5
3B8
330
1F
100
AcDbEntity
  8
0
  6
Continuous
 62
     7
370
    25
100
AcDbLine
 10
182.2593535338
 20
109.7463019206
 30
0.0
 11
183.9425613756
 21
109.7463019206
 31
0.0
  0
LINE
  5
3B9
330
1F
100
AcDbEntity
  8
0
  6
Continuous
 62
     7
370
    25
100
AcDbLine
 10
668.7593535338
 20
120.9463019206
 30
0.0
 11
669.7593535338
 21
120.9463019206
 31
0.0
  0
LINE
  5
3BA
330
1F
100
AcDbEntity
  8
0
  6
Continuous
 62
     7
370
    25
100
AcDbLine
 10
669.7593535338
 20
120.9463019206
 30
0.0
 11
669.7593535338
 21
118.9463019206
 31
0.0
  0
LINE
  5
3BB
330
1F
100
AcDbEntity
  8
0
  6
Continuous
 62
     7
370
    25
100
AcDbLine
 10
669.7593535338
 20
118.9463019206
 30
0.0
 11
669.7593535338
 21
116.0463019206
 31
0.0
  0
LINE
  5
3BC
330
1F
100
AcDbEntity
  8
0
  6
Continuous
 62
     7
370
    25
100
AcDbLine
 10
669.7593535338
 20
110.0463019206
 30
0.0
 11
669.7593535338
 21
89.9463019206
 31
0.0
  0
LINE
  5
3BD
330
1F
100
AcDbEntity
  8
0
  6
Continuous
 62
     7
370
    25
100
AcDbLine
 10
667.7593535338
 20
102.5463019206
 30
0.0
 11
667.7593535338
 21
93.3713019206
 31
0.0
  0
LINE
  5
3BE
330
1F
100
AcDbEntity
  8
0
  6
Continuous
 62
     7
370
    25
100
AcDbLine
 10
669.7576864039
 20
89.8463019206
 30
0.0
 11
669.7593535338
 21
89.9463019206
 31
0.0
  0
LINE
  5
3BF
330
1F
100
AcDbEntity
  8
0
  6
Continuous
 62
     7
370
    25
100
AcDbLine
 10
669.7593535338
 20
104.9463019206
 30
0.0
 11
669.819660913
 21
104.9463019206
 31
0.0
  0
LINE
  5
3C0
330
1F
100
AcDbEntity
  8
0
  6
Continuous
 62
     7
370
    25
100
AcDbLine
 10
669.819660913
 20
120.9463019206
 30
0.0
 11
669.7593535338
 21
120.9463019206
 31
0.0
  0
LINE
  5
3C1
330
1F
100
AcDbEntity
  8
0
  6
Continuous
 62
     7
370
    25
100
AcDbLine
 10
669.819660913
 20
120.9463019206
 30
0.0
 11
671.6908596353
 21
120.9463019206
 31
0.0
  0
LWPOLYLINE
  5
3C2
330
1F
100
AcDbEntity
  8
0
  6
Continuous
 62
     7
370
    25
100
AcDbPolyline
 90
        9
 70
   128
 43
0.0
 10
672.374899922
 20
118.9463019206
 10
672.3617562797
 20
119.3364825646
 10
672.3228304556
 20
119.7116687853
 10
672.2596183473
 20
120.0574423867
 10
672.1745491606
 20
120.360515483
 10
672.0708920568
 20
120.6092411452
 10
671.9526305201
 20
120.7940609856
 10
671.8243092751
 20
120.9078724814
 10
671.6908596353
 20
120.9463019206
  0
LINE
  5
3C3
330
1F
100
AcDbEntity
  8
0
  6
Continuous
 62
     7
370
    25
100
AcDbLine
 10
672.374899922
 20
118.9463019206
 30
0.0
 11
672.374899922
 21
116.0463019206
 31
0.0
  0
LINE
  5
3C4
330
1F
100
AcDbEntity
  8
0
  6
Continuous
 62
     7
370
    25
100
AcDbLine
 10
672.374899922
 20
110.0463019206
 30
0.0
 11
672.374899922
 21
106.9463019206
 31
0.0
  0
LWPOLYLINE
  5
3C5
330
1F
100
AcDbEntity
  8
0
  6
Continuous
 62
     7
370
    25
100
AcDbPolyline
 90
        9
 70
   128
 43
0.0
 10
671.6908596353
 20
104.9463019206
 10
671.8243092751
 20
104.9847313598
 10
671.9526305201
 20
105.0985428556
 10
672.0708920568
 20
105.283362696
 10
672.1745491606
 20
105.5320883582
 10
672.2596183473
 20
105.8351614546
 10
672.3228304556
 20
106.1809350559
 10
672.3617562797
 20
106.5561212766
 10
672.374899922
 20
106.9463019206
  0
LINE
  5
3C6
330
1F
100
AcDbEntity
  8
0
  6
Continuous
 62
     7
370
    25
100
AcDbLine
 10
671.6908596353
 20
104.9463019206
 30
0.0
 11
669.819660913
 21
104.9463019206
 31
0.0
  0
LINE
  5
3C7
330
1F
100
AcDbEntity
  8
0
  6
Continuous
 62
     7
370
    25
100
AcDbLine
 10
161.7593535338
 20
120.9463019206
 30
0.0
 11
162.7593535338
 21
120.9463019206
 31
0.0
  0
LINE
  5
3C8
330
1F
100
AcDbEntity
  8
0
  6
Continuous
 62
     7
370
    25
100
AcDbLine
 10
161.7593535338
 20
118.9463019206
 30
0.0
 11
161.7593535338
 21
120.9463019206
 31
0.0
  0
LINE
  5
3C9
330
1F
100
AcDbEntity
  8
0
  6
Continuous
 62
     7
370
    25
100
AcDbLine
 10
161.7593535338
 20
89.9463019206
 30
0.0
 11
161.7593535338
 21
110.0463019206
 31
0.0
  0
LINE
  5
3CA
330
1F
100
AcDbEntity
  8
0
  6
Continuous
 62
     7
370
    25
100
AcDbLine
 10
161.7593535338
 20
116.0463019206
 30
0.0
 11
161.7593535338
 21
118.9463019206
 31
0.0
  0
LINE
  5
3CB
330
1F
100
AcDbEntity
  8
0
  6
Continuous
 62
     7
370
    25
100
AcDbLine
 10
163.7593535338
 20
93.3713019206
 30
0.0
 11
163.7593535338
 21
102.5463019206
 31
0.0
  0
LINE
  5
3CC
330
1F
100
AcDbEntity
  8
0
  6
Continuous
 62
     7
370
    25
100
AcDbLine
 10
161.7593535338
 20
89.9463019206
 30
0.0
 11
161.7610206637
 21
89.8463019206
 31
0.0
  0
LINE
  5
3CD
330
1F
100
AcDbEntity
  8
0
  6
Continuous
 62
     7
370
    25
100
AcDbLine
 10
161.6990461546
 20
104.9463019206
 30
0.0
 11
161.7593535338
 21
104.9463019206
 31
0.0
  0
LINE
  5
3CE
330
1F
100
AcDbEntity
  8
0
  6
Continuous
 62
     7
370
    25
100
AcDbLine
 10
161.7593535338
 20
120.9463019206
 30
0.0
 11
161.6990461546
 21
120.9463019206
 31
0.0
  0
LWPOLYLINE
  5
3CF
330
1F
100
AcDbEntity
  8
0
  6
Continuous
 62
     7
370
    25
100
AcDbPolyline
 90
        9
 70
   128
 43
0.0
 10
159.8278474323
 20
120.9463019206
 10
159.6943977925
 20
120.9078724814
 10
159.5660765475
 20
120.7940609856
 10
159.4478150108
 20
120.6092411452
 10
159.344157907
 20
120.360515483
 10
159.2590887203
 20
120.0574423867
 10
159.195876612
 20
119.7116687853
 10
159.1569507879
 20
119.3364825646
 10
159.1438071456
 20
118.9463019206
  0
LINE
  5
3D0
330
1F
100
AcDbEntity
  8
0
  6
Continuous
 62
     7
370
    25
100
AcDbLine
 10
159.8278474323
 20
120.9463019206
 30
0.0
 11
161.6990461546
 21
120.9463019206
 31
0.0
  0
LINE
  5
3D1
330
1F
100
AcDbEntity
  8
0
  6
Continuous
 62
     7
370
    25
100
AcDbLine
 10
161.6990461546
 20
104.9463019206
 30
0.0
 11
159.8278474323
 21
104.9463019206
 31
0.0
  0
LWPOLYLINE
  5
3D2
330
1F
100
AcDbEntity
  8
0
  6
Continuous
 62
     7
370
    25
100
AcDbPolyline
 90
        9
 70
   128
 43
0.0
 10
159.1438071456
 20
106.9463019206
 10
159.1569507879
 20
106.5561212766
 10
159.195876612
 20
106.1809350559
 10
159.2590887203
 20
105.8351614546
 10
159.344157907
 20
105.5320883582
 10
159.4478150108
 20
105.283362696
 10
159.5660765475
 20
105.0985428556
 10
159.6943977925
 20
104.9847313598
 10
159.8278474323
 20
104.9463019206
  0
LINE
  5
3D3
330
1F
100
AcDbEntity
  8
0
  6
Continuous
 62
     7
370
    25
100
AcDbLine
 10
159.1438071456
 20
106.9463019206
 30
0.0
 11
159.1438071456
 21
110.0463019206
 31
0.0
  0
LINE
  5
3D4
330
1F
100
AcDbEntity
  8
0
  6
Continuous
 62
     7
370
    25
100
AcDbLine
 10
159.1438071456
 20
116.0463019206
 30
0.0
 11
159.1438071456
 21
118.9463019206
 31
0.0
  0
SPLINE
  5
3D5
330
1F
100
AcDbEntity
  8
0
  6
Continuous
 62
     7
370
    25
100
AcDbSpline
210
0.0
220
0.0
230
1.0
 70
    24
 71
     3
 72
     9
 73
     5
 74
     0
 42
0.000000001
 43
0.00000001
 40
0.0
 40
0.0
 40
0.0
 40
0.0
 40
0.7059102712387688
 40
1.0
 40
1.0
 40
1.0
 40
1.0
 10
163.5593535337912
 20
118.8195507300067
 30
0.0
 10
163.5593535337913
 20
118.8298034993033
 30
0.0
 10
163.5593535337912
 20
118.8443276813619
 30
0.0
 10
163.5593535337912
 20
118.7492757247533
 30
0.0
 10
163.5593535337912
 20
118.7213219206161
 30
0.0
  0
SPLINE
  5
3D6
330
1F
100
AcDbEntity
  8
0
  6
Continuous
 62
     7
370
    25
100
AcDbSpline
210
0.0
220
0.0
230
1.0
 70
    24
 71
     3
 72
    12
 73
     8
 74
     0
 42
0.000000001
 43
0.00000001
 40
0.0
 40
0.0
 40
0.0
 40
0.0
 40
0.3344405486782614
 40
0.5144757571369835
 40
0.6983315710265336
 40
0.8821873849160816
 40
1.0
 40
1.0
 40
1.0
 40
1.0
 10
164.5593535337912
 20
115.5526092256732
 30
0.0
 10
164.5593535337912
 20
116.1767547611751
 30
0.0
 10
164.5593535337912
 20
117.1368887766527
 30
0.0
 10
164.5593535337912
 20
118.0447996829479
 30
0.0
 10
164.5593535337912
 20
118.5505170208641
 30
0.0
 10
164.5593535337913
 20
118.8221367550023
 30
0.0
 10
164.5593535337912
 20
118.8202770235425
 30
0.0
 10
164.5593535337912
 20
118.8195507300177
 30
0.0
  0
SPLINE
  5
3D7
330
1F
100
AcDbEntity
  8
0
  6
Continuous
 62
     7
370
    25
100
AcDbSpline
210
0.0
220
0.0
230
1.0
 70
    24
 71
     3
 72
    15
 73
    11
 74
     0
 42
0.000000001
 43
0.00000001
 40
0.0
 40
0.0
 40
0.0
 40
0.0
 40
0.0346967497918644
 40
0.2211884951269643
 40
0.4076802404620637
 40
0.5080720152630782
 40
0.6105942475634821
 40
0.713116479863886
 40
0.8135082546649006
 40
1.0
 40
1.0
 40
1.0
 40
1.0
 10
164.5593535337912
 20
107.2730531112119
 30
0.0
 10
164.5593535337912
 20
107.2663320075805
 30
0.0
 10
164.5593535337912
 20
107.2234856082277
 30
0.0
 10
164.5593535337912
 20
107.7115265709862
 30
0.0
 10
164.5593535337912
 20
108.8074376284548
 30
0.0
 10
164.5593535337912
 20
110.0263347609023
 30
0.0
 10
164.5593535337912
 20
111.1065099887592
 30
0.0
 10
164.5593535337912
 20
112.2669868912249
 30
0.0
 10
164.5593535337912
 20
113.79756178634
 30
0.0
 10
164.5593535337912
 20
114.8611876749901
 30
0.0
 10
164.5593535337912
 20
115.5526092256732
 30
0.0
  0
LINE
  5
3D8
330
1F
100
AcDbEntity
  8
0
  6
Continuous
 62
     7
370
    25
100
AcDbLine
 10
168.5593535338
 20
112.6629068929
 30
0.0
 11
168.5593535338
 21
117.1719827999
 31
0.0
  0
SPLINE
  5
3D9
330
1F
100
AcDbEntity
  8
0
  6
Continuous
 62
     7
370
    25
100
AcDbSpline
210
0.0
220
0.0
230
1.0
 70
     8
 71
     3
 72
     8
 73
     4
 74
     0
 42
0.000000001
 43
0.00000001
 40
0.0
 40
0.0
 40
0.0
 40
0.0
 40
1.0
 40
1.0
 40
1.0
 40
1.0
 10
168.5593535337842
 20
112.6629068929283
 30
0.0
 10
168.5593535337842
 20
113.6452853375011
 30
0.0
 10
168.3850382334048
 20
114.6007765056908
 30
0.0
 10
168.1127715463928
 20
115.5411591550184
 30
0.0
  0
SPLINE
  5
3DA
330
1F
100
AcDbEntity
  8
0
  6
Continuous
 62
     7
370
    25
100
AcDbSpline
210
0.0
220
0.0
230
1.0
 70
     8
 71
     3
 72
     8
 73
     4
 74
     0
 42
0.000000001
 43
0.00000001
 40
0.0
 40
0.0
 40
0.0
 40
0.0
 40
1.0
 40
1.0
 40
1.0
 40
1.0
 10
168.1127715463928
 20
115.5411591550245
 30
0.0
 10
168.3850382334042
 20
116.0739818960894
 30
0.0
 10
168.5593535337841
 20
116.615365154984
 30
0.0
 10
168.5593535337841
 20
117.1719827999124
 30
0.0
  0
SPLINE
  5
3DB
330
1F
100
AcDbEntity
  8
0
  6
Continuous
 62
     7
370
    25
100
AcDbSpline
210
0.0
220
0.0
230
1.0
 70
     8
 71
     3
 72
     8
 73
     4
 74
     0
 42
0.000000001
 43
0.00000001
 40
0.0
 40
0.0
 40
0.0
 40
0.0
 40
1.0
 40
1.0
 40
1.0
 40
1.0
 10
168.1127715463929
 20
109.7846546308383
 30
0.0
 10
168.3850382334043
 20
110.7250372801641
 30
0.0
 10
168.5593535337842
 20
111.6805284483574
 30
0.0
 10
168.5593535337842
 20
112.6629068929283
 30
0.0
  0
LINE
  5
3DC
330
1F
100
AcDbEntity
  8
0
  6
Continuous
 62
     7
370
    25
100
AcDbLine
 10
164.5593535338
 20
109.7846546308
 30
0.0
 11
168.1127715464
 21
109.7846546308
 31
0.0
  0
LINE
  5
3DD
330
1F
100
AcDbEntity
  8
0
  6
Continuous
 62
     7
370
    25
100
AcDbLine
 10
164.5593535338
 20
115.541159155
 30
0.0
 11
168.1127715464
 21
115.541159155
 31
0.0
  0
LINE
  5
3DE
330
1F
100
AcDbEntity
  8
0
  6
Continuous
 62
     7
370
    25
100
AcDbLine
 10
168.5593535338
 20
108.5372260136
 30
0.0
 11
168.5593535338
 21
112.6629068929
 31
0.0
  0
SPLINE
  5
3DF
330
1F
100
AcDbEntity
  8
0
  6
Continuous
 62
     7
370
    25
100
AcDbSpline
210
0.0
220
0.0
230
1.0
 70
     8
 71
     3
 72
     8
 73
     4
 74
     0
 42
0.000000001
 43
0.00000001
 40
0.0
 40
0.0
 40
0.0
 40
0.0
 40
1.0
 40
1.0
 40
1.0
 40
1.0
 10
168.5593535337841
 20
108.5372260136308
 30
0.0
 10
168.5593535337841
 20
108.962986813274
 30
0.0
 10
168.3850382334047
 20
109.3770947225711
 30
0.0
 10
168.1127715463928
 20
109.7846546308328
 30
0.0
  0
SPLINE
  5
3E0
330
1F
100
AcDbEntity
  8
0
  6
Continuous
 62
     7
370
    25
100
AcDbSpline
210
0.0
220
0.0
230
1.0
 70
     8
 71
     3
 72
     8
 73
     4
 74
     0
 42
0.000000001
 43
0.00000001
 40
0.0
 40
0.0
 40
0.0
 40
0.0
 40
1.0
 40
1.0
 40
1.0
 40
1.0
 10
168.5593535337841
 20
117.1719827999124
 30
0.0
 10
168.5593535337841
 20
117.7286004448418
 30
0.0
 10
168.3850382334047
 20
118.2699837037345
 30
0.0
 10
168.1127715463928
 20
118.8028064448003
 30
0.0
  0
LINE
  5
3E1
330
1F
100
AcDbEntity
  8
0
  6
Continuous
 62
     7
370
    25
100
AcDbLine
 10
164.5593535338
 20
118.8028064448
 30
0.0
 11
168.1127715464
 21
118.8028064448
 31
0.0
  0
SPLINE
  5
3E2
330
1F
100
AcDbEntity
  8
0
  6
Continuous
 62
     7
370
    25
100
AcDbSpline
210
0.0
220
0.0
230
1.0
 70
     8
 71
     3
 72
     8
 73
     4
 74
     0
 42
0.000000001
 43
0.00000001
 40
0.0
 40
0.0
 40
0.0
 40
0.0
 40
1.0
 40
1.0
 40
1.0
 40
1.0
 10
168.1127715463928
 20
107.2897973964288
 30
0.0
 10
168.3850382334043
 20
107.6973573046899
 30
0.0
 10
168.5593535337841
 20
108.1114652139882
 30
0.0
 10
168.5593535337841
 20
108.5372260136308
 30
0.0
  0
LINE
  5
3E3
330
1F
100
AcDbEntity
  8
0
  6
Continuous
 62
     7
370
    25
100
AcDbLine
 10
168.1127715464
 20
107.2897973964
 30
0.0
 11
164.5593535338
 21
107.2897973964
 31
0.0
  0
LINE
  5
3E4
330
1F
100
AcDbEntity
  8
0
  6
Continuous
 62
     7
370
    25
100
AcDbLine
 10
154.1006035338
 20
110.3408563764
 30
0.0
 11
154.1006035338
 21
110.0463019206
 31
0.0
  0
LINE
  5
3E5
330
1F
100
AcDbEntity
  8
0
  6
Continuous
 62
     7
370
    25
100
AcDbLine
 10
154.1006035338
 20
116.0463019206
 30
0.0
 11
154.1006035338
 21
110.3408563764
 31
0.0
  0
LINE
  5
3E6
330
1F
100
AcDbEntity
  8
0
  6
Continuous
 62
     7
370
    25
100
AcDbLine
 10
153.5593535338
 20
115.5050519206
 30
0.0
 11
153.5593535338
 21
110.5875519206
 31
0.0
  0
LINE
  5
3E7
330
1F
100
AcDbEntity
  8
0
  6
Continuous
 62
     7
370
    25
100
AcDbLine
 10
168.1127715464
 20
118.8028064448
 30
0.0
 11
168.1879593019
 21
118.592785977
 31
0.0
  0
LINE
  5
3E8
330
1F
100
AcDbEntity
  8
0
  6
Continuous
 62
     7
370
    25
100
AcDbLine
 10
168.5593535338
 20
117.1719827999
 30
0.0
 11
168.5593535338
 21
118.0463019206
 31
0.0
  0
LINE
  5
3E9
330
1F
100
AcDbEntity
  8
0
  6
Continuous
 62
     7
370
    25
100
AcDbLine
 10
168.5593535338
 20
108.0463019206
 30
0.0
 11
168.5593535338
 21
108.5372260136
 31
0.0
  0
ARC
  5
3EA
330
1F
100
AcDbEntity
  8
0
  6
Continuous
 62
     7
370
    25
100
AcDbCircle
 10
155.2593535338
 20
83.8463019206
 30
0.0
 40
6.0
100
AcDbArc
 50
90.0
 51
143.1301023542
  0
ARC
  5
3EB
330
1F
100
AcDbEntity
  8
0
  6
Continuous
 62
     7
370
    25
100
AcDbCircle
 10
676.2593535338
 20
83.8463019206
 30
0.0
 40
6.000000000000028
100
AcDbArc
 50
36.8698976458
 51
90.0
  0
LINE
  5
3EC
330
1F
100
AcDbEntity
  8
0
  6
Continuous
 62
     7
370
    25
100
AcDbLine
 10
58.1130817172
 20
259.1534776424
 30
0.0
 11
57.7501439388
 21
258.5248509703
 31
0.0
  0
LINE
  5
3ED
330
1F
100
AcDbEntity
  8
0
  6
Continuous
 62
     7
370
    25
100
AcDbLine
 10
57.7501439388
 20
252.2248509703
 30
0.0
 11
58.1130817172
 21
251.5962242982
 31
0.0
  0
ARC
  5
3EE
330
1F
100
AcDbEntity
  8
0
  6
Continuous
 62
     7
370
    25
100
AcDbCircle
 10
60.9783471691
 20
255.3748509703
 30
0.0
 40
8.000000000000016
100
AcDbArc
 50
195.2747479997
 51
210.0
  0
ARC
  5
3EF
330
1F
100
AcDbEntity
  8
0
  6
Continuous
 62
     7
370
    25
100
AcDbCircle
 10
60.9783471691
 20
255.3748509703
 30
0.0
 40
8.00000000000003
100
AcDbArc
 50
150.0
 51
164.7252520003
  0
LINE
  5
3F0
330
1F
100
AcDbEntity
  8
0
  6
Continuous
 62
     7
370
    25
100
AcDbLine
 10
56.0501439388
 20
259.3748509703
 30
0.0
 11
54.0501439388
 21
259.3748509703
 31
0.0
  0
LINE
  5
3F1
330
1F
100
AcDbEntity
  8
0
  6
Continuous
 62
     7
370
    25
100
AcDbLine
 10
54.0501439388
 20
251.3748509703
 30
0.0
 11
56.0501439388
 21
251.3748509703
 31
0.0
  0
LINE
  5
3F2
330
1F
100
AcDbEntity
  8
0
  6
Continuous
 62
     7
370
    25
100
AcDbLine
 10
57.7501439388
 20
257.3748509703
 30
0.0
 11
57.6501439388
 21
257.3748509703
 31
0.0
  0
LINE
  5
3F3
330
1F
100
AcDbEntity
  8
0
  6
Continuous
 62
     7
370
    25
100
AcDbLine
 10
57.6501439388
 20
253.3748509703
 30
0.0
 11
57.7501439388
 21
253.3748509703
 31
0.0
  0
CIRCLE
  5
3F4
330
1F
100
AcDbEntity
  8
0
  6
Continuous
 62
     7
370
    25
100
AcDbCircle
 10
69.3501439388
 20
280.3748509703
 30
0.0
 40
2.458750000016595
  0
CIRCLE
  5
3F5
330
1F
100
AcDbEntity
  8
0
  6
Continuous
 62
     7
370
    25
100
AcDbCircle
 10
69.3501439388
 20
280.3748509703
 30
0.0
 40
2.999999999999968
  0
LINE
  5
3F6
330
1F
100
AcDbEntity
  8
0
  6
Continuous
 62
     7
370
    25
100
AcDbLine
 10
50.7501439388
 20
207.8455616485
 30
0.0
 11
50.7501439388
 21
250.9041402922
 31
0.0
  0
LINE
  5
3F7
330
1F
100
AcDbEntity
  8
0
  6
Continuous
 62
     7
370
    25
100
AcDbLine
 10
41.1501439388
 20
250.9041402922
 30
0.0
 11
50.7501439388
 21
250.9041402922
 31
0.0
  0
LINE
  5
3F8
330
1F
100
AcDbEntity
  8
0
  6
Continuous
 62
     7
370
    25
100
AcDbLine
 10
41.1501439388
 20
207.8455616485
 30
0.0
 11
50.7501439388
 21
207.8455616485
 31
0.0
  0
SPLINE
  5
3F9
330
1F
100
AcDbEntity
  8
0
  6
Continuous
 62
     7
370
    25
100
AcDbSpline
210
0.0
220
0.0
230
1.0
 70
     8
 71
     3
 72
    20
 73
    16
 74
     0
 42
0.000000001
 43
0.00000001
 40
0.0
 40
0.0
 40
0.0
 40
0.0
 40
0.1249999999999948
 40
0.1249999999999948
 40
0.2499999999999896
 40
0.2499999999999896
 40
0.3749999999999845
 40
0.3749999999999845
 40
0.4999999999999792
 40
0.4999999999999792
 40
0.7499999999999977
 40
0.7499999999999977
 40
0.874999999999999
 40
0.874999999999999
 40
1.0
 40
1.0
 40
1.0
 40
1.0
 10
38.75014393881532
 20
249.9748509703418
 30
0.0
 10
38.75014393881532
 20
250.0138917011963
 30
0.0
 10
38.76568049929016
 20
250.0524104053962
 30
0.0
 10
38.82699885125076
 20
250.129817156704
 30
0.0
 10
38.8734225968376
 20
250.1689615746908
 30
0.0
 10
38.99337346699171
 20
250.2461123286059
 30
0.0
 10
39.06697811127511
 20
250.2844399103469
 30
0.0
 10
39.24170847737076
 20
250.3619862308235
 30
0.0
 10
39.34255910627234
 20
250.4009624384921
 30
0.0
 10
39.67384438625628
 20
250.5164572949372
 30
0.0
 10
39.94152454764011
 20
250.5943697386073
 30
0.0
 10
40.37419857369554
 20
250.7098496640082
 30
0.0
 10
40.52571666054666
 20
250.7487154598732
 30
0.0
 10
40.83514241793279
 20
250.8264897935417
 30
0.0
 10
40.99176474762656
 20
250.8650995604965
 30
0.0
 10
41.1501439388153
 20
250.9041402922231
 30
0.0
  0
SPLINE
  5
3FA
330
1F
100
AcDbEntity
  8
0
  6
Continuous
 62
     7
370
    25
100
AcDbSpline
210
0.0
220
0.0
230
1.0
 70
     8
 71
     3
 72
    20
 73
    16
 74
     0
 42
0.000000001
 43
0.00000001
 40
0.0
 40
0.0
 40
0.0
 40
0.0
 40
0.1249999999999998
 40
0.1249999999999998
 40
0.2499999999999997
 40
0.2499999999999997
 40
0.3749999999999995
 40
0.3749999999999995
 40
0.4999999999999993
 40
0.4999999999999993
 40
0.7499999999999997
 40
0.7499999999999997
 40
0.8749999999999998
 40
0.8749999999999998
 40
1.0
 40
1.0
 40
1.0
 40
1.0
 10
41.1501439388153
 20
207.8455616484605
 30
0.0
 10
40.9917647511646
 20
207.884602379315
 30
0.0
 10
40.83551902647292
 20
207.9231210835148
 30
0.0
 10
40.5275271770563
 20
208.0005278348227
 30
0.0
 10
40.37488306958519
 20
208.0396722528095
 30
0.0
 10
40.08579878039811
 20
208.1168230067246
 30
0.0
 10
39.94799424221407
 20
208.1551505884657
 30
0.0
 10
39.68637556657516
 20
208.2326969089422
 30
0.0
 10
39.56362925989252
 20
208.2716731166109
 30
0.0
 10
39.23230488294482
 20
208.3871679730559
 30
0.0
 10
39.05329375891657
 20
208.465080416726
 30
0.0
 10
38.87367865953569
 20
208.5805603421269
 30
0.0
 10
38.82743431066798
 20
208.6194261379919
 30
0.0
 10
38.76568100465677
 20
208.6972004716604
 30
0.0
 10
38.75014393881532
 20
208.7358102386152
 30
0.0
 10
38.75014393881532
 20
208.7748509703418
 30
0.0
  0
LINE
  5
3FB
330
1F
100
AcDbEntity
  8
0
  6
Continuous
 62
     7
370
    25
100
AcDbLine
 10
38.7501439388
 20
208.7748509703
 30
0.0
 11
38.7501439388
 21
249.9748509703
 31
0.0
  0
SPLINE
  5
3FC
330
1F
100
AcDbEntity
  8
0
  6
Continuous
 62
     7
370
    25
100
AcDbSpline
210
0.0
220
0.0
230
1.0
 70
     8
 71
     3
 72
    20
 73
    16
 74
     0
 42
0.000000001
 43
0.00000001
 40
0.0
 40
0.0
 40
0.0
 40
0.0
 40
0.1249999999999997
 40
0.1249999999999997
 40
0.2499999999999993
 40
0.2499999999999993
 40
0.374999999999999
 40
0.374999999999999
 40
0.4999999999999987
 40
0.4999999999999987
 40
0.7499999999999998
 40
0.7499999999999998
 40
0.8749999999999999
 40
0.8749999999999999
 40
1.0
 40
1.0
 40
1.0
 40
1.0
 10
38.75014393881538
 20
208.774850970342
 30
0.0
 10
38.75014393881537
 20
208.6164717826913
 30
0.0
 10
38.76568049929022
 20
208.4602260579995
 30
0.0
 10
38.8269988512508
 20
208.1522342085829
 30
0.0
 10
38.87342259683761
 20
207.9995901011117
 30
0.0
 10
38.99337346699172
 20
207.7105058119247
 30
0.0
 10
39.06697811127513
 20
207.5727012737406
 30
0.0
 10
39.24170847737076
 20
207.3110825981017
 30
0.0
 10
39.34255910627231
 20
207.1883362914191
 30
0.0
 10
39.67384438625621
 20
206.8570119144714
 30
0.0
 10
39.94152454764011
 20
206.6780007904431
 30
0.0
 10
40.37419857369552
 20
206.4983856910622
 30
0.0
 10
40.52571666054666
 20
206.4521413421945
 30
0.0
 10
40.83514241793279
 20
206.3903880361833
 30
0.0
 10
40.99176474762655
 20
206.3748509703419
 30
0.0
 10
41.15014393881529
 20
206.3748509703419
 30
0.0
  0
SPLINE
  5
3FD
330
1F
100
AcDbEntity
  8
0
  6
Continuous
 62
     7
370
    25
100
AcDbSpline
210
0.0
220
0.0
230
1.0
 70
     8
 71
     3
 72
     9
 73
     5
 74
     0
 42
0.000000001
 43
0.00000001
 40
0.0
 40
0.0
 40
0.0
 40
0.0
 40
0.425869494152208
 40
1.0
 40
1.0
 40
1.0
 40
1.0
 10
40.59375251180636
 20
207.964929533019
 30
0.0
 10
40.66415668841115
 20
207.9150079081745
 30
0.0
 10
40.82947535427368
 20
207.7977850839761
 30
0.0
 10
41.03318691653002
 20
207.7832156988145
 30
0.0
 10
41.1501439388153
 20
207.7748509703418
 30
0.0
  0
LINE
  5
3FE
330
1F
100
AcDbEntity
  8
0
  6
Continuous
 62
     7
370
    25
100
AcDbLine
 10
41.1501439388
 20
206.3748509703
 30
0.0
 11
41.1501439388
 21
207.7748509703
 31
0.0
  0
SPLINE
  5
3FF
330
1F
100
AcDbEntity
  8
0
  6
Continuous
 62
     7
370
    25
100
AcDbSpline
210
0.0
220
0.0
230
1.0
 70
     8
 71
     3
 72
    20
 73
    16
 74
     0
 42
0.000000001
 43
0.00000001
 40
0.0
 40
0.0
 40
0.0
 40
0.0
 40
0.1249999999999999
 40
0.1249999999999999
 40
0.2499999999999999
 40
0.2499999999999999
 40
0.3749999999999999
 40
0.3749999999999999
 40
0.4999999999999999
 40
0.4999999999999999
 40
0.7499999999999999
 40
0.7499999999999999
 40
0.8749999999999999
 40
0.8749999999999999
 40
1.0
 40
1.0
 40
1.0
 40
1.0
 10
41.1501439388153
 20
252.3748509703417
 30
0.0
 10
40.9917647511646
 20
252.3748509703417
 30
0.0
 10
40.83551902647297
 20
252.3593144098669
 30
0.0
 10
40.52752717705632
 20
252.2979960579063
 30
0.0
 10
40.37488306958519
 20
252.2515723123195
 30
0.0
 10
40.08579878039815
 20
252.1316214421653
 30
0.0
 10
39.94799424221407
 20
252.0580167978819
 30
0.0
 10
39.68637556657519
 20
251.8832864317863
 30
0.0
 10
39.56362925989254
 20
251.7824358028848
 30
0.0
 10
39.23230488294487
 20
251.4511505229008
 30
0.0
 10
39.05329375891661
 20
251.183470361517
 30
0.0
 10
38.87367865953572
 20
250.7507963354616
 30
0.0
 10
38.827434310668
 20
250.5992782486105
 30
0.0
 10
38.76568100465678
 20
250.2898524912243
 30
0.0
 10
38.75014393881533
 20
250.1332301615305
 30
0.0
 10
38.75014393881533
 20
249.9748509703418
 30
0.0
  0
LINE
  5
400
330
1F
100
AcDbEntity
  8
0
  6
Continuous
 62
     7
370
    25
100
AcDbLine
 10
41.1501439388
 20
252.3748509703
 30
0.0
 11
41.1501439388
 21
250.9748509703
 31
0.0
  0
SPLINE
  5
401
330
1F
100
AcDbEntity
  8
0
  6
Continuous
 62
     7
370
    25
100
AcDbSpline
210
0.0
220
0.0
230
1.0
 70
     8
 71
     3
 72
     9
 73
     5
 74
     0
 42
0.000000001
 43
0.00000001
 40
0.0
 40
0.0
 40
0.0
 40
0.0
 40
0.7584558214375715
 40
1.0
 40
1.0
 40
1.0
 40
1.0
 10
41.1501439388153
 20
250.9748509703417
 30
0.0
 10
40.99843616087905
 20
250.9637964345083
 30
0.0
 10
40.79841425630891
 20
250.9492213788215
 30
0.0
 10
40.64786016491742
 20
250.8261249952217
 30
0.0
 10
40.61149470058305
 20
250.7963917803611
 30
0.0
  0
LINE
  5
402
330
1F
100
AcDbEntity
  8
0
  6
Continuous
 62
     7
370
    25
100
AcDbLine
 10
41.1501439388
 20
250.9748509703
 30
0.0
 11
50.7501439388
 21
250.9748509703
 31
0.0
  0
LINE
  5
403
330
1F
100
AcDbEntity
  8
0
  6
Continuous
 62
     7
370
    25
100
AcDbLine
 10
41.1501439388
 20
252.3748509703
 30
0.0
 11
50.7501439388
 21
252.3748509703
 31
0.0
  0
LINE
  5
404
330
1F
100
AcDbEntity
  8
0
  6
Continuous
 62
     7
370
    25
100
AcDbLine
 10
50.7501439388
 20
252.3748509703
 30
0.0
 11
50.7501439388
 21
250.9748509703
 31
0.0
  0
LINE
  5
405
330
1F
100
AcDbEntity
  8
0
  6
Continuous
 62
     7
370
    25
100
AcDbLine
 10
41.1501439388
 20
207.7748509703
 30
0.0
 11
50.7501439388
 21
207.7748509703
 31
0.0
  0
LINE
  5
406
330
1F
100
AcDbEntity
  8
0
  6
Continuous
 62
     7
370
    25
100
AcDbLine
 10
50.7501439388
 20
206.3748509703
 30
0.0
 11
50.7501439388
 21
207.7748509703
 31
0.0
  0
LINE
  5
407
330
1F
100
AcDbEntity
  8
0
  6
Continuous
 62
     7
370
    25
100
AcDbLine
 10
41.1501439388
 20
206.3748509703
 30
0.0
 11
50.7501439388
 21
206.3748509703
 31
0.0
  0
ARC
  5
408
330
1F
100
AcDbEntity
  8
0
  6
Continuous
 62
     7
370
    25
100
AcDbCircle
 10
74.8501439388
 20
283.8748509703
 30
0.0
 40
3.0
100
AcDbArc
 50
0.0
 51
90.0
  0
LINE
  5
409
330
1F
100
AcDbEntity
  8
0
  6
Continuous
 62
     7
370
    25
100
AcDbLine
 10
77.8501439388
 20
249.6748509703
 30
0.0
 11
77.8501439388
 21
283.8748509703
 31
0.0
  0
LINE
  5
40A
330
1F
100
AcDbEntity
  8
0
  6
Continuous
 62
     7
370
    25
100
AcDbLine
 10
58.8501439388
 20
266.8748509703
 30
0.0
 11
58.8501439388
 21
249.6748509703
 31
0.0
  0
LINE
  5
40B
330
1F
100
AcDbEntity
  8
0
  6
Continuous
 62
     7
370
    25
100
AcDbLine
 10
54.8501439388
 20
266.8748509703
 30
0.0
 11
58.8501439388
 21
266.8748509703
 31
0.0
  0
LINE
  5
40C
330
1F
100
AcDbEntity
  8
0
  6
Continuous
 62
     7
370
    25
100
AcDbLine
 10
54.8501439388
 20
283.8748509703
 30
0.0
 11
54.8501439388
 21
266.8748509703
 31
0.0
  0
ARC
  5
40D
330
1F
100
AcDbEntity
  8
0
  6
Continuous
 62
     7
370
    25
100
AcDbCircle
 10
57.8501439388
 20
283.8748509703
 30
0.0
 40
3.0
100
AcDbArc
 50
90.0
 51
180.0
  0
LINE
  5
40E
330
1F
100
AcDbEntity
  8
0
  6
Continuous
 62
     7
370
    25
100
AcDbLine
 10
74.8501439388
 20
286.8748509703
 30
0.0
 11
57.8501439388
 21
286.8748509703
 31
0.0
  0
CIRCLE
  5
40F
330
1F
100
AcDbEntity
  8
0
  6
Continuous
 62
     7
370
    25
100
AcDbCircle
 10
69.3501439388
 20
280.3748509703
 30
0.0
 40
3.25
  0
CIRCLE
  5
410
330
1F
100
AcDbEntity
  8
0
  6
Continuous
 62
     7
370
    25
100
AcDbCircle
 10
69.3501439388
 20
255.3748509703
 30
0.0
 40
3.250000000000028
  0
LINE
  5
411
330
1F
100
AcDbEntity
  8
0
  6
Continuous
 62
     7
370
    25
100
AcDbLine
 10
58.8501439388
 20
247.8748509703
 30
0.0
 11
58.8501439388
 21
249.6748509703
 31
0.0
  0
LINE
  5
412
330
1F
100
AcDbEntity
  8
0
  6
Continuous
 62
     7
370
    25
100
AcDbLine
 10
77.8501439388
 20
249.6748509703
 30
0.0
 11
77.8501439388
 21
247.8748509703
 31
0.0
  0
LINE
  5
413
330
1F
100
AcDbEntity
  8
0
  6
Continuous
 62
     7
370
    25
100
AcDbLine
 10
77.8501439388
 20
247.8748509703
 30
0.0
 11
58.8501439388
 21
247.8748509703
 31
0.0
  0
LINE
  5
414
330
1F
100
AcDbEntity
  8
0
  6
Continuous
 62
     7
370
    25
100
AcDbLine
 10
58.6501439388
 20
247.8748509703
 30
0.0
 11
58.8501439388
 21
247.8748509703
 31
0.0
  0
LINE
  5
415
330
1F
100
AcDbEntity
  8
0
  6
Continuous
 62
     7
370
    25
100
AcDbLine
 10
58.6501439388
 20
248.6748509703
 30
0.0
 11
58.8501439388
 21
248.6748509703
 31
0.0
  0
ARC
  5
416
330
1F
100
AcDbEntity
  8
0
  6
Continuous
 62
     7
370
    25
100
AcDbCircle
 10
58.6501439388
 20
249.6748509703
 30
0.0
 40
1.799999999999997
100
AcDbArc
 50
180.0
 51
270.0
  0
ARC
  5
417
330
1F
100
AcDbEntity
  8
0
  6
Continuous
 62
     7
370
    25
100
AcDbCircle
 10
58.6501439388
 20
249.6748509703
 30
0.0
 40
1.0
100
AcDbArc
 50
180.0
 51
270.0
  0
LINE
  5
418
330
1F
100
AcDbEntity
  8
0
  6
Continuous
 62
     7
370
    25
100
AcDbLine
 10
57.6501439388
 20
249.6748509703
 30
0.0
 11
57.6501439388
 21
259.8748509703
 31
0.0
  0
LINE
  5
419
330
1F
100
AcDbEntity
  8
0
  6
Continuous
 62
     7
370
    25
100
AcDbLine
 10
56.8501439388
 20
259.8748509703
 30
0.0
 11
57.6501439388
 21
259.8748509703
 31
0.0
  0
LINE
  5
41A
330
1F
100
AcDbEntity
  8
0
  6
Continuous
 62
     7
370
    25
100
AcDbLine
 10
101.8501439388
 20
248.6748509703
 30
0.0
 11
101.8501439388
 21
247.8748509703
 31
0.0
  0
LINE
  5
41B
330
1F
100
AcDbEntity
  8
0
  6
Continuous
 62
     7
370
    25
100
AcDbLine
 10
101.8501439388
 20
247.8748509703
 30
0.0
 11
98.8501439388
 21
247.8748509703
 31
0.0
  0
LINE
  5
41C
330
1F
100
AcDbEntity
  8
0
  6
Continuous
 62
     7
370
    25
100
AcDbLine
 10
98.8501439388
 20
248.6748509703
 30
0.0
 11
101.8501439388
 21
248.6748509703
 31
0.0
  0
LINE
  5
41D
330
1F
100
AcDbEntity
  8
0
  6
Continuous
 62
     7
370
    25
100
AcDbLine
 10
77.8501439388
 20
247.8748509703
 30
0.0
 11
98.8501439388
 21
247.8748509703
 31
0.0
  0
LINE
  5
41E
330
1F
100
AcDbEntity
  8
0
  6
Continuous
 62
     7
370
    25
100
AcDbLine
 10
77.8501439388
 20
248.6748509703
 30
0.0
 11
98.8501439388
 21
248.6748509703
 31
0.0
  0
LINE
  5
41F
330
1F
100
AcDbEntity
  8
0
  6
Continuous
 62
     7
370
    25
100
AcDbLine
 10
100.7547573306
 20
252.8748509703
 30
0.0
 11
100.7547573306
 21
252.0748509703
 31
0.0
  0
LINE
  5
420
330
1F
100
AcDbEntity
  8
0
  6
Continuous
 62
     7
370
    25
100
AcDbLine
 10
100.7547573306
 20
252.0748509703
 30
0.0
 11
97.7547573306
 21
252.0748509703
 31
0.0
  0
LINE
  5
421
330
1F
100
AcDbEntity
  8
0
  6
Continuous
 62
     7
370
    25
100
AcDbLine
 10
97.7547573306
 20
252.8748509703
 30
0.0
 11
100.7547573306
 21
252.8748509703
 31
0.0
  0
LINE
  5
422
330
1F
100
AcDbEntity
  8
0
  6
Continuous
 62
     7
370
    25
100
AcDbLine
 10
91.237065877
 20
252.0748509703
 30
0.0
 11
97.7547573306
 21
252.0748509703
 31
0.0
  0
LINE
  5
423
330
1F
100
AcDbEntity
  8
0
  6
Continuous
 62
     7
370
    25
100
AcDbLine
 10
91.237065877
 20
252.8748509703
 30
0.0
 11
97.7547573306
 21
252.8748509703
 31
0.0
  0
LINE
  5
424
330
1F
100
AcDbEntity
  8
0
  6
Continuous
 62
     7
370
    25
100
AcDbLine
 10
90.737065877
 20
251.9408763741
 30
0.0
 11
85.0801439388
 21
248.6748509703
 31
0.0
  0
LINE
  5
425
330
1F
100
AcDbEntity
  8
0
  6
Continuous
 62
     7
370
    25
100
AcDbLine
 10
90.337065877
 20
252.6336966972
 30
0.0
 11
83.7121947464
 21
248.8088255666
 31
0.0
  0
ARC
  5
426
330
1F
100
AcDbEntity
  8
0
  6
Continuous
 62
     7
370
    25
100
AcDbCircle
 10
91.237065877
 20
251.0748509703
 30
0.0
 40
1.800000000000011
100
AcDbArc
 50
90.0
 51
120.0
  0
ARC
  5
427
330
1F
100
AcDbEntity
  8
0
  6
Continuous
 62
     7
370
    25
100
AcDbCircle
 10
91.237065877
 20
251.0748509703
 30
0.0
 40
0.9999999999999432
100
AcDbArc
 50
90.0
 51
120.0
  0
ARC
  5
428
330
1F
100
AcDbEntity
  8
0
  6
Continuous
 62
     7
370
    25
100
AcDbCircle
 10
83.2121947464
 20
249.6748509703
 30
0.0
 40
0.9999999999999716
100
AcDbArc
 50
270.0
 51
300.0
  0
CIRCLE
  5
429
330
1F
100
AcDbEntity
  8
0
  6
Continuous
 62
     7
370
    25
100
AcDbCircle
 10
69.3501439388
 20
255.3748509703
 30
0.0
 40
2.458750000016595
  0
CIRCLE
  5
42A
330
1F
100
AcDbEntity
  8
0
  6
Continuous
 62
     7
370
    25
100
AcDbCircle
 10
69.3501439388
 20
255.3748509703
 30
0.0
 40
3.000000000000047
  0
LINE
  5
42B
330
1F
100
AcDbEntity
  8
0
  6
Continuous
 62
     7
370
    25
100
AcDbLine
 10
58.8501439388
 20
253.9340216485
 30
0.0
 11
58.2648239242
 21
253.9340216485
 31
0.0
  0
SPLINE
  5
42C
330
1F
100
AcDbEntity
  8
0
  6
Continuous
 62
     7
370
    25
100
AcDbSpline
210
0.0
220
0.0
230
1.0
 70
     8
 71
     3
 72
    14
 73
    10
 74
     0
 42
0.000000001
 43
0.00000001
 40
0.0
 40
0.0
 40
0.0
 40
0.0
 40
0.25
 40
0.25
 40
0.5
 40
0.5
 40
0.75
 40
0.75
 40
1.0
 40
1.0
 40
1.0
 40
1.0
 10
58.26482392420129
 20
257.9244528458982
 30
0.0
 10
58.16994931489068
 20
257.5999466166095
 30
0.0
 10
58.09034439001493
 20
257.2674873942152
 30
0.0
 10
57.9815077751207
 20
256.600917479307
 30
0.0
 10
57.95218416943021
 20
256.2658412220318
 30
0.0
 10
57.9522489511758
 20
255.5914977518042
 30
0.0
 10
57.98240514450216
 20
255.2497183311253
 30
0.0
 10
58.09199034586788
 20
254.5833044115204
 30
0.0
 10
58.17053331967005
 20
254.2565303655677
 30
0.0
 10
58.26482392420131
 20
253.9340216484713
 30
0.0
  0
LINE
  5
42D
330
1F
100
AcDbEntity
  8
0
  6
Continuous
 62
     7
370
    25
100
AcDbLine
 10
58.8501439388
 20
257.9244528459
 30
0.0
 11
58.2648239242
 21
257.9244528459
 31
0.0
  0
SPLINE
  5
42E
330
1F
100
AcDbEntity
  8
0
  6
Continuous
 62
     7
370
    25
100
AcDbSpline
210
0.0
220
0.0
230
1.0
 70
     8
 71
     3
 72
    12
 73
     8
 74
     0
 42
0.000000001
 43
0.00000001
 40
0.0
 40
0.0
 40
0.0
 40
0.0
 40
0.4999999999999913
 40
0.4999999999999913
 40
0.7499999999999957
 40
0.7499999999999957
 40
1.0
 40
1.0
 40
1.0
 40
1.0
 10
58.26482392420032
 20
253.9340216484715
 30
0.0
 10
58.0743296347768
 20
253.5177205648169
 30
0.0
 10
57.95265522171443
 20
253.0951820368284
 30
0.0
 10
57.9519990311832
 20
252.4448918973676
 30
0.0
 10
57.98183303297759
 20
252.2283496794532
 30
0.0
 10
58.09076290308518
 20
251.802981674213
 30
0.0
 10
58.16945809014805
 20
251.5928296952277
 30
0.0
 10
58.2648239242008
 20
251.3844197729149
 30
0.0
  0
LINE
  5
42F
330
1F
100
AcDbEntity
  8
0
  6
Continuous
 62
     7
370
    25
100
AcDbLine
 10
58.2648239242
 20
251.3844197729
 30
0.0
 11
58.166948887
 21
251.6273245232
 31
0.0
  0
SPLINE
  5
430
330
1F
100
AcDbEntity
  8
0
  6
Continuous
 62
     7
370
    25
100
AcDbSpline
210
0.0
220
0.0
230
1.0
 70
     8
 71
     3
 72
    12
 73
     8
 74
     0
 42
0.000000001
 43
0.00000001
 40
0.0
 40
0.0
 40
0.0
 40
0.0
 40
0.5000000000000099
 40
0.5000000000000099
 40
0.7500000000000049
 40
0.7500000000000049
 40
1.0
 40
1.0
 40
1.0
 40
1.0
 10
58.26482392420032
 20
259.3652821677688
 30
0.0
 10
58.07432963477681
 20
259.1300223753257
 30
0.0
 10
57.95265522171443
 20
258.8912376824753
 30
0.0
 10
57.9519990311832
 20
258.5237461499182
 30
0.0
 10
57.98183303297759
 20
258.4013739552689
 30
0.0
 10
58.09076290308518
 20
258.1609902701094
 30
0.0
 10
58.16945809014805
 20
258.0422293230478
 30
0.0
 10
58.2648239242008
 20
257.9244528458982
 30
0.0
  0
LINE
  5
431
330
1F
100
AcDbEntity
  8
0
  6
Continuous
 62
     7
370
    25
100
AcDbLine
 10
57.7501439388
 20
252.2248509703
 30
0.0
 11
57.7501439388
 21
258.5248509703
 31
0.0
  0
LINE
  5
432
330
1F
100
AcDbEntity
  8
0
  6
Continuous
 62
     7
370
    25
100
AcDbLine
 10
58.8501439388
 20
251.3844197729
 30
0.0
 11
58.2648239242
 21
251.3844197729
 31
0.0
  0
LINE
  5
433
330
1F
100
AcDbEntity
  8
0
  6
Continuous
 62
     7
370
    25
100
AcDbLine
 10
58.8501439388
 20
259.3652821678
 30
0.0
 11
58.2648239242
 21
259.3652821678
 31
0.0
  0
LINE
  5
434
330
1F
100
AcDbEntity
  8
0
  6
Continuous
 62
     7
370
    25
100
AcDbLine
 10
55.0501439388
 20
265.3748509703
 30
0.0
 11
45.1501439388
 21
265.3748509703
 31
0.0
  0
LINE
  5
435
330
1F
100
AcDbEntity
  8
0
  6
Continuous
 62
     7
370
    25
100
AcDbLine
 10
55.0501439388
 20
264.5748509703
 30
0.0
 11
55.0501439388
 21
265.3748509703
 31
0.0
  0
LINE
  5
436
330
1F
100
AcDbEntity
  8
0
  6
Continuous
 62
     7
370
    25
100
AcDbLine
 10
45.1501439388
 20
264.5748509703
 30
0.0
 11
55.0501439388
 21
264.5748509703
 31
0.0
  0
LINE
  5
437
330
1F
100
AcDbEntity
  8
0
  6
Continuous
 62
     7
370
    25
100
AcDbLine
 10
45.1501439388
 20
264.5748509703
 30
0.0
 11
45.1501439388
 21
264.4748509703
 31
0.0
  0
LINE
  5
438
330
1F
100
AcDbEntity
  8
0
  6
Continuous
 62
     7
370
    25
100
AcDbLine
 10
45.1501439388
 20
264.4748509703
 30
0.0
 11
50.3001439388
 21
264.4748509703
 31
0.0
  0
LINE
  5
439
330
1F
100
AcDbEntity
  8
0
  6
Continuous
 62
     7
370
    25
100
AcDbLine
 10
50.3001439388
 20
263.6748509703
 30
0.0
 11
50.3001439388
 21
264.4748509703
 31
0.0
  0
LINE
  5
43A
330
1F
100
AcDbEntity
  8
0
  6
Continuous
 62
     7
370
    25
100
AcDbLine
 10
45.1501439388
 20
263.6748509703
 30
0.0
 11
50.3001439388
 21
263.6748509703
 31
0.0
  0
ARC
  5
43B
330
1F
100
AcDbEntity
  8
0
  6
Continuous
 62
     7
370
    25
100
AcDbCircle
 10
45.1501439388
 20
264.5248509703
 30
0.0
 40
0.8500000000000227
100
AcDbArc
 50
90.0
 51
270.0
  0
LINE
  5
43C
330
1F
100
AcDbEntity
  8
0
  6
Continuous
 62
     7
370
    25
100
AcDbLine
 10
55.0501439388
 20
246.1748509703
 30
0.0
 11
50.7501439388
 21
246.1748509703
 31
0.0
  0
LINE
  5
43D
330
1F
100
AcDbEntity
  8
0
  6
Continuous
 62
     7
370
    25
100
AcDbLine
 10
55.0501439388
 20
245.3748509703
 30
0.0
 11
55.0501439388
 21
246.1748509703
 31
0.0
  0
LINE
  5
43E
330
1F
100
AcDbEntity
  8
0
  6
Continuous
 62
     7
370
    25
100
AcDbLine
 10
55.0501439388
 20
245.3748509703
 30
0.0
 11
50.7501439388
 21
245.3748509703
 31
0.0
  0
LINE
  5
43F
330
1F
100
AcDbEntity
  8
0
  6
Continuous
 62
     7
370
    25
100
AcDbLine
 10
56.8501439388
 20
247.1748509703
 30
0.0
 11
56.8501439388
 21
263.5748509703
 31
0.0
  0
ARC
  5
440
330
1F
100
AcDbEntity
  8
0
  6
Continuous
 62
     7
370
    25
100
AcDbCircle
 10
55.0501439388
 20
247.1748509703
 30
0.0
 40
1.800000000000125
100
AcDbArc
 50
270.0
 51
0.0
  0
LINE
  5
441
330
1F
100
AcDbEntity
  8
0
  6
Continuous
 62
     7
370
    25
100
AcDbLine
 10
56.0501439388
 20
247.1748509703
 30
0.0
 11
56.0501439388
 21
263.5748509703
 31
0.0
  0
ARC
  5
442
330
1F
100
AcDbEntity
  8
0
  6
Continuous
 62
     7
370
    25
100
AcDbCircle
 10
55.0501439388
 20
263.5748509703
 30
0.0
 40
1.000000000000007
100
AcDbArc
 50
360.0
 51
90.0
  0
ARC
  5
443
330
1F
100
AcDbEntity
  8
0
  6
Continuous
 62
     7
370
    25
100
AcDbCircle
 10
55.0501439388
 20
247.1748509703
 30
0.0
 40
1.000000000000028
100
AcDbArc
 50
270.0
 51
0.0
  0
ARC
  5
444
330
1F
100
AcDbEntity
  8
0
  6
Continuous
 62
     7
370
    25
100
AcDbCircle
 10
55.0501439388
 20
263.5748509703
 30
0.0
 40
1.800000000000011
100
AcDbArc
 50
0.0
 51
90.0
  0
LWPOLYLINE
  5
445
330
1F
100
AcDbEntity
  8
0
  6
Continuous
 62
     7
370
    25
100
AcDbPolyline
 90
        3
 70
   128
 43
0.0
 10
53.0403414403
 20
256.0623140102
 10
53.0396992972
 20
256.0559370441
 10
53.0234744486
 20
255.8722387153
  0
ARC
  5
446
330
1F
100
AcDbEntity
  8
0
  6
Continuous
 62
     7
370
    25
100
AcDbCircle
 10
53.547867373
 20
256.1853665528
 30
0.0
 40
0.6107675350082997
100
AcDbArc
 50
210.8424581413
 51
243.3898036633
  0
ARC
  5
447
330
1F
100
AcDbEntity
  8
0
  6
Continuous
 62
     7
370
    25
100
AcDbCircle
 10
62.4308012945
 20
255.0438536015
 30
0.0
 40
9.175815043693934
100
AcDbArc
 50
177.9327321271
 51
179.6562101043
  0
ARC
  5
448
330
1F
100
AcDbEntity
  8
0
  6
Continuous
 62
     7
370
    25
100
AcDbCircle
 10
60.7871238366
 20
255.2807136953
 30
0.0
 40
7.786288415096914
100
AcDbArc
 50
184.3702527064
 51
195.2299003794
  0
ARC
  5
449
330
1F
100
AcDbEntity
  8
0
  6
Continuous
 62
     7
370
    25
100
AcDbCircle
 10
53.4954155038
 20
253.330349854
 30
0.0
 40
0.2406805056721378
100
AcDbArc
 50
156.7420981705
 51
203.2579018295
  0
ARC
  5
44A
330
1F
100
AcDbEntity
  8
0
  6
Continuous
 62
     7
370
    25
100
AcDbCircle
 10
60.7871238366
 20
255.4707889902
 30
0.0
 40
7.786288415099969
100
AcDbArc
 50
184.3702527064
 51
195.2299003794
  0
ARC
  5
44B
330
1F
100
AcDbEntity
  8
0
  6
Continuous
 62
     7
370
    25
100
AcDbCircle
 10
53.547867373
 20
254.5643353879
 30
0.0
 40
0.6107675350079513
100
AcDbArc
 50
116.6101963367
 51
149.1575418587
  0
ARC
  5
44C
330
1F
100
AcDbEntity
  8
0
  6
Continuous
 62
     7
370
    25
100
AcDbCircle
 10
62.3539295145
 20
255.702832483
 30
0.0
 40
9.09894271025047
100
AcDbArc
 50
176.2668736478
 51
183.7331263522
  0
ARC
  5
44D
330
1F
100
AcDbEntity
  8
0
  6
Continuous
 62
     7
370
    25
100
AcDbCircle
 10
53.547867373
 20
255.7491861727
 30
0.0
 40
0.6107675350082924
100
AcDbArc
 50
116.6101963367
 51
149.1575418587
  0
ARC
  5
44E
330
1F
100
AcDbEntity
  8
0
  6
Continuous
 62
     7
370
    25
100
AcDbCircle
 10
60.7871238366
 20
255.4689882454
 30
0.0
 40
7.786288415098229
100
AcDbArc
 50
164.7700996206
 51
175.6297472936
  0
ARC
  5
44F
330
1F
100
AcDbEntity
  8
0
  6
Continuous
 62
     7
370
    25
100
AcDbCircle
 10
53.4073777174
 20
257.4404533472
 30
0.0
 40
0.1522432420612915
100
AcDbArc
 50
150.9451665856
 51
179.144911656
  0
LINE
  5
450
330
1F
100
AcDbEntity
  8
0
  6
Continuous
 62
     7
370
    25
100
AcDbLine
 10
54.0501439388
 20
259.3748509703
 30
0.0
 11
54.0501439388
 21
251.3748509703
 31
0.0
  0
LINE
  5
451
330
1F
100
AcDbEntity
  8
0
  6
Continuous
 62
     7
370
    25
100
AcDbLine
 10
53.0234744486
 20
256.0623140102
 30
0.0
 11
53.2620301064
 21
256.0623140102
 31
0.0
  0
LINE
  5
452
330
1F
100
AcDbEntity
  8
0
  6
Continuous
 62
     7
370
    25
100
AcDbLine
 10
53.0234744486
 20
254.6873879305
 30
0.0
 11
53.0403414403
 21
254.6873879305
 31
0.0
  0
LINE
  5
453
330
1F
100
AcDbEntity
  8
0
  6
Continuous
 62
     7
370
    25
100
AcDbLine
 10
53.0234744486
 20
255.8722387153
 30
0.0
 11
53.2565247649
 21
255.8722387153
 31
0.0
  0
ARC
  5
454
330
1F
100
AcDbEntity
  8
0
  6
Continuous
 62
     7
370
    25
100
AcDbCircle
 10
75.308632828
 20
216.6303241467
 30
0.0
 40
1.942508566655257
100
AcDbArc
 50
268.2745645851
 51
358.1637932023
  0
LINE
  5
455
330
1F
100
AcDbEntity
  8
0
  6
Continuous
 62
     7
370
    25
100
AcDbLine
 10
77.2501439388
 20
216.5680815709
 30
0.0
 11
77.2501439388
 21
215.8840412842
 31
0.0
  0
ARC
  5
456
330
1F
100
AcDbEntity
  8
0
  6
Continuous
 62
     7
370
    25
100
AcDbCircle
 10
75.308632828
 20
215.9462838601
 30
0.0
 40
1.942508566655243
100
AcDbArc
 50
268.2745645851
 51
358.1637932023
  0
LINE
  5
457
330
1F
100
AcDbEntity
  8
0
  6
Continuous
 62
     7
370
    25
100
AcDbLine
 10
77.2501439388
 20
221.7091578077
 30
0.0
 11
77.2501439388
 21
216.5680815709
 31
0.0
  0
LINE
  5
458
330
1F
100
AcDbEntity
  8
0
  6
Continuous
 62
     7
370
    25
100
AcDbLine
 10
75.2501439388
 20
214.6886963293
 30
0.0
 11
63.2501439388
 21
214.6886963293
 31
0.0
  0
ARC
  5
459
330
1F
100
AcDbEntity
  8
0
  6
Continuous
 62
     7
370
    25
100
AcDbCircle
 10
63.1916550496
 20
216.6303241467
 30
0.0
 40
1.942508566655235
100
AcDbArc
 50
181.8362067977
 51
271.7254354149
  0
LINE
  5
45A
330
1F
100
AcDbEntity
  8
0
  6
Continuous
 62
     7
370
    25
100
AcDbLine
 10
61.2501439388
 20
216.5680815709
 30
0.0
 11
61.2501439388
 21
221.7091578077
 31
0.0
  0
LINE
  5
45B
330
1F
100
AcDbEntity
  8
0
  6
Continuous
 62
     7
370
    25
100
AcDbLine
 10
75.2501439388
 20
214.0046560426
 30
0.0
 11
63.2501439388
 21
214.0046560426
 31
0.0
  0
LINE
  5
45C
330
1F
100
AcDbEntity
  8
0
  6
Continuous
 62
     7
370
    25
100
AcDbLine
 10
61.2501439388
 20
215.8840412842
 30
0.0
 11
61.2501439388
 21
216.5680815709
 31
0.0
  0
ARC
  5
45D
330
1F
100
AcDbEntity
  8
0
  6
Continuous
 62
     7
370
    25
100
AcDbCircle
 10
63.1916550496
 20
215.9462838601
 30
0.0
 40
1.942508566655243
100
AcDbArc
 50
181.8362067977
 51
271.7254354149
  0
LINE
  5
45E
330
1F
100
AcDbEntity
  8
0
  6
Continuous
 62
     7
370
    25
100
AcDbLine
 10
77.2501439388
 20
221.7091578077
 30
0.0
 11
77.2501439388
 21
222.0511779511
 31
0.0
  0
LINE
  5
45F
330
1F
100
AcDbEntity
  8
0
  6
Continuous
 62
     7
370
    25
100
AcDbLine
 10
61.2501439388
 20
222.0511779511
 30
0.0
 11
61.2501439388
 21
221.7091578077
 31
0.0
  0
LINE
  5
460
330
1F
100
AcDbEntity
  8
0
  6
Continuous
 62
     7
370
    25
100
AcDbLine
 10
50.7501439388
 20
221.8748509703
 30
0.0
 11
61.2501439388
 21
221.8748509703
 31
0.0
  0
CIRCLE
  5
461
330
1F
100
AcDbEntity
  8
0
  6
Continuous
 62
     7
370
    25
100
AcDbCircle
 10
69.3501439388
 20
229.3748509703
 30
0.0
 40
3.499999999999986
  0
LINE
  5
462
330
1F
100
AcDbEntity
  8
0
  6
Continuous
 62
     7
370
    25
100
AcDbLine
 10
77.2501439388
 20
222.0511779511
 30
0.0
 11
77.2501439388
 21
234.8748509703
 31
0.0
  0
ARC
  5
463
330
1F
100
AcDbEntity
  8
0
  6
Continuous
 62
     7
370
    25
100
AcDbCircle
 10
75.2501439388
 20
234.8748509703
 30
0.0
 40
2.0
100
AcDbArc
 50
0.0
 51
90.0
  0
LINE
  5
464
330
1F
100
AcDbEntity
  8
0
  6
Continuous
 62
     7
370
    25
100
AcDbLine
 10
75.2501439388
 20
236.8748509703
 30
0.0
 11
50.7501439388
 21
236.8748509703
 31
0.0
  0
CIRCLE
  5
465
330
1F
100
AcDbEntity
  8
0
  6
Continuous
 62
     7
370
    25
100
AcDbCircle
 10
69.3501439388
 20
229.3748509703
 30
0.0
 40
2.458750000016617
  0
CIRCLE
  5
466
330
1F
100
AcDbEntity
  8
0
  6
Continuous
 62
     7
370
    25
100
AcDbCircle
 10
69.3501439388
 20
229.3748509703
 30
0.0
 40
2.999999999999997
  0
ENDSEC
  0
SECTION
  2
OBJECTS
  0
DICTIONARY
  5
C
330
0
100
AcDbDictionary
281
     1
  3
ACAD_GROUP
350
D
  3
ACAD_LAYOUT
350
1A
  3
ACAD_MLINESTYLE
350
17
  3
ACAD_PLOTSETTINGS
350
19
  3
ACAD_PLOTSTYLENAME
350
E
  3
ACAD_SCALELIST
350
47
  0
DICTIONARY
  5
D
102
{ACAD_REACTORS
330
C
102
}
330
C
100
AcDbDictionary
281
     1
  0
DICTIONARY
  5
1A
102
{ACAD_REACTORS
330
C
102
}
330
C
100
AcDbDictionary
281
     1
  3
Layout1
350
1E
  3
Layout2
350
26
  3
Model
350
22
  0
DICTIONARY
  5
17
102
{ACAD_REACTORS
330
C
102
}
330
C
100
AcDbDictionary
281
     1
  3
Standard
350
18
  0
DICTIONARY
  5
19
102
{ACAD_REACTORS
330
C
102
}
330
C
100
AcDbDictionary
281
     1
  0
ACDBDICTIONARYWDFLT
  5
E
102
{ACAD_REACTORS
330
C
102
}
330
C
100
AcDbDictionary
281
     1
  3
Normal
350
F
100
AcDbDictionaryWithDefault
340
F
  0
DICTIONARY
  5
47
102
{ACAD_REACTORS
330
C
102
}
330
C
100
AcDbDictionary
281
     1
  3
A0
350
48
  3
A1
350
49
  3
A2
350
4A
  3
A3
350
4B
  3
A4
350
4C
  3
A5
350
4D
  3
A6
350
4E
  3
A7
350
4F
  3
A8
350
50
  3
A9
350
51
  3
B0
350
52
  3
B1
350
53
  3
B2
350
54
  3
B3
350
55
  3
B4
350
56
  3
B5
350
57
  3
B6
350
58
  3
B7
350
59
  3
B8
350
5A
  3
B9
350
5B
  3
C0
350
5C
  3
C1
350
5D
  3
C2
350
5E
  3
C3
350
5F
  3
C4
350
60
  3
C5
350
61
  3
C6
350
62
  3
C7
350
63
  3
C8
350
64
  3
C9
350
65
  3
D0
350
66
  3
D1
350
67
  3
D2
350
68
  0
LAYOUT
  5
1E
102
{ACAD_REACTORS
330
1A
102
}
330
1A
100
AcDbPlotSettings
  1

  2
none_device
  4

  6

 40
0.0
 41
0.0
 42
0.0
 43
0.0
 44
0.0
 45
0.0
 46
0.0
 47
0.0
 48
0.0
 49
0.0
140
0.0
141
0.0
142
1.0
143
1.0
 70
   688
 72
     1
 73
     0
 74
     5
  7

 75
    16
147
1.0
148
0.0
149
0.0
100
AcDbLayout
  1
Layout1
 70
     1
 71
     1
 10
0.0
 20
0.0
 11
420.0
 21
297.0
 12
0.0
 22
0.0
 32
0.0
 14
1.0000000000E+20
 24
1.0000000000E+20
 34
1.0000000000E+20
 15
-1.0000000000E+20
 25
-1.0000000000E+20
 35
-1.0000000000E+20
146
0.0
 13
0.0
 23
0.0
 33
0.0
 16
1.0
 26
0.0
 36
0.0
 17
0.0
 27
1.0
 37
0.0
 76
     0
330
1B
  0
LAYOUT
  5
26
102
{ACAD_REACTORS
330
1A
102
}
330
1A
100
AcDbPlotSettings
  1

  2
none_device
  4

  6

 40
0.0
 41
0.0
 42
0.0
 43
0.0
 44
0.0
 45
0.0
 46
0.0
 47
0.0
 48
0.0
 49
0.0
140
0.0
141
0.0
142
1.0
143
1.0
 70
   688
 72
     1
 73
     0
 74
     5
  7

 75
    16
147
1.0
148
0.0
149
0.0
100
AcDbLayout
  1
Layout2
 70
     1
 71
     2
 10
0.0
 20
0.0
 11
0.0
 21
0.0
 12
0.0
 22
0.0
 32
0.0
 14
0.0
 24
0.0
 34
0.0
 15
0.0
 25
0.0
 35
0.0
146
0.0
 13
0.0
 23
0.0
 33
0.0
 16
1.0
 26
0.0
 36
0.0
 17
0.0
 27
1.0
 37
0.0
 76
     0
330
23
  0
LAYOUT
  5
22
102
{ACAD_REACTORS
330
1A
102
}
330
1A
100
AcDbPlotSettings
  1

  2
none_device
  4
Letter_(8.50_x_11.00_Inches)
  6

 40
6.35
 41
6.35
 42
6.35000508
 43
6.35000508
 44
215.9
 45
279.4
 46
0.0
 47
0.0
 48
0.0
 49
0.0
140
0.0
141
0.0
142
1.0
143
1.0
 70
  1712
 72
     1
 73
     0
 74
     0
  7

 75
     0
147
1.0
148
0.0
149
0.0
100
AcDbLayout
  1
Model
 70
     1
 71
     0
 10
0.0
 20
0.0
 11
841.0
 21
594.0
 12
0.0
 22
0.0
 32
0.0
 14
0.0
 24
0.0
 34
0.0
 15
841.0
 25
594.0
 35
0.0
146
0.0
 13
0.0
 23
0.0
 33
0.0
 16
1.0
 26
0.0
 36
0.0
 17
0.0
 27
1.0
 37
0.0
 76
     0
330
1F
331
29
  0
MLINESTYLE
  5
18
102
{ACAD_REACTORS
330
17
102
}
330
17
100
AcDbMlineStyle
  2
Standard
 70
     0
  3

 62
   256
 51
90.0
 52
90.0
 71
     2
 49
0.5
 62
   256
  6
BYLAYER
 49
-0.5
 62
   256
  6
BYLAYER
  0
ACDBPLACEHOLDER
  5
F
102
{ACAD_REACTORS
330
E
102
}
330
E
  0
SCALE
  5
48
102
{ACAD_REACTORS
330
47
102
}
330
47
100
AcDbScale
 70
     0
300
1:1
140
1.0
141
1.0
290
     1
  0
SCALE
  5
49
102
{ACAD_REACTORS
330
47
102
}
330
47
100
AcDbScale
 70
     0
300
1:2
140
1.0
141
2.0
290
     0
  0
SCALE
  5
4A
102
{ACAD_REACTORS
330
47
102
}
330
47
100
AcDbScale
 70
     0
300
1:4
140
1.0
141
4.0
290
     0
  0
SCALE
  5
4B
102
{ACAD_REACTORS
330
47
102
}
330
47
100
AcDbScale
 70
     0
300
1:5
140
1.0
141
5.0
290
     0
  0
SCALE
  5
4C
102
{ACAD_REACTORS
330
47
102
}
330
47
100
AcDbScale
 70
     0
300
1:8
140
1.0
141
8.0
290
     0
  0
SCALE
  5
4D
102
{ACAD_REACTORS
330
47
102
}
330
47
100
AcDbScale
 70
     0
300
1:10
140
1.0
141
10.0
290
     0
  0
SCALE
  5
4E
102
{ACAD_REACTORS
330
47
102
}
330
47
100
AcDbScale
 70
     0
300
1:16
140
1.0
141
16.0
290
     0
  0
SCALE
  5
4F
102
{ACAD_REACTORS
330
47
102
}
330
47
100
AcDbScale
 70
     0
300
1:20
140
1.0
141
20.0
290
     0
  0
SCALE
  5
50
102
{ACAD_REACTORS
330
47
102
}
330
47
100
AcDbScale
 70
     0
300
1:30
140
1.0
141
30.0
290
     0
  0
SCALE
  5
51
102
{ACAD_REACTORS
330
47
102
}
330
47
100
AcDbScale
 70
     0
300
1:40
140
1.0
141
40.0
290
     0
  0
SCALE
  5
52
102
{ACAD_REACTORS
330
47
102
}
330
47
100
AcDbScale
 70
     0
300
1:50
140
1.0
141
50.0
290
     0
  0
SCALE
  5
53
102
{ACAD_REACTORS
330
47
102
}
330
47
100
AcDbScale
 70
     0
300
1:100
140
1.0
141
100.0
290
     0
  0
SCALE
  5
54
102
{ACAD_REACTORS
330
47
102
}
330
47
100
AcDbScale
 70
     0
300
2:1
140
2.0
141
1.0
290
     0
  0
SCALE
  5
55
102
{ACAD_REACTORS
330
47
102
}
330
47
100
AcDbScale
 70
     0
300
4:1
140
4.0
141
1.0
290
     0
  0
SCALE
  5
56
102
{ACAD_REACTORS
330
47
102
}
330
47
100
AcDbScale
 70
     0
300
8:1
140
8.0
141
1.0
290
     0
  0
SCALE
  5
57
102
{ACAD_REACTORS
330
47
102
}
330
47
100
AcDbScale
 70
     0
300
10:1
140
10.0
141
1.0
290
     0
  0
SCALE
  5
58
102
{ACAD_REACTORS
330
47
102
}
330
47
100
AcDbScale
 70
     0
300
100:1
140
100.0
141
1.0
290
     0
  0
SCALE
  5
59
102
{ACAD_REACTORS
330
47
102
}
330
47
100
AcDbScale
 70
     0
300
1/128" = 1'-0"
140
0.0078125
141
12.0
290
     0
  0
SCALE
  5
5A
102
{ACAD_REACTORS
330
47
102
}
330
47
100
AcDbScale
 70
     0
300
1/64" = 1'-0"
140
0.015625
141
12.0
290
     0
  0
SCALE
  5
5B
102
{ACAD_REACTORS
330
47
102
}
330
47
100
AcDbScale
 70
     0
300
1/32" = 1'-0"
140
0.03125
141
12.0
290
     0
  0
SCALE
  5
5C
102
{ACAD_REACTORS
330
47
102
}
330
47
100
AcDbScale
 70
     0
300
1/16" = 1'-0"
140
0.0625
141
12.0
290
     0
  0
SCALE
  5
5D
102
{ACAD_REACTORS
330
47
102
}
330
47
100
AcDbScale
 70
     0
300
3/32" = 1'-0"
140
0.09375
141
12.0
290
     0
  0
SCALE
  5
5E
102
{ACAD_REACTORS
330
47
102
}
330
47
100
AcDbScale
 70
     0
300
1/8" = 1'-0"
140
0.125
141
12.0
290
     0
  0
SCALE
  5
5F
102
{ACAD_REACTORS
330
47
102
}
330
47
100
AcDbScale
 70
     0
300
3/16" = 1'-0"
140
0.1875
141
12.0
290
     0
  0
SCALE
  5
60
102
{ACAD_REACTORS
330
47
102
}
330
47
100
AcDbScale
 70
     0
300
1/4" = 1'-0"
140
0.25
141
12.0
290
     0
  0
SCALE
  5
61
102
{ACAD_REACTORS
330
47
102
}
330
47
100
AcDbScale
 70
     0
300
3/8" = 1'-0"
140
0.375
141
12.0
290
     0
  0
SCALE
  5
62
102
{ACAD_REACTORS
330
47
102
}
330
47
100
AcDbScale
 70
     0
300
1/2" = 1'-0"
140
0.5
141
12.0
290
     0
  0
SCALE
  5
63
102
{ACAD_REACTORS
330
47
102
}
330
47
100
AcDbScale
 70
     0
300
3/4" = 1'-0"
140
0.75
141
12.0
290
     0
  0
SCALE
  5
64
102
{ACAD_REACTORS
330
47
102
}
330
47
100
AcDbScale
 70
     0
300
1" = 1'-0"
140
1.0
141
12.0
290
     0
  0
SCALE
  5
65
102
{ACAD_REACTORS
330
47
102
}
330
47
100
AcDbScale
 70
     0
300
1-1/2" = 1'-0"
140
1.5
141
12.0
290
     0
  0
SCALE
  5
66
102
{ACAD_REACTORS
330
47
102
}
330
47
100
AcDbScale
 70
     0
300
3" = 1'-0"
140
3.0
141
12.0
290
     0
  0
SCALE
  5
67
102
{ACAD_REACTORS
330
47
102
}
330
47
100
AcDbScale
 70
     0
300
6" = 1'-0"
140
6.0
141
12.0
290
     0
  0
SCALE
  5
68
102
{ACAD_REACTORS
330
47
102
}
330
47
100
AcDbScale
 70
     0
300
1'-0" = 1'-0"
140
12.0
141
12.0
290
     0
  0
ENDSEC
  0
EOF
